  0
SECTION
  2
HEADER
  9
$FILLMODE
 70
1
  9
$TEXTSTYLE
  7
STANDARD1
  9
$ACADVER
  1
AC1009
  9
$DIMASZ
 40
1.931851648807023
  9
$DIMEXE
 40
2.000000000000000
  9
$DIMEXO
 40
1.000000000000000
  9
$DIMLFAC
 40
1.000000000000000
  9
$DIMSCALE
 40
1.000000000000000
  9
$DIMTAD
 70
1
  9
$DIMTFAC
 40
0.714285731315613
  9
$DIMTXT
 40
2.799999952316284
  9
$LUPREC
 70
3
  9
$TEXTSIZE
 40
3.299999952316284
  9
$REGENMODE
 70
1
  0
ENDSEC
  0
SECTION
  2
TABLES
  0
TABLE
  2
LTYPE
 70
4
  0
LTYPE
  2
CONTINUOUS
 70
64
  3
Solid line
 72
65
 73
0
 40
0.0
  0
LTYPE
  2
DASHED
 70
64
  3
-- -- -- -- -- -- -- -- -- -- -- -- -- -- --
 72
65
 73
2
 40
0.75
 49
0.5
 49
-0.25
  0
LTYPE
  2
DASHDOT
 70
64
  3
__ . __ . __ . __ . __ . __ . __ . __ . __ . __
 72
65
 73
4
 40
1.0
 49
0.5
 49
-0.25
 49
0.0
 49
-0.25
  0
LTYPE
  2
DIVIDE
 70
64
  3
__ . . __ . . __ . . __ . . __ . . __ . . __
 72
65
 73
6
 40
1.25
 49
0.5
 49
-0.25
 49
0.0
 49
-0.25
 49
0.0
 49
-0.25
  0
ENDTAB
  0
TABLE
  2
LAYER
 70
1
  0
LAYER
  2
0
 70
64
 62
2
  6
CONTINUOUS
  0
ENDTAB
  0
TABLE
  2
STYLE
 70
4
  0
STYLE
  2
STANDARD1
 70
64
 40
0.0
 41
1.0
 50
0.0
 71
0
 42
3.299999952316284
  3
MONOTXT
  4
BIGFONT
  0
STYLE
  2
STANDARD2
 70
68
 40
0.0
 41
1.0
 50
0.0
 71
0
 42
3.299999952316284
  3
MONOTXT
  4
BIGFONT
  0
STYLE
  2
STANDARD3
 70
64
 40
0.0
 41
1.0
 50
0.0
 71
0
 42
3.299999952316284
  3
MONOTXT
  4

  0
STYLE
  2
STANDARD4
 70
68
 40
0.0
 41
1.0
 50
0.0
 71
0
 42
3.299999952316284
  3
MONOTXT
  4

  0
ENDTAB
  0
TABLE
  2
VIEW
 70
0
  0
ENDTAB
  0
ENDSEC
  0
SECTION
  2
BLOCKS
  0
BLOCK
  8
0
  2
SYM1
 70
64
 10
0.000000000000000
 20
0.000000000000000
  0
LINE
  8
0
  6
CONTINUOUS
 62
3
 10
-7.499999046325684
 20
6.500000000000000
 11
-7.499999046325684
 21
-6.500000000000000
  0
LINE
  8
0
  6
CONTINUOUS
 62
3
 10
-7.499997911632022
 20
-6.499999445138201
 11
-7.999998623386432
 21
-5.634070287011241
  0
LINE
  8
0
  6
CONTINUOUS
 62
3
 10
-7.499999203818277
 20
6.499999909101064
 11
-7.999999021366804
 21
5.633876130311293
  0
LINE
  8
0
  6
CONTINUOUS
 62
3
 10
-0.000000000000000
 20
-6.500000000000000
 11
-7.499998092651367
 21
-6.500000000000000
  0
LINE
  8
0
  6
CONTINUOUS
 62
3
 10
0.000000000000000
 20
6.500000000000000
 11
-7.499999046325684
 21
6.500000000000000
  0
LINE
  8
0
  6
CONTINUOUS
 62
3
 10
-7.999999046325684
 20
5.633875846862793
 11
-7.999999046325684
 21
-5.634070396423340
  0
LINE
  8
0
  6
CONTINUOUS
 62
3
 10
0.000000000000000
 20
-6.500000000000000
 11
-0.000000000000000
 21
6.500000000000000
  0
POINT
  8
0
  6
CONTINUOUS
 62
3
 10
0.000000000000000
 20
0.000000000000000
  0
ENDBLK
  8
0
  0
BLOCK
  8
0
  2
SYM2
 70
64
 10
0.000000000000000
 20
0.000000000000000
  0
POINT
  8
0
  6
CONTINUOUS
 62
3
 10
0.000000000000000
 20
0.000000000000000
  0
LINE
  8
0
  6
CONTINUOUS
 62
3
 10
0.000000000000000
 20
5.000000000000000
 11
0.000000000000000
 21
-5.000000000000000
  0
LINE
  8
0
  6
CONTINUOUS
 62
3
 10
-6.000000000000000
 20
-5.000000000000000
 11
-6.000000000000000
 21
5.000000000000000
  0
LINE
  8
0
  6
CONTINUOUS
 62
3
 10
0.000000000000000
 20
5.000000000000000
 11
-6.000000000000000
 21
5.000000000000000
  0
LINE
  8
0
  6
CONTINUOUS
 62
3
 10
-0.000000000000000
 20
-5.000000000000000
 11
-6.000000000000000
 21
-5.000000000000000
  0
ENDBLK
  8
0
  0
BLOCK
  8
0
  2
SYM3
 70
64
 10
0.000000000000000
 20
0.000000000000000
  0
LINE
  8
0
  6
CONTINUOUS
 62
3
 10
-7.499999046325684
 20
6.500000000000000
 11
-7.499999046325684
 21
-6.500000000000000
  0
LINE
  8
0
  6
CONTINUOUS
 62
3
 10
-7.499997911632022
 20
-6.499999445138201
 11
-7.999998623386432
 21
-5.634070287011241
  0
LINE
  8
0
  6
CONTINUOUS
 62
3
 10
-7.499999203818277
 20
6.499999909101064
 11
-7.999999021366804
 21
5.633876130311293
  0
LINE
  8
0
  6
CONTINUOUS
 62
3
 10
-0.000000000000000
 20
-6.500000000000000
 11
-7.499998092651367
 21
-6.500000000000000
  0
LINE
  8
0
  6
CONTINUOUS
 62
3
 10
0.000000000000000
 20
6.500000000000000
 11
-7.499999046325684
 21
6.500000000000000
  0
LINE
  8
0
  6
CONTINUOUS
 62
3
 10
-7.999999046325684
 20
5.633875846862793
 11
-7.999999046325684
 21
-5.634070396423340
  0
LINE
  8
0
  6
CONTINUOUS
 62
3
 10
0.000000000000000
 20
-6.500000000000000
 11
-0.000000000000000
 21
6.500000000000000
  0
POINT
  8
0
  6
CONTINUOUS
 62
3
 10
0.000000000000000
 20
0.000000000000000
  0
ENDBLK
  8
0
  0
BLOCK
  8
0
  2
SYM4
 70
64
 10
0.000000000000000
 20
0.000000000000000
  0
LINE
  8
0
  6
CONTINUOUS
 62
3
 10
-7.499999046325684
 20
6.500000000000000
 11
-7.499999046325684
 21
-6.500000000000000
  0
LINE
  8
0
  6
CONTINUOUS
 62
3
 10
-7.499997911632022
 20
-6.499999445138201
 11
-7.999998623386432
 21
-5.634070287011241
  0
LINE
  8
0
  6
CONTINUOUS
 62
3
 10
-7.499999203818277
 20
6.499999909101064
 11
-7.999999021366804
 21
5.633876130311293
  0
LINE
  8
0
  6
CONTINUOUS
 62
3
 10
-0.000000000000000
 20
-6.500000000000000
 11
-7.499998092651367
 21
-6.500000000000000
  0
LINE
  8
0
  6
CONTINUOUS
 62
3
 10
0.000000000000000
 20
6.500000000000000
 11
-7.499999046325684
 21
6.500000000000000
  0
LINE
  8
0
  6
CONTINUOUS
 62
3
 10
-7.999999046325684
 20
5.633875846862793
 11
-7.999999046325684
 21
-5.634070396423340
  0
LINE
  8
0
  6
CONTINUOUS
 62
3
 10
0.000000000000000
 20
-6.500000000000000
 11
-0.000000000000000
 21
6.500000000000000
  0
POINT
  8
0
  6
CONTINUOUS
 62
3
 10
0.000000000000000
 20
0.000000000000000
  0
ENDBLK
  8
0
  0
BLOCK
  8
0
  2
SYM5
 70
64
 10
0.000000000000000
 20
0.000000000000000
  0
POINT
  8
0
  6
CONTINUOUS
 62
3
 10
0.000000000000000
 20
0.000000000000000
  0
LINE
  8
0
  6
CONTINUOUS
 62
3
 10
0.000000000000000
 20
5.000000000000000
 11
0.000000000000000
 21
-5.000000000000000
  0
LINE
  8
0
  6
CONTINUOUS
 62
3
 10
-6.000000000000000
 20
-5.000000000000000
 11
-6.000000000000000
 21
5.000000000000000
  0
LINE
  8
0
  6
CONTINUOUS
 62
3
 10
0.000000000000000
 20
5.000000000000000
 11
-6.000000000000000
 21
5.000000000000000
  0
LINE
  8
0
  6
CONTINUOUS
 62
3
 10
-0.000000000000000
 20
-5.000000000000000
 11
-6.000000000000000
 21
-5.000000000000000
  0
ENDBLK
  8
0
  0
BLOCK
  8
0
  2
SYM6
 70
64
 10
0.000000000000000
 20
0.000000000000000
  0
LINE
  8
0
  6
CONTINUOUS
 62
3
 10
-7.499999046325684
 20
6.500000000000000
 11
-7.499999046325684
 21
-6.500000000000000
  0
LINE
  8
0
  6
CONTINUOUS
 62
3
 10
-7.499997911632022
 20
-6.499999445138201
 11
-7.999998623386432
 21
-5.634070287011241
  0
LINE
  8
0
  6
CONTINUOUS
 62
3
 10
-7.499999203818277
 20
6.499999909101064
 11
-7.999999021366804
 21
5.633876130311293
  0
LINE
  8
0
  6
CONTINUOUS
 62
3
 10
-0.000000000000000
 20
-6.500000000000000
 11
-7.499998092651367
 21
-6.500000000000000
  0
LINE
  8
0
  6
CONTINUOUS
 62
3
 10
0.000000000000000
 20
6.500000000000000
 11
-7.499999046325684
 21
6.500000000000000
  0
LINE
  8
0
  6
CONTINUOUS
 62
3
 10
-7.999999046325684
 20
5.633875846862793
 11
-7.999999046325684
 21
-5.634070396423340
  0
LINE
  8
0
  6
CONTINUOUS
 62
3
 10
0.000000000000000
 20
-6.500000000000000
 11
-0.000000000000000
 21
6.500000000000000
  0
POINT
  8
0
  6
CONTINUOUS
 62
3
 10
0.000000000000000
 20
0.000000000000000
  0
ENDBLK
  8
0
  0
BLOCK
  8
0
  2
SYM7
 70
64
 10
0.000000000000000
 20
0.000000000000000
  0
POINT
  8
0
  6
CONTINUOUS
 62
3
 10
0.000000000000000
 20
0.000000000000000
  0
LINE
  8
0
  6
CONTINUOUS
 62
3
 10
0.000000000000000
 20
7.699999809265137
 11
0.000000000000000
 21
-7.699999809265137
  0
LINE
  8
0
  6
CONTINUOUS
 62
3
 10
-2.000000000000000
 20
-7.699999809265137
 11
-2.000000000000000
 21
7.699999809265137
  0
LINE
  8
0
  6
CONTINUOUS
 62
3
 10
-9.999999046325684
 20
5.633875846862793
 11
-9.999999046325684
 21
-5.634070396423340
  0
LINE
  8
0
  6
CONTINUOUS
 62
3
 10
-2.000000000000000
 20
6.500000000000000
 11
-9.499999046325684
 21
6.500000000000000
  0
LINE
  8
0
  6
CONTINUOUS
 62
3
 10
-2.000000000000000
 20
-6.500000000000000
 11
-9.499998092651367
 21
-6.500000000000000
  0
LINE
  8
0
  6
CONTINUOUS
 62
3
 10
0.000000000000000
 20
7.699999809265137
 11
-2.000000000000000
 21
7.699999809265137
  0
LINE
  8
0
  6
CONTINUOUS
 62
3
 10
-0.000000000000000
 20
-7.699999809265137
 11
-2.000000000000000
 21
-7.699999809265137
  0
LINE
  8
0
  6
CONTINUOUS
 62
3
 10
-1.999998981873038
 20
0.172822249985114
 11
0.000000987769830
 21
0.900760853490894
  0
LINE
  8
0
  6
CONTINUOUS
 62
3
 10
-1.999999210488731
 20
-0.878418080432510
 11
0.000000949025296
 21
-0.150479834572059
  0
LINE
  8
0
  6
CONTINUOUS
 62
3
 10
-9.499998408467981
 20
6.500000024068164
 11
-9.999998434614934
 21
5.633875883934149
  0
LINE
  8
0
  6
CONTINUOUS
 62
3
 10
-9.499997781840761
 20
-6.499999977299012
 11
-9.999998732033873
 21
-5.634070406230592
  0
LINE
  8
0
  6
CONTINUOUS
 62
3
 10
-9.499999046325684
 20
6.500000000000000
 11
-9.499999046325684
 21
-6.500000000000000
  0
ENDBLK
  8
0
  0
BLOCK
  8
0
  2
SYM8
 70
64
 10
0.000000000000000
 20
0.000000000000000
  0
POINT
  8
0
  6
CONTINUOUS
 62
3
 10
0.000000000000000
 20
0.000000000000000
  0
LINE
  8
0
  6
CONTINUOUS
 62
3
 10
-0.000027060931608
 20
-5.749995231614290
 11
-3.250020760774497
 21
-5.749981880178368
  0
LINE
  8
0
  6
CONTINUOUS
 62
3
 10
-3.250024308998832
 20
-5.749987011620533
 11
-4.000020133420207
 21
-4.899982163000686
  0
LINE
  8
0
  6
CONTINUOUS
 62
3
 10
-4.000014781949545
 20
-4.899978112209579
 11
-3.999973773958658
 21
4.900011588107803
  0
LINE
  8
0
  6
CONTINUOUS
 62
3
 10
-3.999972830514309
 20
4.900008662670757
 11
-3.249970339875063
 21
5.750006850331147
  0
LINE
  8
0
  6
CONTINUOUS
 62
3
 10
-3.249972343459831
 20
5.750005722029982
 11
0.000027906669402
 21
5.749993324257003
  0
LINE
  8
0
  6
CONTINUOUS
 62
3
 10
0.000023687533422
 20
5.749999046325684
 11
-0.000023687533422
 21
-5.749999046325684
  0
LINE
  8
0
  6
CONTINUOUS
 62
3
 10
-3.250009052584916
 20
-2.899986267083180
 11
-0.000013285950788
 21
-2.899999618524636
  0
LINE
  8
0
  6
CONTINUOUS
 62
3
 10
-3.249984168999890
 20
2.900012016287064
 11
0.000013133145058
 21
2.899999618522375
  0
ARC
  8
0
  6
CONTINUOUS
 62
3
 10
-2.270017623901367
 20
-4.324990272521973
 40
1.729999542236328
 50
124.499759285265280
 51
179.999745461767870
  0
ARC
  8
0
  6
CONTINUOUS
 62
3
 10
-2.269982337951660
 20
4.325008392333984
 40
1.729999542236328
 50
179.999745461767870
 51
235.499786279783790
  0
ARC
  8
0
  6
CONTINUOUS
 62
3
 10
1.981662750244141
 20
-0.000008163610801
 40
5.981661796569824
 50
150.999363302540700
 51
209.000072979481700
  0
ENDBLK
  8
0
  0
BLOCK
  8
0
  2
SYM9
 70
64
 10
0.000000000000000
 20
0.000000000000000
  0
POINT
  8
0
  6
CONTINUOUS
 62
3
 10
0.000000000000000
 20
0.000000000000000
  0
LINE
  8
0
  6
CONTINUOUS
 62
3
 10
-0.000027060931608
 20
-5.749995231614290
 11
-3.250020760774497
 21
-5.749981880178368
  0
LINE
  8
0
  6
CONTINUOUS
 62
3
 10
-3.250024308998832
 20
-5.749987011620533
 11
-4.000020133420207
 21
-4.899982163000686
  0
LINE
  8
0
  6
CONTINUOUS
 62
3
 10
-4.000014781949545
 20
-4.899978112209579
 11
-3.999973773958658
 21
4.900011588107803
  0
LINE
  8
0
  6
CONTINUOUS
 62
3
 10
-3.999972830514309
 20
4.900008662670757
 11
-3.249970339875063
 21
5.750006850331147
  0
LINE
  8
0
  6
CONTINUOUS
 62
3
 10
-3.249972343459831
 20
5.750005722029982
 11
0.000027906669402
 21
5.749993324257003
  0
LINE
  8
0
  6
CONTINUOUS
 62
3
 10
0.000023687533422
 20
5.749999046325684
 11
-0.000023687533422
 21
-5.749999046325684
  0
LINE
  8
0
  6
CONTINUOUS
 62
3
 10
-3.250009052584916
 20
-2.899986267083180
 11
-0.000013285950788
 21
-2.899999618524636
  0
LINE
  8
0
  6
CONTINUOUS
 62
3
 10
-3.249984168999890
 20
2.900012016287064
 11
0.000013133145058
 21
2.899999618522375
  0
ARC
  8
0
  6
CONTINUOUS
 62
3
 10
-2.270017623901367
 20
-4.324990272521973
 40
1.729999542236328
 50
124.499759285265280
 51
179.999745461767870
  0
ARC
  8
0
  6
CONTINUOUS
 62
3
 10
-2.269982337951660
 20
4.325008392333984
 40
1.729999542236328
 50
179.999745461767870
 51
235.499786279783790
  0
ARC
  8
0
  6
CONTINUOUS
 62
3
 10
1.981662750244141
 20
-0.000008163610801
 40
5.981661796569824
 50
150.999363302540700
 51
209.000072979481700
  0
ENDBLK
  8
0
  0
BLOCK
  8
0
  2
SYM10
 70
64
 10
0.000000000000000
 20
0.000000000000000
  0
LINE
  8
0
  6
CONTINUOUS
 62
3
 10
-7.499999046325684
 20
6.500000000000000
 11
-7.499999046325684
 21
-6.500000000000000
  0
LINE
  8
0
  6
CONTINUOUS
 62
3
 10
-7.499997911632022
 20
-6.499999445138201
 11
-7.999998623386432
 21
-5.634070287011241
  0
LINE
  8
0
  6
CONTINUOUS
 62
3
 10
-7.499999203818277
 20
6.499999909101064
 11
-7.999999021366804
 21
5.633876130311293
  0
LINE
  8
0
  6
CONTINUOUS
 62
3
 10
-0.000000000000000
 20
-6.500000000000000
 11
-7.499998092651367
 21
-6.500000000000000
  0
LINE
  8
0
  6
CONTINUOUS
 62
3
 10
0.000000000000000
 20
6.500000000000000
 11
-7.499999046325684
 21
6.500000000000000
  0
LINE
  8
0
  6
CONTINUOUS
 62
3
 10
-7.999999046325684
 20
5.633875846862793
 11
-7.999999046325684
 21
-5.634070396423340
  0
LINE
  8
0
  6
CONTINUOUS
 62
3
 10
0.000000000000000
 20
-6.500000000000000
 11
-0.000000000000000
 21
6.500000000000000
  0
POINT
  8
0
  6
CONTINUOUS
 62
3
 10
0.000000000000000
 20
0.000000000000000
  0
ENDBLK
  8
0
  0
BLOCK
  8
0
  2
SYM11
 70
64
 10
0.000000000000000
 20
0.000000000000000
  0
LINE
  8
0
  6
CONTINUOUS
 62
3
 10
-7.499999046325684
 20
6.500000000000000
 11
-7.499999046325684
 21
-6.500000000000000
  0
LINE
  8
0
  6
CONTINUOUS
 62
3
 10
-7.499997911632022
 20
-6.499999445138201
 11
-7.999998623386432
 21
-5.634070287011241
  0
LINE
  8
0
  6
CONTINUOUS
 62
3
 10
-7.499999203818277
 20
6.499999909101064
 11
-7.999999021366804
 21
5.633876130311293
  0
LINE
  8
0
  6
CONTINUOUS
 62
3
 10
-0.000000000000000
 20
-6.500000000000000
 11
-7.499998092651367
 21
-6.500000000000000
  0
LINE
  8
0
  6
CONTINUOUS
 62
3
 10
0.000000000000000
 20
6.500000000000000
 11
-7.499999046325684
 21
6.500000000000000
  0
LINE
  8
0
  6
CONTINUOUS
 62
3
 10
-7.999999046325684
 20
5.633875846862793
 11
-7.999999046325684
 21
-5.634070396423340
  0
LINE
  8
0
  6
CONTINUOUS
 62
3
 10
0.000000000000000
 20
-6.500000000000000
 11
-0.000000000000000
 21
6.500000000000000
  0
POINT
  8
0
  6
CONTINUOUS
 62
3
 10
0.000000000000000
 20
0.000000000000000
  0
ENDBLK
  8
0
  0
BLOCK
  8
0
  2
SYM12
 70
64
 10
0.000000000000000
 20
0.000000000000000
  0
LINE
  8
0
  6
CONTINUOUS
 62
3
 10
-7.499999046325684
 20
6.500000000000000
 11
-7.499999046325684
 21
-6.500000000000000
  0
LINE
  8
0
  6
CONTINUOUS
 62
3
 10
-7.499997911632022
 20
-6.499999445138201
 11
-7.999998623386432
 21
-5.634070287011241
  0
LINE
  8
0
  6
CONTINUOUS
 62
3
 10
-7.499999203818277
 20
6.499999909101064
 11
-7.999999021366804
 21
5.633876130311293
  0
LINE
  8
0
  6
CONTINUOUS
 62
3
 10
-0.000000000000000
 20
-6.500000000000000
 11
-7.499998092651367
 21
-6.500000000000000
  0
LINE
  8
0
  6
CONTINUOUS
 62
3
 10
0.000000000000000
 20
6.500000000000000
 11
-7.499999046325684
 21
6.500000000000000
  0
LINE
  8
0
  6
CONTINUOUS
 62
3
 10
-7.999999046325684
 20
5.633875846862793
 11
-7.999999046325684
 21
-5.634070396423340
  0
LINE
  8
0
  6
CONTINUOUS
 62
3
 10
0.000000000000000
 20
-6.500000000000000
 11
-0.000000000000000
 21
6.500000000000000
  0
POINT
  8
0
  6
CONTINUOUS
 62
3
 10
0.000000000000000
 20
0.000000000000000
  0
ENDBLK
  8
0
  0
BLOCK
  8
0
  2
SYM13
 70
64
 10
0.000000000000000
 20
0.000000000000000
  0
LINE
  8
0
  6
CONTINUOUS
 62
3
 10
-7.499999046325684
 20
6.500000000000000
 11
-7.499999046325684
 21
-6.500000000000000
  0
LINE
  8
0
  6
CONTINUOUS
 62
3
 10
-7.499997911632022
 20
-6.499999445138201
 11
-7.999998623386432
 21
-5.634070287011241
  0
LINE
  8
0
  6
CONTINUOUS
 62
3
 10
-7.499999203818277
 20
6.499999909101064
 11
-7.999999021366804
 21
5.633876130311293
  0
LINE
  8
0
  6
CONTINUOUS
 62
3
 10
-0.000000000000000
 20
-6.500000000000000
 11
-7.499998092651367
 21
-6.500000000000000
  0
LINE
  8
0
  6
CONTINUOUS
 62
3
 10
0.000000000000000
 20
6.500000000000000
 11
-7.499999046325684
 21
6.500000000000000
  0
LINE
  8
0
  6
CONTINUOUS
 62
3
 10
-7.999999046325684
 20
5.633875846862793
 11
-7.999999046325684
 21
-5.634070396423340
  0
LINE
  8
0
  6
CONTINUOUS
 62
3
 10
0.000000000000000
 20
-6.500000000000000
 11
-0.000000000000000
 21
6.500000000000000
  0
POINT
  8
0
  6
CONTINUOUS
 62
3
 10
0.000000000000000
 20
0.000000000000000
  0
ENDBLK
  8
0
  0
BLOCK
  8
0
  2
SYM14
 70
64
 10
0.000000000000000
 20
0.000000000000000
  0
LINE
  8
0
  6
CONTINUOUS
 62
3
 10
-7.499999046325684
 20
6.500000000000000
 11
-7.499999046325684
 21
-6.500000000000000
  0
LINE
  8
0
  6
CONTINUOUS
 62
3
 10
-7.499997911632022
 20
-6.499999445138201
 11
-7.999998623386432
 21
-5.634070287011241
  0
LINE
  8
0
  6
CONTINUOUS
 62
3
 10
-7.499999203818277
 20
6.499999909101064
 11
-7.999999021366804
 21
5.633876130311293
  0
LINE
  8
0
  6
CONTINUOUS
 62
3
 10
-0.000000000000000
 20
-6.500000000000000
 11
-7.499998092651367
 21
-6.500000000000000
  0
LINE
  8
0
  6
CONTINUOUS
 62
3
 10
0.000000000000000
 20
6.500000000000000
 11
-7.499999046325684
 21
6.500000000000000
  0
LINE
  8
0
  6
CONTINUOUS
 62
3
 10
-7.999999046325684
 20
5.633875846862793
 11
-7.999999046325684
 21
-5.634070396423340
  0
LINE
  8
0
  6
CONTINUOUS
 62
3
 10
0.000000000000000
 20
-6.500000000000000
 11
-0.000000000000000
 21
6.500000000000000
  0
POINT
  8
0
  6
CONTINUOUS
 62
3
 10
0.000000000000000
 20
0.000000000000000
  0
ENDBLK
  8
0
  0
BLOCK
  8
0
  2
SYM15
 70
64
 10
0.000000000000000
 20
0.000000000000000
  0
LINE
  8
0
  6
CONTINUOUS
 62
3
 10
-7.499999046325684
 20
6.500000000000000
 11
-7.499999046325684
 21
-6.500000000000000
  0
LINE
  8
0
  6
CONTINUOUS
 62
3
 10
-7.499997911632022
 20
-6.499999445138201
 11
-7.999998623386432
 21
-5.634070287011241
  0
LINE
  8
0
  6
CONTINUOUS
 62
3
 10
-7.499999203818277
 20
6.499999909101064
 11
-7.999999021366804
 21
5.633876130311293
  0
LINE
  8
0
  6
CONTINUOUS
 62
3
 10
-0.000000000000000
 20
-6.500000000000000
 11
-7.499998092651367
 21
-6.500000000000000
  0
LINE
  8
0
  6
CONTINUOUS
 62
3
 10
0.000000000000000
 20
6.500000000000000
 11
-7.499999046325684
 21
6.500000000000000
  0
LINE
  8
0
  6
CONTINUOUS
 62
3
 10
-7.999999046325684
 20
5.633875846862793
 11
-7.999999046325684
 21
-5.634070396423340
  0
LINE
  8
0
  6
CONTINUOUS
 62
3
 10
0.000000000000000
 20
-6.500000000000000
 11
-0.000000000000000
 21
6.500000000000000
  0
POINT
  8
0
  6
CONTINUOUS
 62
3
 10
0.000000000000000
 20
0.000000000000000
  0
ENDBLK
  8
0
  0
BLOCK
  8
0
  2
SYM16
 70
64
 10
0.000000000000000
 20
0.000000000000000
  0
POINT
  8
0
  6
CONTINUOUS
 62
3
 10
0.000000000000000
 20
0.000000000000000
  0
LINE
  8
0
  6
CONTINUOUS
 62
3
 10
0.010171198458579
 20
-5.767622839547471
 11
-4.979645433681753
 21
-2.874994469174567
  0
LINE
  8
0
  6
CONTINUOUS
 62
3
 10
-4.979648434603448
 20
-2.874994693650046
 11
-4.989821279270270
 21
2.892629961559101
  0
LINE
  8
0
  6
CONTINUOUS
 62
3
 10
-4.989816965891634
 20
2.892629271321994
 11
-0.010171343047148
 21
5.767622431692701
  0
LINE
  8
0
  6
CONTINUOUS
 62
3
 10
-0.010171198458579
 20
5.767622839547471
 11
4.979645433681753
 21
2.874994469174567
  0
LINE
  8
0
  6
CONTINUOUS
 62
3
 10
4.979648434603448
 20
2.874994693650046
 11
4.989821279270270
 21
-2.892629961559101
  0
LINE
  8
0
  6
CONTINUOUS
 62
3
 10
4.989816965891634
 20
-2.892629271321994
 11
0.010171343047148
 21
-5.767622431692701
  0
CIRCLE
  8
0
  6
CONTINUOUS
 62
3
 10
0.000000000000000
 20
0.000000000000000
 40
5.000000000000000
  0
ENDBLK
  8
0
  0
BLOCK
  8
0
  2
SYM17
 70
64
 10
0.000000000000000
 20
0.000000000000000
  0
POINT
  8
0
  6
CONTINUOUS
 62
3
 10
0.000000000000000
 20
0.000000000000000
  0
LINE
  8
0
  6
CONTINUOUS
 62
3
 10
0.010171198458579
 20
-5.767622839547471
 11
-4.979645433681753
 21
-2.874994469174567
  0
LINE
  8
0
  6
CONTINUOUS
 62
3
 10
-4.979648434603448
 20
-2.874994693650046
 11
-4.989821279270270
 21
2.892629961559101
  0
LINE
  8
0
  6
CONTINUOUS
 62
3
 10
-4.989816965891634
 20
2.892629271321994
 11
-0.010171343047148
 21
5.767622431692701
  0
LINE
  8
0
  6
CONTINUOUS
 62
3
 10
-0.010171198458579
 20
5.767622839547471
 11
4.979645433681753
 21
2.874994469174567
  0
LINE
  8
0
  6
CONTINUOUS
 62
3
 10
4.979648434603448
 20
2.874994693650046
 11
4.989821279270270
 21
-2.892629961559101
  0
LINE
  8
0
  6
CONTINUOUS
 62
3
 10
4.989816965891634
 20
-2.892629271321994
 11
0.010171343047148
 21
-5.767622431692701
  0
CIRCLE
  8
0
  6
CONTINUOUS
 62
3
 10
0.000000000000000
 20
0.000000000000000
 40
5.000000000000000
  0
ENDBLK
  8
0
  0
BLOCK
  8
0
  2
SYM18
 70
64
 10
0.000000000000000
 20
0.000000000000000
  0
POINT
  8
0
  6
CONTINUOUS
 62
3
 10
0.000000000000000
 20
5.633955001831055
  0
POINT
  8
0
  6
CONTINUOUS
 62
3
 10
0.500000119209290
 20
6.500000000000000
  0
LINE
  8
0
  6
CONTINUOUS
 62
3
 10
-0.000004704988612
 20
-3.464098175748802
 11
-2.999997577100373
 21
-1.732046218032735
  0
LINE
  8
0
  6
CONTINUOUS
 62
3
 10
0.000006618601731
 20
3.464096896385627
 11
2.999997425948948
 21
1.732046782136365
  0
LINE
  8
0
  6
CONTINUOUS
 62
3
 10
2.999998112093635
 20
-1.732051392778772
 11
-0.000004464412200
 21
-3.464098365415111
  0
LINE
  8
0
  6
CONTINUOUS
 62
3
 10
0.000006701720849
 20
3.464096999935236
 11
-2.999997939551520
 21
1.732051821705568
  0
LINE
  8
0
  6
CONTINUOUS
 62
3
 10
2.999996662140697
 20
1.732046953225571
 11
2.999997615814979
 21
-1.732051023458999
  0
LINE
  8
0
  6
CONTINUOUS
 62
3
 10
-2.999996662140960
 20
-1.732045999551255
 11
-2.999997615815242
 21
1.732051977133316
  0
POINT
  8
0
  6
CONTINUOUS
 62
3
 10
0.000000000000000
 20
0.000000000000000
  0
CIRCLE
  8
0
  6
CONTINUOUS
 62
3
 10
0.000000000000000
 20
0.000000000000000
 40
6.500000000000000
  0
CIRCLE
  8
0
  6
CONTINUOUS
 62
3
 10
0.000000000000000
 20
0.000000000000000
 40
5.633955001831055
  0
ENDBLK
  8
0
  0
BLOCK
  8
0
  2
SYM19
 70
64
 10
0.000000000000000
 20
0.000000000000000
  0
POINT
  8
0
  6
CONTINUOUS
 62
3
 10
0.000000000000000
 20
5.633955001831055
  0
POINT
  8
0
  6
CONTINUOUS
 62
3
 10
0.500000119209290
 20
6.500000000000000
  0
LINE
  8
0
  6
CONTINUOUS
 62
3
 10
-0.000004704988612
 20
-3.464098175748802
 11
-2.999997577100373
 21
-1.732046218032735
  0
LINE
  8
0
  6
CONTINUOUS
 62
3
 10
0.000006618601731
 20
3.464096896385627
 11
2.999997425948948
 21
1.732046782136365
  0
LINE
  8
0
  6
CONTINUOUS
 62
3
 10
2.999998112093635
 20
-1.732051392778772
 11
-0.000004464412200
 21
-3.464098365415111
  0
LINE
  8
0
  6
CONTINUOUS
 62
3
 10
0.000006701720849
 20
3.464096999935236
 11
-2.999997939551520
 21
1.732051821705568
  0
LINE
  8
0
  6
CONTINUOUS
 62
3
 10
2.999996662140697
 20
1.732046953225571
 11
2.999997615814979
 21
-1.732051023458999
  0
LINE
  8
0
  6
CONTINUOUS
 62
3
 10
-2.999996662140960
 20
-1.732045999551255
 11
-2.999997615815242
 21
1.732051977133316
  0
POINT
  8
0
  6
CONTINUOUS
 62
3
 10
0.000000000000000
 20
0.000000000000000
  0
CIRCLE
  8
0
  6
CONTINUOUS
 62
3
 10
0.000000000000000
 20
0.000000000000000
 40
6.500000000000000
  0
CIRCLE
  8
0
  6
CONTINUOUS
 62
3
 10
0.000000000000000
 20
0.000000000000000
 40
5.633955001831055
  0
ENDBLK
  8
0
  0
BLOCK
  8
0
  2
SYM20
 70
64
 10
0.000000000000000
 20
0.000000000000000
  0
POINT
  8
0
  6
CONTINUOUS
 62
3
 10
0.000000000000000
 20
5.633955001831055
  0
POINT
  8
0
  6
CONTINUOUS
 62
3
 10
0.500000119209290
 20
6.500000000000000
  0
LINE
  8
0
  6
CONTINUOUS
 62
3
 10
-0.000004704988612
 20
-3.464098175748802
 11
-2.999997577100373
 21
-1.732046218032735
  0
LINE
  8
0
  6
CONTINUOUS
 62
3
 10
0.000006618601731
 20
3.464096896385627
 11
2.999997425948948
 21
1.732046782136365
  0
LINE
  8
0
  6
CONTINUOUS
 62
3
 10
2.999998112093635
 20
-1.732051392778772
 11
-0.000004464412200
 21
-3.464098365415111
  0
LINE
  8
0
  6
CONTINUOUS
 62
3
 10
0.000006701720849
 20
3.464096999935236
 11
-2.999997939551520
 21
1.732051821705568
  0
LINE
  8
0
  6
CONTINUOUS
 62
3
 10
2.999996662140697
 20
1.732046953225571
 11
2.999997615814979
 21
-1.732051023458999
  0
LINE
  8
0
  6
CONTINUOUS
 62
3
 10
-2.999996662140960
 20
-1.732045999551255
 11
-2.999997615815242
 21
1.732051977133316
  0
POINT
  8
0
  6
CONTINUOUS
 62
3
 10
0.000000000000000
 20
0.000000000000000
  0
CIRCLE
  8
0
  6
CONTINUOUS
 62
3
 10
0.000000000000000
 20
0.000000000000000
 40
6.500000000000000
  0
CIRCLE
  8
0
  6
CONTINUOUS
 62
3
 10
0.000000000000000
 20
0.000000000000000
 40
5.633955001831055
  0
ENDBLK
  8
0
  0
BLOCK
  8
0
  2
SYM21
 70
64
 10
0.000000000000000
 20
0.000000000000000
  0
POINT
  8
0
  6
CONTINUOUS
 62
3
 10
0.000000000000000
 20
5.633955001831055
  0
POINT
  8
0
  6
CONTINUOUS
 62
3
 10
0.500000119209290
 20
6.500000000000000
  0
LINE
  8
0
  6
CONTINUOUS
 62
3
 10
-0.000004704988612
 20
-3.464098175748802
 11
-2.999997577100373
 21
-1.732046218032735
  0
LINE
  8
0
  6
CONTINUOUS
 62
3
 10
0.000006618601731
 20
3.464096896385627
 11
2.999997425948948
 21
1.732046782136365
  0
LINE
  8
0
  6
CONTINUOUS
 62
3
 10
2.999998112093635
 20
-1.732051392778772
 11
-0.000004464412200
 21
-3.464098365415111
  0
LINE
  8
0
  6
CONTINUOUS
 62
3
 10
0.000006701720849
 20
3.464096999935236
 11
-2.999997939551520
 21
1.732051821705568
  0
LINE
  8
0
  6
CONTINUOUS
 62
3
 10
2.999996662140697
 20
1.732046953225571
 11
2.999997615814979
 21
-1.732051023458999
  0
LINE
  8
0
  6
CONTINUOUS
 62
3
 10
-2.999996662140960
 20
-1.732045999551255
 11
-2.999997615815242
 21
1.732051977133316
  0
POINT
  8
0
  6
CONTINUOUS
 62
3
 10
0.000000000000000
 20
0.000000000000000
  0
CIRCLE
  8
0
  6
CONTINUOUS
 62
3
 10
0.000000000000000
 20
0.000000000000000
 40
6.500000000000000
  0
CIRCLE
  8
0
  6
CONTINUOUS
 62
3
 10
0.000000000000000
 20
0.000000000000000
 40
5.633955001831055
  0
ENDBLK
  8
0
  0
BLOCK
  8
0
  2
SYM22
 70
64
 10
0.000000000000000
 20
0.000000000000000
  0
POINT
  8
0
  6
CONTINUOUS
 62
3
 10
0.000000000000000
 20
5.633955001831055
  0
POINT
  8
0
  6
CONTINUOUS
 62
3
 10
0.500000119209290
 20
6.500000000000000
  0
LINE
  8
0
  6
CONTINUOUS
 62
3
 10
-0.000004704988612
 20
-3.464098175748802
 11
-2.999997577100373
 21
-1.732046218032735
  0
LINE
  8
0
  6
CONTINUOUS
 62
3
 10
0.000006618601731
 20
3.464096896385627
 11
2.999997425948948
 21
1.732046782136365
  0
LINE
  8
0
  6
CONTINUOUS
 62
3
 10
2.999998112093635
 20
-1.732051392778772
 11
-0.000004464412200
 21
-3.464098365415111
  0
LINE
  8
0
  6
CONTINUOUS
 62
3
 10
0.000006701720849
 20
3.464096999935236
 11
-2.999997939551520
 21
1.732051821705568
  0
LINE
  8
0
  6
CONTINUOUS
 62
3
 10
2.999996662140697
 20
1.732046953225571
 11
2.999997615814979
 21
-1.732051023458999
  0
LINE
  8
0
  6
CONTINUOUS
 62
3
 10
-2.999996662140960
 20
-1.732045999551255
 11
-2.999997615815242
 21
1.732051977133316
  0
POINT
  8
0
  6
CONTINUOUS
 62
3
 10
0.000000000000000
 20
0.000000000000000
  0
CIRCLE
  8
0
  6
CONTINUOUS
 62
3
 10
0.000000000000000
 20
0.000000000000000
 40
6.500000000000000
  0
CIRCLE
  8
0
  6
CONTINUOUS
 62
3
 10
0.000000000000000
 20
0.000000000000000
 40
5.633955001831055
  0
ENDBLK
  8
0
  0
BLOCK
  8
0
  2
SYM23
 70
64
 10
0.000000000000000
 20
0.000000000000000
  0
POINT
  8
0
  6
CONTINUOUS
 62
3
 10
0.000000000000000
 20
5.633955001831055
  0
POINT
  8
0
  6
CONTINUOUS
 62
3
 10
0.500000119209290
 20
6.500000000000000
  0
LINE
  8
0
  6
CONTINUOUS
 62
3
 10
-0.000004704988612
 20
-3.464098175748802
 11
-2.999997577100373
 21
-1.732046218032735
  0
LINE
  8
0
  6
CONTINUOUS
 62
3
 10
0.000006618601731
 20
3.464096896385627
 11
2.999997425948948
 21
1.732046782136365
  0
LINE
  8
0
  6
CONTINUOUS
 62
3
 10
2.999998112093635
 20
-1.732051392778772
 11
-0.000004464412200
 21
-3.464098365415111
  0
LINE
  8
0
  6
CONTINUOUS
 62
3
 10
0.000006701720849
 20
3.464096999935236
 11
-2.999997939551520
 21
1.732051821705568
  0
LINE
  8
0
  6
CONTINUOUS
 62
3
 10
2.999996662140697
 20
1.732046953225571
 11
2.999997615814979
 21
-1.732051023458999
  0
LINE
  8
0
  6
CONTINUOUS
 62
3
 10
-2.999996662140960
 20
-1.732045999551255
 11
-2.999997615815242
 21
1.732051977133316
  0
POINT
  8
0
  6
CONTINUOUS
 62
3
 10
0.000000000000000
 20
0.000000000000000
  0
CIRCLE
  8
0
  6
CONTINUOUS
 62
3
 10
0.000000000000000
 20
0.000000000000000
 40
6.500000000000000
  0
CIRCLE
  8
0
  6
CONTINUOUS
 62
3
 10
0.000000000000000
 20
0.000000000000000
 40
5.633955001831055
  0
ENDBLK
  8
0
  0
BLOCK
  8
0
  2
SYM24
 70
64
 10
0.000000000000000
 20
0.000000000000000
  0
POINT
  8
0
  6
CONTINUOUS
 62
3
 10
0.000000000000000
 20
5.633955001831055
  0
POINT
  8
0
  6
CONTINUOUS
 62
3
 10
0.500000119209290
 20
6.500000000000000
  0
LINE
  8
0
  6
CONTINUOUS
 62
3
 10
-0.000004704988612
 20
-3.464098175748802
 11
-2.999997577100373
 21
-1.732046218032735
  0
LINE
  8
0
  6
CONTINUOUS
 62
3
 10
0.000006618601731
 20
3.464096896385627
 11
2.999997425948948
 21
1.732046782136365
  0
LINE
  8
0
  6
CONTINUOUS
 62
3
 10
2.999998112093635
 20
-1.732051392778772
 11
-0.000004464412200
 21
-3.464098365415111
  0
LINE
  8
0
  6
CONTINUOUS
 62
3
 10
0.000006701720849
 20
3.464096999935236
 11
-2.999997939551520
 21
1.732051821705568
  0
LINE
  8
0
  6
CONTINUOUS
 62
3
 10
2.999996662140697
 20
1.732046953225571
 11
2.999997615814979
 21
-1.732051023458999
  0
LINE
  8
0
  6
CONTINUOUS
 62
3
 10
-2.999996662140960
 20
-1.732045999551255
 11
-2.999997615815242
 21
1.732051977133316
  0
POINT
  8
0
  6
CONTINUOUS
 62
3
 10
0.000000000000000
 20
0.000000000000000
  0
CIRCLE
  8
0
  6
CONTINUOUS
 62
3
 10
0.000000000000000
 20
0.000000000000000
 40
6.500000000000000
  0
CIRCLE
  8
0
  6
CONTINUOUS
 62
3
 10
0.000000000000000
 20
0.000000000000000
 40
5.633955001831055
  0
ENDBLK
  8
0
  0
BLOCK
  8
0
  2
SYM25
 70
64
 10
0.000000000000000
 20
0.000000000000000
  0
POINT
  8
0
  6
CONTINUOUS
 62
3
 10
0.000000000000000
 20
5.633955001831055
  0
POINT
  8
0
  6
CONTINUOUS
 62
3
 10
0.500000119209290
 20
6.500000000000000
  0
LINE
  8
0
  6
CONTINUOUS
 62
3
 10
-0.000004704988612
 20
-3.464098175748802
 11
-2.999997577100373
 21
-1.732046218032735
  0
LINE
  8
0
  6
CONTINUOUS
 62
3
 10
0.000006618601731
 20
3.464096896385627
 11
2.999997425948948
 21
1.732046782136365
  0
LINE
  8
0
  6
CONTINUOUS
 62
3
 10
2.999998112093635
 20
-1.732051392778772
 11
-0.000004464412200
 21
-3.464098365415111
  0
LINE
  8
0
  6
CONTINUOUS
 62
3
 10
0.000006701720849
 20
3.464096999935236
 11
-2.999997939551520
 21
1.732051821705568
  0
LINE
  8
0
  6
CONTINUOUS
 62
3
 10
2.999996662140697
 20
1.732046953225571
 11
2.999997615814979
 21
-1.732051023458999
  0
LINE
  8
0
  6
CONTINUOUS
 62
3
 10
-2.999996662140960
 20
-1.732045999551255
 11
-2.999997615815242
 21
1.732051977133316
  0
POINT
  8
0
  6
CONTINUOUS
 62
3
 10
0.000000000000000
 20
0.000000000000000
  0
CIRCLE
  8
0
  6
CONTINUOUS
 62
3
 10
0.000000000000000
 20
0.000000000000000
 40
6.500000000000000
  0
CIRCLE
  8
0
  6
CONTINUOUS
 62
3
 10
0.000000000000000
 20
0.000000000000000
 40
5.633955001831055
  0
ENDBLK
  8
0
  0
BLOCK
  8
0
  2
SYM26
 70
64
 10
0.000000000000000
 20
0.000000000000000
  0
POINT
  8
0
  6
CONTINUOUS
 62
3
 10
0.000000000000000
 20
5.633955001831055
  0
POINT
  8
0
  6
CONTINUOUS
 62
3
 10
0.500000119209290
 20
6.500000000000000
  0
LINE
  8
0
  6
CONTINUOUS
 62
3
 10
-0.000004704988612
 20
-3.464098175748802
 11
-2.999997577100373
 21
-1.732046218032735
  0
LINE
  8
0
  6
CONTINUOUS
 62
3
 10
0.000006618601731
 20
3.464096896385627
 11
2.999997425948948
 21
1.732046782136365
  0
LINE
  8
0
  6
CONTINUOUS
 62
3
 10
2.999998112093635
 20
-1.732051392778772
 11
-0.000004464412200
 21
-3.464098365415111
  0
LINE
  8
0
  6
CONTINUOUS
 62
3
 10
0.000006701720849
 20
3.464096999935236
 11
-2.999997939551520
 21
1.732051821705568
  0
LINE
  8
0
  6
CONTINUOUS
 62
3
 10
2.999996662140697
 20
1.732046953225571
 11
2.999997615814979
 21
-1.732051023458999
  0
LINE
  8
0
  6
CONTINUOUS
 62
3
 10
-2.999996662140960
 20
-1.732045999551255
 11
-2.999997615815242
 21
1.732051977133316
  0
POINT
  8
0
  6
CONTINUOUS
 62
3
 10
0.000000000000000
 20
0.000000000000000
  0
CIRCLE
  8
0
  6
CONTINUOUS
 62
3
 10
0.000000000000000
 20
0.000000000000000
 40
6.500000000000000
  0
CIRCLE
  8
0
  6
CONTINUOUS
 62
3
 10
0.000000000000000
 20
0.000000000000000
 40
5.633955001831055
  0
ENDBLK
  8
0
  0
BLOCK
  8
0
  2
SYM27
 70
64
 10
0.000000000000000
 20
0.000000000000000
  0
POINT
  8
0
  6
CONTINUOUS
 62
3
 10
0.000000000000000
 20
5.633955001831055
  0
POINT
  8
0
  6
CONTINUOUS
 62
3
 10
0.500000119209290
 20
6.500000000000000
  0
LINE
  8
0
  6
CONTINUOUS
 62
3
 10
-0.000004704988612
 20
-3.464098175748802
 11
-2.999997577100373
 21
-1.732046218032735
  0
LINE
  8
0
  6
CONTINUOUS
 62
3
 10
0.000006618601731
 20
3.464096896385627
 11
2.999997425948948
 21
1.732046782136365
  0
LINE
  8
0
  6
CONTINUOUS
 62
3
 10
2.999998112093635
 20
-1.732051392778772
 11
-0.000004464412200
 21
-3.464098365415111
  0
LINE
  8
0
  6
CONTINUOUS
 62
3
 10
0.000006701720849
 20
3.464096999935236
 11
-2.999997939551520
 21
1.732051821705568
  0
LINE
  8
0
  6
CONTINUOUS
 62
3
 10
2.999996662140697
 20
1.732046953225571
 11
2.999997615814979
 21
-1.732051023458999
  0
LINE
  8
0
  6
CONTINUOUS
 62
3
 10
-2.999996662140960
 20
-1.732045999551255
 11
-2.999997615815242
 21
1.732051977133316
  0
POINT
  8
0
  6
CONTINUOUS
 62
3
 10
0.000000000000000
 20
0.000000000000000
  0
CIRCLE
  8
0
  6
CONTINUOUS
 62
3
 10
0.000000000000000
 20
0.000000000000000
 40
6.500000000000000
  0
CIRCLE
  8
0
  6
CONTINUOUS
 62
3
 10
0.000000000000000
 20
0.000000000000000
 40
5.633955001831055
  0
ENDBLK
  8
0
  0
BLOCK
  8
0
  2
SYM28
 70
64
 10
0.000000000000000
 20
0.000000000000000
  0
POINT
  8
0
  6
CONTINUOUS
 62
3
 10
0.000000000000000
 20
5.633955001831055
  0
POINT
  8
0
  6
CONTINUOUS
 62
3
 10
0.500000119209290
 20
6.500000000000000
  0
LINE
  8
0
  6
CONTINUOUS
 62
3
 10
-0.000004704988612
 20
-3.464098175748802
 11
-2.999997577100373
 21
-1.732046218032735
  0
LINE
  8
0
  6
CONTINUOUS
 62
3
 10
0.000006618601731
 20
3.464096896385627
 11
2.999997425948948
 21
1.732046782136365
  0
LINE
  8
0
  6
CONTINUOUS
 62
3
 10
2.999998112093635
 20
-1.732051392778772
 11
-0.000004464412200
 21
-3.464098365415111
  0
LINE
  8
0
  6
CONTINUOUS
 62
3
 10
0.000006701720849
 20
3.464096999935236
 11
-2.999997939551520
 21
1.732051821705568
  0
LINE
  8
0
  6
CONTINUOUS
 62
3
 10
2.999996662140697
 20
1.732046953225571
 11
2.999997615814979
 21
-1.732051023458999
  0
LINE
  8
0
  6
CONTINUOUS
 62
3
 10
-2.999996662140960
 20
-1.732045999551255
 11
-2.999997615815242
 21
1.732051977133316
  0
POINT
  8
0
  6
CONTINUOUS
 62
3
 10
0.000000000000000
 20
0.000000000000000
  0
CIRCLE
  8
0
  6
CONTINUOUS
 62
3
 10
0.000000000000000
 20
0.000000000000000
 40
6.500000000000000
  0
CIRCLE
  8
0
  6
CONTINUOUS
 62
3
 10
0.000000000000000
 20
0.000000000000000
 40
5.633955001831055
  0
ENDBLK
  8
0
  0
BLOCK
  8
0
  2
SYM29
 70
64
 10
0.000000000000000
 20
0.000000000000000
  0
ARC
  8
0
  6
CONTINUOUS
 62
3
 10
6.399999618530273
 20
0.000000000000000
 40
9.000000000000000
 50
163.398451589674950
 51
196.601531107481040
  0
POINT
  8
0
  6
CONTINUOUS
 62
3
 10
0.000000000000000
 20
0.000000000000000
  0
LINE
  8
0
  6
CONTINUOUS
 62
3
 10
0.000000000000000
 20
-3.500000000000000
 11
-0.000000000000000
 21
3.500000000000000
  0
LINE
  8
0
  6
CONTINUOUS
 62
3
 10
0.000000000000000
 20
-3.500000000000000
 11
-0.000000000000000
 21
3.500000000000000
  0
LINE
  8
0
  6
CONTINUOUS
 62
3
 10
0.000000000000000
 20
3.500000000000000
 11
-0.979025304317474
 21
3.500000000000000
  0
LINE
  8
0
  6
CONTINUOUS
 62
3
 10
-0.000000000000000
 20
-3.500000000000000
 11
-0.979025304317474
 21
-3.500000000000000
  0
ARC
  8
0
  6
CONTINUOUS
 62
3
 10
-0.979025304317474
 20
2.200000762939453
 40
1.299999237060547
 50
90.000000000000000
 51
163.398451589674950
  0
ARC
  8
0
  6
CONTINUOUS
 62
3
 10
-0.979025304317474
 20
-2.200000762939453
 40
1.299999237060547
 50
196.601531107481040
 51
270.000000000000000
  0
ENDBLK
  8
0
  0
BLOCK
  8
0
  2
SYM30
 70
64
 10
0.000000000000000
 20
0.000000000000000
  0
ARC
  8
0
  6
CONTINUOUS
 62
3
 10
6.399999618530273
 20
0.000000000000000
 40
9.000000000000000
 50
163.398451589674950
 51
196.601531107481040
  0
POINT
  8
0
  6
CONTINUOUS
 62
3
 10
0.000000000000000
 20
0.000000000000000
  0
LINE
  8
0
  6
CONTINUOUS
 62
3
 10
0.000000000000000
 20
-3.500000000000000
 11
-0.000000000000000
 21
3.500000000000000
  0
LINE
  8
0
  6
CONTINUOUS
 62
3
 10
0.000000000000000
 20
-3.500000000000000
 11
-0.000000000000000
 21
3.500000000000000
  0
LINE
  8
0
  6
CONTINUOUS
 62
3
 10
0.000000000000000
 20
3.500000000000000
 11
-0.979025304317474
 21
3.500000000000000
  0
LINE
  8
0
  6
CONTINUOUS
 62
3
 10
-0.000000000000000
 20
-3.500000000000000
 11
-0.979025304317474
 21
-3.500000000000000
  0
ARC
  8
0
  6
CONTINUOUS
 62
3
 10
-0.979025304317474
 20
2.200000762939453
 40
1.299999237060547
 50
90.000000000000000
 51
163.398451589674950
  0
ARC
  8
0
  6
CONTINUOUS
 62
3
 10
-0.979025304317474
 20
-2.200000762939453
 40
1.299999237060547
 50
196.601531107481040
 51
270.000000000000000
  0
ENDBLK
  8
0
  0
ENDSEC
  0
SECTION
  2
ENTITIES
  0
ARC
  8
0
  6
CONTINUOUS
 62
3
 10
-414.843543839126650
 20
-234.998228511931330
 40
6.099999427795406
 50
264.601927898108500
 51
5.398089404735109
  0
POINT
  8
0
  6
CONTINUOUS
 62
3
 10
-412.580802274199640
 20
-237.260970076858370
  0
LINE
  8
0
  6
CONTINUOUS
 62
3
 10
-409.257400537492800
 20
-233.937568340151500
 11
-415.904204010906480
 21
-240.584371813565240
  0
LINE
  8
0
  6
CONTINUOUS
 62
3
 10
-408.944261928523990
 20
-234.190115291001890
 11
-415.621361230996910
 21
-240.867214593474810
  0
LINE
  8
0
  6
CONTINUOUS
 62
3
 10
-415.904204010906480
 20
-240.584371813565240
 11
-415.417400619200860
 21
-241.071175205270830
  0
LINE
  8
0
  6
CONTINUOUS
 62
3
 10
-409.257400537492800
 20
-233.937568340151500
 11
-408.770597145787180
 21
-234.424371731857120
  0
ARC
  8
0
  6
CONTINUOUS
 62
3
 10
-513.697072118745720
 20
-234.998228511931330
 40
6.099999427795398
 50
174.601910595264880
 51
275.398072101890420
  0
POINT
  8
0
  6
CONTINUOUS
 62
3
 10
-515.959813683672790
 20
-237.260970076858370
  0
LINE
  8
0
  6
CONTINUOUS
 62
3
 10
-519.283215420379630
 20
-233.937568340151500
 11
-512.636411946965950
 21
-240.584371813565240
  0
LINE
  8
0
  6
CONTINUOUS
 62
3
 10
-519.596354029348390
 20
-234.190115291001890
 11
-512.919254726875470
 21
-240.867214593474810
  0
LINE
  8
0
  6
CONTINUOUS
 62
3
 10
-512.636411946965950
 20
-240.584371813565240
 11
-513.123215338671570
 21
-241.071175205270830
  0
LINE
  8
0
  6
CONTINUOUS
 62
3
 10
-519.283215420379630
 20
-233.937568340151500
 11
-519.770018812085250
 21
-234.424371731857120
  0
ARC
  8
0
  6
CONTINUOUS
 62
3
 10
-513.697072118745720
 20
-136.144700232312030
 40
6.099999427795394
 50
84.601927898109537
 51
185.398089404735120
  0
POINT
  8
0
  6
CONTINUOUS
 62
3
 10
-515.959813683672790
 20
-133.881958667384990
  0
LINE
  8
0
  6
CONTINUOUS
 62
3
 10
-519.283215420379630
 20
-137.205360404091860
 11
-512.636411946965950
 21
-130.558556930678120
  0
LINE
  8
0
  6
CONTINUOUS
 62
3
 10
-519.596354029348390
 20
-136.952813453241480
 11
-512.919254726875470
 21
-130.275714150768550
  0
LINE
  8
0
  6
CONTINUOUS
 62
3
 10
-512.636411946965950
 20
-130.558556930678120
 11
-513.123215338671570
 21
-130.071753538972530
  0
LINE
  8
0
  6
CONTINUOUS
 62
3
 10
-519.283215420379630
 20
-137.205360404091860
 11
-519.770018812085250
 21
-136.718557012386240
  0
ARC
  8
0
  6
CONTINUOUS
 62
3
 10
-414.843543839126650
 20
-136.144700232312030
 40
6.099999427795398
 50
354.601910595264880
 51
95.398072101891529
  0
POINT
  8
0
  6
CONTINUOUS
 62
3
 10
-412.580802274199640
 20
-133.881958667384990
  0
LINE
  8
0
  6
CONTINUOUS
 62
3
 10
-409.257400537492800
 20
-137.205360404091860
 11
-415.904204010906480
 21
-130.558556930678120
  0
LINE
  8
0
  6
CONTINUOUS
 62
3
 10
-408.944261928523990
 20
-136.952813453241480
 11
-415.621361230996910
 21
-130.275714150768550
  0
LINE
  8
0
  6
CONTINUOUS
 62
3
 10
-415.904204010906480
 20
-130.558556930678120
 11
-415.417400619200860
 21
-130.071753538972530
  0
LINE
  8
0
  6
CONTINUOUS
 62
3
 10
-409.257400537492800
 20
-137.205360404091860
 11
-408.770597145787180
 21
-136.718557012386240
  0
ARC
  8
0
  6
CONTINUOUS
 62
3
 10
-474.770307978936220
 20
-92.071464372123273
 40
10.000000000000000
 50
180.000000000000000
 51
270.000000000000000
  0
ARC
  8
0
  6
CONTINUOUS
 62
3
 10
-453.770307978936220
 20
-92.071464372123273
 40
10.000000000000000
 50
270.000000000000000
 51
0.000000000000000
  0
LINE
  8
0
  6
CONTINUOUS
 62
3
 10
-474.770307978936220
 20
-102.071464372123270
 11
-453.770307978936220
 21
-102.071464372123270
  0
LINE
  8
0
  6
CONTINUOUS
 62
4
 10
-212.821977276464050
 20
-242.571464372121570
 11
-63.821977276464168
 21
-242.571464372121570
  0
LINE
  8
0
  6
CONTINUOUS
 62
4
 10
-212.821977276464050
 20
-243.071464372121570
 11
-63.821977276464168
 21
-243.071464372121570
  0
LINE
  8
0
  6
CONTINUOUS
 62
4
 10
-212.821977276464050
 20
-241.571464372121570
 11
-63.821977276464168
 21
-241.571464372121570
  0
LINE
  8
0
  6
CONTINUOUS
 62
4
 10
-212.821977276464050
 20
-240.571464372121570
 11
-63.821977276464168
 21
-240.571464372121570
  0
LINE
  8
0
  6
CONTINUOUS
 62
3
 10
-63.821977276464168
 20
-244.071464372121570
 11
-212.821977276464050
 21
-244.071464372121570
  0
LINE
  8
0
  6
CONTINUOUS
 62
3
 10
-212.821977276464050
 20
-245.571464372121570
 11
-241.516001498884410
 21
-245.571464372121570
  0
LINE
  8
0
  6
CONTINUOUS
 62
3
 10
-225.821977276463490
 20
-240.487364958181730
 11
-223.821977276463490
 21
-239.311579472559400
  0
LINE
  8
0
  6
CONTINUOUS
 62
3
 10
-223.821977276463490
 20
-239.311579472559400
 11
-221.821977276463490
 21
-237.658937833435970
  0
LINE
  8
0
  6
CONTINUOUS
 62
3
 10
-221.821977276463490
 20
-240.487364958181730
 11
-223.821977276463490
 21
-239.311579472559400
  0
LINE
  8
0
  6
CONTINUOUS
 62
3
 10
-223.821977276463490
 20
-239.311579472559400
 11
-225.821977276463490
 21
-237.658937833435970
  0
LINE
  8
0
  6
CONTINUOUS
 62
3
 10
21.916342942339725
 20
-320.199839875235970
 11
24.439702504768320
 21
-320.332083546235710
  0
LINE
  8
0
  6
CONTINUOUS
 62
3
 10
17.178022723554022
 20
-310.811416416889410
 11
17.178022723554022
 21
-315.206692201463060
  0
LINE
  8
0
  6
CONTINUOUS
 62
3
 10
24.439702504768320
 20
-308.345091227942480
 11
11.573350811072487
 21
-307.670794308201270
  0
LINE
  8
0
  6
CONTINUOUS
 62
3
 10
31.178022723554022
 20
-352.071464372122360
 11
40.678022723554250
 21
-352.071464372122360
  0
LINE
  8
0
  6
CONTINUOUS
 62
3
 10
40.678022723554250
 20
-352.071464372122360
 11
159.579714893091930
 21
-355.969880508828510
  0
ARC
  8
0
  6
CONTINUOUS
 62
3
 10
-241.516001498884410
 20
-225.571464372121570
 40
20.000000000000007
 50
234.999999999999740
 51
270.000000000000000
  0
ARC
  8
0
  6
CONTINUOUS
 62
3
 10
14.178022723554022
 20
-310.811416416889410
 40
3.000000000000000
 50
0.000000000000000
 51
86.999999999994799
  0
ARC
  8
0
  6
CONTINUOUS
 62
3
 10
22.178022723554022
 20
-315.206692201463060
 40
5.000000000000000
 50
180.000000000000000
 51
267.000000000004890
  0
ARC
  8
0
  6
CONTINUOUS
 62
3
 10
24.178022723554022
 20
-325.325231220008620
 40
5.000000000000000
 50
0.000000000000000
 51
87.000000000004846
  0
ARC
  8
0
  6
CONTINUOUS
 62
3
 10
24.178022723554022
 20
-313.338238901715390
 40
5.000000000000000
 50
0.000000000000000
 51
87.000000000004846
  0
ARC
  8
0
  6
CONTINUOUS
 62
3
 10
7.678022723558570
 20
-300.071464372121450
 40
2.000000000000000
 50
0.000000000000000
 51
90.000000000000000
  0
ARC
  8
0
  6
CONTINUOUS
 62
3
 10
11.678022723558570
 20
-305.673535238692470
 40
2.000000000000000
 50
180.000000000000000
 51
266.999999999993860
  0
ARC
  8
0
  6
CONTINUOUS
 62
3
 10
26.178022723554022
 20
-240.987544155219670
 40
3.000000000000000
 50
0.000000000000000
 51
80.405931773138747
  0
ARC
  8
0
  6
CONTINUOUS
 62
3
 10
31.178022723554022
 20
-350.071464372122360
 40
2.000000000000000
 50
180.000000000000000
 51
270.000000000000000
  0
INSERT
  8
0
  2
SYM1
 10
29.178022723554022
 20
-252.071464372121450
  0
INSERT
  8
0
  2
SYM2
 10
-2.321977276464168
 20
-278.872239914079730
  0
INSERT
  8
0
  2
SYM3
 10
29.178022723553966
 20
-343.071464372121450
  0
LINE
  8
0
  6
CONTINUOUS
 62
3
 10
-145.821977276464050
 20
-185.571464372121570
 11
-145.821977276464050
 21
-215.071464372121570
  0
LINE
  8
0
  6
CONTINUOUS
 62
3
 10
-146.821977276464050
 20
-214.571464372121570
 11
-146.821977276464050
 21
-185.571464372121570
  0
ARC
  8
0
  6
CONTINUOUS
 62
3
 10
-147.821977276464050
 20
-214.571464372121570
 40
1.000000000000000
 50
270.000000000000000
 51
0.000000000000000
  0
ARC
  8
0
  6
CONTINUOUS
 62
3
 10
-147.821977276464050
 20
-215.071464372121570
 40
2.000000000000000
 50
270.000000000000000
 51
0.000000000000000
  0
LINE
  8
0
  6
CONTINUOUS
 62
3
 10
-147.821977276464050
 20
-217.071464372121570
 11
-218.821977276463940
 21
-217.071464372121570
  0
LINE
  8
0
  6
CONTINUOUS
 62
3
 10
-147.821977276464050
 20
-215.571464372121570
 11
-218.821977276463940
 21
-215.571464372121570
  0
ARC
  8
0
  6
CONTINUOUS
 62
3
 10
-218.821977276463940
 20
-214.571464372121570
 40
1.000000000000000
 50
180.000000000000000
 51
270.000000000000000
  0
ARC
  8
0
  6
CONTINUOUS
 62
3
 10
-218.821977276463940
 20
-215.071464372121570
 40
2.000000000000000
 50
180.000000000000000
 51
270.000000000000000
  0
LINE
  8
0
  6
CONTINUOUS
 62
3
 10
-219.821977276463940
 20
-214.571464372121570
 11
-219.821977276464170
 21
-185.571464372121570
  0
LINE
  8
0
  6
CONTINUOUS
 62
3
 10
-220.821977276463940
 20
-185.571464372121570
 11
-220.821977276463940
 21
-215.071464372121570
  0
LINE
  8
0
  6
CONTINUOUS
 62
3
 10
-219.821977276463940
 20
-156.571464372121570
 11
-219.821977276464170
 21
-185.571464372121570
  0
LINE
  8
0
  6
CONTINUOUS
 62
3
 10
-220.821977276463940
 20
-185.571464372121570
 11
-220.821977276463940
 21
-156.071464372121570
  0
ARC
  8
0
  6
CONTINUOUS
 62
3
 10
-218.821977276463940
 20
-156.071464372121570
 40
2.000000000000000
 50
90.000000000000000
 51
180.000000000000000
  0
ARC
  8
0
  6
CONTINUOUS
 62
3
 10
-218.821977276463940
 20
-156.571464372121570
 40
1.000000000000000
 50
90.000000000000000
 51
180.000000000000000
  0
LINE
  8
0
  6
CONTINUOUS
 62
3
 10
-147.821977276464050
 20
-154.071464372121570
 11
-218.821977276463940
 21
-154.071464372121570
  0
ARC
  8
0
  6
CONTINUOUS
 62
3
 10
-147.821977276464050
 20
-156.071464372121570
 40
2.000000000000000
 50
0.000000000000000
 51
90.000000000000000
  0
ARC
  8
0
  6
CONTINUOUS
 62
3
 10
-147.821977276464050
 20
-156.571464372121570
 40
1.000000000000000
 50
0.000000000000000
 51
90.000000000000000
  0
LINE
  8
0
  6
CONTINUOUS
 62
3
 10
-147.821977276464050
 20
-155.571464372121570
 11
-218.821977276463940
 21
-155.571464372121570
  0
LINE
  8
0
  6
CONTINUOUS
 62
3
 10
-146.821977276464050
 20
-156.571464372121570
 11
-146.821977276464050
 21
-185.571464372121570
  0
LINE
  8
0
  6
CONTINUOUS
 62
3
 10
-145.821977276464050
 20
-185.571464372121570
 11
-145.821977276464050
 21
-156.071464372121570
  0
INSERT
  8
0
  2
SYM4
 10
29.178022723554079
 20
-162.071465185014970
  0
INSERT
  8
0
  2
SYM5
 10
-2.321977276464168
 20
-169.270688830164970
  0
INSERT
  8
0
  2
SYM6
 10
12.678022723550384
 20
-92.071464372123273
  0
POLYLINE
  8
0
  6
CONTINUOUS
 62
3
 66
1
 70
1
  0
VERTEX
  8
0
  6
CONTINUOUS
 62
3
 10
-219.121977276463500
 20
-237.494989404181410
  0
VERTEX
  8
0
  6
CONTINUOUS
 62
3
 10
-219.212286458568310
 20
-236.792032437981050
  0
VERTEX
  8
0
  6
CONTINUOUS
 62
3
 10
-219.479743473660450
 20
-236.116089713768960
  0
VERTEX
  8
0
  6
CONTINUOUS
 62
3
 10
-219.914070098641530
 20
-235.493137331363560
  0
VERTEX
  8
0
  6
CONTINUOUS
 62
3
 10
-220.498575404886710
 20
-234.947115001464970
  0
VERTEX
  8
0
  6
CONTINUOUS
 62
3
 10
-221.210797181271370
 20
-234.499006055998340
  0
VERTEX
  8
0
  6
CONTINUOUS
 62
3
 10
-222.023365144347570
 20
-234.166031070435590
  0
VERTEX
  8
0
  6
CONTINUOUS
 62
3
 10
-222.905052762987680
 20
-233.960986086737340
  0
VERTEX
  8
0
  6
CONTINUOUS
 62
3
 10
-223.821977276463490
 20
-233.891750868636560
  0
VERTEX
  8
0
  6
CONTINUOUS
 62
3
 10
-224.738901789939290
 20
-233.960986086737340
  0
VERTEX
  8
0
  6
CONTINUOUS
 62
3
 10
-225.620589408579410
 20
-234.166031070435590
  0
VERTEX
  8
0
  6
CONTINUOUS
 62
3
 10
-226.433157371655600
 20
-234.499006055998340
  0
VERTEX
  8
0
  6
CONTINUOUS
 62
3
 10
-227.145379148040260
 20
-234.947115001464970
  0
VERTEX
  8
0
  6
CONTINUOUS
 62
3
 10
-227.729884454285440
 20
-235.493137331363560
  0
VERTEX
  8
0
  6
CONTINUOUS
 62
3
 10
-228.164211079266520
 20
-236.116089713768960
  0
VERTEX
  8
0
  6
CONTINUOUS
 62
3
 10
-228.431668094358660
 20
-236.792032437981050
  0
VERTEX
  8
0
  6
CONTINUOUS
 62
3
 10
-228.521977276463470
 20
-237.494989404181410
  0
VERTEX
  8
0
  6
CONTINUOUS
 62
3
 10
-228.431668094358660
 20
-238.197946370381770
  0
VERTEX
  8
0
  6
CONTINUOUS
 62
3
 10
-228.164211079266520
 20
-238.873889094593860
  0
VERTEX
  8
0
  6
CONTINUOUS
 62
3
 10
-227.729884454285440
 20
-239.496841476999260
  0
VERTEX
  8
0
  6
CONTINUOUS
 62
3
 10
-227.145379148040230
 20
-240.042863806897860
  0
VERTEX
  8
0
  6
CONTINUOUS
 62
3
 10
-226.433157371655600
 20
-240.490972752364480
  0
VERTEX
  8
0
  6
CONTINUOUS
 62
3
 10
-225.620589408579410
 20
-240.823947737927230
  0
VERTEX
  8
0
  6
CONTINUOUS
 62
3
 10
-224.738901789939290
 20
-241.028992721625490
  0
VERTEX
  8
0
  6
CONTINUOUS
 62
3
 10
-223.821977276463490
 20
-241.098227939726260
  0
VERTEX
  8
0
  6
CONTINUOUS
 62
3
 10
-222.905052762987680
 20
-241.028992721625490
  0
VERTEX
  8
0
  6
CONTINUOUS
 62
3
 10
-222.023365144347570
 20
-240.823947737927230
  0
VERTEX
  8
0
  6
CONTINUOUS
 62
3
 10
-221.210797181271370
 20
-240.490972752364480
  0
VERTEX
  8
0
  6
CONTINUOUS
 62
3
 10
-220.498575404886740
 20
-240.042863806897860
  0
VERTEX
  8
0
  6
CONTINUOUS
 62
3
 10
-219.914070098641530
 20
-239.496841476999260
  0
VERTEX
  8
0
  6
CONTINUOUS
 62
3
 10
-219.479743473660450
 20
-238.873889094593860
  0
VERTEX
  8
0
  6
CONTINUOUS
 62
3
 10
-219.212286458568310
 20
-238.197946370381770
  0
SEQEND
  8
0
  6
CONTINUOUS
 62
3
  0
POLYLINE
  8
0
  6
CONTINUOUS
 62
3
 66
1
 70
1
  0
VERTEX
  8
0
  6
CONTINUOUS
 62
3
 10
-219.121977276463500
 20
-133.647939340061500
  0
VERTEX
  8
0
  6
CONTINUOUS
 62
3
 10
-219.212286458568310
 20
-132.944982373861140
  0
VERTEX
  8
0
  6
CONTINUOUS
 62
3
 10
-219.479743473660450
 20
-132.269039649649050
  0
VERTEX
  8
0
  6
CONTINUOUS
 62
3
 10
-219.914070098641530
 20
-131.646087267243640
  0
VERTEX
  8
0
  6
CONTINUOUS
 62
3
 10
-220.498575404886710
 20
-131.100064937345050
  0
VERTEX
  8
0
  6
CONTINUOUS
 62
3
 10
-221.210797181271370
 20
-130.651955991878420
  0
VERTEX
  8
0
  6
CONTINUOUS
 62
3
 10
-222.023365144347570
 20
-130.318981006315680
  0
VERTEX
  8
0
  6
CONTINUOUS
 62
3
 10
-222.905052762987680
 20
-130.113936022617420
  0
VERTEX
  8
0
  6
CONTINUOUS
 62
3
 10
-223.821977276463490
 20
-130.044700804516650
  0
VERTEX
  8
0
  6
CONTINUOUS
 62
3
 10
-224.738901789939290
 20
-130.113936022617420
  0
VERTEX
  8
0
  6
CONTINUOUS
 62
3
 10
-225.620589408579410
 20
-130.318981006315680
  0
VERTEX
  8
0
  6
CONTINUOUS
 62
3
 10
-226.433157371655600
 20
-130.651955991878420
  0
VERTEX
  8
0
  6
CONTINUOUS
 62
3
 10
-227.145379148040260
 20
-131.100064937345050
  0
VERTEX
  8
0
  6
CONTINUOUS
 62
3
 10
-227.729884454285440
 20
-131.646087267243640
  0
VERTEX
  8
0
  6
CONTINUOUS
 62
3
 10
-228.164211079266520
 20
-132.269039649649050
  0
VERTEX
  8
0
  6
CONTINUOUS
 62
3
 10
-228.431668094358660
 20
-132.944982373861140
  0
VERTEX
  8
0
  6
CONTINUOUS
 62
3
 10
-228.521977276463470
 20
-133.647939340061500
  0
VERTEX
  8
0
  6
CONTINUOUS
 62
3
 10
-228.431668094358660
 20
-134.350896306261860
  0
VERTEX
  8
0
  6
CONTINUOUS
 62
3
 10
-228.164211079266520
 20
-135.026839030473950
  0
VERTEX
  8
0
  6
CONTINUOUS
 62
3
 10
-227.729884454285440
 20
-135.649791412879350
  0
VERTEX
  8
0
  6
CONTINUOUS
 62
3
 10
-227.145379148040230
 20
-136.195813742777940
  0
VERTEX
  8
0
  6
CONTINUOUS
 62
3
 10
-226.433157371655600
 20
-136.643922688244570
  0
VERTEX
  8
0
  6
CONTINUOUS
 62
3
 10
-225.620589408579410
 20
-136.976897673807310
  0
VERTEX
  8
0
  6
CONTINUOUS
 62
3
 10
-224.738901789939290
 20
-137.181942657505570
  0
VERTEX
  8
0
  6
CONTINUOUS
 62
3
 10
-223.821977276463490
 20
-137.251177875606340
  0
VERTEX
  8
0
  6
CONTINUOUS
 62
3
 10
-222.905052762987680
 20
-137.181942657505570
  0
VERTEX
  8
0
  6
CONTINUOUS
 62
3
 10
-222.023365144347570
 20
-136.976897673807310
  0
VERTEX
  8
0
  6
CONTINUOUS
 62
3
 10
-221.210797181271370
 20
-136.643922688244570
  0
VERTEX
  8
0
  6
CONTINUOUS
 62
3
 10
-220.498575404886740
 20
-136.195813742777940
  0
VERTEX
  8
0
  6
CONTINUOUS
 62
3
 10
-219.914070098641530
 20
-135.649791412879350
  0
VERTEX
  8
0
  6
CONTINUOUS
 62
3
 10
-219.479743473660450
 20
-135.026839030473950
  0
VERTEX
  8
0
  6
CONTINUOUS
 62
3
 10
-219.212286458568310
 20
-134.350896306261860
  0
SEQEND
  8
0
  6
CONTINUOUS
 62
3
  0
ARC
  8
0
  6
CONTINUOUS
 62
3
 10
26.178022723554022
 20
-215.155384589020510
 40
3.000000000000653
 50
279.594068226858330
 51
0.000000000000000
  0
ARC
  8
0
  6
CONTINUOUS
 62
3
 10
27.178022723554022
 20
-235.071464372120540
 40
3.000000000000000
 50
180.000000000000000
 51
260.405931773138780
  0
ARC
  8
0
  6
CONTINUOUS
 62
3
 10
27.178022723554022
 20
-221.071464372120540
 40
2.999999999999756
 50
99.594068226861253
 51
180.000000000000000
  0
ARC
  8
0
  6
CONTINUOUS
 62
3
 10
31.178022723554022
 20
-81.071464372122364
 40
2.000000000000000
 50
90.000000000000000
 51
180.000000000000000
  0
ARC
  8
0
  6
CONTINUOUS
 62
3
 10
19.178022723554022
 20
-81.071464372122364
 40
2.000000000000000
 50
90.000000000000000
 51
180.000000000000000
  0
ARC
  8
0
  6
CONTINUOUS
 62
3
 10
24.178022723554022
 20
-109.071464372122360
 40
5.000000000000000
 50
0.000000000000000
 51
90.000000000000000
  0
ARC
  8
0
  6
CONTINUOUS
 62
3
 10
18.178022723554022
 20
-106.728318621613880
 40
3.000000000000000
 50
0.000000000000000
 51
70.528779365506566
  0
ARC
  8
0
  6
CONTINUOUS
 62
3
 10
20.178022723554022
 20
-101.071464372122360
 40
3.000000000000000
 50
180.000000000000000
 51
270.000000000000000
  0
ARC
  8
0
  6
CONTINUOUS
 62
3
 10
11.678022723554932
 20
-142.469393505551350
 40
1.999999999999663
 50
93.000000000006111
 51
180.000000000000000
  0
ARC
  8
0
  6
CONTINUOUS
 62
3
 10
16.178022723554022
 20
-135.223952076792780
 40
5.000000000000018
 50
272.999999999995110
 51
0.000000000000000
  0
ARC
  8
0
  6
CONTINUOUS
 62
3
 10
24.178022723554022
 20
-134.804689842528430
 40
5.000000000000018
 50
272.999999999995110
 51
0.000000000000000
  0
ARC
  8
0
  6
CONTINUOUS
 62
3
 10
7.678022723558570
 20
-148.071464372122360
 40
2.000000000000000
 50
270.000000000000000
 51
0.000000000000000
  0
ARC
  8
0
  6
CONTINUOUS
 62
3
 10
-261.221977276413780
 20
-233.014669429367020
 40
2.600000000000136
 50
180.000000000000000
 51
234.999999999998610
  0
ARC
  8
0
  6
CONTINUOUS
 62
3
 10
-215.821977276464050
 20
-226.571464372121570
 40
3.000000000000000
 50
0.000000000000000
 51
90.000000000000000
  0
ARC
  8
0
  6
CONTINUOUS
 62
3
 10
-219.821977276463940
 20
-220.571464372121570
 40
3.000000000000000
 50
180.000000000000000
 51
270.000000000000000
  0
ARC
  8
0
  6
CONTINUOUS
 62
3
 10
-261.221977276413780
 20
-138.128259314876120
 40
2.599999999999721
 50
125.000000000001370
 51
180.000000000000000
  0
ARC
  8
0
  6
CONTINUOUS
 62
3
 10
-241.516001498884410
 20
-145.571464372121570
 40
20.000000000000000
 50
90.000000000000000
 51
125.000000000000240
  0
ARC
  8
0
  6
CONTINUOUS
 62
3
 10
-215.821977276464050
 20
-144.571464372121570
 40
3.000000000000000
 50
270.000000000000000
 51
0.000000000000000
  0
ARC
  8
0
  6
CONTINUOUS
 62
3
 10
-219.821977276463940
 20
-150.571464372121570
 40
3.000000000000000
 50
90.000000000000000
 51
180.000000000000000
  0
LINE
  8
0
  6
CONTINUOUS
 62
3
 10
40.678022723554250
 20
-352.071464372122360
 11
40.678022723554250
 21
-79.054003987376291
  0
LINE
  8
0
  6
CONTINUOUS
 62
3
 10
146.391206480153410
 20
-75.362418265174256
 11
40.677718137063721
 21
-79.054014623771081
  0
LINE
  8
0
  6
DASHDOT
 62
4
 10
-2.813621491133745
 20
-92.071464372122364
 11
23.501038387121298
 21
-92.071464372122364
  0
LINE
  8
0
  6
CONTINUOUS
 62
3
 10
12.678022723550384
 20
-102.071464372123270
 11
12.678022723554022
 21
-44.071464372123273
  0
LINE
  8
0
  6
CONTINUOUS
 62
3
 10
12.678022723554022
 20
-44.071464372123273
 11
17.178022723554022
 21
-44.071464372123273
  0
LINE
  8
0
  6
CONTINUOUS
 62
3
 10
17.178022723554022
 20
-44.071464372123273
 11
17.178022723554022
 21
-102.071464372123270
  0
LINE
  8
0
  6
DASHDOT
 62
4
 10
6.947775322740199
 20
-64.071464372123273
 11
25.047041338031704
 21
-64.071464372123273
  0
LINE
  8
0
  6
CONTINUOUS
 62
3
 10
12.678022723550384
 20
-102.071464372123270
 11
17.178022723550384
 21
-102.071464372123270
  0
LINE
  8
0
  6
CONTINUOUS
 62
3
 10
40.178022723554022
 20
-224.071464372122360
 11
40.178022723554022
 21
-352.071464372122360
  0
LINE
  8
0
  6
CONTINUOUS
 62
3
 10
24.178022723554022
 20
-235.071464372120540
 11
24.178022723554022
 21
-228.071464372120540
  0
LINE
  8
0
  6
CONTINUOUS
 62
3
 10
24.178022723554022
 20
-221.071464372120540
 11
24.178022723554022
 21
-228.071464372120540
  0
LINE
  8
0
  6
CONTINUOUS
 62
3
 10
29.178022723554022
 20
-240.987544155219670
 11
29.178022723554022
 21
-350.071464372122360
  0
LINE
  8
0
  6
CONTINUOUS
 62
3
 10
40.178022723554022
 20
-224.071464372122360
 11
40.178022723554022
 21
-79.071464372122364
  0
LINE
  8
0
  6
CONTINUOUS
 62
3
 10
19.178022723554022
 20
-79.071464372122364
 11
40.678022723554250
 21
-79.071464372122364
  0
LINE
  8
0
  6
CONTINUOUS
 62
3
 10
29.178022723554022
 20
-215.155384589020510
 11
29.178022723554022
 21
-81.071464372122364
  0
LINE
  8
0
  6
CONTINUOUS
 62
3
 10
17.178022723554022
 20
-101.071464372122360
 11
17.178022723554022
 21
-81.071464372122364
  0
LINE
  8
0
  6
CONTINUOUS
 62
3
 10
20.178022723554022
 20
-104.071464372122360
 11
24.178022723554022
 21
-104.071464372122360
  0
LINE
  8
0
  6
CONTINUOUS
 62
3
 10
21.178022723554022
 20
-135.223952076792780
 11
21.178022723554022
 21
-106.728318621613880
  0
LINE
  8
0
  6
CONTINUOUS
 62
3
 10
24.439702504768320
 20
-139.797837516301340
 11
11.573350811068849
 21
-140.472134436042550
  0
LINE
  8
0
  6
CONTINUOUS
 62
3
 10
9.678022723554932
 20
-224.071464372122360
 11
9.678022723554932
 21
-142.469393505551350
  0
LINE
  8
0
  6
CONTINUOUS
 62
3
 10
9.678022723558570
 20
-224.071464372122360
 11
9.678022723558570
 21
-305.673535238692470
  0
LINE
  8
0
  6
CONTINUOUS
 62
3
 10
-223.821977276463490
 20
-131.831349271683960
 11
-225.821977276463490
 21
-133.483990910807390
  0
LINE
  8
0
  6
CONTINUOUS
 62
3
 10
-221.821977276463490
 20
-130.655563786061180
 11
-223.821977276463490
 21
-131.831349271683960
  0
LINE
  8
0
  6
CONTINUOUS
 62
3
 10
-223.821977276463490
 20
-131.831349271683960
 11
-221.821977276463490
 21
-133.483990910807390
  0
LINE
  8
0
  6
CONTINUOUS
 62
3
 10
-225.821977276463490
 20
-130.655563786061180
 11
-223.821977276463490
 21
-131.831349271683960
  0
LINE
  8
0
  6
CONTINUOUS
 62
3
 10
-252.987530225905400
 20
-241.954505257901360
 11
-262.713276010926390
 21
-235.144464744518130
  0
LINE
  8
0
  6
CONTINUOUS
 62
3
 10
-263.821977276413920
 20
-185.571464372121570
 11
-263.821977276413920
 21
-233.014669429367020
  0
LINE
  8
0
  6
CONTINUOUS
 62
3
 10
-222.821977276463940
 20
-220.571464372121570
 11
-222.821977276463940
 21
-185.571464372121570
  0
LINE
  8
0
  6
CONTINUOUS
 62
3
 10
-215.821977276464050
 20
-223.571464372121570
 11
-219.821977276463940
 21
-223.571464372121570
  0
LINE
  8
0
  6
CONTINUOUS
 62
3
 10
-212.821977276464050
 20
-226.571464372121570
 11
-212.821977276464050
 21
-245.571464372121570
  0
LINE
  8
0
  6
CONTINUOUS
 62
4
 10
-222.821977276463940
 20
-217.322256088495920
 11
-63.821977276464168
 21
-217.322256088495920
  0
LINE
  8
0
  6
CONTINUOUS
 62
4
 10
-222.735641065460870
 20
-221.286001512295460
 11
-63.821977276464168
 21
-221.286001512295460
  0
LINE
  8
0
  6
CONTINUOUS
 62
4
 10
-221.724969834844160
 20
-222.890649427857510
 11
-63.821977276464168
 21
-222.890649427857510
  0
LINE
  8
0
  6
CONTINUOUS
 62
4
 10
-212.821977276464050
 20
-230.937251090591300
 11
-63.821977276464168
 21
-230.937251090591300
  0
LINE
  8
0
  6
CONTINUOUS
 62
4
 10
-212.821977276464050
 20
-235.886998558897060
 11
-63.821977276464168
 21
-235.886998558897060
  0
LINE
  8
0
  6
CONTINUOUS
 62
4
 10
-222.821977276463940
 20
-205.571464372121570
 11
-220.821977276463940
 21
-205.571464372121570
  0
LINE
  8
0
  6
CONTINUOUS
 62
4
 10
-145.821977276464050
 20
-205.571464372121570
 11
-63.821977276464168
 21
-205.571464372121570
  0
LINE
  8
0
  6
CONTINUOUS
 62
4
 10
-222.821977276463940
 20
-211.763398164601200
 11
-220.821977276463940
 21
-211.763398164601200
  0
LINE
  8
0
  6
CONTINUOUS
 62
4
 10
-145.821977276464050
 20
-211.763398164601200
 11
-63.821977276464168
 21
-211.763398164601200
  0
LINE
  8
0
  6
CONTINUOUS
 62
4
 10
-222.821977276463940
 20
-210.401517829251930
 11
-220.821977276463940
 21
-210.401517829251930
  0
LINE
  8
0
  6
CONTINUOUS
 62
4
 10
-145.821977276464050
 20
-210.401517829251930
 11
-63.821977276464168
 21
-210.401517829251930
  0
LINE
  8
0
  6
CONTINUOUS
 62
4
 10
-222.821977276463940
 20
-215.853898698690840
 11
-220.662574061370150
 21
-215.853898698690840
  0
LINE
  8
0
  6
CONTINUOUS
 62
4
 10
-145.981380491557960
 20
-215.853898698690840
 11
-63.821977276464168
 21
-215.853898698690840
  0
LINE
  8
0
  6
CONTINUOUS
 62
3
 10
-252.987530225905400
 20
-129.188423486341780
 11
-262.713276010926390
 21
-135.998463999725000
  0
LINE
  8
0
  6
CONTINUOUS
 62
3
 10
-263.821977276413920
 20
-185.571464372121570
 11
-263.821977276413920
 21
-138.128259314876120
  0
LINE
  8
0
  6
CONTINUOUS
 62
3
 10
-212.821977276464050
 20
-125.571464372121560
 11
-241.516001498884410
 21
-125.571464372121560
  0
LINE
  8
0
  6
CONTINUOUS
 62
3
 10
-63.821977276464168
 20
-127.071464372121560
 11
-212.821977276464050
 21
-127.071464372121560
  0
LINE
  8
0
  6
CONTINUOUS
 62
3
 10
-222.821977276463940
 20
-150.571464372121570
 11
-222.821977276463940
 21
-185.571464372121570
  0
LINE
  8
0
  6
CONTINUOUS
 62
3
 10
-215.821977276464050
 20
-147.571464372121570
 11
-219.821977276463940
 21
-147.571464372121570
  0
LINE
  8
0
  6
CONTINUOUS
 62
3
 10
-212.821977276464050
 20
-144.571464372121570
 11
-212.821977276464050
 21
-125.571464372121560
  0
LINE
  8
0
  6
CONTINUOUS
 62
4
 10
-222.821977276463940
 20
-153.820672655747220
 11
-63.821977276464168
 21
-153.820672655747220
  0
LINE
  8
0
  6
CONTINUOUS
 62
4
 10
-222.735641065460870
 20
-149.856927231947680
 11
-63.821977276464168
 21
-149.856927231947680
  0
LINE
  8
0
  6
CONTINUOUS
 62
4
 10
-221.724969834844160
 20
-148.252279316385620
 11
-63.821977276464168
 21
-148.252279316385620
  0
LINE
  8
0
  6
CONTINUOUS
 62
4
 10
-212.821977276464050
 20
-140.205677653651830
 11
-63.821977276464168
 21
-140.205677653651830
  0
LINE
  8
0
  6
CONTINUOUS
 62
4
 10
-212.821977276464050
 20
-135.255930185346070
 11
-63.821977276464168
 21
-135.255930185346070
  0
LINE
  8
0
  6
CONTINUOUS
 62
4
 10
-212.821977276464050
 20
-130.571464372121570
 11
-63.821977276464168
 21
-130.571464372121570
  0
LINE
  8
0
  6
CONTINUOUS
 62
4
 10
-212.821977276464050
 20
-129.571464372121570
 11
-63.821977276464168
 21
-129.571464372121570
  0
LINE
  8
0
  6
CONTINUOUS
 62
4
 10
-212.821977276464050
 20
-128.071464372121570
 11
-63.821977276464168
 21
-128.071464372121570
  0
LINE
  8
0
  6
CONTINUOUS
 62
4
 10
-212.821977276464050
 20
-128.571464372121570
 11
-63.821977276464168
 21
-128.571464372121570
  0
LINE
  8
0
  6
CONTINUOUS
 62
4
 10
-222.821977276463940
 20
-165.571464372121570
 11
-220.821977276463940
 21
-165.571464372121570
  0
LINE
  8
0
  6
CONTINUOUS
 62
4
 10
-145.821977276464050
 20
-165.571464372121570
 11
-63.821977276464168
 21
-165.571464372121570
  0
LINE
  8
0
  6
CONTINUOUS
 62
4
 10
-222.821977276463940
 20
-159.379530579641940
 11
-220.821977276463940
 21
-159.379530579641940
  0
LINE
  8
0
  6
CONTINUOUS
 62
4
 10
-145.821977276464050
 20
-159.379530579641940
 11
-63.821977276464168
 21
-159.379530579641940
  0
LINE
  8
0
  6
CONTINUOUS
 62
4
 10
-222.821977276463940
 20
-160.741410914991210
 11
-220.821977276463940
 21
-160.741410914991210
  0
LINE
  8
0
  6
CONTINUOUS
 62
4
 10
-145.821977276464050
 20
-160.741410914991210
 11
-63.821977276464168
 21
-160.741410914991210
  0
LINE
  8
0
  6
CONTINUOUS
 62
4
 10
-222.821977276463940
 20
-155.289030045552290
 11
-220.662574061370150
 21
-155.289030045552290
  0
LINE
  8
0
  6
CONTINUOUS
 62
4
 10
-145.981380491557960
 20
-155.289030045552290
 11
-63.821977276464168
 21
-155.289030045552290
  0
INSERT
  8
0
  2
SYM7
 10
29.178022723554022
 20
-162.071465185015090
  0
ARC
  8
0
  6
CONTINUOUS
 62
3
 10
-39.821977276464736
 20
-153.071464372122480
 40
5.000000000000000
 50
179.999999999994770
 51
270.000000000000000
  0
LINE
  8
0
  6
CONTINUOUS
 62
3
 10
-44.821977276465987
 20
-184.071464372122020
 11
-44.821977276464281
 21
-142.071464372121910
  0
ARC
  8
0
  6
CONTINUOUS
 62
3
 10
-39.821977276464281
 20
-142.071464372122140
 40
5.000000000000000
 50
179.999999999998690
 51
270.000000000000000
  0
LINE
  8
0
  6
CONTINUOUS
 62
3
 10
-44.821977276464281
 20
-142.071464372121910
 11
-44.821977276463826
 21
-131.344617192149140
  0
LINE
  8
0
  6
CONTINUOUS
 62
3
 10
-7.321977276464168
 20
-158.071464372122480
 11
-39.821977276464736
 21
-158.071464372122480
  0
LINE
  8
0
  6
CONTINUOUS
 62
3
 10
-7.180094099215012
 20
-147.071464372122020
 11
-39.821977276464281
 21
-147.071464372122020
  0
LINE
  8
0
  6
CONTINUOUS
 62
3
 10
-44.821977276465304
 20
-165.571464372125890
 11
-63.821977276464168
 21
-165.571464372125890
  0
LINE
  8
0
  6
DASHDOT
 62
4
 10
-22.321977276464168
 20
-165.897352400443080
 11
-22.321977276464168
 21
-143.175674103025810
  0
LINE
  8
0
  6
CONTINUOUS
 62
3
 10
-2.321977276464168
 20
-143.571464372122140
 11
-2.321977276464168
 21
-291.863701456274500
  0
LINE
  8
0
  6
CONTINUOUS
 62
3
 10
0.678022723535832
 20
-140.571464372122140
 11
7.678022723535832
 21
-140.571464372122140
  0
ARC
  8
0
  6
CONTINUOUS
 62
3
 10
0.678022723535832
 20
-143.571464372122140
 40
3.000000000000000
 50
90.000000000000000
 51
180.000000000000000
  0
ARC
  8
0
  6
CONTINUOUS
 62
3
 10
-7.180094099215012
 20
-142.071464372122140
 40
4.999999999999886
 50
270.000000000000000
 51
349.193077125139720
  0
ARC
  8
0
  6
CONTINUOUS
 62
3
 10
-7.321977276464168
 20
-153.071464372122480
 40
5.000000000000000
 50
270.000000000000000
 51
0.000000000000000
  0
LINE
  8
0
  6
CONTINUOUS
 62
3
 10
7.678022723535832
 20
-140.571464372122140
 11
7.678022723535832
 21
-153.071464372122480
  0
LINE
  8
0
  6
CONTINUOUS
 62
3
 10
7.678022723535832
 20
-153.071464372122480
 11
7.678022723535832
 21
-307.571464372122020
  0
LINE
  8
0
  6
CONTINUOUS
 62
3
 10
-5.321977276464168
 20
-189.071464372122250
 11
-39.821977276465987
 21
-189.071464372122250
  0
ARC
  8
0
  6
CONTINUOUS
 62
3
 10
-39.821977276465987
 20
-184.071464372122250
 40
5.000000000000000
 50
179.999999999997410
 51
270.000000000000000
  0
ARC
  8
0
  6
CONTINUOUS
 62
3
 10
-5.321977276464168
 20
-186.071464372122020
 40
3.000000000000227
 50
270.000000000000000
 51
0.000000000000000
  0
LINE
  8
0
  6
CONTINUOUS
 62
3
 10
-5.321977276464168
 20
-205.571464372125890
 11
-63.821977276464168
 21
-205.571464372125890
  0
ARC
  8
0
  6
CONTINUOUS
 62
3
 10
-5.321977276464168
 20
-208.571464372125890
 40
3.000000000000000
 50
0.000000000000000
 51
90.000000000000000
  0
ARC
  8
0
  6
CONTINUOUS
 62
3
 10
-54.821977276465645
 20
-247.547251423663620
 40
3.000000000000000
 50
0.000000000000000
 51
86.999999999996518
  0
LINE
  8
0
  6
CONTINUOUS
 62
3
 10
-41.147479792952595
 20
-251.444226038184180
 11
-48.926675766573226
 21
-251.172570528758000
  0
LINE
  8
0
  6
CONTINUOUS
 62
3
 10
-51.821977276465645
 20
-248.174398047700720
 11
-51.821977276465645
 21
-247.547251423663620
  0
LINE
  8
0
  6
CONTINUOUS
 62
3
 10
-39.164969407735157
 20
-245.363683398288120
 11
-63.821977276467919
 21
-244.071464372122020
  0
ARC
  8
0
  6
CONTINUOUS
 62
3
 10
-48.821977276465645
 20
-248.174398047700720
 40
3.000000000000000
 50
180.000000000000000
 51
267.999999999998520
  0
ARC
  8
0
  6
CONTINUOUS
 62
3
 10
-41.321977276465077
 20
-256.441180173279580
 40
5.000000000000000
 50
359.999999999997390
 51
88.000000000000227
  0
LINE
  8
0
  6
CONTINUOUS
 62
3
 10
-63.821977276464168
 20
-226.768486796389990
 11
-39.321977276464168
 21
-226.768486796389990
  0
ARC
  8
0
  6
CONTINUOUS
 62
3
 10
-39.321977276464168
 20
-229.768486796389990
 40
3.000000000000000
 50
0.000000000000000
 51
90.000000000000000
  0
ARC
  8
0
  6
CONTINUOUS
 62
3
 10
-39.321977276464168
 20
-248.359572002551770
 40
3.000000000000000
 50
0.000000000000000
 51
86.999999999996518
  0
LINE
  8
0
  6
CONTINUOUS
 62
3
 10
-39.949547340562276
 20
-239.437983228666440
 11
-63.821977276464168
 21
-239.437983228666440
  0
LINE
  8
0
  6
CONTINUOUS
 62
3
 10
-63.821977276464168
 20
-244.071464372122020
 11
-63.821977276464168
 21
-127.071464372121560
  0
LINE
  8
0
  6
CONTINUOUS
 62
3
 10
-36.321977276465191
 20
-262.243020498086820
 11
-36.321977276465077
 21
-256.441180173279800
  0
LINE
  8
0
  6
CONTINUOUS
 62
3
 10
-28.687414985110877
 20
-267.338069162069020
 11
-31.496474759977787
 21
-267.239974633182210
  0
ARC
  8
0
  6
CONTINUOUS
 62
3
 10
-31.321977276465191
 20
-262.243020498086820
 40
5.000000000000000
 50
180.000000000000000
 51
267.999999999998920
  0
LINE
  8
0
  6
CONTINUOUS
 62
3
 10
-36.321977276464168
 20
-256.441180173279580
 11
-36.321977276464168
 21
-229.768486796389990
  0
LINE
  8
0
  6
CONTINUOUS
 62
3
 10
-3.318728685121187
 20
-301.239457799901460
 11
-32.743581784009166
 21
-261.917619502073080
  0
LINE
  8
0
  6
CONTINUOUS
 62
3
 10
-28.663100257090264
 20
-260.715017693272670
 11
-6.630952619398158
 21
-260.715017693272670
  0
ARC
  8
0
  6
CONTINUOUS
 62
3
 10
-35.145530938815000
 20
-263.715017693272670
 40
3.000000000000004
 50
36.807809254663752
 51
90.000000000000000
  0
LINE
  8
0
  6
CONTINUOUS
 62
3
 10
-2.321977276464168
 20
-291.863701456274500
 11
-2.321977276464168
 21
-304.325190352783350
  0
ARC
  8
0
  6
CONTINUOUS
 62
3
 10
0.678022723535832
 20
-304.325190352783350
 40
3.000000000000000
 50
180.000000000000000
 51
268.000000000000680
  0
POINT
  8
0
  6
CONTINUOUS
 62
3
 10
-2.321977276464168
 20
-302.571464372122020
  0
LINE
  8
0
  6
CONTINUOUS
 62
3
 10
0.573324233428366
 20
-307.323362833840630
 11
7.678022723535832
 21
-307.571464372122020
  0
LINE
  8
0
  6
CONTINUOUS
 62
3
 10
-50.083657057678579
 20
-126.351469518376000
 11
-63.821977276464168
 21
-127.071464372121900
  0
ARC
  8
0
  6
CONTINUOUS
 62
3
 10
-49.821977276463826
 20
-131.344617192148920
 40
5.000000000000000
 50
359.999999999997390
 51
93.000000000000355
  0
ARC
  8
0
  6
CONTINUOUS
 62
3
 10
-7.321977276464224
 20
-304.235121451900800
 40
5.000000000000057
 50
0.000000000000000
 51
36.807809254664051
  0
LINE
  8
0
  6
DASHDOT
 62
4
 10
-51.082436386296649
 20
-185.571464372121570
 11
-275.344481205313970
 21
-185.571464372121570
  0
INSERT
  8
0
  2
SYM8
 10
-2.321977276464168
 20
139.183321625107740
  0
INSERT
  8
0
  2
SYM9
 10
-2.321977276464168
 20
248.784872709022470
  0
INSERT
  8
0
  2
SYM10
 10
12.678022723549930
 20
204.484097167066240
 41
-1.000000000000000
 50
180.000000000000030
  0
INSERT
  8
0
  2
SYM11
 10
29.178022723554022
 20
314.984097167065100
 41
-1.000000000000000
 50
180.000000000000030
  0
INSERT
  8
0
  2
SYM12
 10
29.178022723554250
 20
243.984097167065100
 41
-1.000000000000000
 50
180.000000000000030
  0
INSERT
  8
0
  2
SYM13
 10
12.678022723549930
 20
183.484097167063960
  0
INSERT
  8
0
  2
SYM14
 10
29.178022723554250
 20
72.984097167065102
  0
INSERT
  8
0
  2
SYM15
 10
29.178022723554250
 20
143.984097167065100
  0
ARC
  8
0
  6
DASHED
 62
4
 10
-208.321977276464050
 20
115.984097167065550
 40
7.000000000000000
 50
180.000000000000000
 51
0.000000000000000
  0
LINE
  8
0
  6
DASHED
 62
4
 10
-201.321977276464050
 20
115.984097167065550
 11
-201.321977276464050
 21
130.484097167065560
  0
LINE
  8
0
  6
DASHED
 62
4
 10
-215.321977276464050
 20
115.984097167065550
 11
-215.321977276464050
 21
130.484097167065560
  0
LINE
  8
0
  6
DASHDOT
 62
4
 10
-208.321977276464050
 20
107.039939909389430
 11
-208.321977276464050
 21
128.588428889921490
  0
LINE
  8
0
  6
DASHDOT
 62
4
 10
-217.407666383047630
 20
115.984097167065550
 11
-196.921078149338310
 21
115.984097167065550
  0
ARC
  8
0
  6
DASHED
 62
4
 10
-158.321977276464050
 20
115.984097167065550
 40
7.000000000000000
 50
180.000000000000000
 51
0.000000000000000
  0
CIRCLE
  8
0
  6
DASHED
 62
4
 10
-158.321977276464050
 20
115.984097167065550
 40
6.000000000000000
  0
LINE
  8
0
  6
DASHED
 62
4
 10
-165.321977276464050
 20
115.984097167065550
 11
-165.321977276464050
 21
130.484097167065560
  0
LINE
  8
0
  6
DASHED
 62
4
 10
-151.321977276464050
 20
115.984097167065550
 11
-151.321977276464050
 21
130.484097167065560
  0
LINE
  8
0
  6
DASHDOT
 62
4
 10
-158.321977276464050
 20
107.039939909389430
 11
-158.321977276464050
 21
129.019442041924780
  0
LINE
  8
0
  6
DASHDOT
 62
4
 10
-169.605506692190720
 20
115.984097167065550
 11
-147.838529283662410
 21
115.984097167065550
  0
POLYLINE
  8
0
  6
CONTINUOUS
 62
3
 66
1
 70
1
  0
VERTEX
  8
0
  6
CONTINUOUS
 62
3
 10
-219.121977276463500
 20
142.060572135005260
  0
VERTEX
  8
0
  6
CONTINUOUS
 62
3
 10
-219.212286458568310
 20
142.763529101205620
  0
VERTEX
  8
0
  6
CONTINUOUS
 62
3
 10
-219.479743473660450
 20
143.439471825417710
  0
VERTEX
  8
0
  6
CONTINUOUS
 62
3
 10
-219.914070098641530
 20
144.062424207823110
  0
VERTEX
  8
0
  6
CONTINUOUS
 62
3
 10
-220.498575404886710
 20
144.608446537721700
  0
VERTEX
  8
0
  6
CONTINUOUS
 62
3
 10
-221.210797181271370
 20
145.056555483188330
  0
VERTEX
  8
0
  6
CONTINUOUS
 62
3
 10
-222.023365144347570
 20
145.389530468751080
  0
VERTEX
  8
0
  6
CONTINUOUS
 62
3
 10
-222.905052762987680
 20
145.594575452449330
  0
VERTEX
  8
0
  6
CONTINUOUS
 62
3
 10
-223.821977276463490
 20
145.663810670550110
  0
VERTEX
  8
0
  6
CONTINUOUS
 62
3
 10
-224.738901789939290
 20
145.594575452449330
  0
VERTEX
  8
0
  6
CONTINUOUS
 62
3
 10
-225.620589408579410
 20
145.389530468751080
  0
VERTEX
  8
0
  6
CONTINUOUS
 62
3
 10
-226.433157371655600
 20
145.056555483188330
  0
VERTEX
  8
0
  6
CONTINUOUS
 62
3
 10
-227.145379148040260
 20
144.608446537721700
  0
VERTEX
  8
0
  6
CONTINUOUS
 62
3
 10
-227.729884454285440
 20
144.062424207823110
  0
VERTEX
  8
0
  6
CONTINUOUS
 62
3
 10
-228.164211079266520
 20
143.439471825417710
  0
VERTEX
  8
0
  6
CONTINUOUS
 62
3
 10
-228.431668094358660
 20
142.763529101205620
  0
VERTEX
  8
0
  6
CONTINUOUS
 62
3
 10
-228.521977276463470
 20
142.060572135005260
  0
VERTEX
  8
0
  6
CONTINUOUS
 62
3
 10
-228.431668094358660
 20
141.357615168804900
  0
VERTEX
  8
0
  6
CONTINUOUS
 62
3
 10
-228.164211079266520
 20
140.681672444592810
  0
VERTEX
  8
0
  6
CONTINUOUS
 62
3
 10
-227.729884454285440
 20
140.058720062187400
  0
VERTEX
  8
0
  6
CONTINUOUS
 62
3
 10
-227.145379148040230
 20
139.512697732288810
  0
VERTEX
  8
0
  6
CONTINUOUS
 62
3
 10
-226.433157371655600
 20
139.064588786822180
  0
VERTEX
  8
0
  6
CONTINUOUS
 62
3
 10
-225.620589408579410
 20
138.731613801259440
  0
VERTEX
  8
0
  6
CONTINUOUS
 62
3
 10
-224.738901789939290
 20
138.526568817561180
  0
VERTEX
  8
0
  6
CONTINUOUS
 62
3
 10
-223.821977276463490
 20
138.457333599460410
  0
VERTEX
  8
0
  6
CONTINUOUS
 62
3
 10
-222.905052762987680
 20
138.526568817561180
  0
VERTEX
  8
0
  6
CONTINUOUS
 62
3
 10
-222.023365144347570
 20
138.731613801259440
  0
VERTEX
  8
0
  6
CONTINUOUS
 62
3
 10
-221.210797181271370
 20
139.064588786822180
  0
VERTEX
  8
0
  6
CONTINUOUS
 62
3
 10
-220.498575404886740
 20
139.512697732288810
  0
VERTEX
  8
0
  6
CONTINUOUS
 62
3
 10
-219.914070098641530
 20
140.058720062187400
  0
VERTEX
  8
0
  6
CONTINUOUS
 62
3
 10
-219.479743473660450
 20
140.681672444592810
  0
VERTEX
  8
0
  6
CONTINUOUS
 62
3
 10
-219.212286458568310
 20
141.357615168804900
  0
SEQEND
  8
0
  6
CONTINUOUS
 62
3
  0
LINE
  8
0
  6
CONTINUOUS
 62
3
 10
-225.821977276463490
 20
139.068196581004940
 11
-223.821977276463490
 21
140.243982066627270
  0
LINE
  8
0
  6
CONTINUOUS
 62
3
 10
-223.821977276463490
 20
140.243982066627270
 11
-221.821977276463490
 21
141.896623705750700
  0
LINE
  8
0
  6
CONTINUOUS
 62
3
 10
-221.821977276463490
 20
139.068196581004940
 11
-223.821977276463490
 21
140.243982066627270
  0
LINE
  8
0
  6
CONTINUOUS
 62
3
 10
-223.821977276463490
 20
140.243982066627270
 11
-225.821977276463490
 21
141.896623705750700
  0
POLYLINE
  8
0
  6
CONTINUOUS
 62
3
 66
1
 70
1
  0
VERTEX
  8
0
  6
CONTINUOUS
 62
3
 10
-219.121977276463500
 20
245.907622199125170
  0
VERTEX
  8
0
  6
CONTINUOUS
 62
3
 10
-219.212286458568310
 20
246.610579165325530
  0
VERTEX
  8
0
  6
CONTINUOUS
 62
3
 10
-219.479743473660450
 20
247.286521889537620
  0
VERTEX
  8
0
  6
CONTINUOUS
 62
3
 10
-219.914070098641530
 20
247.909474271943030
  0
VERTEX
  8
0
  6
CONTINUOUS
 62
3
 10
-220.498575404886710
 20
248.455496601841620
  0
VERTEX
  8
0
  6
CONTINUOUS
 62
3
 10
-221.210797181271370
 20
248.903605547308250
  0
VERTEX
  8
0
  6
CONTINUOUS
 62
3
 10
-222.023365144347570
 20
249.236580532870990
  0
VERTEX
  8
0
  6
CONTINUOUS
 62
3
 10
-222.905052762987680
 20
249.441625516569250
  0
VERTEX
  8
0
  6
CONTINUOUS
 62
3
 10
-223.821977276463490
 20
249.510860734670020
  0
VERTEX
  8
0
  6
CONTINUOUS
 62
3
 10
-224.738901789939290
 20
249.441625516569250
  0
VERTEX
  8
0
  6
CONTINUOUS
 62
3
 10
-225.620589408579410
 20
249.236580532870990
  0
VERTEX
  8
0
  6
CONTINUOUS
 62
3
 10
-226.433157371655600
 20
248.903605547308250
  0
VERTEX
  8
0
  6
CONTINUOUS
 62
3
 10
-227.145379148040260
 20
248.455496601841620
  0
VERTEX
  8
0
  6
CONTINUOUS
 62
3
 10
-227.729884454285440
 20
247.909474271943030
  0
VERTEX
  8
0
  6
CONTINUOUS
 62
3
 10
-228.164211079266520
 20
247.286521889537620
  0
VERTEX
  8
0
  6
CONTINUOUS
 62
3
 10
-228.431668094358660
 20
246.610579165325530
  0
VERTEX
  8
0
  6
CONTINUOUS
 62
3
 10
-228.521977276463470
 20
245.907622199125170
  0
VERTEX
  8
0
  6
CONTINUOUS
 62
3
 10
-228.431668094358660
 20
245.204665232924810
  0
VERTEX
  8
0
  6
CONTINUOUS
 62
3
 10
-228.164211079266520
 20
244.528722508712720
  0
VERTEX
  8
0
  6
CONTINUOUS
 62
3
 10
-227.729884454285440
 20
243.905770126307320
  0
VERTEX
  8
0
  6
CONTINUOUS
 62
3
 10
-227.145379148040230
 20
243.359747796408730
  0
VERTEX
  8
0
  6
CONTINUOUS
 62
3
 10
-226.433157371655600
 20
242.911638850942100
  0
VERTEX
  8
0
  6
CONTINUOUS
 62
3
 10
-225.620589408579410
 20
242.578663865379350
  0
VERTEX
  8
0
  6
CONTINUOUS
 62
3
 10
-224.738901789939290
 20
242.373618881681100
  0
VERTEX
  8
0
  6
CONTINUOUS
 62
3
 10
-223.821977276463490
 20
242.304383663580320
  0
VERTEX
  8
0
  6
CONTINUOUS
 62
3
 10
-222.905052762987680
 20
242.373618881681100
  0
VERTEX
  8
0
  6
CONTINUOUS
 62
3
 10
-222.023365144347570
 20
242.578663865379350
  0
VERTEX
  8
0
  6
CONTINUOUS
 62
3
 10
-221.210797181271370
 20
242.911638850942100
  0
VERTEX
  8
0
  6
CONTINUOUS
 62
3
 10
-220.498575404886740
 20
243.359747796408730
  0
VERTEX
  8
0
  6
CONTINUOUS
 62
3
 10
-219.914070098641530
 20
243.905770126307320
  0
VERTEX
  8
0
  6
CONTINUOUS
 62
3
 10
-219.479743473660450
 20
244.528722508712720
  0
VERTEX
  8
0
  6
CONTINUOUS
 62
3
 10
-219.212286458568310
 20
245.204665232924810
  0
SEQEND
  8
0
  6
CONTINUOUS
 62
3
  0
LINE
  8
0
  6
CONTINUOUS
 62
3
 10
-225.821977276463490
 20
248.899997753125490
 11
-223.821977276463490
 21
247.724212267502710
  0
LINE
  8
0
  6
CONTINUOUS
 62
3
 10
-223.821977276463490
 20
247.724212267502710
 11
-221.821977276463490
 21
246.071570628379280
  0
LINE
  8
0
  6
CONTINUOUS
 62
3
 10
-221.821977276463490
 20
248.899997753125490
 11
-223.821977276463490
 21
247.724212267502710
  0
LINE
  8
0
  6
CONTINUOUS
 62
3
 10
-223.821977276463490
 20
247.724212267502710
 11
-225.821977276463490
 21
246.071570628379280
  0
LINE
  8
0
  6
CONTINUOUS
 62
3
 10
-212.821977276464050
 20
193.984097167065100
 11
-212.821977276464050
 21
258.984097167065100
  0
LINE
  8
0
  6
CONTINUOUS
 62
3
 10
-63.821977276464168
 20
253.484097167064870
 11
-63.821977276464168
 21
193.984097167065100
  0
LINE
  8
0
  6
CONTINUOUS
 62
3
 10
-212.821977276464050
 20
258.984097167065100
 11
-241.516001498884410
 21
258.984097167065100
  0
LINE
  8
0
  6
CONTINUOUS
 62
3
 10
-263.821977276413920
 20
193.984097167065100
 11
-263.821977276413920
 21
246.427302224310550
  0
ARC
  8
0
  6
CONTINUOUS
 62
3
 10
-241.516001498884410
 20
238.984097167065100
 40
20.000000000000000
 50
90.000000000000000
 51
125.000000000000240
  0
LINE
  8
0
  6
CONTINUOUS
 62
3
 10
-252.987530225905400
 20
255.367138052844890
 11
-262.713276010926390
 21
248.557097539461670
  0
ARC
  8
0
  6
CONTINUOUS
 62
3
 10
-261.221977276413780
 20
246.427302224310550
 40
2.599999999999721
 50
125.000000000001370
 51
180.000000000000000
  0
LINE
  8
0
  6
CONTINUOUS
 62
3
 10
-212.821977276464050
 20
193.984097167065100
 11
-212.821977276464050
 21
135.364876250192310
  0
LINE
  8
0
  6
CONTINUOUS
 62
3
 10
-63.821977276464168
 20
134.484097167065100
 11
-63.821977276464168
 21
193.984097167065100
  0
LINE
  8
0
  6
CONTINUOUS
 62
3
 10
-263.821977276413920
 20
193.984097167065100
 11
-263.821977276413920
 21
141.540892109819650
  0
LINE
  8
0
  6
CONTINUOUS
 62
3
 10
-252.987530225905400
 20
132.601056281285310
 11
-262.713276010926390
 21
139.411096794668540
  0
ARC
  8
0
  6
CONTINUOUS
 62
3
 10
-261.221977276413780
 20
141.540892109819650
 40
2.600000000000136
 50
180.000000000000000
 51
234.999999999998610
  0
LINE
  8
0
  6
CONTINUOUS
 62
3
 10
-222.821977276463940
 20
128.984097167065100
 11
-241.516001498884410
 21
128.984097167065100
  0
ARC
  8
0
  6
CONTINUOUS
 62
3
 10
-241.516001498884410
 20
148.984097167065100
 40
20.000000000000007
 50
234.999999999999740
 51
270.000000000000000
  0
LINE
  8
0
  6
CONTINUOUS
 62
3
 10
-220.821977276463940
 20
130.484097167065330
 11
-220.821977276463940
 21
132.193303374938520
  0
LINE
  8
0
  6
CONTINUOUS
 62
3
 10
-145.821977276464050
 20
135.484097167065330
 11
-212.821977276464050
 21
135.484097167065330
  0
LINE
  8
0
  6
CONTINUOUS
 62
3
 10
-145.821977276464050
 20
130.484097167065330
 11
-220.821977276463940
 21
130.484097167065330
  0
LINE
  8
0
  6
CONTINUOUS
 62
3
 10
-219.821977276463940
 20
101.984097167065550
 11
-219.821977276463940
 21
130.484097167065330
  0
LINE
  8
0
  6
CONTINUOUS
 62
3
 10
-146.821977276464050
 20
101.984097167065550
 11
-146.821977276464050
 21
130.484097167065330
  0
ARC
  8
0
  6
CONTINUOUS
 62
3
 10
-147.821977276464050
 20
101.984097167065550
 40
1.000000000000000
 50
270.000000000000000
 51
0.000000000000000
  0
ARC
  8
0
  6
CONTINUOUS
 62
3
 10
-218.821977276463940
 20
101.984097167065550
 40
1.000000000000000
 50
180.000000000000000
 51
270.000000000000000
  0
LINE
  8
0
  6
CONTINUOUS
 62
3
 10
-147.821977276464050
 20
100.984097167065550
 11
-218.821977276463940
 21
100.984097167065550
  0
LINE
  8
0
  6
CONTINUOUS
 62
3
 10
-153.821977276464050
 20
100.984097167065550
 11
-153.821977276464050
 21
100.484097167065550
  0
LINE
  8
0
  6
CONTINUOUS
 62
3
 10
-156.321977276464050
 20
100.984097167065550
 11
-156.321977276464050
 21
100.484097167065550
  0
LINE
  8
0
  6
CONTINUOUS
 62
3
 10
-161.821977276464050
 20
100.984097167065550
 11
-161.821977276464050
 21
100.484097167065550
  0
LINE
  8
0
  6
CONTINUOUS
 62
3
 10
-153.821977276464050
 20
100.484097167065550
 11
-161.821977276464050
 21
100.484097167065550
  0
LINE
  8
0
  6
CONTINUOUS
 62
3
 10
-145.821977276464050
 20
130.484097167065330
 11
-145.821977276464050
 21
135.484097167065330
  0
LINE
  8
0
  6
CONTINUOUS
 62
3
 10
-219.821977276463940
 20
132.364876250192310
 11
-215.821977276464050
 21
132.364876250192310
  0
LINE
  8
0
  6
CONTINUOUS
 62
3
 10
-222.821977276463940
 20
128.984097167065100
 11
-222.821977276463940
 21
129.364876250192310
  0
ARC
  8
0
  6
CONTINUOUS
 62
3
 10
-215.821977276464050
 20
135.364876250192310
 40
3.000000000000000
 50
270.000000000000000
 51
0.000000000000000
  0
ARC
  8
0
  6
CONTINUOUS
 62
3
 10
-219.821977276463940
 20
129.364876250192310
 40
3.000000000000000
 50
90.000000000000000
 51
180.000000000000000
  0
LINE
  8
0
  6
CONTINUOUS
 62
3
 10
-212.821977276464050
 20
253.484097167064870
 11
-63.821977276464168
 21
253.484097167064870
  0
LINE
  8
0
  6
CONTINUOUS
 62
3
 10
-145.821977276464050
 20
134.484097167065100
 11
-63.821977276464168
 21
134.484097167065100
  0
LINE
  8
0
  6
CONTINUOUS
 62
4
 10
-212.821977276464050
 20
136.984097167065100
 11
-63.821977276464168
 21
136.984097167065100
  0
LINE
  8
0
  6
CONTINUOUS
 62
4
 10
-212.821977276464050
 20
137.984097167065100
 11
-63.821977276464168
 21
137.984097167065100
  0
LINE
  8
0
  6
CONTINUOUS
 62
4
 10
-212.821977276464050
 20
138.984097167065100
 11
-63.821977276464168
 21
138.984097167065100
  0
LINE
  8
0
  6
CONTINUOUS
 62
4
 10
-212.821977276464050
 20
143.668562980289380
 11
-63.821977276464168
 21
143.668562980289380
  0
LINE
  8
0
  6
CONTINUOUS
 62
4
 10
-212.821977276464050
 20
148.618310448595140
 11
-63.821977276464168
 21
148.618310448595140
  0
LINE
  8
0
  6
CONTINUOUS
 62
4
 10
-212.821977276464050
 20
156.664912111329160
 11
-63.821977276464168
 21
156.664912111329160
  0
LINE
  8
0
  6
CONTINUOUS
 62
4
 10
-212.821977276464050
 20
158.269560026891210
 11
-63.821977276464168
 21
158.269560026891210
  0
LINE
  8
0
  6
CONTINUOUS
 62
4
 10
-212.821977276464050
 20
162.233305450690750
 11
-63.821977276464168
 21
162.233305450690750
  0
LINE
  8
0
  6
CONTINUOUS
 62
4
 10
-212.821977276464050
 20
163.701662840495370
 11
-63.821977276464168
 21
163.701662840495370
  0
LINE
  8
0
  6
CONTINUOUS
 62
4
 10
-212.821977276464050
 20
167.792163374585240
 11
-63.821977276464168
 21
167.792163374585240
  0
LINE
  8
0
  6
CONTINUOUS
 62
4
 10
-212.821977276464050
 20
169.154043709934510
 11
-63.821977276464168
 21
169.154043709934510
  0
LINE
  8
0
  6
CONTINUOUS
 62
4
 10
-212.821977276464050
 20
173.344597441476710
 11
-63.821977276464168
 21
173.344597441476710
  0
LINE
  8
0
  6
CONTINUOUS
 62
4
 10
-212.821977276464050
 20
174.610835357563930
 11
-63.821977276464168
 21
174.610835357563930
  0
LINE
  8
0
  6
CONTINUOUS
 62
4
 10
-212.821977276464050
 20
178.984097167065100
 11
-63.821977276464168
 21
178.984097167065100
  0
LINE
  8
0
  6
CONTINUOUS
 62
4
 10
-212.821977276464050
 20
231.303282222801040
 11
-63.821977276464168
 21
231.303282222801040
  0
LINE
  8
0
  6
CONTINUOUS
 62
4
 10
-212.821977276464050
 20
229.698634307238990
 11
-63.821977276464168
 21
229.698634307238990
  0
LINE
  8
0
  6
CONTINUOUS
 62
4
 10
-212.821977276464050
 20
225.734888883439450
 11
-63.821977276464168
 21
225.734888883439450
  0
LINE
  8
0
  6
CONTINUOUS
 62
4
 10
-212.821977276464050
 20
224.266531493634830
 11
-63.821977276464168
 21
224.266531493634830
  0
LINE
  8
0
  6
CONTINUOUS
 62
4
 10
-212.821977276464050
 20
220.176030959544960
 11
-63.821977276464168
 21
220.176030959544960
  0
LINE
  8
0
  6
CONTINUOUS
 62
4
 10
-212.821977276464050
 20
218.814150624195690
 11
-63.821977276464168
 21
218.814150624195690
  0
LINE
  8
0
  6
CONTINUOUS
 62
4
 10
-212.821977276464050
 20
214.623596892653500
 11
-63.821977276464168
 21
214.623596892653500
  0
LINE
  8
0
  6
CONTINUOUS
 62
4
 10
-212.821977276464050
 20
213.357358976566270
 11
-63.821977276464168
 21
213.357358976566270
  0
LINE
  8
0
  6
CONTINUOUS
 62
4
 10
-212.821977276464050
 20
208.984097167065100
 11
-63.821977276464168
 21
208.984097167065100
  0
LINE
  8
0
  6
CONTINUOUS
 62
4
 10
-212.821977276464050
 20
239.349883885535060
 11
-63.821977276464168
 21
239.349883885535060
  0
LINE
  8
0
  6
CONTINUOUS
 62
4
 10
-212.821977276464050
 20
244.299631353840820
 11
-63.821977276464168
 21
244.299631353840820
  0
LINE
  8
0
  6
CONTINUOUS
 62
4
 10
-212.821977276464050
 20
248.984097167065100
 11
-63.821977276464168
 21
248.984097167065100
  0
LINE
  8
0
  6
CONTINUOUS
 62
4
 10
-212.821977276464050
 20
249.984097167065100
 11
-63.821977276464168
 21
249.984097167065100
  0
LINE
  8
0
  6
CONTINUOUS
 62
4
 10
-212.821977276464050
 20
250.984097167065100
 11
-63.821977276464168
 21
250.984097167065100
  0
LINE
  8
0
  6
CONTINUOUS
 62
3
 10
-145.821977276464050
 20
253.484097167065100
 11
-63.821977276464168
 21
253.484097167065100
  0
LINE
  8
0
  6
CONTINUOUS
 62
3
 10
-88.321977276464168
 20
253.484097167064870
 11
-212.321977276464170
 21
253.484097167064870
  0
LINE
  8
0
  6
DASHDOT
 62
3
 10
-88.321977276464168
 20
253.484097167064870
 11
-88.321977276464168
 21
258.484097167064870
  0
LINE
  8
0
  6
CONTINUOUS
 62
3
 10
-212.321977276464170
 20
253.484097167064870
 11
-212.321977276464170
 21
258.484097167064870
  0
ARC
  8
0
  6
CONTINUOUS
 62
3
 10
-87.321977276464168
 20
276.986966787645770
 40
2.000000000000000
 50
270.000000000000000
 51
0.000000000000000
  0
ARC
  8
0
  6
CONTINUOUS
 62
3
 10
-87.321977276464168
 20
277.785968658764660
 40
2.000000000000000
 50
270.000000000000000
 51
0.000000000000000
  0
ARC
  8
0
  6
CONTINUOUS
 62
3
 10
-87.321977276464168
 20
278.584970529849900
 40
2.000000000000000
 50
270.000000000000000
 51
0.000000000000000
  0
ARC
  8
0
  6
CONTINUOUS
 62
3
 10
-87.321977276464168
 20
279.678607458127090
 40
2.000000000000000
 50
0.000000000000000
 51
90.000000000000000
  0
LINE
  8
0
  6
CONTINUOUS
 62
3
 10
-88.321977276464168
 20
281.678607458127090
 11
-87.321977276464168
 21
281.678607458127090
  0
LINE
  8
0
  6
CONTINUOUS
 62
3
 10
-87.321977276464168
 20
274.986966787645770
 11
-213.321977276464170
 21
274.986966787645770
  0
LINE
  8
0
  6
CONTINUOUS
 62
3
 10
-87.321977276464168
 20
275.785968658747830
 11
-213.321977276464170
 21
275.785968658747830
  0
LINE
  8
0
  6
CONTINUOUS
 62
3
 10
-85.321977276464168
 20
279.678607458127090
 11
-85.321977276464168
 21
276.986966787645770
  0
LINE
  8
0
  6
CONTINUOUS
 62
3
 10
-88.321977276464168
 20
263.484097167064870
 11
-88.321977276464168
 21
274.785968658764660
  0
LINE
  8
0
  6
CONTINUOUS
 62
3
 10
-207.321977276464170
 20
300.084097167064780
 11
-93.321977276464168
 21
300.084097167064780
  0
ARC
  8
0
  6
CONTINUOUS
 62
3
 10
-93.321977276464168
 20
295.084097167064780
 40
5.000000000000000
 50
0.000000000000000
 51
90.000000000000000
  0
LINE
  8
0
  6
CONTINUOUS
 62
3
 10
-212.321977276464170
 20
263.484097167064870
 11
-212.321977276464170
 21
274.986966787645770
  0
ARC
  8
0
  6
CONTINUOUS
 62
3
 10
-213.321977276464170
 20
276.986966787645770
 40
2.000000000000000
 50
180.000000000000000
 51
270.000000000000000
  0
LINE
  8
0
  6
CONTINUOUS
 62
3
 10
-215.321977276464170
 20
279.678607458127090
 11
-215.321977276464170
 21
276.986966787645770
  0
ARC
  8
0
  6
CONTINUOUS
 62
3
 10
-213.321977276464170
 20
277.785968658764660
 40
2.000000000000000
 50
180.000000000000000
 51
270.000000000000000
  0
ARC
  8
0
  6
CONTINUOUS
 62
3
 10
-213.321977276464170
 20
278.584970529849900
 40
2.000000000000000
 50
180.000000000000000
 51
270.000000000000000
  0
ARC
  8
0
  6
CONTINUOUS
 62
3
 10
-213.321977276464170
 20
279.678607458127090
 40
2.000000000000000
 50
90.000000000000000
 51
180.000000000000000
  0
ARC
  8
0
  6
CONTINUOUS
 62
3
 10
-207.321977276464170
 20
295.084097167064780
 40
5.000000000000000
 50
90.000000000000000
 51
180.000000000000000
  0
ARC
  8
0
  6
CONTINUOUS
 62
3
 10
-207.321977276464170
 20
263.484097167064870
 40
5.000000000000000
 50
180.000000000000000
 51
270.000000000000000
  0
LINE
  8
0
  6
CONTINUOUS
 62
3
 10
-87.321977276464168
 20
276.584970529849900
 11
-213.321977276464170
 21
276.584970529849900
  0
LINE
  8
0
  6
CONTINUOUS
 62
3
 10
-212.321977276464170
 20
281.678607458127090
 11
-213.321977276464170
 21
281.678607458127090
  0
LINE
  8
0
  6
CONTINUOUS
 62
3
 10
-212.321977276464170
 20
282.145122226751710
 11
-212.321977276464170
 21
295.084097167064780
  0
ARC
  8
0
  6
CONTINUOUS
 62
3
 10
-93.321977276464168
 20
263.484097167064870
 40
5.000000000000000
 50
270.000000000000000
 51
0.000000000000000
  0
LINE
  8
0
  6
CONTINUOUS
 62
3
 10
-88.321977276464168
 20
282.145122226751710
 11
-88.321977276464168
 21
295.084097167064780
  0
POLYLINE
  8
0
  6
CONTINUOUS
 62
3
 66
1
  0
VERTEX
  8
0
  6
CONTINUOUS
 62
3
 10
-208.821977276464170
 20
276.834658614569660
  0
VERTEX
  8
0
  6
CONTINUOUS
 62
3
 10
-208.754725757875460
 20
276.800560404373700
  0
VERTEX
  8
0
  6
CONTINUOUS
 62
3
 10
-208.555555640253660
 20
276.767772569273060
  0
VERTEX
  8
0
  6
CONTINUOUS
 62
3
 10
-208.232120919523080
 20
276.737555127383020
  0
VERTEX
  8
0
  6
CONTINUOUS
 62
3
 10
-207.796851010617080
 20
276.711069318049340
  0
VERTEX
  8
0
  6
CONTINUOUS
 62
3
 10
-207.266473092032780
 20
276.689332976071230
  0
VERTEX
  8
0
  6
CONTINUOUS
 62
3
 10
-206.661369289741970
 20
276.673181416881050
  0
VERTEX
  8
0
  6
CONTINUOUS
 62
3
 10
-206.004793403520610
 20
276.663235335840620
  0
VERTEX
  8
0
  6
CONTINUOUS
 62
3
 10
-205.321977276464170
 20
276.659876955266440
  0
VERTEX
  8
0
  6
CONTINUOUS
 62
3
 10
-204.639161149407730
 20
276.663235335840620
  0
VERTEX
  8
0
  6
CONTINUOUS
 62
3
 10
-203.982585263186370
 20
276.673181416881050
  0
VERTEX
  8
0
  6
CONTINUOUS
 62
3
 10
-203.377481460895550
 20
276.689332976071230
  0
VERTEX
  8
0
  6
CONTINUOUS
 62
3
 10
-202.847103542311260
 20
276.711069318049340
  0
VERTEX
  8
0
  6
CONTINUOUS
 62
3
 10
-202.411833633405250
 20
276.737555127383020
  0
VERTEX
  8
0
  6
CONTINUOUS
 62
3
 10
-202.088398912674680
 20
276.767772569273060
  0
VERTEX
  8
0
  6
CONTINUOUS
 62
3
 10
-201.889228795052870
 20
276.800560404373700
  0
VERTEX
  8
0
  6
CONTINUOUS
 62
3
 10
-201.821977276464170
 20
276.834658614569660
  0
SEQEND
  8
0
  6
CONTINUOUS
 62
3
  0
ARC
  8
0
  6
CONTINUOUS
 62
3
 10
-203.121977276464350
 20
277.821668352494040
 40
1.300000000000182
 50
0.000000000000000
 51
73.398450400977637
  0
ARC
  8
0
  6
CONTINUOUS
 62
3
 10
-205.321977276464170
 20
270.442644026744570
 40
9.000000000000123
 50
73.398450400980877
 51
106.601549599019120
  0
ARC
  8
0
  6
CONTINUOUS
 62
3
 10
-207.521977276463990
 20
277.821668352494040
 40
1.300000000000019
 50
106.601549599022360
 51
180.000000000000000
  0
LINE
  8
0
  6
CONTINUOUS
 62
3
 10
-201.821977276464170
 20
277.821668352494040
 11
-201.821977276464170
 21
276.834658614569660
  0
LINE
  8
0
  6
CONTINUOUS
 62
3
 10
-208.821977276464170
 20
277.821668352494040
 11
-208.821977276464170
 21
276.834658614569660
  0
ARC
  8
0
  6
CONTINUOUS
 62
3
 10
-207.321977276464170
 20
282.145122226751710
 40
5.000000000000000
 50
180.000000000000000
 51
252.542396876278160
  0
LINE
  8
0
  6
CONTINUOUS
 62
3
 10
-98.821977276464168
 20
277.821668352494040
 11
-98.821977276464168
 21
276.834658614569660
  0
POLYLINE
  8
0
  6
CONTINUOUS
 62
3
 66
1
  0
VERTEX
  8
0
  6
CONTINUOUS
 62
3
 10
-98.821977276464168
 20
276.834658614569660
  0
VERTEX
  8
0
  6
CONTINUOUS
 62
3
 10
-98.754725757875477
 20
276.800560404373700
  0
VERTEX
  8
0
  6
CONTINUOUS
 62
3
 10
-98.555555640253672
 20
276.767772569273060
  0
VERTEX
  8
0
  6
CONTINUOUS
 62
3
 10
-98.232120919523069
 20
276.737555127383020
  0
VERTEX
  8
0
  6
CONTINUOUS
 62
3
 10
-97.796851010617090
 20
276.711069318049340
  0
VERTEX
  8
0
  6
CONTINUOUS
 62
3
 10
-97.266473092032783
 20
276.689332976071230
  0
VERTEX
  8
0
  6
CONTINUOUS
 62
3
 10
-96.661369289741984
 20
276.673181416881050
  0
VERTEX
  8
0
  6
CONTINUOUS
 62
3
 10
-96.004793403520623
 20
276.663235335840620
  0
VERTEX
  8
0
  6
CONTINUOUS
 62
3
 10
-95.321977276464168
 20
276.659876955266440
  0
VERTEX
  8
0
  6
CONTINUOUS
 62
3
 10
-94.639161149407727
 20
276.663235335840620
  0
VERTEX
  8
0
  6
CONTINUOUS
 62
3
 10
-93.982585263186351
 20
276.673181416881050
  0
VERTEX
  8
0
  6
CONTINUOUS
 62
3
 10
-93.377481460895567
 20
276.689332976071230
  0
VERTEX
  8
0
  6
CONTINUOUS
 62
3
 10
-92.847103542311260
 20
276.711069318049340
  0
VERTEX
  8
0
  6
CONTINUOUS
 62
3
 10
-92.411833633405266
 20
276.737555127383020
  0
VERTEX
  8
0
  6
CONTINUOUS
 62
3
 10
-92.088398912674663
 20
276.767772569273060
  0
VERTEX
  8
0
  6
CONTINUOUS
 62
3
 10
-91.889228795052858
 20
276.800560404373700
  0
VERTEX
  8
0
  6
CONTINUOUS
 62
3
 10
-91.821977276464168
 20
276.834658614569660
  0
SEQEND
  8
0
  6
CONTINUOUS
 62
3
  0
LINE
  8
0
  6
CONTINUOUS
 62
3
 10
-91.821977276464168
 20
277.821668352494040
 11
-91.821977276464168
 21
276.834658614569660
  0
ARC
  8
0
  6
CONTINUOUS
 62
3
 10
-97.521977276463986
 20
277.821668352494040
 40
1.300000000000019
 50
106.601549599022360
 51
180.000000000000000
  0
ARC
  8
0
  6
CONTINUOUS
 62
3
 10
-95.321977276464168
 20
270.442644026744570
 40
9.000000000000123
 50
73.398450400980877
 51
106.601549599019120
  0
ARC
  8
0
  6
CONTINUOUS
 62
3
 10
-93.121977276464349
 20
277.821668352494040
 40
1.300000000000182
 50
0.000000000000000
 51
73.398450400977637
  0
ARC
  8
0
  6
CONTINUOUS
 62
3
 10
-93.321977276464168
 20
282.145122226751710
 40
5.000000000000072
 50
287.457603123721870
 51
0.000000000000000
  0
LINE
  8
0
  6
CONTINUOUS
 62
3
 10
-98.821977276464168
 20
277.145122226751710
 11
-201.821977276464170
 21
277.145122226751710
  0
LINE
  8
0
  6
CONTINUOUS
 62
3
 10
-212.321977276464170
 20
258.484097167064870
 11
-88.321977276464168
 21
258.484097167064870
  0
LINE
  8
0
  6
DASHDOT
 62
3
 10
-88.321977276464168
 20
253.484097167064870
 11
-88.321977276464168
 21
258.484097167064870
  0
LINE
  8
0
  6
CONTINUOUS
 62
3
 10
0.573324233428593
 20
110.732198705346490
 11
7.678022723561867
 21
110.484097167064190
  0
LINE
  8
0
  6
CONTINUOUS
 62
3
 10
0.678022723535832
 20
277.484097167065100
 11
7.678022723561412
 21
277.484097167065100
  0
ARC
  8
0
  6
CONTINUOUS
 62
3
 10
-7.321977276464168
 20
129.484097167065100
 40
5.000000000000000
 50
0.000000000000000
 51
52.171363151966126
  0
ARC
  8
0
  6
CONTINUOUS
 62
3
 10
-7.321977276464168
 20
258.484097167065100
 40
5.000000000000009
 50
307.828636848032320
 51
0.000000000000000
  0
ARC
  8
0
  6
CONTINUOUS
 62
3
 10
0.678022723535832
 20
113.730371186403770
 40
3.000000000000000
 50
180.000000000000000
 51
268.000000000000680
  0
LINE
  8
0
  6
CONTINUOUS
 62
3
 10
-2.321977276464168
 20
274.484097167065100
 11
-2.321977276464168
 21
113.730371186403770
  0
ARC
  8
0
  6
CONTINUOUS
 62
3
 10
0.678022723535832
 20
274.484097167065100
 40
3.000000000000000
 50
90.000000000000000
 51
180.000000000000000
  0
LINE
  8
0
  6
CONTINUOUS
 62
3
 10
40.678022723554250
 20
58.984097167064647
 11
40.678022723554250
 21
328.984097167065780
  0
LINE
  8
0
  6
CONTINUOUS
 62
3
 10
40.678022723554250
 20
58.984097167064647
 11
40.678022723554250
 21
299.001557551811170
  0
LINE
  8
0
  6
CONTINUOUS
 62
3
 10
151.852520207066850
 20
55.101798167082734
 11
40.677718137063721
 21
58.984107803459210
  0
LINE
  8
0
  6
CONTINUOUS
 62
3
 10
151.852520207066850
 20
332.866396167047470
 11
40.677718137063721
 21
328.984086530670990
  0
LINE
  8
0
  6
DASHDOT
 62
4
 10
285.625128800454150
 20
193.984097167065100
 11
-293.345730743702920
 21
193.984097167065100
  0
LINE
  8
0
  6
CONTINUOUS
 62
3
 10
19.691334655668015
 20
278.008872608694220
 11
11.573350811072714
 21
277.583427103144000
  0
ARC
  8
0
  6
CONTINUOUS
 62
3
 10
26.178022723554022
 20
300.026057275515090
 40
3.000000000000123
 50
38.028903311269509
 51
80.405931773141646
  0
LINE
  8
0
  6
CONTINUOUS
 62
3
 10
13.403698534212481
 20
261.052906731420530
 11
28.990855526112910
 21
303.087034815982180
  0
ARC
  8
0
  6
CONTINUOUS
 62
3
 10
26.178022723554022
 20
304.130093599008430
 40
2.999999999999916
 50
339.654138359445990
 51
0.000000000000000
  0
ARC
  8
0
  6
CONTINUOUS
 62
3
 10
10.590865731653594
 20
262.095965514446790
 40
3.000000000000227
 50
270.000000000000000
 51
339.654138359445990
  0
LINE
  8
0
  6
CONTINUOUS
 62
3
 10
13.403698534212481
 20
254.444787554301910
 11
27.432575666966613
 21
254.444787554301910
  0
ARC
  8
0
  6
CONTINUOUS
 62
3
 10
10.590865731653594
 20
257.444787554302140
 40
3.000000000000227
 50
270.000000000000000
 51
339.654138359445990
  0
LINE
  8
0
  6
CONTINUOUS
 62
3
 10
13.403698534212481
 20
256.401728771275880
 11
28.990855526112910
 21
298.435856855837530
  0
ARC
  8
0
  6
CONTINUOUS
 62
3
 10
26.178022723554022
 20
299.478915638863780
 40
2.999999999999916
 50
339.654138359445990
 51
0.000000000000000
  0
LINE
  8
0
  6
CONTINUOUS
 62
3
 10
7.678022723541062
 20
210.984097167066240
 11
7.678022723561412
 21
277.484097167065100
  0
LINE
  8
0
  6
CONTINUOUS
 62
3
 10
7.678022723536060
 20
193.984097167065100
 11
7.678022723537197
 21
197.984097167066240
  0
LINE
  8
0
  6
CONTINUOUS
 62
3
 10
9.678022723558797
 20
210.984097167066240
 11
9.678022723558797
 21
275.586168033635200
  0
LINE
  8
0
  6
CONTINUOUS
 62
3
 10
9.678022723558797
 20
193.984097167065100
 11
9.678022723558797
 21
197.984097167066240
  0
ARC
  8
0
  6
CONTINUOUS
 62
3
 10
7.678022723557660
 20
266.984097167065330
 40
2.000000000000000
 50
270.000000000000000
 51
0.000000000000000
  0
ARC
  8
0
  6
CONTINUOUS
 62
3
 10
11.678022723558797
 20
275.586168033635200
 40
1.999999999999663
 50
93.000000000006111
 51
180.000000000000000
  0
LINE
  8
0
  6
CONTINUOUS
 62
3
 10
24.178022723554022
 20
308.484097167065100
 11
24.178022723554022
 21
305.942137058615120
  0
LINE
  8
0
  6
CONTINUOUS
 62
3
 10
24.178022723554022
 20
326.984097167065100
 11
24.178022723554022
 21
321.484097167065100
  0
LINE
  8
0
  6
CONTINUOUS
 62
3
 10
12.678022723550612
 20
193.984097167065100
 11
12.678022723550612
 21
214.484097167065100
  0
LINE
  8
0
  6
CONTINUOUS
 62
3
 10
17.178022723554250
 20
214.484097167065100
 11
12.678022723550612
 21
214.484097167065100
  0
LINE
  8
0
  6
CONTINUOUS
 62
3
 10
17.178022723554250
 20
193.984097167065100
 11
17.178022723554250
 21
214.484097167065100
  0
ARC
  8
0
  6
CONTINUOUS
 62
3
 10
20.178022723554250
 20
211.691793151119330
 40
3.000000000000001
 50
92.000000000003652
 51
180.000000000000000
  0
LINE
  8
0
  6
CONTINUOUS
 62
3
 10
24.352520207066846
 20
214.839398448381640
 11
20.073324233446556
 21
214.689965632176610
  0
ARC
  8
0
  6
CONTINUOUS
 62
3
 10
24.178022723554250
 20
219.836352583477040
 40
4.999999999999918
 50
272.000000000001080
 51
0.000000000000000
  0
ARC
  8
0
  6
CONTINUOUS
 62
3
 10
26.178022723554022
 20
326.984097167065100
 40
2.000000000000000
 50
90.000000000000000
 51
180.000000000000000
  0
LINE
  8
0
  6
CONTINUOUS
 62
3
 10
26.178022723554022
 20
328.984097167065100
 11
40.678022723554250
 21
328.984097167065100
  0
ARC
  8
0
  6
CONTINUOUS
 62
3
 10
27.178022723554022
 20
305.942137058615120
 40
3.000000000000000
 50
180.000000000000000
 51
260.405931773138780
  0
LINE
  8
0
  6
CONTINUOUS
 62
3
 10
29.178022723554250
 20
193.984097167065100
 11
29.178022723554022
 21
326.984097167065100
  0
LINE
  8
0
  6
CONTINUOUS
 62
3
 10
40.178022723554250
 20
193.984097167065100
 11
40.178022723554022
 21
328.984097167065100
  0
ARC
  8
0
  6
CONTINUOUS
 62
3
 10
31.178022723554022
 20
326.984097167065100
 40
2.000000000000000
 50
90.000000000000000
 51
180.000000000000000
  0
LINE
  8
0
  6
CONTINUOUS
 62
3
 10
19.691334655668015
 20
109.959321725435980
 11
11.573350811072714
 21
110.384767230986190
  0
ARC
  8
0
  6
CONTINUOUS
 62
3
 10
26.178022723554250
 20
87.942137058615117
 40
3.000000000000653
 50
279.594068226858330
 51
321.971096688727810
  0
LINE
  8
0
  6
CONTINUOUS
 62
3
 10
13.403698534212481
 20
126.915287602709660
 11
28.990855526112910
 21
84.881159518148024
  0
ARC
  8
0
  6
CONTINUOUS
 62
3
 10
26.178022723554250
 20
83.838100735121770
 40
3.000000000000000
 50
0.000000000000000
 51
20.345861640555512
  0
ARC
  8
0
  6
CONTINUOUS
 62
3
 10
10.590865731653594
 20
125.872228819683410
 40
2.999999999999916
 50
20.345861640554002
 51
90.000000000000000
  0
LINE
  8
0
  6
CONTINUOUS
 62
3
 10
13.403698534212481
 20
133.523406779828290
 11
27.432575666966613
 21
133.523406779828290
  0
ARC
  8
0
  6
CONTINUOUS
 62
3
 10
10.590865731653594
 20
130.523406779828060
 40
2.999999999999916
 50
20.345861640554002
 51
90.000000000000000
  0
LINE
  8
0
  6
CONTINUOUS
 62
3
 10
13.403698534212481
 20
131.566465562854320
 11
28.990855526112910
 21
89.532337478292675
  0
ARC
  8
0
  6
CONTINUOUS
 62
3
 10
26.178022723554250
 20
88.489278695266421
 40
3.000000000000000
 50
0.000000000000000
 51
20.345861640555512
  0
LINE
  8
0
  6
CONTINUOUS
 62
3
 10
7.678022723541062
 20
176.984097167063960
 11
7.678022723561867
 21
110.484097167064190
  0
LINE
  8
0
  6
CONTINUOUS
 62
3
 10
7.678022723536060
 20
193.984097167065100
 11
7.678022723537197
 21
189.984097167063960
  0
LINE
  8
0
  6
CONTINUOUS
 62
3
 10
9.678022723558797
 20
176.984097167063960
 11
9.678022723558797
 21
112.382026300494990
  0
LINE
  8
0
  6
CONTINUOUS
 62
3
 10
9.678022723558797
 20
193.984097167065100
 11
9.678022723558797
 21
189.984097167063960
  0
ARC
  8
0
  6
CONTINUOUS
 62
3
 10
7.678022723557660
 20
120.984097167064870
 40
2.000000000000000
 50
0.000000000000000
 51
90.000000000000000
  0
ARC
  8
0
  6
CONTINUOUS
 62
3
 10
11.678022723558797
 20
112.382026300494990
 40
2.000000000000000
 50
180.000000000000000
 51
266.999999999993860
  0
LINE
  8
0
  6
CONTINUOUS
 62
3
 10
24.178022723554250
 20
79.484097167065102
 11
24.178022723554250
 21
82.026057275515086
  0
LINE
  8
0
  6
CONTINUOUS
 62
3
 10
24.178022723554250
 20
60.984097167065102
 11
24.178022723554250
 21
66.484097167065102
  0
LINE
  8
0
  6
CONTINUOUS
 62
3
 10
12.678022723550612
 20
193.984097167065100
 11
12.678022723550612
 21
173.484097167065100
  0
LINE
  8
0
  6
CONTINUOUS
 62
3
 10
17.178022723554250
 20
173.484097167065100
 11
12.678022723550612
 21
173.484097167065100
  0
LINE
  8
0
  6
CONTINUOUS
 62
3
 10
17.178022723554250
 20
193.984097167065100
 11
17.178022723554250
 21
173.484097167065100
  0
ARC
  8
0
  6
CONTINUOUS
 62
3
 10
20.178022723554250
 20
176.276401183010880
 40
3.000000000000000
 50
180.000000000000000
 51
267.999999999996360
  0
LINE
  8
0
  6
CONTINUOUS
 62
3
 10
24.352520207066846
 20
173.128795885748560
 11
20.073324233446556
 21
173.278228701953590
  0
ARC
  8
0
  6
CONTINUOUS
 62
3
 10
24.178022723554250
 20
168.131841750653170
 40
5.000000000000000
 50
0.000000000000000
 51
87.999999999998934
  0
ARC
  8
0
  6
CONTINUOUS
 62
3
 10
26.178022723554250
 20
60.984097167065102
 40
2.000000000000000
 50
180.000000000000000
 51
270.000000000000000
  0
LINE
  8
0
  6
CONTINUOUS
 62
3
 10
26.178022723554250
 20
58.984097167065102
 11
40.678022723554250
 21
58.984097167065102
  0
ARC
  8
0
  6
CONTINUOUS
 62
3
 10
27.178022723554250
 20
82.026057275515086
 40
2.999999999999756
 50
99.594068226861253
 51
180.000000000000000
  0
LINE
  8
0
  6
CONTINUOUS
 62
3
 10
29.178022723554250
 20
193.984097167065100
 11
29.178022723554250
 21
60.984097167065102
  0
LINE
  8
0
  6
CONTINUOUS
 62
3
 10
40.178022723554250
 20
193.984097167065100
 11
40.178022723554250
 21
58.984097167065102
  0
ARC
  8
0
  6
CONTINUOUS
 62
3
 10
31.178022723554250
 20
60.984097167065102
 40
2.000000000000000
 50
180.000000000000000
 51
270.000000000000000
  0
LINE
  8
0
  6
CONTINUOUS
 62
3
 10
-63.821977276464168
 20
253.484097167065100
 11
-6.321951890615082
 21
253.484097167065100
  0
CIRCLE
  8
0
  6
CONTINUOUS
 62
3
 10
-22.321977276464168
 20
193.984097167065100
 40
9.625113364740628
  0
ARC
  8
0
  6
CONTINUOUS
 62
3
 10
-41.821977276469624
 20
175.984097167065100
 40
3.000000000000000
 50
90.000000000000000
 51
180.000000000000000
  0
LINE
  8
0
  6
CONTINUOUS
 62
3
 10
-41.821977276469624
 20
178.984097167065100
 11
-5.321977276464168
 21
178.984097167065100
  0
ARC
  8
0
  6
CONTINUOUS
 62
3
 10
-41.821977276467805
 20
211.984097167065100
 40
2.999999999999545
 50
180.000000000000000
 51
270.000000000000000
  0
LINE
  8
0
  6
CONTINUOUS
 62
3
 10
-41.821977276467805
 20
208.984097167065100
 11
-5.321977276464168
 21
208.984097167065100
  0
ARC
  8
0
  6
CONTINUOUS
 62
3
 10
-49.821977276465077
 20
248.484097167065100
 40
4.999999999999545
 50
359.999999999997390
 51
90.000000000000000
  0
LINE
  8
0
  6
CONTINUOUS
 62
3
 10
-44.821977276470534
 20
139.484097167064870
 11
-44.821977276465532
 21
248.484097167064870
  0
LINE
  8
0
  6
CONTINUOUS
 62
3
 10
-63.821977276464168
 20
253.484097167064870
 11
-63.821977276464168
 21
193.984097167065100
  0
LINE
  8
0
  6
CONTINUOUS
 62
3
 10
-63.821977276464168
 20
134.484097167065100
 11
-63.821977276464168
 21
193.984097167065100
  0
LINE
  8
0
  6
CONTINUOUS
 62
3
 10
-63.821977276464168
 20
134.484097167065100
 11
-6.322449845315532
 21
134.484097167065100
  0
ARC
  8
0
  6
CONTINUOUS
 62
3
 10
-49.821977276470079
 20
139.484097167065100
 40
5.000000000000000
 50
270.000000000000000
 51
359.999999999997390
  0
ARC
  8
0
  6
CONTINUOUS
 62
3
 10
-5.321977276464168
 20
175.984097167065100
 40
3.000000000000000
 50
0.000000000000000
 51
90.000000000000000
  0
ARC
  8
0
  6
CONTINUOUS
 62
3
 10
-5.321977276464168
 20
211.984097167065100
 40
3.000000000000000
 50
270.000000000000000
 51
0.000000000000000
  0
LINE
  8
0
  6
DASHDOT
 62
4
 10
-22.321977276464168
 20
175.696674002620060
 11
-22.321977276464168
 21
213.052091479282350
  0
INSERT
  8
0
  2
SYM16
 10
-519.071083520893810
 20
-278.872239914075180
  0
INSERT
  8
0
  2
SYM17
 10
-409.469532436978620
 20
-278.872239914075180
  0
INSERT
  8
0
  2
SYM18
 10
-453.770307978936220
 20
-92.071464372117816
  0
INSERT
  8
0
  2
SYM19
 10
-414.270307978936220
 20
-93.071465185010993
  0
INSERT
  8
0
  2
SYM20
 10
-343.270307978936220
 20
-162.071465185010770
  0
INSERT
  8
0
  2
SYM21
 10
-342.270307978935760
 20
-252.071464372117360
  0
INSERT
  8
0
  2
SYM22
 10
-386.770307978936220
 20
-344.071464372117360
  0
INSERT
  8
0
  2
SYM23
 10
-456.770307978936220
 20
-343.071464372117360
  0
INSERT
  8
0
  2
SYM24
 10
-585.270307978936220
 20
-162.071465185010990
 41
-1.000000000000000
  0
INSERT
  8
0
  2
SYM25
 10
-586.270307978936670
 20
-252.071464372117590
 41
-1.000000000000000
  0
INSERT
  8
0
  2
SYM26
 10
-541.770307978935760
 20
-344.071464372117360
 41
-1.000000000000000
  0
INSERT
  8
0
  2
SYM27
 10
-474.770307978936220
 20
-92.071464372117816
 41
-1.000000000000000
  0
INSERT
  8
0
  2
SYM28
 10
-514.270307978936220
 20
-93.071465185010993
 41
-1.000000000000000
  0
INSERT
  8
0
  2
SYM29
 10
-551.715130185279580
 20
-226.490420983382020
 41
1.000000000000000
 42
1.000000000000000
 43
1.000000000000000
 50
357.137594773886350
  0
LINE
  8
0
  6
CONTINUOUS
 62
3
 10
-380.770307978936220
 20
-215.571464372121110
 11
-380.770307978936220
 21
-237.571464372117820
  0
LINE
  8
0
  6
CONTINUOUS
 62
3
 10
-450.770307978936220
 20
-307.571464372117820
 11
-477.770307978936220
 21
-307.571464372117820
  0
LINE
  8
0
  6
CONTINUOUS
 62
3
 10
-547.770307978936220
 20
-220.335933390532940
 11
-547.770307978936220
 21
-237.571464372117820
  0
ARC
  8
0
  6
CONTINUOUS
 62
3
 10
-450.770307978936220
 20
-237.571464372117820
 40
70.000000000000000
 50
270.000000000000000
 51
0.000000000000000
  0
ARC
  8
0
  6
CONTINUOUS
 62
3
 10
-477.770307978936220
 20
-237.571464372117820
 40
70.000000000000000
 50
180.000000000000000
 51
270.000000000000000
  0
ARC
  8
0
  6
CONTINUOUS
 62
3
 10
-477.770307978936220
 20
-210.571464372117820
 40
70.000000000000000
 50
136.278229842815450
 51
136.766765190805440
  0
LINE
  8
0
  6
CONTINUOUS
 62
3
 10
-486.770307978936220
 20
-262.356578972964940
 11
-486.770307978936220
 21
-299.571464372117820
  0
LINE
  8
0
  6
CONTINUOUS
 62
3
 10
-481.770307978936220
 20
-267.726361004683550
 11
-481.770307978936220
 21
-299.571464372117820
  0
LINE
  8
0
  6
CONTINUOUS
 62
3
 10
-446.770307978936220
 20
-267.726361004683550
 11
-446.770307978936220
 21
-299.571464372117820
  0
LINE
  8
0
  6
CONTINUOUS
 62
3
 10
-441.770307978936220
 20
-262.356578972964940
 11
-441.770307978936220
 21
-299.571464372117820
  0
ARC
  8
0
  6
CONTINUOUS
 62
3
 10
-464.270307978936220
 20
-224.071464372117820
 40
27.000000000000000
 50
270.000000000000000
 51
308.867683836605350
  0
ARC
  8
0
  6
CONTINUOUS
 62
3
 10
-464.270307978936220
 20
-224.071464372117820
 40
26.999999999999996
 50
231.132316163394620
 51
270.000000000000000
  0
ARC
  8
0
  6
CONTINUOUS
 62
3
 10
-438.770307978936220
 20
-299.571464372117820
 40
3.000000000000000
 50
180.000000000000000
 51
270.000000000000000
  0
ARC
  8
0
  6
CONTINUOUS
 62
3
 10
-449.770307978936220
 20
-299.571464372117820
 40
3.000000000000000
 50
270.000000000000000
 51
0.000000000000000
  0
ARC
  8
0
  6
CONTINUOUS
 62
3
 10
-478.770307978936220
 20
-299.571464372117820
 40
3.000000000000000
 50
180.000000000000000
 51
270.000000000000000
  0
ARC
  8
0
  6
CONTINUOUS
 62
3
 10
-489.770307978936220
 20
-299.571464372117820
 40
3.000000000000000
 50
270.000000000000000
 51
0.000000000000000
  0
ARC
  8
0
  6
CONTINUOUS
 62
3
 10
-464.270307978936220
 20
-224.071464372117820
 40
43.000000000000121
 50
206.245931860254190
 51
333.754068139745870
  0
ARC
  8
0
  6
CONTINUOUS
 62
3
 10
-438.770307978936220
 20
-262.356578972964940
 40
3.000000000000062
 50
123.665806404676170
 51
180.000000000000000
  0
ARC
  8
0
  6
CONTINUOUS
 62
3
 10
-449.770307978936220
 20
-267.726361004683550
 40
3.000000000000000
 50
0.000000000000000
 51
108.373938003328970
  0
ARC
  8
0
  6
CONTINUOUS
 62
3
 10
-478.770307978936220
 20
-267.726361004683550
 40
2.999999999999956
 50
71.626061996671027
 51
180.000000000000000
  0
ARC
  8
0
  6
CONTINUOUS
 62
3
 10
-489.770307978936220
 20
-262.356578972964940
 40
3.000000000000000
 50
0.000000000000000
 51
56.334193595323846
  0
ARC
  8
0
  6
CONTINUOUS
 62
3
 10
-409.469532436978620
 20
-278.872239914075180
 40
7.499999999999967
 50
54.344230362522332
 51
215.655769637476880
  0
ARC
  8
0
  6
CONTINUOUS
 62
3
 10
-519.071083520893810
 20
-278.872239914075180
 40
7.500000000000311
 50
324.344230362523150
 51
125.655769637477660
  0
ARC
  8
0
  6
CONTINUOUS
 62
3
 10
-403.348933997284800
 20
-270.340635449496740
 40
2.999999999999897
 50
234.344230362523230
 51
322.783694849380250
  0
ARC
  8
0
  6
CONTINUOUS
 62
3
 10
-418.001136901557400
 20
-284.992838353769230
 40
3.000000000000045
 50
307.216305150625770
 51
35.655769637478542
  0
ARC
  8
0
  6
CONTINUOUS
 62
3
 10
-510.539479056315030
 20
-284.992838353769230
 40
2.999999999999963
 50
144.344230362521470
 51
232.783694849374170
  0
ARC
  8
0
  6
CONTINUOUS
 62
3
 10
-525.191681960587630
 20
-270.340635449496740
 40
3.000000000000157
 50
217.216305150621450
 51
305.655769637476740
  0
ARC
  8
0
  6
CONTINUOUS
 62
3
 10
-573.434043991485850
 20
-126.928543639740830
 40
5.000000000000201
 50
45.000000000000000
 51
143.279272265286270
  0
ARC
  8
0
  6
CONTINUOUS
 62
3
 10
-562.175122346225630
 20
-114.145834724658240
 40
4.999999999999923
 50
133.973975518351350
 51
225.000000000003690
  0
ARC
  8
0
  6
CONTINUOUS
 62
3
 10
-355.106571966386580
 20
-126.928543639740830
 40
5.000000000000055
 50
36.720727734715837
 51
135.000000000000000
  0
LINE
  8
0
  6
CONTINUOUS
 62
3
 10
-464.270307978936220
 20
-104.071464372117810
 11
-446.770307978936220
 21
-104.071464372117810
  0
LINE
  8
0
  6
CONTINUOUS
 62
3
 10
-481.770307978936220
 20
-104.071464372117810
 11
-464.270307978936220
 21
-104.071464372117810
  0
ARC
  8
0
  6
CONTINUOUS
 62
3
 10
-472.770307978936220
 20
-109.071464372117810
 40
5.000000000000000
 50
0.000000000000000
 51
90.000000000000000
  0
ARC
  8
0
  6
CONTINUOUS
 62
3
 10
-455.770307978936220
 20
-109.071464372117810
 40
5.000000000000000
 50
90.000000000000000
 51
180.000000000000000
  0
ARC
  8
0
  6
CONTINUOUS
 62
3
 10
-446.770307978936220
 20
-101.071464372117810
 40
3.000000000000000
 50
270.000000000000000
 51
0.000000000000000
  0
ARC
  8
0
  6
CONTINUOUS
 62
3
 10
-481.770307978936220
 20
-101.071464372117810
 40
3.000000000000000
 50
180.000000000000000
 51
270.000000000000000
  0
ARC
  8
0
  6
CONTINUOUS
 62
3
 10
-366.365493611646800
 20
-114.145834724658240
 40
5.000000000000041
 50
315.000000000001820
 51
46.026024481648633
  0
LINE
  8
0
  6
CONTINUOUS
 62
3
 10
-467.770307978936220
 20
-108.071464372117810
 11
-467.770307978936670
 21
-125.591840977587250
  0
LINE
  8
0
  6
CONTINUOUS
 62
3
 10
-460.770307978936220
 20
-109.071464372117810
 11
-460.770307978936220
 21
-125.591840977587250
  0
LINE
  8
0
  6
CONTINUOUS
 62
3
 10
-329.270307978936220
 20
-189.709635860328720
 11
-329.270307978936220
 21
-239.478710192239990
  0
LINE
  8
0
  6
CONTINUOUS
 62
3
 10
-599.270307978936670
 20
-189.709635860328720
 11
-599.270307978936670
 21
-239.478710192239990
  0
LINE
  8
0
  6
CONTINUOUS
 62
3
 10
-329.949119940236410
 20
-244.645110561278440
 11
-345.362324326094490
 21
-302.287066071108030
  0
LINE
  8
0
  6
CONTINUOUS
 62
3
 10
-598.591496017636930
 20
-244.645110561278440
 11
-583.178291631778850
 21
-302.287066071108030
  0
LINE
  8
0
  6
CONTINUOUS
 62
3
 10
-379.034818975348570
 20
-304.357205907398570
 11
-362.412350727366630
 21
-320.979674155380280
  0
LINE
  8
0
  6
CONTINUOUS
 62
3
 10
-383.043059412494590
 20
-310.248460406864070
 11
-366.727727228311780
 21
-326.563792591046880
  0
LINE
  8
0
  6
CONTINUOUS
 62
3
 10
-400.553863642651320
 20
-155.405272567527850
 11
-362.829959705713920
 21
-117.681368630590890
  0
LINE
  8
0
  6
CONTINUOUS
 62
3
 10
-390.820560510633410
 20
-155.571464372121340
 11
-358.642105872319460
 21
-123.393009733807950
  0
LINE
  8
0
  6
CONTINUOUS
 62
3
 10
-551.958297896216660
 20
-141.333221923144150
 11
-569.898510085552970
 21
-123.393009733807950
  0
LINE
  8
0
  6
CONTINUOUS
 62
3
 10
-527.986752315221110
 20
-155.405272567527850
 11
-529.741036673577360
 21
-153.650988209171600
  0
LINE
  8
0
  6
CONTINUOUS
 62
3
 10
-532.936499783526870
 20
-287.787908708401800
 11
-566.128265230505800
 21
-320.979674155380280
  0
LINE
  8
0
  6
CONTINUOUS
 62
3
 10
-531.547015005874070
 20
-296.297918867360750
 11
-561.812888729560650
 21
-326.563792591047100
  0
ARC
  8
0
  6
CONTINUOUS
 62
3
 10
-439.270307978935760
 20
-189.709635860328720
 40
110.000000000000000
 50
0.000000000000000
 51
87.075476210271844
  0
ARC
  8
0
  6
CONTINUOUS
 62
3
 10
-349.270307978936220
 20
-239.478710192239990
 40
19.999999999999925
 50
345.029598694534740
 51
0.000000000000000
  0
ARC
  8
0
  6
CONTINUOUS
 62
3
 10
-579.270307978936670
 20
-239.478710192239990
 40
20.000000000000000
 50
180.000000000000000
 51
194.970401305464950
  0
ARC
  8
0
  6
CONTINUOUS
 62
3
 10
-375.499285069416150
 20
-300.821672001465690
 40
4.999999999999973
 50
149.498945295270290
 51
225.000000000003690
  0
ARC
  8
0
  6
CONTINUOUS
 62
3
 10
-386.578593318427470
 20
-313.783994312796720
 40
5.000000000000041
 50
44.999999999998167
 51
129.457930749405760
  0
ARC
  8
0
  6
CONTINUOUS
 62
3
 10
-474.284205492896040
 20
-312.571464372117820
 40
5.000000000000000
 50
90.000000000000000
 51
124.921969447764190
  0
ARC
  8
0
  6
CONTINUOUS
 62
3
 10
-495.465236953851670
 20
-282.233964372117730
 40
31.999999999999829
 50
191.617396360406130
 51
304.921969447764520
  0
ARC
  8
0
  6
CONTINUOUS
 62
3
 10
-531.707260593102090
 20
-289.684851737527420
 40
5.000000000000277
 50
11.617396360404429
 51
44.014880135744747
  0
ARC
  8
0
  6
CONTINUOUS
 62
3
 10
-450.275979581544110
 20
-312.571464372117820
 40
5.000000000000199
 50
48.360992047546546
 51
90.000000000000000
  0
ARC
  8
0
  6
CONTINUOUS
 62
3
 10
-376.675005651146420
 20
-249.185515041606100
 40
5.000000000000142
 50
171.091670649431510
 51
213.109776708314170
  0
ARC
  8
0
  6
CONTINUOUS
 62
3
 10
-404.089397548584200
 20
-151.869738661594970
 40
4.999999999999959
 50
312.239175315564640
 51
315.000000000000000
  0
ARC
  8
0
  6
CONTINUOUS
 62
3
 10
-524.451218409288230
 20
-151.869738661594970
 40
5.000000000000201
 50
225.000000000000000
 51
228.365633755029820
  0
ARC
  8
0
  6
CONTINUOUS
 62
3
 10
-536.472033689459750
 20
-284.252374802469150
 40
5.000000000000041
 50
315.000000000001820
 51
38.492496408252435
  0
ARC
  8
0
  6
CONTINUOUS
 62
3
 10
-417.718656126608950
 20
-275.951515035031890
 40
44.000000000000071
 50
319.912288498426220
 51
33.109776708315003
  0
ARC
  8
0
  6
CONTINUOUS
 62
3
 10
-417.718656126608950
 20
-275.951515035031890
 40
43.999999999999915
 50
228.360992047548710
 51
319.912288498426220
  0
ARC
  8
0
  6
CONTINUOUS
 62
3
 10
-528.011481099941190
 20
-299.833452773293400
 40
4.999999999999702
 50
28.402451678796261
 51
135.000000000001820
  0
ARC
  8
0
  6
CONTINUOUS
 62
3
 10
-510.821959831263480
 20
-275.951515035031890
 40
76.999999999999844
 50
199.999999999999770
 51
234.885533069884020
  0
ARC
  8
0
  6
CONTINUOUS
 62
3
 10
-559.714963926514430
 20
-345.481897966105860
 40
8.000000000000373
 50
4.494156527999717
 51
54.885533069884232
  0
ARC
  8
0
  6
CONTINUOUS
 62
3
 10
-541.770307978936220
 20
-344.071464372117360
 40
9.999999999999778
 50
184.494156527999370
 51
233.130102354155980
  0
LINE
  8
0
  6
CONTINUOUS
 62
3
 10
-464.270307978936220
 20
-352.071464372117360
 11
-547.770307978936220
 21
-352.071464372117360
  0
LINE
  8
0
  6
CONTINUOUS
 62
3
 10
-464.270307978936220
 20
-352.071464372117360
 11
-380.770307978936220
 21
-352.071464372117360
  0
ARC
  8
0
  6
CONTINUOUS
 62
3
 10
-386.770307978936220
 20
-344.071464372117360
 40
10.000000000000000
 50
306.869897645843990
 51
355.505843472000610
  0
ARC
  8
0
  6
CONTINUOUS
 62
3
 10
-368.825652031358000
 20
-345.481897966105860
 40
7.999999999999969
 50
125.114466930115760
 51
175.505843472000290
  0
ARC
  8
0
  6
CONTINUOUS
 62
3
 10
-417.718656126608950
 20
-275.951515035031890
 40
77.000000000000085
 50
305.114466930115950
 51
340.000000000000340
  0
ARC
  8
0
  6
CONTINUOUS
 62
3
 10
-558.277354823628230
 20
-330.099326496979760
 40
4.999999999999718
 50
134.999999999998150
 51
228.768523924279320
  0
ARC
  8
0
  6
CONTINUOUS
 62
3
 10
-569.663799136438680
 20
-317.444140249447630
 40
4.999999999999545
 50
215.189773733130520
 51
315.000000000001820
  0
ARC
  8
0
  6
CONTINUOUS
 62
3
 10
-370.263261134244200
 20
-330.099326496979760
 40
4.999999999999826
 50
311.231476075720650
 51
45.000000000003688
  0
ARC
  8
0
  6
CONTINUOUS
 62
3
 10
-358.876816821433750
 20
-317.444140249447400
 40
5.000000000000201
 50
225.000000000000000
 51
324.810226266870360
  0
LINE
  8
0
  6
CONTINUOUS
 62
3
 10
-586.270307978936670
 20
-241.071464372117360
 11
-595.639487372910930
 21
-241.071464372117360
  0
LINE
  8
0
  6
CONTINUOUS
 62
3
 10
-586.270307978936670
 20
-215.071464372117360
 11
-596.270307978936670
 21
-215.071464372117360
  0
ARC
  8
0
  6
CONTINUOUS
 62
3
 10
-586.270307978936670
 20
-228.071464372117360
 40
13.000000000000000
 50
270.000000000000000
 51
90.000000000000000
  0
ARC
  8
0
  6
CONTINUOUS
 62
3
 10
-596.270307978936670
 20
-212.071464372117360
 40
3.000000000000000
 50
180.000000000000000
 51
270.000000000000000
  0
ARC
  8
0
  6
CONTINUOUS
 62
3
 10
-595.639487372910930
 20
-244.071464372117360
 40
3.000000000000000
 50
90.000000000000000
 51
194.970401305463840
  0
ARC
  8
0
  6
CONTINUOUS
 62
3
 10
-332.270307978935760
 20
-212.071464372117360
 40
3.000000000000000
 50
270.000000000000000
 51
0.000000000000000
  0
LINE
  8
0
  6
CONTINUOUS
 62
3
 10
-342.270307978935760
 20
-215.071464372117360
 11
-332.270307978935760
 21
-215.071464372117360
  0
ARC
  8
0
  6
CONTINUOUS
 62
3
 10
-342.270307978935760
 20
-228.071464372117360
 40
13.000000000000000
 50
90.000000000000000
 51
270.000000000000000
  0
ARC
  8
0
  6
CONTINUOUS
 62
3
 10
-332.901128584961500
 20
-244.071464372117360
 40
2.999999999999921
 50
345.029598694536160
 51
90.000000000000000
  0
LINE
  8
0
  6
CONTINUOUS
 62
3
 10
-342.270307978935760
 20
-241.071464372117360
 11
-332.901128584961500
 21
-241.071464372117360
  0
LINE
  8
0
  6
CONTINUOUS
 62
3
 10
-443.770307978936220
 20
-79.421775782940358
 11
-443.770307978936220
 21
-101.071464372117810
  0
LINE
  8
0
  6
CONTINUOUS
 62
3
 10
-484.770307978936220
 20
-79.421775782940358
 11
-484.770307978936220
 21
-101.071464372117810
  0
ARC
  8
0
  6
CONTINUOUS
 62
3
 10
-464.270307978936220
 20
-679.071465185011220
 40
599.999999999999770
 50
87.075476210271731
 51
88.042013127606680
  0
ARC
  8
0
  6
CONTINUOUS
 62
3
 10
-489.270307978936670
 20
-189.709635860328720
 40
110.000000000000040
 50
92.924523789728156
 51
180.000000000000000
  0
ARC
  8
0
  6
CONTINUOUS
 62
3
 10
-464.270307978936220
 20
-679.071465185011220
 40
600.000000000000000
 50
91.957986872393320
 51
92.924523789728269
  0
ARC
  8
0
  6
CONTINUOUS
 62
3
 10
-453.770307978935310
 20
-54.071464372117589
 40
10.000000000000000
 50
0.000000000000000
 51
90.000000000000000
  0
LINE
  8
0
  6
CONTINUOUS
 62
3
 10
-443.770307978935310
 20
-54.071464372117589
 11
-443.770307978935310
 21
-79.421774970046499
  0
ARC
  8
0
  6
CONTINUOUS
 62
3
 10
-474.770307978935310
 20
-54.071464372117589
 40
10.000000000000000
 50
90.000000000000000
 51
180.000000000000000
  0
LINE
  8
0
  6
CONTINUOUS
 62
3
 10
-484.770307978935310
 20
-54.071464372117589
 11
-484.770307978935310
 21
-79.421774970046499
  0
LINE
  8
0
  6
CONTINUOUS
 62
3
 10
-453.770307978935310
 20
-44.071464372117589
 11
-474.770307978935310
 21
-44.071464372117589
  0
LINE
  8
0
  6
DASHDOT
 62
4
 10
-441.102394980053760
 20
-64.071464372117589
 11
-488.124908881588450
 21
-64.071464372117589
  0
CIRCLE
  8
0
  6
CONTINUOUS
 62
3
 10
-464.270307978935310
 20
-64.071464372117589
 40
10.000000000000000
  0
LINE
  8
0
  6
CONTINUOUS
 62
3
 10
-350.007475165699360
 20
-74.758379027186265
 11
-371.331795442173640
 21
-96.082699303660547
  0
LINE
  8
0
  6
CONTINUOUS
 62
3
 10
-356.776916256580990
 20
-71.628325181455921
 11
-378.594191676039830
 21
-93.445600600915213
  0
LINE
  8
0
  6
CONTINUOUS
 62
3
 10
-578.533140792173530
 20
-74.758379027186265
 11
-557.208820515699240
 21
-96.082699303660547
  0
LINE
  8
0
  6
CONTINUOUS
 62
3
 10
-571.763699701292350
 20
-71.628325181455921
 11
-549.946424281833060
 21
-93.445600600915213
  0
LINE
  8
0
  6
CONTINUOUS
 62
3
 10
-321.770307978936220
 20
-341.571464372118270
 11
-375.804800196214270
 21
-341.571464372118270
  0
LINE
  8
0
  6
CONTINUOUS
 62
3
 10
-552.664762527468160
 20
-341.571464372118270
 11
-606.770307978936220
 21
-341.571464372118270
  0
LINE
  8
0
  6
CONTINUOUS
 62
3
 10
-306.770307978936220
 20
-41.571464372117816
 11
-306.770307978936220
 21
-326.571464372118270
  0
LINE
  8
0
  6
CONTINUOUS
 62
3
 10
-621.770307978936220
 20
-41.571464372117816
 11
-621.770307978936220
 21
-326.571464372118270
  0
LINE
  8
0
  6
CONTINUOUS
 62
3
 10
-321.770307978936220
 20
-26.571464372117816
 11
-606.770307978936220
 21
-26.571464372117816
  0
LINE
  8
0
  6
DASHDOT
 62
4
 10
-584.832014171242920
 20
-304.633170564424520
 11
-612.409178637517930
 21
-332.210335030699980
  0
LINE
  8
0
  6
DASHDOT
 62
4
 10
-343.708601786629970
 20
-304.633170564424520
 11
-316.131437320354510
 21
-332.210335030699980
  0
LINE
  8
0
  6
DASHDOT
 62
4
 10
-343.708601786629520
 20
-63.509758179811570
 11
-316.131437320354510
 21
-35.932593713536562
  0
LINE
  8
0
  6
DASHDOT
 62
4
 10
-584.832014171242460
 20
-63.509758179811570
 11
-612.409178637517470
 21
-35.932593713536107
  0
ARC
  8
0
  6
CONTINUOUS
 62
3
 10
-360.312450162513410
 20
-68.092791275523268
 40
4.999999999999718
 50
314.999999999998120
 51
57.006973874308571
  0
ARC
  8
0
  6
CONTINUOUS
 62
3
 10
-346.471941259766480
 20
-78.293912933118918
 40
5.000000000000075
 50
50.209020423819034
 51
135.000000000001820
  0
ARC
  8
0
  6
CONTINUOUS
 62
3
 10
-382.129725581972710
 20
-89.910066694982561
 40
4.999999999999973
 50
240.206558325790580
 51
315.000000000001820
  0
ARC
  8
0
  6
CONTINUOUS
 62
3
 10
-367.796261536241220
 20
-99.618233209593427
 40
4.999999999999879
 50
134.999999999996310
 51
231.573261158808440
  0
ARC
  8
0
  6
CONTINUOUS
 62
3
 10
-582.068674698106410
 20
-78.293912933118918
 40
5.000000000000041
 50
44.999999999998167
 51
129.790979576180970
  0
ARC
  8
0
  6
CONTINUOUS
 62
3
 10
-560.744354421632120
 20
-99.618233209593427
 40
5.000000000000195
 50
308.426738841195630
 51
45.000000000000000
  0
ARC
  8
0
  6
CONTINUOUS
 62
3
 10
-546.410890375900180
 20
-89.910066694982561
 40
5.000000000000041
 50
224.999999999998180
 51
299.793441674209420
  0
ARC
  8
0
  6
CONTINUOUS
 62
3
 10
-568.228165795359470
 20
-68.092791275523268
 40
4.999999999999924
 50
122.993026125691440
 51
224.999999999998180
  0
ARC
  8
0
  6
CONTINUOUS
 62
3
 10
-455.770307978936220
 20
-44.054003987371971
 40
5.000000000000000
 50
90.000000000000000
 51
180.000000000000000
  0
ARC
  8
0
  6
CONTINUOUS
 62
3
 10
-472.770307978936220
 20
-44.054003987371971
 40
5.000000000000000
 50
0.000000000000000
 51
90.000000000000000
  0
CIRCLE
  8
0
  6
CONTINUOUS
 62
3
 10
-598.620596404380190
 20
-318.421752797562250
 40
12.000000000000000
  0
ARC
  8
0
  6
CONTINUOUS
 62
3
 10
-606.770307978936220
 20
-41.571464372117816
 40
15.000000000000000
 50
90.000000000000000
 51
180.000000000000000
  0
ARC
  8
0
  6
CONTINUOUS
 62
3
 10
-606.770307978936220
 20
-326.571464372118270
 40
15.000000000000000
 50
180.000000000000000
 51
270.000000000000000
  0
ARC
  8
0
  6
CONTINUOUS
 62
3
 10
-321.770307978936220
 20
-326.571464372118270
 40
15.000000000000000
 50
270.000000000000000
 51
0.000000000000000
  0
ARC
  8
0
  6
CONTINUOUS
 62
3
 10
-321.770307978936220
 20
-41.571464372117816
 40
15.000000000000000
 50
0.000000000000000
 51
90.000000000000000
  0
ARC
  8
0
  6
DASHDOT
 62
4
 10
-464.270307978936220
 20
-184.071464372117820
 40
190.000000000000260
 50
219.119041968700600
 51
230.880958031302730
  0
ARC
  8
0
  6
DASHDOT
 62
4
 10
-464.270307978936220
 20
-184.071464372117820
 40
190.000000000000310
 50
309.119041968700400
 51
320.880958031302500
  0
CIRCLE
  8
0
  6
CONTINUOUS
 62
3
 10
-329.920019553492240
 20
-318.421752797562250
 40
12.000000000000000
  0
ARC
  8
0
  6
DASHDOT
 62
4
 10
-464.270307978936220
 20
-184.071464372117820
 40
189.999999999999690
 50
39.119041968700387
 51
50.880958031302640
  0
CIRCLE
  8
0
  6
CONTINUOUS
 62
3
 10
-329.920019553492240
 20
-49.721175946673839
 40
12.000000000000000
  0
ARC
  8
0
  6
DASHDOT
 62
4
 10
-464.270307978936220
 20
-184.071464372117820
 40
189.999999999999970
 50
129.119041968700490
 51
140.880958031302610
  0
CIRCLE
  8
0
  6
CONTINUOUS
 62
3
 10
-598.620596404380190
 20
-49.721175946673839
 40
12.000000000000000
  0
LINE
  8
0
  6
CONTINUOUS
 62
3
 10
-460.770307978936220
 20
-44.054003987371971
 11
-460.770307978936220
 21
-44.071464372117589
  0
LINE
  8
0
  6
CONTINUOUS
 62
3
 10
-467.770307978936220
 20
-44.054003987371971
 11
-467.770307978936220
 21
-44.071464372117589
  0
LINE
  8
0
  6
CONTINUOUS
 62
3
 10
-460.770307978936220
 20
-54.703967374519607
 11
-460.770307978936220
 21
-73.438961369715571
  0
LINE
  8
0
  6
CONTINUOUS
 62
3
 10
-467.770307978936220
 20
-54.703967374520289
 11
-467.770307978936220
 21
-73.438961369714889
  0
ARC
  8
0
  6
CONTINUOUS
 62
3
 10
-462.770307978936220
 20
-55.694386706450814
 40
2.000000000000000
 50
0.000000000000000
 51
33.678870779012470
  0
ARC
  8
0
  6
CONTINUOUS
 62
3
 10
-465.770307978936220
 20
-55.694386706450814
 40
2.000000000000244
 50
146.321129221012820
 51
180.000000000000000
  0
LINE
  8
0
  6
CONTINUOUS
 62
3
 10
-541.607331815986300
 20
-141.784693066762740
 11
-545.674487265416700
 21
-137.717537617332310
  0
LINE
  8
0
  6
CONTINUOUS
 62
3
 10
-549.650702478528050
 20
-133.741322404221250
 11
-565.710656252158060
 21
-117.681368630591120
  0
LINE
  8
0
  6
CONTINUOUS
 62
3
 10
-545.273177599517110
 20
-129.691344299341380
 11
-550.366814527794080
 21
-231.564082864882150
  0
LINE
  8
0
  6
CONTINUOUS
 62
3
 10
-550.366814527794080
 20
-231.564082864882150
 11
-551.964818269998660
 21
-231.484182677771170
  0
LINE
  8
0
  6
CONTINUOUS
 62
3
 10
-546.871181341721690
 20
-129.611444112231200
 11
-551.964818269998660
 21
-231.484182677771170
  0
ARC
  8
0
  6
CONTINUOUS
 62
3
 10
-547.988810443572220
 20
-132.359059708476020
 40
1.299999237060474
 50
87.137594090651831
 51
160.536063666412870
  0
ARC
  8
0
  6
CONTINUOUS
 62
3
 10
-548.208536034324200
 20
-136.753571523513760
 40
1.299999237060493
 50
193.739143184211430
 51
267.137612759980240
  0
LINE
  8
0
  6
CONTINUOUS
 62
3
 10
-546.946087767136990
 20
-131.109572620547850
 11
-547.923891579644530
 21
-131.060682429922510
  0
LINE
  8
0
  6
CONTINUOUS
 62
3
 10
-547.295651085744110
 20
-138.100838992692730
 11
-548.273454898251880
 21
-138.051948802067390
  0
LINE
  8
0
  6
CONTINUOUS
 62
3
 10
-546.946087767136990
 20
-131.109572620547850
 11
-547.295651085744110
 21
-138.100838992692730
  0
LINE
  8
0
  6
CONTINUOUS
 62
3
 10
-546.946087767136990
 20
-131.109572620547850
 11
-547.295651085744110
 21
-138.100838992692730
  0
POINT
  8
0
  6
CONTINUOUS
 62
3
 10
-547.120869426440550
 20
-134.605205806620230
  0
ARC
  8
0
  6
CONTINUOUS
 62
3
 10
-540.728854838616140
 20
-134.924806536011490
 40
9.000000000000060
 50
160.536063666407810
 51
193.739143184213500
  0
LINE
  8
0
  6
CONTINUOUS
 62
3
 10
-546.871181341721690
 20
-129.611444112231200
 11
-545.273177599517110
 21
-129.691344299341380
  0
ARC
  8
0
  6
CONTINUOUS
 62
3
 10
-547.570307978936170
 20
-159.613964372121590
 40
18.799999999999933
 50
144.191373186504250
 51
174.275189547776390
  0
ARC
  8
0
  6
CONTINUOUS
 62
3
 10
-547.570307978936170
 20
-159.613964372121590
 40
18.800000000000036
 50
94.873974813842736
 51
144.191373186504250
  0
LINE
  8
0
  6
CONTINUOUS
 62
3
 10
-570.266567330557110
 20
-197.539151404540580
 11
-566.276542392901090
 21
-157.738652651423310
  0
ARC
  8
0
  6
CONTINUOUS
 62
3
 10
-553.496773810268450
 20
-222.073324694165080
 40
2.000000000000154
 50
357.137594773887600
 51
80.083463391767268
  0
LINE
  8
0
  6
CONTINUOUS
 62
3
 10
-546.072179470619400
 20
-129.651394205786350
 11
-551.165816398896370
 21
-231.524132771326440
  0
ARC
  8
0
  6
CONTINUOUS
 62
3
 10
-547.903760712552640
 20
-222.352975349050890
 40
1.999999999999962
 50
94.191726156001650
 51
177.137594773887290
  0
ARC
  8
0
  6
CONTINUOUS
 62
3
 10
-549.337566442565050
 20
-138.889177340098060
 40
1.999999999999928
 50
274.873974813840960
 51
357.137594773887320
  0
ARC
  8
0
  6
CONTINUOUS
 62
3
 10
-543.744553344849240
 20
-139.168827994983870
 40
1.999999999999927
 50
177.137594773887290
 51
259.401214733934010
  0
ARC
  8
0
  6
CONTINUOUS
 62
3
 10
-549.570307978936170
 20
-199.613964372121590
 40
20.799999999999986
 50
174.275189547776620
 51
205.640070215894870
  0
ARC
  8
0
  6
CONTINUOUS
 62
3
 10
-549.570307978936170
 20
-199.613964372121590
 40
20.799999999999926
 50
205.640070215894870
 51
260.083463391769440
  0
ARC
  8
0
  6
CONTINUOUS
 62
3
 10
-549.570307978936170
 20
-199.613964372121590
 40
20.799999999999986
 50
174.275189547776620
 51
205.640070215894870
  0
ARC
  8
0
  6
CONTINUOUS
 62
3
 10
-547.570307978936170
 20
-159.613964372121590
 40
18.799999999999955
 50
0.000000000000000
 51
79.401214733933941
  0
POINT
  8
0
  6
DASHDOT
 62
4
 10
-528.770307978936220
 20
-185.585194865247560
  0
POINT
  8
0
  6
DASHDOT
 62
4
 10
-528.770307978936220
 20
-185.585194865247560
  0
LINE
  8
0
  6
CONTINUOUS
 62
3
 10
-528.770307978936220
 20
-168.240855611896170
 11
-528.770307978936220
 21
-159.613964372121590
  0
ARC
  8
0
  6
CONTINUOUS
 62
3
 10
-549.570307978936170
 20
-199.613964372121590
 40
20.800000000000082
 50
274.191726156007460
 51
354.952683218987490
  0
ARC
  8
0
  6
CONTINUOUS
 62
4
 10
-464.270307978935990
 20
55.028535627878341
 40
289.396999999999820
 50
262.102011327572200
 51
270.000000000000000
  0
ARC
  8
0
  6
CONTINUOUS
 62
4
 10
-503.211825934318310
 20
-225.680241912708310
 40
6.000000000000049
 50
225.000000000003070
 51
262.102011327574360
  0
LINE
  8
0
  6
CONTINUOUS
 62
4
 10
-507.454466621437400
 20
-229.922882599827860
 11
-512.030532014076020
 21
-225.346817207189250
  0
ARC
  8
0
  6
CONTINUOUS
 62
4
 10
-501.143208904146600
 20
-214.459494097259840
 40
15.397000000000052
 50
186.051985358668840
 51
225.000000000000000
  0
ARC
  8
0
  6
CONTINUOUS
 62
4
 10
-228.670307978936080
 20
-185.571464372121570
 40
289.397000000000160
 50
180.000000000000000
 51
186.051985358668500
  0
ARC
  8
0
  6
CONTINUOUS
 62
4
 10
-464.270307978936220
 20
55.028535627878341
 40
289.396999999999930
 50
270.000000000000000
 51
277.897988672427800
  0
ARC
  8
0
  6
CONTINUOUS
 62
4
 10
-425.328790023553890
 20
-225.680241912708310
 40
5.999999999999923
 50
277.897988672425640
 51
314.999999999996870
  0
LINE
  8
0
  6
CONTINUOUS
 62
4
 10
-421.086149336434800
 20
-229.922882599827860
 11
-416.510083943796190
 21
-225.346817207189250
  0
ARC
  8
0
  6
CONTINUOUS
 62
4
 10
-427.397407053725600
 20
-214.459494097259840
 40
15.396999999999876
 50
315.000000000000000
 51
353.948014641331160
  0
ARC
  8
0
  6
CONTINUOUS
 62
4
 10
-699.870307978936130
 20
-185.571464372121570
 40
289.397000000000160
 50
353.948014641331500
 51
0.000000000000000
  0
ARC
  8
0
  6
CONTINUOUS
 62
4
 10
-464.270307978936220
 20
-426.171464372121480
 40
289.396999999999820
 50
82.102011327572214
 51
90.000000000000000
  0
ARC
  8
0
  6
CONTINUOUS
 62
4
 10
-425.328790023553890
 20
-145.462686831534820
 40
6.000000000000049
 50
45.000000000003077
 51
82.102011327574374
  0
LINE
  8
0
  6
CONTINUOUS
 62
4
 10
-421.086149336434800
 20
-141.220046144415280
 11
-416.510083943796190
 21
-145.796111537053890
  0
ARC
  8
0
  6
CONTINUOUS
 62
4
 10
-427.397407053725600
 20
-156.683434646983300
 40
15.397000000000052
 50
6.051985358668849
 51
45.000000000000000
  0
ARC
  8
0
  6
CONTINUOUS
 62
4
 10
-699.870307978936130
 20
-185.571464372121570
 40
289.397000000000160
 50
0.000000000000000
 51
6.051985358668508
  0
ARC
  8
0
  6
CONTINUOUS
 62
4
 10
-501.143208904146600
 20
-156.683434646983300
 40
15.396999999999876
 50
135.000000000000000
 51
173.948014641331160
  0
ARC
  8
0
  6
CONTINUOUS
 62
3
 10
-427.397407053725600
 20
-214.459494097259840
 40
26.599999999999955
 50
315.000000000001020
 51
353.948014641331380
  0
ARC
  8
0
  6
CONTINUOUS
 62
3
 10
-501.143208904146600
 20
-214.459494097259840
 40
26.599999999999969
 50
186.051985358668590
 51
224.999999999998980
  0
ARC
  8
0
  6
CONTINUOUS
 62
3
 10
-501.143208904146600
 20
-156.683434646983300
 40
26.600000000000119
 50
135.000000000000000
 51
173.948014641331410
  0
ARC
  8
0
  6
CONTINUOUS
 62
3
 10
-427.397407053725830
 20
-156.683434646983300
 40
26.600000000000193
 50
6.051985358668552
 51
45.000000000000000
  0
LINE
  8
0
  6
CONTINUOUS
 62
3
 10
-512.885800165049890
 20
-130.807945148762090
 11
-519.952249283708850
 21
-137.874394267421050
  0
ARC
  8
0
  6
CONTINUOUS
 62
3
 10
-508.218895409218700
 20
-235.668078839650090
 40
6.599999999999957
 50
225.000000000000000
 51
261.402917762751090
  0
ARC
  8
0
  6
CONTINUOUS
 62
3
 10
-464.270307978936220
 20
55.028535627878568
 40
300.600000000000020
 50
261.402917762750920
 51
270.000000000000000
  0
ARC
  8
0
  6
CONTINUOUS
 62
3
 10
-420.321720548653730
 20
-235.668078839650090
 40
6.599999999999747
 50
278.597082237248910
 51
315.000000000000000
  0
LINE
  8
0
  6
CONTINUOUS
 62
3
 10
-415.654815792822550
 20
-240.334983595481280
 11
-408.588366674163130
 21
-233.268534476821630
  0
ARC
  8
0
  6
CONTINUOUS
 62
3
 10
-699.870307978936130
 20
-185.571464372121570
 40
300.600000000000080
 50
353.948014641331500
 51
6.051985358668499
  0
ARC
  8
0
  6
CONTINUOUS
 62
3
 10
-464.270307978936220
 20
-426.171464372121480
 40
300.599999999999800
 50
81.402917762750931
 51
90.000000000000000
  0
ARC
  8
0
  6
CONTINUOUS
 62
3
 10
-420.321720548653730
 20
-135.474849904593270
 40
6.600000000000118
 50
45.000000000001400
 51
81.402917762751386
  0
ARC
  8
0
  6
CONTINUOUS
 62
3
 10
-464.270307978936220
 20
55.028535627878568
 40
300.600000000000140
 50
270.000000000000000
 51
278.597082237249080
  0
ARC
  8
0
  6
CONTINUOUS
 62
3
 10
-464.270307978936220
 20
-426.171464372121480
 40
300.599999999999910
 50
90.000000000000000
 51
98.597082237249069
  0
ARC
  8
0
  6
CONTINUOUS
 62
3
 10
-228.670307978936310
 20
-185.571464372121570
 40
300.599999999999850
 50
173.948014641331500
 51
186.051985358668500
  0
LINE
  8
0
  6
CONTINUOUS
 62
3
 10
-415.654815792822550
 20
-130.807945148762090
 11
-408.588366674163580
 21
-137.874394267421050
  0
LINE
  8
0
  6
CONTINUOUS
 62
3
 10
-512.885800165049890
 20
-240.334983595481280
 11
-519.952249283709080
 21
-233.268534476821630
  0
ARC
  8
0
  6
CONTINUOUS
 62
3
 10
-460.270307978936220
 20
-144.264685267476010
 40
1.500000000000203
 50
84.468928475159132
 51
180.000000000000000
  0
ARC
  8
0
  6
CONTINUOUS
 62
3
 10
-468.270307978936220
 20
-144.264685267475780
 40
1.500000000000000
 50
0.000000000000000
 51
95.531071524841693
  0
ARC
  8
0
  6
CONTINUOUS
 62
3
 10
-464.270307978935990
 20
-185.571464372121110
 40
17.999999999999922
 50
41.837004155893325
 51
78.162995844107314
  0
ARC
  8
0
  6
CONTINUOUS
 62
3
 10
-464.270307978936440
 20
-185.571464372121110
 40
27.499999999999815
 50
97.928141766201691
 51
142.071858233797880
  0
LINE
  8
0
  6
CONTINUOUS
 62
3
 10
-461.770307978936220
 20
-144.264685267476010
 11
-461.770307978936220
 21
-147.279820375030000
  0
LINE
  8
0
  6
CONTINUOUS
 62
3
 10
-432.358771524785420
 20
-164.260578864114790
 11
-429.747587925801330
 21
-162.753011310337680
  0
LINE
  8
0
  6
CONTINUOUS
 62
3
 10
-461.770307978936220
 20
-153.822448639346590
 11
-461.770307978936220
 21
-156.848651139431130
  0
ARC
  8
0
  6
CONTINUOUS
 62
3
 10
-460.270307978936220
 20
-153.822448639346590
 40
1.499999999999998
 50
82.819244218541712
 51
180.000000000000000
  0
ARC
  8
0
  6
CONTINUOUS
 62
3
 10
-460.270307978936220
 20
-147.279820375030000
 40
1.500000000000000
 50
180.000000000000000
 51
264.036429881682580
  0
ARC
  8
0
  6
CONTINUOUS
 62
3
 10
-430.497587925801330
 20
-161.453973204660880
 40
1.500000000000123
 50
299.999999999997270
 51
35.531071524839192
  0
ARC
  8
0
  6
CONTINUOUS
 62
3
 10
-464.270307978936670
 20
-185.571464372121570
 40
42.999999999999908
 50
35.531071524839248
 51
84.468928475160212
  0
ARC
  8
0
  6
CONTINUOUS
 62
3
 10
-426.497587925800870
 20
-168.382176434936920
 40
1.500000000000034
 50
24.468928475159590
 51
119.999999999997270
  0
LINE
  8
0
  6
CONTINUOUS
 62
3
 10
-429.858771524785200
 20
-168.590705883037230
 11
-427.247587925800870
 21
-167.083138329260120
  0
ARC
  8
0
  6
CONTINUOUS
 62
3
 10
-429.108771524785200
 20
-169.889743988714030
 40
1.500000000000123
 50
119.999999999997270
 51
204.036429881680680
  0
ARC
  8
0
  6
CONTINUOUS
 62
3
 10
-464.270307978936440
 20
-185.571464372122020
 40
36.999999999999972
 50
335.963570118321740
 51
24.036429881678870
  0
ARC
  8
0
  6
CONTINUOUS
 62
3
 10
-464.270307978936440
 20
-185.571464372122020
 40
42.999999999999936
 50
335.531071524839770
 51
24.468928475160769
  0
ARC
  8
0
  6
CONTINUOUS
 62
3
 10
-426.497587925800870
 20
-202.760752309306440
 40
1.500000000000320
 50
240.000000000007050
 51
335.531071524832500
  0
LINE
  8
0
  6
CONTINUOUS
 62
3
 10
-427.247587925800870
 20
-204.059790414983470
 11
-429.858771524784970
 21
-202.552222861206130
  0
ARC
  8
0
  6
CONTINUOUS
 62
3
 10
-429.108771524784970
 20
-201.253184755529560
 40
1.500000000000063
 50
155.963570118322880
 51
239.999999999998410
  0
ARC
  8
0
  6
CONTINUOUS
 62
3
 10
-430.497587925800870
 20
-209.688955539582250
 40
1.499999999999844
 50
324.468928475167900
 51
59.999999999998380
  0
LINE
  8
0
  6
CONTINUOUS
 62
3
 10
-429.747587925800870
 20
-208.389917433905680
 11
-432.358771524784970
 21
-206.882349880128340
  0
LINE
  8
0
  6
CONTINUOUS
 62
3
 10
-466.770307978936220
 20
-144.264685267475780
 11
-466.770307978936220
 21
-147.279820375030000
  0
ARC
  8
0
  6
CONTINUOUS
 62
3
 10
-468.270307978936220
 20
-147.279820375030000
 40
1.499999999999933
 50
275.963570118318330
 51
0.000000000000000
  0
LINE
  8
0
  6
CONTINUOUS
 62
3
 10
-466.770307978936220
 20
-153.822448639346590
 11
-466.770307978936220
 21
-156.848651139431130
  0
ARC
  8
0
  6
CONTINUOUS
 62
3
 10
-468.270307978936220
 20
-153.822448639346590
 40
1.500000000000000
 50
0.000000000000000
 51
97.180755781458288
  0
ARC
  8
0
  6
CONTINUOUS
 62
3
 10
-464.270307978936670
 20
-185.571464372121110
 40
23.999999999999901
 50
100.240348321185670
 51
139.759651678813550
  0
ARC
  8
0
  6
CONTINUOUS
 62
3
 10
-481.445487247981190
 20
-171.036567844241180
 40
1.499999999999802
 50
139.759651678811420
 51
239.999999999998410
  0
LINE
  8
0
  6
CONTINUOUS
 62
3
 10
-479.548692655002010
 20
-173.863733520663910
 11
-482.195487247981190
 21
-172.335605949917750
  0
ARC
  8
0
  6
CONTINUOUS
 62
3
 10
-478.798692655002010
 20
-172.564695414987340
 40
1.499999999999926
 50
239.999999999998410
 51
318.162995844106720
  0
ARC
  8
0
  6
CONTINUOUS
 62
3
 10
-464.270307978936670
 20
-185.571464372121110
 40
17.999999999999829
 50
101.837004155891980
 51
138.162995844106210
  0
ARC
  8
0
  6
CONTINUOUS
 62
3
 10
-468.270307978936220
 20
-166.486129688128930
 40
1.499999999999954
 50
281.837004155896690
 51
0.000000000000000
  0
LINE
  8
0
  6
CONTINUOUS
 62
3
 10
-466.770307978936220
 20
-163.429874546636600
 11
-466.770307978936220
 21
-166.486129688128930
  0
ARC
  8
0
  6
CONTINUOUS
 62
3
 10
-468.270307978936220
 20
-163.429874546636600
 40
1.500000000000000
 50
0.000000000000000
 51
100.240348321194510
  0
ARC
  8
0
  6
CONTINUOUS
 62
3
 10
-464.270307978936670
 20
-185.571464372121110
 40
14.499999999999980
 50
107.920213139390830
 51
132.079786860607560
  0
ARC
  8
0
  6
CONTINUOUS
 62
3
 10
-472.982450621750790
 20
-175.922704318556840
 40
1.499999999999792
 50
132.079786860611680
 51
239.999999999998410
  0
LINE
  8
0
  6
CONTINUOUS
 62
3
 10
-470.957561912130130
 20
-178.823825167704290
 11
-473.732450621750790
 21
-177.221742424233410
  0
ARC
  8
0
  6
CONTINUOUS
 62
3
 10
-470.207561912130130
 20
-177.524787062027710
 40
1.499999999999926
 50
239.999999999998410
 51
306.421821521797600
  0
ARC
  8
0
  6
CONTINUOUS
 62
3
 10
-464.270307978936670
 20
-185.571464372121110
 40
8.499999999999879
 50
113.578178478199500
 51
126.421821521797340
  0
ARC
  8
0
  6
CONTINUOUS
 62
3
 10
-468.270307978936220
 20
-176.406312982209220
 40
1.500000000000139
 50
293.578178478195700
 51
0.000000000000000
  0
LINE
  8
0
  6
CONTINUOUS
 62
3
 10
-466.770307978936220
 20
-173.202147495268150
 11
-466.770307978936220
 21
-176.406312982209220
  0
ARC
  8
0
  6
CONTINUOUS
 62
3
 10
-468.270307978936220
 20
-173.202147495268150
 40
1.500000000000000
 50
0.000000000000000
 51
107.920213139394770
  0
ARC
  8
0
  6
CONTINUOUS
 62
3
 10
-464.270307978936220
 20
-185.571464372121570
 40
23.999999999999716
 50
280.240348321186270
 51
319.759651678814690
  0
ARC
  8
0
  6
CONTINUOUS
 62
3
 10
-460.270307978936220
 20
-207.713054197606080
 40
1.500000000000000
 50
180.000000000000000
 51
280.240348321187530
  0
LINE
  8
0
  6
CONTINUOUS
 62
3
 10
-461.770307978936220
 20
-204.656799056113750
 11
-461.770307978936220
 21
-207.713054197606080
  0
ARC
  8
0
  6
CONTINUOUS
 62
3
 10
-460.270307978936220
 20
-204.656799056113750
 40
1.499999999999731
 50
101.837004155898450
 51
180.000000000000000
  0
ARC
  8
0
  6
CONTINUOUS
 62
3
 10
-464.270307978936220
 20
-185.571464372121570
 40
18.000000000000146
 50
281.837004155893230
 51
318.162995844107680
  0
ARC
  8
0
  6
CONTINUOUS
 62
3
 10
-449.741923302870420
 20
-198.578233329255340
 40
1.499999999999926
 50
59.999999999998380
 51
138.162995844100240
  0
LINE
  8
0
  6
CONTINUOUS
 62
3
 10
-446.345128709891470
 20
-198.807322794324930
 11
-448.991923302870420
 21
-197.279195223578770
  0
ARC
  8
0
  6
CONTINUOUS
 62
3
 10
-447.095128709891470
 20
-200.106360900001500
 40
1.499999999999828
 50
319.759651678823670
 51
59.999999999998380
  0
ARC
  8
0
  6
CONTINUOUS
 62
3
 10
-464.270307978936220
 20
-185.571464372121570
 40
14.500000000000121
 50
287.920213139392560
 51
312.079786860608860
  0
ARC
  8
0
  6
CONTINUOUS
 62
3
 10
-460.270307978936220
 20
-197.940781248974300
 40
1.500000000000000
 50
180.000000000000000
 51
287.920213139392100
  0
LINE
  8
0
  6
CONTINUOUS
 62
3
 10
-461.770307978936220
 20
-194.736615762033010
 11
-461.770307978936220
 21
-197.940781248974300
  0
ARC
  8
0
  6
CONTINUOUS
 62
3
 10
-460.270307978936220
 20
-194.736615762033470
 40
1.500000000000139
 50
113.578178478195690
 51
179.999999999982630
  0
ARC
  8
0
  6
CONTINUOUS
 62
3
 10
-464.270307978936220
 20
-185.571464372121570
 40
8.500000000000060
 50
293.578178478202350
 51
306.421821521799190
  0
ARC
  8
0
  6
CONTINUOUS
 62
3
 10
-458.333054045742300
 20
-193.618141682214970
 40
1.499999999999926
 50
59.999999999998380
 51
126.421821521801260
  0
LINE
  8
0
  6
CONTINUOUS
 62
3
 10
-454.808165336121870
 20
-193.921186320008810
 11
-457.583054045742300
 21
-192.319103576538400
  0
ARC
  8
0
  6
CONTINUOUS
 62
3
 10
-455.558165336121870
 20
-195.220224425685840
 40
1.499999999999944
 50
312.079786860618130
 51
60.000000000007070
  0
ARC
  8
0
  6
CONTINUOUS
 62
3
 10
-464.270307978936220
 20
-185.571464372121570
 40
23.999999999999844
 50
220.240348321185340
 51
259.759651678813730
  0
ARC
  8
0
  6
CONTINUOUS
 62
3
 10
-468.270307978936220
 20
-207.713054197606080
 40
1.499999999999728
 50
259.759651678812470
 51
0.000000000000000
  0
LINE
  8
0
  6
CONTINUOUS
 62
3
 10
-466.770307978936220
 20
-204.656799056113750
 11
-466.770307978936220
 21
-207.713054197606080
  0
ARC
  8
0
  6
CONTINUOUS
 62
3
 10
-468.270307978936220
 20
-204.656799056113750
 40
1.500000000000000
 50
0.000000000000000
 51
78.162995844101530
  0
ARC
  8
0
  6
CONTINUOUS
 62
3
 10
-464.270307978936220
 20
-185.571464372121570
 40
17.999999999999940
 50
221.837004155892320
 51
258.162995844106770
  0
ARC
  8
0
  6
CONTINUOUS
 62
3
 10
-478.798692655002010
 20
-198.578233329255340
 40
1.500000000000118
 50
41.837004155899741
 51
120.000000000001620
  0
LINE
  8
0
  6
CONTINUOUS
 62
3
 10
-482.195487247980960
 20
-198.807322794324930
 11
-479.548692655002010
 21
-197.279195223578770
  0
ARC
  8
0
  6
CONTINUOUS
 62
3
 10
-481.445487247980960
 20
-200.106360900001500
 40
1.499999999999926
 50
120.000000000001620
 51
220.240348321176330
  0
ARC
  8
0
  6
CONTINUOUS
 62
3
 10
-464.270307978936220
 20
-185.571464372121570
 40
14.500000000000011
 50
227.920213139391080
 51
252.079786860607410
  0
ARC
  8
0
  6
CONTINUOUS
 62
3
 10
-468.270307978936220
 20
-197.940781248974300
 40
1.500000000000355
 50
252.079786860607900
 51
0.000000000000000
  0
LINE
  8
0
  6
CONTINUOUS
 62
3
 10
-466.770307978936220
 20
-194.736615762033010
 11
-466.770307978936220
 21
-197.940781248974300
  0
ARC
  8
0
  6
CONTINUOUS
 62
3
 10
-468.270307978936220
 20
-194.736615762033470
 40
1.500000000000000
 50
0.000000000017370
 51
66.421821521804304
  0
ARC
  8
0
  6
CONTINUOUS
 62
3
 10
-464.270307978936220
 20
-185.571464372121570
 40
8.499999999999870
 50
233.578178478199590
 51
246.421821521797680
  0
ARC
  8
0
  6
CONTINUOUS
 62
3
 10
-470.207561912130130
 20
-193.618141682214970
 40
1.500000000000059
 50
53.578178478205707
 51
120.000000000001620
  0
LINE
  8
0
  6
CONTINUOUS
 62
3
 10
-473.732450621750560
 20
-193.921186320008810
 11
-470.957561912130130
 21
-192.319103576538400
  0
ARC
  8
0
  6
CONTINUOUS
 62
3
 10
-472.982450621750560
 20
-195.220224425685840
 40
1.500000000000320
 50
119.999999999992930
 51
227.920213139381870
  0
ARC
  8
0
  6
CONTINUOUS
 62
3
 10
-464.270307978936670
 20
-185.571464372121110
 40
23.999999999999925
 50
160.240348321185910
 51
199.759651678814090
  0
ARC
  8
0
  6
CONTINUOUS
 62
3
 10
-485.445487247981190
 20
-177.964771074516530
 40
1.499999999999926
 50
59.999999999998380
 51
160.240348321185250
  0
LINE
  8
0
  6
CONTINUOUS
 62
3
 10
-482.048692655002010
 20
-178.193860539586130
 11
-484.695487247981190
 21
-176.665732968839960
  0
ARC
  8
0
  6
CONTINUOUS
 62
3
 10
-482.798692655002010
 20
-179.492898645262700
 40
1.500000000000038
 50
341.837004155895390
 51
59.999999999998380
  0
ARC
  8
0
  6
CONTINUOUS
 62
3
 10
-464.270307978936670
 20
-185.571464372121110
 40
17.999999999999726
 50
161.837004155893140
 51
198.162995844106860
  0
ARC
  8
0
  6
CONTINUOUS
 62
3
 10
-482.798692655002010
 20
-191.650030098979530
 40
1.500000000000320
 50
299.999999999992950
 51
18.162995844104589
  0
LINE
  8
0
  6
CONTINUOUS
 62
3
 10
-484.695487247980960
 20
-194.477195775402270
 11
-482.048692655002010
 21
-192.949068204656560
  0
ARC
  8
0
  6
CONTINUOUS
 62
3
 10
-485.445487247980960
 20
-193.178157669725690
 40
1.500000000000246
 50
199.759651678811820
 51
300.000000000001590
  0
ARC
  8
0
  6
CONTINUOUS
 62
3
 10
-464.270307978936670
 20
-185.571464372121110
 40
14.499999999999851
 50
167.920213139392840
 51
192.079786860608920
  0
ARC
  8
0
  6
CONTINUOUS
 62
3
 10
-476.982450621750790
 20
-182.850907548832200
 40
1.499999999999926
 50
59.999999999998380
 51
167.920213139405550
  0
LINE
  8
0
  6
CONTINUOUS
 62
3
 10
-473.457561912130130
 20
-183.153952186626500
 11
-476.232450621750790
 21
-181.551869443155620
  0
ARC
  8
0
  6
CONTINUOUS
 62
3
 10
-474.207561912130130
 20
-184.452990292303070
 40
1.499999999999873
 50
353.578178478198030
 51
59.999999999998380
  0
ARC
  8
0
  6
CONTINUOUS
 62
3
 10
-464.270307978936670
 20
-185.571464372121110
 40
8.499999999999813
 50
173.578178478202550
 51
186.421821521800500
  0
ARC
  8
0
  6
CONTINUOUS
 62
3
 10
-474.207561912130130
 20
-186.689938451939610
 40
1.499999999999926
 50
300.000000000001590
 51
6.421821521801967
  0
LINE
  8
0
  6
CONTINUOUS
 62
3
 10
-476.232450621750560
 20
-189.591059301086600
 11
-473.457561912130130
 21
-187.988976557616180
  0
ARC
  8
0
  6
CONTINUOUS
 62
3
 10
-476.982450621750560
 20
-188.292021195410030
 40
1.500000000000287
 50
192.079786860609600
 51
300.000000000001590
  0
ARC
  8
0
  6
CONTINUOUS
 62
3
 10
-464.270307978935990
 20
-185.571464372121110
 40
24.000000000000139
 50
340.240348321186050
 51
19.759651678813924
  0
ARC
  8
0
  6
CONTINUOUS
 62
3
 10
-443.095128709891470
 20
-177.964771074516530
 40
1.500000000000246
 50
19.759651678811824
 51
120.000000000001620
  0
LINE
  8
0
  6
CONTINUOUS
 62
3
 10
-446.491923302870420
 20
-178.193860539586130
 11
-443.845128709891470
 21
-176.665732968839960
  0
ARC
  8
0
  6
CONTINUOUS
 62
3
 10
-445.741923302870420
 20
-179.492898645262700
 40
1.499999999999926
 50
120.000000000001620
 51
198.162995844104590
  0
ARC
  8
0
  6
CONTINUOUS
 62
3
 10
-464.270307978935990
 20
-185.571464372121110
 40
17.999999999999943
 50
341.837004155893340
 51
18.162995844106646
  0
ARC
  8
0
  6
CONTINUOUS
 62
3
 10
-445.741923302870420
 20
-191.650030098979530
 40
1.500000000000038
 50
161.837004155895410
 51
240.000000000007050
  0
LINE
  8
0
  6
CONTINUOUS
 62
3
 10
-443.845128709891470
 20
-194.477195775402270
 11
-446.491923302870420
 21
-192.949068204656560
  0
ARC
  8
0
  6
CONTINUOUS
 62
3
 10
-443.095128709891470
 20
-193.178157669725690
 40
1.499999999999926
 50
239.999999999998410
 51
340.240348321188210
  0
ARC
  8
0
  6
CONTINUOUS
 62
3
 10
-464.270307978935990
 20
-185.571464372121110
 40
14.500000000000169
 50
347.920213139391310
 51
12.079786860606980
  0
ARC
  8
0
  6
CONTINUOUS
 62
3
 10
-451.558165336121870
 20
-182.850907548832200
 40
1.500000000000192
 50
12.079786860592611
 51
120.000000000001620
  0
LINE
  8
0
  6
CONTINUOUS
 62
3
 10
-455.083054045742300
 20
-183.153952186626500
 11
-452.308165336121870
 21
-181.551869443155620
  0
ARC
  8
0
  6
CONTINUOUS
 62
3
 10
-454.333054045742300
 20
-184.452990292303070
 40
1.499999999999926
 50
120.000000000001620
 51
186.421821521801010
  0
ARC
  8
0
  6
CONTINUOUS
 62
3
 10
-464.270307978935990
 20
-185.571464372121110
 40
8.499999999999865
 50
353.578178478199500
 51
6.421821521797448
  0
ARC
  8
0
  6
CONTINUOUS
 62
3
 10
-454.333054045742300
 20
-186.689938451939610
 40
1.500000000000099
 50
173.578178478198990
 51
239.999999999998410
  0
LINE
  8
0
  6
CONTINUOUS
 62
3
 10
-452.308165336121870
 20
-189.591059301086600
 11
-455.083054045742300
 21
-187.988976557616180
  0
ARC
  8
0
  6
CONTINUOUS
 62
3
 10
-451.558165336121870
 20
-188.292021195410030
 40
1.499999999999926
 50
239.999999999998410
 51
347.920213139390400
  0
ARC
  8
0
  6
CONTINUOUS
 62
3
 10
-464.270307978935990
 20
-185.571464372121110
 40
8.500000000000101
 50
53.578178478202659
 51
66.421821521799089
  0
ARC
  8
0
  6
CONTINUOUS
 62
3
 10
-464.270307978935990
 20
-185.571464372121110
 40
23.999999999999819
 50
40.240348321186090
 51
79.759651678814322
  0
LINE
  8
0
  6
CONTINUOUS
 62
3
 10
-457.583054045742300
 20
-178.823825167704290
 11
-454.808165336121870
 21
-177.221742424233410
  0
LINE
  8
0
  6
CONTINUOUS
 62
3
 10
-461.770307978936220
 20
-163.429874546636600
 11
-461.770307978936220
 21
-166.486129688128930
  0
LINE
  8
0
  6
CONTINUOUS
 62
3
 10
-461.770307978936220
 20
-173.202147495268150
 11
-461.770307978936220
 21
-176.406312982209220
  0
ARC
  8
0
  6
CONTINUOUS
 62
3
 10
-464.270307978935990
 20
-185.571464372121110
 40
14.499999999999860
 50
47.920213139391755
 51
72.079786860608309
  0
LINE
  8
0
  6
CONTINUOUS
 62
3
 10
-448.991923302870420
 20
-173.863733520663910
 11
-446.345128709891470
 21
-172.335605949917750
  0
ARC
  8
0
  6
CONTINUOUS
 62
3
 10
-455.558165336121870
 20
-175.922704318556840
 40
1.499999999999926
 50
300.000000000001590
 51
47.920213139381872
  0
ARC
  8
0
  6
CONTINUOUS
 62
3
 10
-460.270307978936220
 20
-163.429874546636600
 40
1.499999999999952
 50
79.759651678814024
 51
180.000000000000000
  0
ARC
  8
0
  6
CONTINUOUS
 62
3
 10
-449.741923302870420
 20
-172.564695414987340
 40
1.499999999999967
 50
221.837004155893280
 51
300.000000000001590
  0
ARC
  8
0
  6
CONTINUOUS
 62
3
 10
-460.270307978936220
 20
-166.486129688128930
 40
1.500000000000000
 50
180.000000000000000
 51
258.162995844103310
  0
ARC
  8
0
  6
CONTINUOUS
 62
3
 10
-460.270307978936220
 20
-173.202147495268150
 40
1.500000000000138
 50
72.079786860605225
 51
180.000000000000000
  0
ARC
  8
0
  6
CONTINUOUS
 62
3
 10
-447.095128709891470
 20
-171.036567844241180
 40
1.499999999999926
 50
300.000000000001590
 51
40.240348321182964
  0
ARC
  8
0
  6
CONTINUOUS
 62
3
 10
-460.270307978936220
 20
-176.406312982209220
 40
1.500000000000000
 50
180.000000000000000
 51
246.421821521804280
  0
ARC
  8
0
  6
CONTINUOUS
 62
3
 10
-458.333054045742300
 20
-177.524787062027710
 40
1.499999999999693
 50
233.578178478195410
 51
300.000000000001590
  0
CIRCLE
  8
0
  6
CONTINUOUS
 62
3
 10
-464.270307978936220
 20
-185.571464372121110
 40
5.000000000000000
  0
ARC
  8
0
  6
CONTINUOUS
 62
3
 10
-441.395622051270490
 20
-167.745956140638440
 40
1.499999999999843
 50
217.928141766204990
 51
300.000000000001590
  0
LINE
  8
0
  6
CONTINUOUS
 62
3
 10
-440.645622051270490
 20
-169.044994246315010
 11
-438.024853809201660
 21
-167.531892996272860
  0
ARC
  8
0
  6
CONTINUOUS
 62
3
 10
-460.270307978936220
 20
-156.848651139431130
 40
1.500000000000000
 50
180.000000000000000
 51
262.071858233795980
  0
ARC
  8
0
  6
CONTINUOUS
 62
3
 10
-464.270307978935990
 20
-185.571464372121110
 40
27.500000000000060
 50
37.928141766201819
 51
82.071858233798309
  0
ARC
  8
0
  6
CONTINUOUS
 62
3
 10
-438.774853809201660
 20
-166.232854890596290
 40
1.499999999999926
 50
300.000000000001590
 51
37.180755781457485
  0
ARC
  8
0
  6
CONTINUOUS
 62
3
 10
-433.108771524785420
 20
-162.961540758437990
 40
1.500000000000102
 50
215.963570118316280
 51
299.999999999997270
  0
ARC
  8
0
  6
CONTINUOUS
 62
3
 10
-464.270307978936670
 20
-185.571464372121570
 40
36.999999999999943
 50
35.963570118321194
 51
84.036429881678174
  0
ARC
  8
0
  6
CONTINUOUS
 62
3
 10
-464.270307978936670
 20
-185.571464372121570
 40
33.500000000000071
 50
37.180755781458259
 51
82.819244218540931
  0
LINE
  8
0
  6
CONTINUOUS
 62
3
 10
-438.145622051270270
 20
-173.375121265237680
 11
-435.524853809201430
 21
-171.862020015195530
  0
ARC
  8
0
  6
CONTINUOUS
 62
3
 10
-434.774853809201430
 20
-173.161058120872330
 40
1.499999999999948
 50
22.819244218550043
 51
119.999999999997270
  0
ARC
  8
0
  6
CONTINUOUS
 62
3
 10
-437.395622051270270
 20
-174.674159370914250
 40
1.499999999999926
 50
120.000000000001620
 51
202.071858233797370
  0
ARC
  8
0
  6
CONTINUOUS
 62
3
 10
-464.270307978935760
 20
-185.571464372121570
 40
27.499999999999886
 50
337.928141766202200
 51
22.071858233797812
  0
ARC
  8
0
  6
CONTINUOUS
 62
3
 10
-464.270307978936440
 20
-185.571464372122020
 40
33.500000000000128
 50
337.180755781459030
 51
22.819244218541968
  0
ARC
  8
0
  6
CONTINUOUS
 62
3
 10
-437.395622051270490
 20
-196.468769373328880
 40
1.499999999999899
 50
157.928141766199360
 51
240.000000000007050
  0
LINE
  8
0
  6
CONTINUOUS
 62
3
 10
-435.524853809201200
 20
-199.280908729047840
 11
-438.145622051270490
 21
-197.767807479005910
  0
ARC
  8
0
  6
CONTINUOUS
 62
3
 10
-434.774853809201200
 20
-197.981870623371260
 40
1.499999999999926
 50
239.999999999998410
 51
337.180755781453340
  0
ARC
  8
0
  6
CONTINUOUS
 62
3
 10
-460.270307978935990
 20
-226.878243476766670
 40
1.500000000000000
 50
180.000000000000000
 51
275.531071524831360
  0
LINE
  8
0
  6
CONTINUOUS
 62
3
 10
-461.770307978935990
 20
-223.863108369212450
 11
-461.770307978935990
 21
-226.878243476766670
  0
LINE
  8
0
  6
CONTINUOUS
 62
3
 10
-461.770307978935990
 20
-214.294277604812010
 11
-461.770307978935990
 21
-217.320480104896320
  0
ARC
  8
0
  6
CONTINUOUS
 62
3
 10
-460.270307978935990
 20
-223.863108369212910
 40
1.500000000000182
 50
95.963570118326047
 51
179.999999999982630
  0
ARC
  8
0
  6
CONTINUOUS
 62
3
 10
-460.270307978935990
 20
-217.320480104896320
 40
1.500000000000000
 50
180.000000000000000
 51
277.180755781458290
  0
ARC
  8
0
  6
CONTINUOUS
 62
3
 10
-460.270307978935990
 20
-214.294277604812010
 40
1.499999999999967
 50
97.928141766195438
 51
180.000000000000000
  0
ARC
  8
0
  6
CONTINUOUS
 62
3
 10
-464.270307978935990
 20
-185.571464372122020
 40
27.499999999999879
 50
277.928141766202600
 51
322.071858233798930
  0
ARC
  8
0
  6
CONTINUOUS
 62
3
 10
-464.270307978935990
 20
-185.571464372121110
 40
37.000000000000028
 50
275.963570118320770
 51
324.036429881678030
  0
ARC
  8
0
  6
CONTINUOUS
 62
3
 10
-464.270307978935990
 20
-185.571464372121110
 40
43.000000000000199
 50
275.531071524838860
 51
324.468928475160340
  0
ARC
  8
0
  6
CONTINUOUS
 62
3
 10
-464.270307978935990
 20
-185.571464372121110
 40
33.500000000000114
 50
277.180755781458230
 51
322.819244218540860
  0
ARC
  8
0
  6
CONTINUOUS
 62
3
 10
-441.395622051270490
 20
-203.396972603604690
 40
1.500000000000320
 50
60.000000000007070
 51
142.071858233781280
  0
ARC
  8
0
  6
CONTINUOUS
 62
3
 10
-433.108771524784970
 20
-208.181387985804920
 40
1.499999999999926
 50
59.999999999998380
 51
144.036429881690740
  0
LINE
  8
0
  6
CONTINUOUS
 62
3
 10
-438.024853809201200
 20
-203.611035747970050
 11
-440.645622051270490
 21
-202.097934497927670
  0
ARC
  8
0
  6
CONTINUOUS
 62
3
 10
-438.774853809201200
 20
-204.910073853646620
 40
1.500000000000240
 50
322.819244218535570
 51
59.999999999998380
  0
ARC
  8
0
  6
CONTINUOUS
 62
3
 10
-468.270307978936440
 20
-226.878243476766670
 40
1.500000000000430
 50
264.468928475160000
 51
0.000000000000000
  0
LINE
  8
0
  6
CONTINUOUS
 62
3
 10
-466.770307978936440
 20
-223.863108369212450
 11
-466.770307978936440
 21
-226.878243476766670
  0
LINE
  8
0
  6
CONTINUOUS
 62
3
 10
-466.770307978936440
 20
-214.294277604812010
 11
-466.770307978936440
 21
-217.320480104896320
  0
ARC
  8
0
  6
CONTINUOUS
 62
3
 10
-468.270307978936440
 20
-223.863108369212910
 40
1.500000000000000
 50
0.000000000017370
 51
84.036429881682594
  0
ARC
  8
0
  6
CONTINUOUS
 62
3
 10
-468.270307978936440
 20
-217.320480104896320
 40
1.499999999999998
 50
262.819244218541710
 51
0.000000000000000
  0
ARC
  8
0
  6
CONTINUOUS
 62
3
 10
-468.270307978936440
 20
-214.294277604812010
 40
1.500000000000000
 50
0.000000000000000
 51
82.071858233804562
  0
ARC
  8
0
  6
CONTINUOUS
 62
3
 10
-464.270307978936440
 20
-185.571464372122020
 40
27.499999999999780
 50
217.928141766201070
 51
262.071858233797400
  0
ARC
  8
0
  6
CONTINUOUS
 62
3
 10
-464.270307978936440
 20
-185.571464372121110
 40
37.000000000000021
 50
215.963570118321970
 51
264.036429881678940
  0
ARC
  8
0
  6
CONTINUOUS
 62
3
 10
-464.270307978936440
 20
-185.571464372121110
 40
42.999999999999858
 50
215.531071524839690
 51
264.468928475160850
  0
ARC
  8
0
  6
CONTINUOUS
 62
3
 10
-464.270307978936440
 20
-185.571464372121110
 40
33.500000000000163
 50
217.180755781459110
 51
262.819244218541770
  0
ARC
  8
0
  6
CONTINUOUS
 62
3
 10
-487.144993906601940
 20
-203.396972603604690
 40
1.500000000000122
 50
37.928141766218701
 51
119.999999999992930
  0
ARC
  8
0
  6
CONTINUOUS
 62
3
 10
-498.043028032071560
 20
-209.688955539582250
 40
1.499999999999926
 50
120.000000000001620
 51
215.531071524832130
  0
LINE
  8
0
  6
CONTINUOUS
 62
3
 10
-498.793028032071560
 20
-208.389917433905680
 11
-496.181844433087460
 21
-206.882349880128340
  0
ARC
  8
0
  6
CONTINUOUS
 62
3
 10
-495.431844433087460
 20
-208.181387985804920
 40
1.499999999999968
 50
35.963570118309242
 51
120.000000000001620
  0
LINE
  8
0
  6
CONTINUOUS
 62
3
 10
-490.515762148671230
 20
-203.611035747970050
 11
-487.894993906601940
 21
-202.097934497927670
  0
ARC
  8
0
  6
CONTINUOUS
 62
3
 10
-489.765762148671230
 20
-204.910073853646620
 40
1.499999999999926
 50
120.000000000001620
 51
217.180755781464400
  0
ARC
  8
0
  6
CONTINUOUS
 62
3
 10
-502.043028032071560
 20
-168.382176434936920
 40
1.499999999999926
 50
59.999999999998380
 51
155.531071524840400
  0
LINE
  8
0
  6
CONTINUOUS
 62
3
 10
-498.681844433087010
 20
-168.590705883037460
 11
-501.293028032071560
 21
-167.083138329260350
  0
LINE
  8
0
  6
CONTINUOUS
 62
3
 10
-490.394993906602170
 20
-173.375121265237680
 11
-493.015762148671000
 21
-171.862020015195530
  0
ARC
  8
0
  6
CONTINUOUS
 62
3
 10
-499.431844433087240
 20
-169.889743988714030
 40
1.499999999999855
 50
335.963570118319300
 51
59.999999999990862
  0
ARC
  8
0
  6
CONTINUOUS
 62
3
 10
-493.765762148671000
 20
-173.161058120872330
 40
1.500000000000123
 50
60.000000000002721
 51
157.180755781457980
  0
ARC
  8
0
  6
CONTINUOUS
 62
3
 10
-491.144993906602170
 20
-174.674159370914250
 40
1.500000000000110
 50
337.928141766202600
 51
59.999999999998380
  0
ARC
  8
0
  6
CONTINUOUS
 62
3
 10
-464.270307978936670
 20
-185.571464372121570
 40
27.499999999999886
 50
157.928141766202200
 51
202.071858233798680
  0
ARC
  8
0
  6
CONTINUOUS
 62
3
 10
-464.270307978935990
 20
-185.571464372122020
 40
37.000000000000156
 50
155.963570118321120
 51
204.036429881678230
  0
ARC
  8
0
  6
CONTINUOUS
 62
3
 10
-464.270307978935990
 20
-185.571464372122020
 40
43.000000000000121
 50
155.531071524839230
 51
204.468928475160200
  0
ARC
  8
0
  6
CONTINUOUS
 62
3
 10
-464.270307978935990
 20
-185.571464372122020
 40
33.499999999999794
 50
157.180755781458400
 51
202.819244218540940
  0
ARC
  8
0
  6
CONTINUOUS
 62
3
 10
-491.144993906601940
 20
-196.468769373328880
 40
1.500000000000320
 50
299.999999999992950
 51
22.071858233784546
  0
ARC
  8
0
  6
CONTINUOUS
 62
3
 10
-502.043028032071560
 20
-202.760752309306440
 40
1.500000000000128
 50
204.468928475167470
 51
299.999999999992950
  0
LINE
  8
0
  6
CONTINUOUS
 62
3
 10
-501.293028032071560
 20
-204.059790414983470
 11
-498.681844433087460
 21
-202.552222861206130
  0
ARC
  8
0
  6
CONTINUOUS
 62
3
 10
-499.431844433087460
 20
-201.253184755529560
 40
1.499999999999926
 50
300.000000000001590
 51
24.036429881677126
  0
LINE
  8
0
  6
CONTINUOUS
 62
3
 10
-493.015762148671230
 20
-199.280908729047840
 11
-490.394993906601940
 21
-197.767807479005910
  0
ARC
  8
0
  6
CONTINUOUS
 62
3
 10
-493.765762148671230
 20
-197.981870623371260
 40
1.500000000000157
 50
202.819244218546660
 51
300.000000000001590
  0
ARC
  8
0
  6
CONTINUOUS
 62
3
 10
-498.043028032071110
 20
-161.453973204660880
 40
1.499999999999976
 50
144.468928475160790
 51
240.000000000002730
  0
LINE
  8
0
  6
CONTINUOUS
 62
3
 10
-496.181844433087010
 20
-164.260578864114790
 11
-498.793028032071110
 21
-162.753011310337680
  0
LINE
  8
0
  6
CONTINUOUS
 62
3
 10
-487.894993906601940
 20
-169.044994246315010
 11
-490.515762148670770
 21
-167.531892996272860
  0
ARC
  8
0
  6
CONTINUOUS
 62
3
 10
-495.431844433087010
 20
-162.961540758437990
 40
1.500000000000123
 50
240.000000000002730
 51
324.036429881683720
  0
ARC
  8
0
  6
CONTINUOUS
 62
3
 10
-489.765762148670770
 20
-166.232854890596290
 40
1.500000000000103
 50
142.819244218542510
 51
239.999999999998410
  0
ARC
  8
0
  6
CONTINUOUS
 62
3
 10
-487.144993906601940
 20
-167.745956140638440
 40
1.499999999999926
 50
239.999999999998410
 51
322.071858233800300
  0
ARC
  8
0
  6
CONTINUOUS
 62
3
 10
-464.270307978935760
 20
-185.571464372121570
 40
37.000000000000099
 50
95.963570118321798
 51
144.036429881678830
  0
ARC
  8
0
  6
CONTINUOUS
 62
3
 10
-464.270307978935760
 20
-185.571464372121570
 40
43.000000000000043
 50
95.531071524839788
 51
144.468928475160770
  0
ARC
  8
0
  6
CONTINUOUS
 62
3
 10
-464.270307978935760
 20
-185.571464372121570
 40
33.499999999999950
 50
97.180755781459069
 51
142.819244218541740
  0
ARC
  8
0
  6
CONTINUOUS
 62
3
 10
-468.270307978936220
 20
-156.848651139431130
 40
1.499999999999998
 50
277.928141766204020
 51
0.000000000000000
  0
ARC
  8
0
  6
CONTINUOUS
 62
3
 10
-508.218895409218700
 20
-135.474849904593270
 40
6.599999999999971
 50
98.597082237248614
 51
134.999999999998610
  0
ARC
  8
0
  6
CONTINUOUS
 62
3
 10
-671.270307978936220
 20
-185.571464372121110
 40
300.000000000000170
 50
355.138594604201900
 51
0.000000000000000
  0
LINE
  8
0
  6
CONTINUOUS
 62
3
 10
-377.331538844954820
 20
-215.571464372121110
 11
-400.770307978936220
 21
-215.571464372121110
  0
ARC
  8
0
  6
CONTINUOUS
 62
3
 10
-377.331538844954820
 20
-210.571464372121110
 40
5.000000000000000
 50
270.000000000000000
 51
355.138594604199000
  0
ARC
  8
0
  6
CONTINUOUS
 62
3
 10
-377.331538844954820
 20
-160.571464372121340
 40
5.000000000000119
 50
4.861405395798401
 51
90.000000000000000
  0
ARC
  8
0
  6
CONTINUOUS
 62
3
 10
-671.270307978936220
 20
-185.571464372121110
 40
300.000000000000000
 50
0.000000000000000
 51
4.861405395797992
  0
LINE
  8
0
  6
CONTINUOUS
 62
3
 10
-370.770307978936220
 20
-183.071464372121110
 11
-371.280724826453930
 21
-183.071464372121110
  0
LINE
  8
0
  6
CONTINUOUS
 62
3
 10
-370.770307978936220
 20
-188.071464372121110
 11
-371.280724826453930
 21
-188.071464372121110
  0
LINE
  8
0
  6
CONTINUOUS
 62
3
 10
-370.770307978936220
 20
-188.071464372121110
 11
-370.770307978936220
 21
-183.071464372121110
  0
LINE
  8
0
  6
CONTINUOUS
 62
3
 10
-400.925313038395190
 20
-154.071464372121340
 11
-400.770307978936220
 21
-154.071464372121340
  0
LINE
  8
0
  6
CONTINUOUS
 62
3
 10
-377.331538844954820
 20
-155.571464372121340
 11
-400.771060236652370
 21
-155.571464372121340
  0
LINE
  8
0
  6
CONTINUOUS
 62
3
 10
-400.770307978936220
 20
-217.071464372121570
 11
-400.770307978936220
 21
-215.563963434388260
  0
LINE
  8
0
  6
CONTINUOUS
 62
3
 10
-400.770307978936220
 20
-155.578965309854650
 11
-400.770307978936220
 21
-154.071464372121340
  0
LINE
  8
0
  6
CONTINUOUS
 62
3
 10
-400.925313038395190
 20
-217.071464372121570
 11
-400.770307978936220
 21
-217.071464372121570
  0
ARC
  8
0
  6
CONTINUOUS
 62
4
 10
-228.670307978936310
 20
-185.571464372121570
 40
289.396999999999930
 50
173.948014641331470
 51
180.000000000000000
  0
LINE
  8
0
  6
CONTINUOUS
 62
4
 10
-507.454466621437400
 20
-141.220046144415280
 11
-512.030532014076020
 21
-145.796111537053890
  0
ARC
  8
0
  6
CONTINUOUS
 62
4
 10
-503.211825934318310
 20
-145.462686831534820
 40
5.999999999999923
 50
97.897988672425626
 51
134.999999999996930
  0
ARC
  8
0
  6
CONTINUOUS
 62
4
 10
-464.270307978936220
 20
-426.171464372121480
 40
289.396999999999930
 50
90.000000000000000
 51
97.897988672427743
  0
LINE
  8
0
  6
DASHDOT
 62
4
 10
-640.340387044042470
 20
-185.571464372121570
 11
-287.480089115980260
 21
-185.571464372121570
  0
LINE
  8
0
  6
DASHDOT
 62
4
 10
-464.270307978936220
 20
-6.377555012797302
 11
-464.270307978936220
 21
-370.572079500503380
  0
LINE
  8
0
  6
DASHDOT
 62
4
 10
-494.583150255796680
 20
-184.071464372117820
 11
-433.431837939989240
 21
-184.071464372117820
  0
TEXT
  8
0
  6
CONTINUOUS
 62
3
 10
-529.700439453125000
 20
222.309066772460940
 40
13.590719223022461
  1
Ｓ１５６
 50
0.000002504478167
 41
0.984848654959993
  7
STANDARD1
  0
TEXT
  8
0
  6
CONTINUOUS
 62
3
 10
-529.700439453125000
 20
200.481552124023440
 40
13.590719223022461
  1
三菱ギヤードモートル
 50
0.000002504478167
 41
0.984848654959993
  7
STANDARD1
  0
TEXT
  8
0
  6
CONTINUOUS
 62
3
 10
-529.700439453125000
 20
178.654022216796880
 40
13.590719223022461
  1
ＧＭ－ＳＦＳ
 50
0.000002504478167
 41
0.984848654959993
  7
STANDARD1
  0
TEXT
  8
0
  6
CONTINUOUS
 62
3
 10
-529.700439453125000
 20
156.826507568359380
 40
13.590719223022461
  1
０．４ｋＷ
 50
0.000002504478167
 41
0.984848654959993
  7
STANDARD1
  0
TEXT
  8
0
  6
CONTINUOUS
 62
3
 10
-529.700439453125000
 20
134.998977661132810
 40
13.590719223022461
  1
１／１２００
 50
0.000002504478167
 41
0.984848654959993
  7
STANDARD1
  0
TEXT
  8
0
  6
CONTINUOUS
 62
3
 10
-529.700439453125000
 20
113.171463012695310
 40
13.590719223022461
  1
ＳＣＡＬＥ１／１
 50
0.000002504478167
 41
0.984848654959993
  7
STANDARD1
  0
ARC
  8
0
  6
CONTINUOUS
 62
3
 10
117.815442579387300
 20
106.843514770101590
 40
4.999999999999703
 50
54.248856798881903
 51
90.000000000000000
  0
LINE
  8
0
  6
CONTINUOUS
 62
3
 10
120.736771872143430
 20
110.901326392550570
 11
154.599352016310600
 21
86.522731103357501
  0
ARC
  8
0
  6
CONTINUOUS
 62
3
 10
151.678022723554020
 20
82.464919480908293
 40
5.000000000000000
 50
0.000000000000000
 51
54.248856798879189
  0
ARC
  8
0
  6
CONTINUOUS
 62
3
 10
117.815442579387300
 20
98.003005867354432
 40
4.999999999999703
 50
54.248856798881903
 51
90.000000000000000
  0
ARC
  8
0
  6
CONTINUOUS
 62
3
 10
151.678022723554020
 20
73.624410578161132
 40
5.000000000000000
 50
0.000000000000000
 51
54.248856798877661
  0
LINE
  8
0
  6
CONTINUOUS
 62
3
 10
120.736771872143430
 20
102.060817489803410
 11
154.599352016310600
 21
77.682222200610113
  0
LINE
  8
0
  6
CONTINUOUS
 62
3
 10
151.928418635232450
 20
111.843514770101590
 11
124.456040002422010
 21
111.843514770101590
  0
ARC
  8
0
  6
CONTINUOUS
 62
3
 10
124.428044725757900
 20
185.484097167065100
 40
5.000000000000000
 50
90.000000000000000
 51
180.000000000000000
  0
ARC
  8
0
  6
CONTINUOUS
 62
3
 10
124.428044725757900
 20
202.484097167065100
 40
5.000000000000000
 50
180.000000000000000
 51
270.000000000000000
  0
LINE
  8
0
  6
CONTINUOUS
 62
3
 10
151.678022723554020
 20
197.484097167065100
 11
124.428044725757900
 21
197.484097167065100
  0
ARC
  8
0
  6
CONTINUOUS
 62
3
 10
151.678022723554020
 20
202.484097167065100
 40
5.000000000000000
 50
270.000000000000000
 51
0.000000000000000
  0
LINE
  8
0
  6
CONTINUOUS
 62
3
 10
151.678022723554020
 20
190.484097167065100
 11
124.428044725757900
 21
190.484097167065100
  0
ARC
  8
0
  6
CONTINUOUS
 62
3
 10
151.678022723554020
 20
185.484097167065100
 40
5.000000000000000
 50
0.000000000000000
 51
90.000000000000000
  0
ARC
  8
0
  6
CONTINUOUS
 62
3
 10
117.815442579387300
 20
281.124679564028610
 40
5.000000000000000
 50
270.000000000000000
 51
305.751143201118110
  0
LINE
  8
0
  6
CONTINUOUS
 62
3
 10
120.736771872143430
 20
277.066867941579630
 11
154.599352016310600
 21
301.445463230772700
  0
ARC
  8
0
  6
CONTINUOUS
 62
3
 10
151.678022723554020
 20
305.503274853221910
 40
5.000000000000155
 50
305.751143201120780
 51
0.000000000000000
  0
ARC
  8
0
  6
CONTINUOUS
 62
3
 10
117.815442579387300
 20
289.965188466775770
 40
5.000000000000000
 50
270.000000000000000
 51
305.751143201118110
  0
ARC
  8
0
  6
CONTINUOUS
 62
3
 10
151.678022723554020
 20
314.343783755969070
 40
4.999999999999970
 50
305.751143201122320
 51
0.000000000000000
  0
LINE
  8
0
  6
CONTINUOUS
 62
3
 10
120.736771872143430
 20
285.907376844326790
 11
154.599352016310600
 21
310.285972133520090
  0
LINE
  8
0
  6
CONTINUOUS
 62
3
 10
151.928418635232450
 20
276.124679564028610
 11
124.456040002422010
 21
276.124679564028610
  0
LINE
  8
0
  6
CONTINUOUS
 62
3
 10
185.178022723554020
 20
149.984097167065100
 11
186.178022723554020
 21
149.984097167065100
  0
LINE
  8
0
  6
CONTINUOUS
 62
3
 10
185.178022723554020
 20
237.984097167065100
 11
186.178022723554020
 21
237.984097167064870
  0
LINE
  8
0
  6
CONTINUOUS
 62
3
 10
180.678022723554020
 20
337.984097167065100
 11
179.678022723554020
 21
338.984097167065100
  0
LINE
  8
0
  6
CONTINUOUS
 62
3
 10
180.678022723554020
 20
49.984097167065556
 11
179.678022723554020
 21
48.984097167065556
  0
LINE
  8
0
  6
CONTINUOUS
 62
3
 10
186.178022723554020
 20
149.984097167065100
 11
186.178022723554020
 21
237.984097167064870
  0
LINE
  8
0
  6
CONTINUOUS
 62
3
 10
179.678022723554020
 20
338.984097167065100
 11
176.678022723554020
 21
338.984097167065100
  0
LINE
  8
0
  6
CONTINUOUS
 62
3
 10
176.678022723554020
 20
351.484097167065100
 11
159.678022723554020
 21
351.484097167065100
  0
LINE
  8
0
  6
CONTINUOUS
 62
3
 10
179.678022723554020
 20
48.984097167065556
 11
176.678022723554020
 21
48.984097167065556
  0
ARC
  8
0
  6
CONTINUOUS
 62
3
 10
179.178022723554020
 20
128.984097167065100
 40
4.999999999999939
 50
303.367012969232230
 51
0.000000000000000
  0
ARC
  8
0
  6
CONTINUOUS
 62
3
 10
159.678022723554020
 20
348.484097167065100
 40
3.000000000000000
 50
90.000000000000000
 51
180.000000000000000
  0
ARC
  8
0
  6
CONTINUOUS
 62
3
 10
185.178022723554020
 20
238.984097167065100
 40
1.000000000000000
 50
180.000000000000000
 51
270.000000000000000
  0
ARC
  8
0
  6
CONTINUOUS
 62
3
 10
185.178022723554020
 20
148.984097167065100
 40
1.000000000000000
 50
90.000000000000000
 51
180.000000000000000
  0
LINE
  8
0
  6
CONTINUOUS
 62
3
 10
176.678022723554020
 20
193.984097167065100
 11
176.678022723554020
 21
351.484097167065100
  0
LINE
  8
0
  6
CONTINUOUS
 62
3
 10
184.178022723554480
 20
193.984097167065100
 11
184.178022723554020
 21
259.239274333490580
  0
LINE
  8
0
  6
CONTINUOUS
 62
3
 10
180.678022723554020
 20
193.984097167065100
 11
180.678022723554020
 21
337.984097167065100
  0
ARC
  8
0
  6
CONTINUOUS
 62
3
 10
179.178022723554020
 20
259.239274333490580
 40
5.000000000000000
 50
0.000000000000000
 51
72.542396876278175
  0
ARC
  8
0
  6
CONTINUOUS
 62
3
 10
159.678022723554020
 20
39.484097167065102
 40
3.000000000000000
 50
180.000000000000000
 51
270.000000000000000
  0
LINE
  8
0
  6
CONTINUOUS
 62
3
 10
176.678022723554020
 20
36.484097167065329
 11
159.678022723554020
 21
36.484097167065329
  0
LINE
  8
0
  6
CONTINUOUS
 62
3
 10
184.178022723554020
 20
193.984097167065100
 11
184.178022723554020
 21
128.984097167065100
  0
LINE
  8
0
  6
CONTINUOUS
 62
3
 10
180.678022723554020
 20
193.984097167065100
 11
180.678022723554020
 21
49.984097167065556
  0
LINE
  8
0
  6
CONTINUOUS
 62
3
 10
176.678022723554020
 20
193.984097167065100
 11
176.678022723554020
 21
36.484097167065556
  0
ARC
  8
0
  6
CONTINUOUS
 62
3
 10
184.678022723554020
 20
120.632450622819980
 40
5.000000000000129
 50
123.367012969230780
 51
143.130102354155980
  0
LINE
  8
0
  6
CONTINUOUS
 62
3
 10
156.678022723554020
 20
39.484097167065102
 11
156.678022723554020
 21
348.484097167065100
  0
LINE
  8
0
  6
DASHDOT
 62
4
 10
194.815892354536120
 20
328.334385592509310
 11
142.660847232853480
 21
328.334385592509310
  0
LINE
  8
0
  6
DASHDOT
 62
4
 10
194.815892354536120
 20
59.633808741621124
 11
142.660847232853480
 21
59.633808741621124
  0
ARC
  8
0
  6
CONTINUOUS
 62
3
 10
151.678022723554020
 20
337.863350302143090
 40
5.000000000000153
 50
272.000000000003580
 51
0.000000000000000
  0
ARC
  8
0
  6
CONTINUOUS
 62
3
 10
151.678022723554020
 20
50.104844031987113
 40
5.000000000000000
 50
0.000000000000000
 51
87.999999999996405
  0
ARC
  8
0
  6
CONTINUOUS
 62
3
 10
171.678022723554020
 20
109.079263379969230
 40
2.000000000000000
 50
180.000000000000000
 51
270.000000000000000
  0
ARC
  8
0
  6
CONTINUOUS
 62
3
 10
171.678022723554020
 20
73.839436226392536
 40
2.000000000000000
 50
180.000000000000000
 51
270.000000000000000
  0
LINE
  8
0
  6
CONTINUOUS
 62
3
 10
176.678022723554020
 20
71.839436226392536
 11
171.678022723554020
 21
71.839436226392536
  0
LINE
  8
0
  6
CONTINUOUS
 62
3
 10
176.678022723554020
 20
107.079263379969230
 11
171.678022723554020
 21
107.079263379969230
  0
ARC
  8
0
  6
CONTINUOUS
 62
3
 10
171.678022723554020
 20
278.888930954160970
 40
2.000000000000000
 50
90.000000000000000
 51
180.000000000000000
  0
ARC
  8
0
  6
CONTINUOUS
 62
3
 10
171.678022723554020
 20
314.128758107737670
 40
2.000000000000000
 50
90.000000000000000
 51
180.000000000000000
  0
LINE
  8
0
  6
CONTINUOUS
 62
3
 10
176.678022723554020
 20
316.128758107737670
 11
171.678022723554020
 21
316.128758107737670
  0
LINE
  8
0
  6
CONTINUOUS
 62
3
 10
176.678022723554020
 20
280.888930954160970
 11
171.678022723554020
 21
280.888930954160970
  0
LINE
  8
0
  6
CONTINUOUS
 62
3
 10
169.678022723554020
 20
193.984097167065100
 11
169.678022723554020
 21
314.128758107737670
  0
LINE
  8
0
  6
CONTINUOUS
 62
3
 10
169.678022723554020
 20
193.984097167065100
 11
169.678022723554020
 21
73.839436226392536
  0
LINE
  8
0
  6
CONTINUOUS
 62
3
 10
193.178022723554020
 20
166.484097167065100
 11
193.178022723554020
 21
169.984097167065100
  0
LINE
  8
0
  6
CONTINUOUS
 62
3
 10
188.178022723554020
 20
193.984097167065100
 11
188.178022723554020
 21
218.634097167065650
  0
LINE
  8
0
  6
CONTINUOUS
 62
3
 10
187.978022723554200
 20
218.984097167065100
 11
186.178022723554020
 21
218.984097167065100
  0
LINE
  8
0
  6
CONTINUOUS
 62
3
 10
190.178022723554020
 20
217.834097167064560
 11
190.737830344689430
 21
217.984097167065100
  0
LINE
  8
0
  6
CONTINUOUS
 62
3
 10
190.178022723554020
 20
217.834097167064560
 11
188.978022723554200
 21
217.834097167064560
  0
LINE
  8
0
  6
CONTINUOUS
 62
3
 10
188.178022723554020
 20
218.634097167065650
 11
188.178022723554020
 21
218.784097167065280
  0
ARC
  8
0
  6
CONTINUOUS
 62
3
 10
188.978022723554200
 20
218.634097167065650
 40
0.800000000000182
 50
180.000000000000000
 51
270.000000000000000
  0
LINE
  8
0
  6
CONTINUOUS
 62
3
 10
188.178022723554020
 20
218.784097167065280
 11
187.978022723554200
 21
218.984097167065100
  0
LINE
  8
0
  6
CONTINUOUS
 62
3
 10
188.178022723554020
 20
193.984097167065100
 11
188.178022723554020
 21
169.334097167064560
  0
LINE
  8
0
  6
CONTINUOUS
 62
3
 10
187.978022723554200
 20
168.984097167065100
 11
186.178022723554020
 21
168.984097167065100
  0
LINE
  8
0
  6
CONTINUOUS
 62
3
 10
190.178022723554020
 20
170.134097167065650
 11
190.737830344689430
 21
169.984097167065100
  0
LINE
  8
0
  6
CONTINUOUS
 62
3
 10
190.178022723554020
 20
170.134097167065650
 11
188.978022723554200
 21
170.134097167065650
  0
LINE
  8
0
  6
CONTINUOUS
 62
3
 10
188.178022723554020
 20
169.334097167064560
 11
188.178022723554020
 21
169.184097167064920
  0
ARC
  8
0
  6
CONTINUOUS
 62
3
 10
188.978022723554200
 20
169.334097167064560
 40
0.800000000001091
 50
90.000000000000000
 51
180.000000000000000
  0
LINE
  8
0
  6
CONTINUOUS
 62
3
 10
188.178022723554020
 20
169.184097167064920
 11
187.978022723554200
 21
168.984097167065100
  0
LINE
  8
0
  6
CONTINUOUS
 62
3
 10
262.778022723554390
 20
217.984097167065100
 11
190.737830344689430
 21
217.984097167065100
  0
LINE
  8
0
  6
CONTINUOUS
 62
3
 10
263.178022723554020
 20
193.984097167065100
 11
263.178022723554020
 21
217.584097167064560
  0
ARC
  8
0
  6
CONTINUOUS
 62
3
 10
262.778022723554390
 20
217.584097167064560
 40
0.399999999999636
 50
0.000000000000000
 51
90.000000000000000
  0
LINE
  8
0
  6
CONTINUOUS
 62
3
 10
263.178022723554020
 20
166.484097167065100
 11
193.178022723554020
 21
166.484097167065100
  0
LINE
  8
0
  6
CONTINUOUS
 62
3
 10
263.178022723554020
 20
193.984097167065100
 11
263.178022723554020
 21
166.484097167065100
  0
LINE
  8
0
  6
CONTINUOUS
 62
3
 10
262.778022723554390
 20
169.984097167065100
 11
190.737830344689430
 21
169.984097167065100
  0
ARC
  8
0
  6
CONTINUOUS
 62
3
 10
262.778022723554390
 20
170.384097167065650
 40
0.400000000000546
 50
270.000000000000000
 51
0.000000000000000
  0
LINE
  8
0
  6
CONTINUOUS
 62
3
 10
263.178022723554020
 20
-177.102696923387380
 11
200.177615344412970
 21
-177.102696923387380
  0
LINE
  8
0
  6
CONTINUOUS
 62
3
 10
263.178022723554020
 20
-191.102696923387380
 11
200.177615344412970
 21
-191.102696923387380
  0
LINE
  8
0
  6
CONTINUOUS
 62
3
 10
263.178022723554020
 20
-184.071464372122360
 11
263.178022723554020
 21
-160.471464372122910
  0
LINE
  8
0
  6
CONTINUOUS
 62
3
 10
262.778022723554390
 20
-160.071464372122360
 11
190.737830344689430
 21
-160.071464372122360
  0
LINE
  8
0
  6
CONTINUOUS
 62
3
 10
263.178022723554020
 20
-184.071464372122360
 11
263.178022723554020
 21
-207.671464372121820
  0
LINE
  8
0
  6
CONTINUOUS
 62
3
 10
262.778022723554390
 20
-208.071464372122360
 11
190.737830344689430
 21
-208.071464372122360
  0
LINE
  8
0
  6
CONTINUOUS
 62
3
 10
187.978022723554200
 20
-159.071464372122360
 11
186.178022723554020
 21
-159.071464372122360
  0
LINE
  8
0
  6
CONTINUOUS
 62
3
 10
187.978022723554200
 20
-209.071464372122360
 11
186.178022723554020
 21
-209.071464372122360
  0
LINE
  8
0
  6
CONTINUOUS
 62
3
 10
188.178022723554020
 20
-208.871464372122550
 11
187.978022723554200
 21
-209.071464372122360
  0
LINE
  8
0
  6
CONTINUOUS
 62
3
 10
188.178022723554020
 20
-208.721464372122910
 11
188.178022723554020
 21
-208.871464372122550
  0
LINE
  8
0
  6
CONTINUOUS
 62
3
 10
190.178022723554020
 20
-207.921464372121820
 11
188.978022723554200
 21
-207.921464372121820
  0
LINE
  8
0
  6
CONTINUOUS
 62
3
 10
190.178022723554020
 20
-207.921464372121820
 11
190.737830344689430
 21
-208.071464372122360
  0
LINE
  8
0
  6
CONTINUOUS
 62
3
 10
188.178022723554020
 20
-184.071464372122360
 11
188.178022723554020
 21
-208.721464372122910
  0
LINE
  8
0
  6
CONTINUOUS
 62
3
 10
188.178022723554020
 20
-159.271464372122180
 11
187.978022723554200
 21
-159.071464372122360
  0
LINE
  8
0
  6
CONTINUOUS
 62
3
 10
188.178022723554020
 20
-159.421464372121820
 11
188.178022723554020
 21
-159.271464372122180
  0
LINE
  8
0
  6
CONTINUOUS
 62
3
 10
190.178022723554020
 20
-160.221464372122910
 11
188.978022723554200
 21
-160.221464372122910
  0
LINE
  8
0
  6
CONTINUOUS
 62
3
 10
190.178022723554020
 20
-160.221464372122910
 11
190.737830344689430
 21
-160.071464372122360
  0
LINE
  8
0
  6
CONTINUOUS
 62
3
 10
188.178022723554020
 20
-184.071464372122360
 11
188.178022723554020
 21
-159.421464372121820
  0
LINE
  8
0
  6
CONTINUOUS
 62
3
 10
176.678022723554020
 20
-189.071464372122360
 11
171.678022723554020
 21
-189.071464372122360
  0
LINE
  8
0
  6
CONTINUOUS
 62
3
 10
169.678022723554020
 20
-191.071464372122360
 11
169.678022723554020
 21
-304.216125312794930
  0
LINE
  8
0
  6
CONTINUOUS
 62
3
 10
176.678022723554020
 20
-179.071464372122360
 11
171.678022723554020
 21
-179.071464372122360
  0
LINE
  8
0
  6
CONTINUOUS
 62
3
 10
176.678022723554020
 20
-97.166630585026496
 11
171.678022723554020
 21
-97.166630585026496
  0
LINE
  8
0
  6
CONTINUOUS
 62
3
 10
176.678022723554020
 20
-61.926803431449798
 11
171.678022723554020
 21
-61.926803431449798
  0
LINE
  8
0
  6
CONTINUOUS
 62
3
 10
169.678022723554020
 20
-177.071464372122360
 11
169.678022723554020
 21
-63.926803431449798
  0
LINE
  8
0
  6
DASHDOT
 62
4
 10
194.815892354536120
 20
-49.721175946678159
 11
142.660847232853480
 21
-49.721175946678159
  0
LINE
  8
0
  6
CONTINUOUS
 62
3
 10
156.678022723554020
 20
-338.571464372122360
 11
156.678022723554020
 21
-29.571464372122364
  0
LINE
  8
0
  6
DASHDOT
 62
4
 10
279.710053843477910
 20
-184.071464372122360
 11
129.447011170906080
 21
-184.071464372122360
  0
LINE
  8
0
  6
CONTINUOUS
 62
3
 10
176.678022723554020
 20
-184.071464372122360
 11
176.678022723554020
 21
-341.571464372121910
  0
LINE
  8
0
  6
CONTINUOUS
 62
3
 10
180.678022723554020
 20
-184.071464372122360
 11
180.678022723554020
 21
-328.071464372121910
  0
LINE
  8
0
  6
CONTINUOUS
 62
3
 10
184.178022723554020
 20
-184.071464372122360
 11
184.178022723554020
 21
-249.071464372122360
  0
LINE
  8
0
  6
CONTINUOUS
 62
3
 10
180.678022723554020
 20
-184.071464372122360
 11
180.678022723554020
 21
-40.071464372122364
  0
LINE
  8
0
  6
CONTINUOUS
 62
3
 10
184.178022723554480
 20
-184.071464372122360
 11
184.178022723554020
 21
-118.816287205696880
  0
LINE
  8
0
  6
CONTINUOUS
 62
3
 10
176.678022723554020
 20
-184.071464372122360
 11
176.678022723554020
 21
-26.571464372122364
  0
LINE
  8
0
  6
CONTINUOUS
 62
3
 10
176.678022723554020
 20
-26.571464372122364
 11
159.678022723554020
 21
-26.571464372122364
  0
LINE
  8
0
  6
CONTINUOUS
 62
3
 10
179.678022723554020
 20
-39.071464372122364
 11
176.678022723554020
 21
-39.071464372122364
  0
LINE
  8
0
  6
CONTINUOUS
 62
3
 10
186.178022723554020
 20
-228.071464372122360
 11
186.178022723554020
 21
-140.071464372122590
  0
LINE
  8
0
  6
CONTINUOUS
 62
3
 10
180.678022723554020
 20
-40.071464372122364
 11
179.678022723554020
 21
-39.071464372122364
  0
LINE
  8
0
  6
CONTINUOUS
 62
3
 10
185.178022723554020
 20
-140.071464372122360
 11
186.178022723554020
 21
-140.071464372122590
  0
LINE
  8
0
  6
CONTINUOUS
 62
3
 10
185.178022723554020
 20
-228.071464372122360
 11
186.178022723554020
 21
-228.071464372122360
  0
LINE
  8
0
  6
CONTINUOUS
 62
3
 10
155.213556629486900
 20
-40.518480717838315
 11
120.820728568196500
 21
-74.911308779129286
  0
LINE
  8
0
  6
CONTINUOUS
 62
3
 10
151.983342869260010
 20
-99.618233209597747
 11
124.139832758899500
 21
-99.618233209597747
  0
LINE
  8
0
  6
CONTINUOUS
 62
3
 10
154.563649147520660
 20
-69.587005505745765
 11
120.725243278016930
 21
-93.500389664169575
  0
LINE
  8
0
  6
CONTINUOUS
 62
3
 10
154.563649147520660
 20
-74.788127163341414
 11
120.725243278016930
 21
-98.701511321765224
  0
LINE
  8
0
  6
CONTINUOUS
 62
3
 10
436.881410956529860
 20
-191.102696923386930
 11
445.881410956529860
 21
-191.102696923386930
  0
LINE
  8
0
  6
CONTINUOUS
 62
3
 10
436.881410956529860
 20
-177.102696923386930
 11
445.881410956529860
 21
-177.102696923386930
  0
LINE
  8
0
  6
CONTINUOUS
 62
3
 10
445.881410956529860
 20
-177.102696923386930
 11
445.881410956529860
 21
-191.102696923386930
  0
LINE
  8
0
  6
CONTINUOUS
 62
3
 10
436.881410956529860
 20
-177.102696923386930
 11
436.881410956529860
 21
-191.102696923386930
  0
LINE
  8
0
  6
CONTINUOUS
 62
3
 10
332.041729366572100
 20
-192.571464372122360
 11
332.041729366572100
 21
-222.459033877994440
  0
LINE
  8
0
  6
CONTINUOUS
 62
3
 10
467.881410956529860
 20
-49.228036649448427
 11
467.881410956529860
 21
-111.361423799997730
  0
LINE
  8
0
  6
CONTINUOUS
 62
3
 10
460.881410956529860
 20
-49.228036649448427
 11
460.881410956529860
 21
-111.361423799997730
  0
LINE
  8
0
  6
CONTINUOUS
 62
3
 10
596.721092546487630
 20
-192.571464372122360
 11
596.721092546487630
 21
-222.459033877994440
  0
LINE
  8
0
  6
CONTINUOUS
 62
3
 10
599.224838679203690
 20
-187.571464372122360
 11
537.091451528654490
 21
-187.571464372122360
  0
LINE
  8
0
  6
CONTINUOUS
 62
3
 10
599.224838679203690
 20
-180.571464372122360
 11
537.091451528654490
 21
-180.571464372122360
  0
LINE
  8
0
  6
CONTINUOUS
 62
3
 10
617.172117480192580
 20
-189.071464372122360
 11
619.881410956529860
 21
-189.071464372122360
  0
LINE
  8
0
  6
CONTINUOUS
 62
3
 10
617.172117480192580
 20
-179.071464372122360
 11
619.881410956529860
 21
-179.071464372122360
  0
LINE
  8
0
  6
CONTINUOUS
 62
3
 10
311.590704432867140
 20
-189.071464372122360
 11
308.881410956529860
 21
-189.071464372122360
  0
LINE
  8
0
  6
CONTINUOUS
 62
3
 10
311.590704432867140
 20
-179.071464372122360
 11
308.881410956529860
 21
-179.071464372122360
  0
LINE
  8
0
  6
DASHDOT
 62
4
 10
464.381410956529860
 20
-8.049574456771097
 11
464.381410956529860
 21
-369.220380247601950
  0
LINE
  8
0
  6
CONTINUOUS
 62
3
 10
621.881410956529860
 20
-41.571464372122364
 11
621.881410956529860
 21
-326.571464372122360
  0
LINE
  8
0
  6
CONTINUOUS
 62
3
 10
306.881410956529860
 20
-41.571464372122364
 11
306.881410956529860
 21
-326.571464372122360
  0
LINE
  8
0
  6
CONTINUOUS
 62
3
 10
606.881410956529860
 20
-26.571464372122364
 11
321.881410956529860
 21
-26.571464372122364
  0
LINE
  8
0
  6
CONTINUOUS
 62
3
 10
557.100752255964150
 20
-55.996784013360639
 11
585.061605803135310
 21
-28.035930466189711
  0
LINE
  8
0
  6
CONTINUOUS
 62
3
 10
592.456091315291590
 20
-91.352123072688073
 11
620.416944862462740
 21
-63.391269525517146
  0
LINE
  8
0
  6
DASHDOT
 62
4
 10
584.943117148836340
 20
-63.509758179816117
 11
612.520281615111570
 21
-35.932593713540882
  0
LINE
  8
0
  6
CONTINUOUS
 62
3
 10
336.306730597768140
 20
-91.352123072687846
 11
308.345877050597210
 21
-63.391269525516918
  0
LINE
  8
0
  6
CONTINUOUS
 62
3
 10
371.662069657095570
 20
-55.996784013360411
 11
343.701216109924640
 21
-28.035930466189484
  0
LINE
  8
0
  6
DASHDOT
 62
4
 10
343.819704764223620
 20
-63.509758179815890
 11
316.242540297948380
 21
-35.932593713540427
  0
LINE
  8
0
  6
DASHDOT
 62
4
 10
410.004073239836540
 20
-185.571464372121570
 11
519.175274714320950
 21
-185.571464372121570
  0
LINE
  8
0
  6
CONTINUOUS
 62
3
 10
329.537983233856040
 20
-180.571464372122360
 11
391.671370384405240
 21
-180.571464372122360
  0
LINE
  8
0
  6
CONTINUOUS
 62
3
 10
329.537983233856040
 20
-187.571464372122360
 11
391.671370384405240
 21
-187.571464372122360
  0
LINE
  8
0
  6
DASHDOT
 62
4
 10
647.696097936882100
 20
-184.071464372122360
 11
285.221725539026920
 21
-184.071464372122360
  0
ARC
  8
0
  6
CONTINUOUS
 62
3
 10
200.177615344412970
 20
-184.102696923387380
 40
7.000000000000000
 50
90.000000000000000
 51
270.000000000000000
  0
ARC
  8
0
  6
CONTINUOUS
 62
3
 10
262.778022723554390
 20
-160.471464372122910
 40
0.399999999999636
 50
0.000000000000000
 51
90.000000000000000
  0
ARC
  8
0
  6
CONTINUOUS
 62
3
 10
262.778022723554390
 20
-207.671464372121820
 40
0.400000000000546
 50
270.000000000000000
 51
0.000000000000000
  0
ARC
  8
0
  6
CONTINUOUS
 62
3
 10
188.978022723554200
 20
-208.721464372122910
 40
0.800000000001091
 50
90.000000000000000
 51
180.000000000000000
  0
ARC
  8
0
  6
CONTINUOUS
 62
3
 10
188.978022723554200
 20
-159.421464372121820
 40
0.800000000000182
 50
180.000000000000000
 51
270.000000000000000
  0
ARC
  8
0
  6
CONTINUOUS
 62
3
 10
171.678022723554020
 20
-191.071464372122360
 40
2.000000000000000
 50
90.000000000000000
 51
180.000000000000000
  0
ARC
  8
0
  6
CONTINUOUS
 62
3
 10
171.678022723554020
 20
-63.926803431449798
 40
2.000000000000000
 50
90.000000000000000
 51
180.000000000000000
  0
ARC
  8
0
  6
CONTINUOUS
 62
3
 10
171.678022723554020
 20
-99.166630585026496
 40
2.000000000000000
 50
90.000000000000000
 51
180.000000000000000
  0
ARC
  8
0
  6
CONTINUOUS
 62
3
 10
171.678022723554020
 20
-177.071464372122360
 40
2.000000000000000
 50
180.000000000000000
 51
270.000000000000000
  0
ARC
  8
0
  6
CONTINUOUS
 62
3
 10
179.178022723554020
 20
-118.816287205696880
 40
5.000000000000000
 50
0.000000000000000
 51
72.542396876277792
  0
ARC
  8
0
  6
CONTINUOUS
 62
3
 10
185.178022723554020
 20
-229.071464372122360
 40
1.000000000000000
 50
90.000000000000000
 51
180.000000000000000
  0
ARC
  8
0
  6
CONTINUOUS
 62
3
 10
185.178022723554020
 20
-139.071464372122360
 40
1.000000000000000
 50
180.000000000000000
 51
270.000000000000000
  0
ARC
  8
0
  6
CONTINUOUS
 62
3
 10
159.678022723554020
 20
-29.571464372122364
 40
3.000000000000000
 50
90.000000000000000
 51
180.000000000000000
  0
ARC
  8
0
  6
CONTINUOUS
 62
3
 10
151.678022723554020
 20
-36.982946811905549
 40
5.000000000000121
 50
315.000000000000910
 51
0.000000000000000
  0
ARC
  8
0
  6
CONTINUOUS
 62
3
 10
117.285194662263620
 20
-71.375774873196633
 40
4.999999999999909
 50
271.999999999998470
 51
315.000000000001820
  0
ARC
  8
0
  6
CONTINUOUS
 62
3
 10
117.839616854050740
 20
-89.417111552002098
 40
5.000000000000000
 50
270.000000000000000
 51
305.248603455041290
  0
ARC
  8
0
  6
CONTINUOUS
 62
3
 10
117.839616854050740
 20
-94.618233209597747
 40
5.000000000000000
 50
270.000000000000000
 51
305.248603455041290
  0
ARC
  8
0
  6
CONTINUOUS
 62
3
 10
151.678022723554020
 20
-65.503727393578288
 40
5.000000000000051
 50
305.248603455045550
 51
0.000000000000000
  0
ARC
  8
0
  6
CONTINUOUS
 62
3
 10
151.678022723554020
 20
-70.704849051173937
 40
5.000000000000051
 50
305.248603455045550
 51
0.000000000000000
  0
ARC
  8
0
  6
DASHED
 62
3
 10
549.681410956529820
 20
-199.613964372121610
 40
20.799999999999926
 50
334.359929784105190
 51
5.724810452223396
  0
CIRCLE
  8
0
  6
CONTINUOUS
 62
3
 10
464.381410956529860
 20
-184.071464372122820
 40
3.324999999999989
  0
CIRCLE
  8
0
  6
CONTINUOUS
 62
4
 10
464.381410956529860
 20
-184.071464372122820
 40
4.000000000000000
  0
ARC
  8
0
  6
CONTINUOUS
 62
3
 10
464.381410956529860
 20
-184.102696923386930
 40
23.999999999999723
 50
196.957763300004330
 51
163.042236699995670
  0
ARC
  8
0
  6
CONTINUOUS
 62
3
 10
417.860991655465800
 20
-275.951515035036890
 40
55.000000000000135
 50
114.115030123907000
 51
159.806925700100010
  0
ARC
  8
0
  6
CONTINUOUS
 62
3
 10
527.207458563664890
 20
-233.598101064573260
 40
10.000000000000112
 50
141.750801860498630
 51
236.987251938307910
  0
ARC
  8
0
  6
CONTINUOUS
 62
3
 10
337.041729366572100
 20
-192.571464372122360
 40
5.000000000000000
 50
90.000000000000000
 51
180.000000000000000
  0
ARC
  8
0
  6
CONTINUOUS
 62
3
 10
338.023326709090950
 20
-175.571464372122360
 40
4.999999999999872
 50
172.056783216977010
 51
270.000000000000000
  0
ARC
  8
0
  6
CONTINUOUS
 62
3
 10
439.350178405266430
 20
-189.709635047438950
 40
107.308449038694240
 50
92.924523789728326
 51
172.056783216978630
  0
ARC
  8
0
  6
CONTINUOUS
 62
3
 10
455.881410956529860
 20
-86.823561226384413
 40
5.000000000000000
 50
0.000000000000000
 51
90.819237286262435
  0
ARC
  8
0
  6
CONTINUOUS
 62
3
 10
464.350178405267120
 20
-679.071464372122140
 40
597.308449038694790
 50
90.819237286262435
 51
92.924523789728312
  0
ARC
  8
0
  6
CONTINUOUS
 62
3
 10
472.881410956529860
 20
-86.823561226384413
 40
5.000000000000082
 50
89.180762713737565
 51
180.000000000000000
  0
ARC
  8
0
  6
CONTINUOUS
 62
3
 10
464.412643507792840
 20
-679.071464372122140
 40
597.308449038694680
 50
87.075476210271702
 51
89.180762713737593
  0
ARC
  8
0
  6
CONTINUOUS
 62
3
 10
329.537983233856040
 20
-190.571464372122360
 40
3.000000000000000
 50
90.000000000000000
 51
182.759752678235600
  0
ARC
  8
0
  6
CONTINUOUS
 62
3
 10
329.537983233856040
 20
-177.571464372122360
 40
3.000000000000145
 50
177.240247321764400
 51
270.000000000000000
  0
ARC
  8
0
  6
CONTINUOUS
 62
3
 10
470.881410956529860
 20
-111.361423799997730
 40
3.000000000000000
 50
180.000000000000000
 51
264.891555549113550
  0
ARC
  8
0
  6
CONTINUOUS
 62
3
 10
457.881410956529860
 20
-111.361423799997730
 40
3.000000000000029
 50
275.108444450886450
 51
0.000000000000000
  0
ARC
  8
0
  6
CONTINUOUS
 62
3
 10
457.881410956529860
 20
-49.228036649448427
 40
3.000000000000000
 50
0.000000000000000
 51
92.759752678235699
  0
ARC
  8
0
  6
CONTINUOUS
 62
3
 10
470.881410956529860
 20
-49.228036649448427
 40
3.000000000000043
 50
87.240247321759966
 51
180.000000000000000
  0
ARC
  8
0
  6
CONTINUOUS
 62
3
 10
591.721092546487630
 20
-192.571464372122360
 40
5.000000000000000
 50
0.000000000000000
 51
90.000000000000000
  0
ARC
  8
0
  6
CONTINUOUS
 62
3
 10
590.739495203968770
 20
-175.571464372122360
 40
5.000000000000000
 50
270.000000000000000
 51
7.943216783020048
  0
ARC
  8
0
  6
CONTINUOUS
 62
3
 10
489.412643507793290
 20
-189.709635047438950
 40
107.308449038694430
 50
7.943216783021247
 51
87.075476210271674
  0
ARC
  8
0
  6
CONTINUOUS
 62
3
 10
537.091451528654490
 20
-190.571464372122360
 40
3.000000000000000
 50
90.000000000000000
 51
174.891555549113520
  0
ARC
  8
0
  6
CONTINUOUS
 62
3
 10
537.091451528654490
 20
-177.571464372122360
 40
3.000000000000029
 50
185.108444450886450
 51
270.000000000000000
  0
ARC
  8
0
  6
CONTINUOUS
 62
3
 10
599.224838679203690
 20
-190.571464372122360
 40
3.000000000000145
 50
357.240247321764400
 51
90.000000000000000
  0
ARC
  8
0
  6
CONTINUOUS
 62
3
 10
599.224838679203690
 20
-177.571464372122360
 40
3.000000000000000
 50
270.000000000000000
 51
2.759752678235591
  0
ARC
  8
0
  6
CONTINUOUS
 62
3
 10
308.881410956529860
 20
-187.071464372122360
 40
2.000000000000000
 50
180.000000000000000
 51
270.000000000000000
  0
ARC
  8
0
  6
CONTINUOUS
 62
3
 10
308.881410956529860
 20
-181.071464372122360
 40
2.000000000000000
 50
90.000000000000000
 51
180.000000000000000
  0
ARC
  8
0
  6
CONTINUOUS
 62
3
 10
619.881410956529860
 20
-187.071464372122360
 40
2.000000000000000
 50
270.000000000000000
 51
0.000000000000000
  0
ARC
  8
0
  6
CONTINUOUS
 62
3
 10
619.881410956529860
 20
-181.071464372122360
 40
2.000000000000000
 50
0.000000000000000
 51
90.000000000000000
  0
ARC
  8
0
  6
CONTINUOUS
 62
3
 10
337.041729366572100
 20
-222.459033877994440
 40
5.000000000000000
 50
180.000000000000000
 51
196.775854678354560
  0
ARC
  8
0
  6
CONTINUOUS
 62
3
 10
591.721092546487630
 20
-222.459033877994440
 40
5.000000000000024
 50
343.224145321645440
 51
0.000000000000000
  0
ARC
  8
0
  6
CONTINUOUS
 62
3
 10
617.172117480192580
 20
-192.071464372122360
 40
3.000000000000000
 50
90.000000000000000
 51
177.002775457333090
  0
ARC
  8
0
  6
CONTINUOUS
 62
3
 10
617.172117480192580
 20
-176.071464372122360
 40
2.999999999999966
 50
182.997224542666910
 51
270.000000000000000
  0
ARC
  8
0
  6
CONTINUOUS
 62
3
 10
311.590704432867140
 20
-176.071464372122360
 40
3.000000000000000
 50
270.000000000000000
 51
357.002775457333310
  0
ARC
  8
0
  6
CONTINUOUS
 62
3
 10
311.590704432867140
 20
-192.071464372122360
 40
3.000000000000193
 50
2.997224542666690
 51
90.000000000000000
  0
ARC
  8
0
  6
CONTINUOUS
 62
3
 10
464.381410956529860
 20
-184.071464372122360
 40
149.999999999999910
 50
2.997224542665233
 51
32.364374906978924
  0
ARC
  8
0
  6
CONTINUOUS
 62
3
 10
464.381410956529860
 20
-184.071464372122360
 40
149.999999999999910
 50
182.997224542665240
 51
212.364374906978920
  0
CIRCLE
  8
0
  6
CONTINUOUS
 62
3
 10
464.381410956529860
 20
-184.071464372122820
 40
34.000000000000000
  0
ARC
  8
0
  6
CONTINUOUS
 62
3
 10
321.881410956529860
 20
-41.571464372122364
 40
15.000000000000000
 50
90.000000000000000
 51
180.000000000000000
  0
ARC
  8
0
  6
CONTINUOUS
 62
3
 10
606.881410956529860
 20
-41.571464372122364
 40
15.000000000000000
 50
0.000000000000000
 51
90.000000000000000
  0
ARC
  8
0
  6
CONTINUOUS
 62
3
 10
464.381410956529860
 20
-184.071464372122360
 40
150.000000000000060
 50
327.635625093021080
 51
357.002775457334740
  0
ARC
  8
0
  6
CONTINUOUS
 62
3
 10
599.527159127156890
 20
-98.423190884553378
 40
9.999999999999758
 50
135.000000000000000
 51
212.364374906979260
  0
ARC
  8
0
  6
CONTINUOUS
 62
3
 10
464.381410956529860
 20
-184.071464372122360
 40
150.000000000000060
 50
57.635625093021090
 51
122.364374906978950
  0
ARC
  8
0
  6
CONTINUOUS
 62
3
 10
550.029684444098850
 20
-48.925716201495106
 40
9.999999999999984
 50
237.635625093021450
 51
314.999999999999090
  0
ARC
  8
0
  6
CONTINUOUS
 62
3
 10
616.881410956529860
 20
-59.855735619584266
 40
5.000000000000201
 50
315.000000000000000
 51
0.000000000000000
  0
CIRCLE
  8
0
  6
CONTINUOUS
 62
3
 10
598.731699381973840
 20
-49.721175946678386
 40
12.000000000000000
  0
ARC
  8
0
  6
CONTINUOUS
 62
3
 10
588.597139709068190
 20
-31.571464372122364
 40
5.000000000000000
 50
90.000000000000000
 51
135.000000000001820
  0
ARC
  8
0
  6
CONTINUOUS
 62
3
 10
378.733137468960880
 20
-48.925716201495106
 40
9.999999999999758
 50
225.000000000000000
 51
302.364374906978530
  0
ARC
  8
0
  6
CONTINUOUS
 62
3
 10
464.381410956529860
 20
-184.071464372122360
 40
149.999999999999910
 50
147.635625093021160
 51
177.002775457334760
  0
ARC
  8
0
  6
CONTINUOUS
 62
3
 10
329.235662785902600
 20
-98.423190884553378
 40
10.000000000000107
 50
327.635625093020340
 51
45.000000000000000
  0
ARC
  8
0
  6
CONTINUOUS
 62
3
 10
340.165682203991760
 20
-31.571464372122136
 40
5.000000000000041
 50
44.999999999998167
 51
90.000000000000000
  0
ARC
  8
0
  6
DASHDOT
 62
4
 10
464.381410956529860
 20
-184.071464372122360
 40
190.000000000000000
 50
129.119041968700370
 51
140.880958031302580
  0
CIRCLE
  8
0
  6
CONTINUOUS
 62
3
 10
330.031122531085880
 20
-49.721175946678159
 40
12.000000000000000
  0
ARC
  8
0
  6
CONTINUOUS
 62
3
 10
311.881410956529860
 20
-59.855735619584266
 40
5.000000000000000
 50
180.000000000000000
 51
225.000000000000000
  0
CIRCLE
  8
0
  6
CONTINUOUS
 62
3
 10
464.381410956529860
 20
-184.071464372122360
 40
145.000000000000000
  0
CIRCLE
  8
0
  6
CONTINUOUS
 62
3
 10
464.381410956529860
 20
-184.071464372122360
 40
138.000000000000000
  0
ARC
  8
0
  6
CONTINUOUS
 62
3
 10
417.860991655465800
 20
-275.951515035036890
 40
48.000000000000021
 50
113.824470809971230
 51
164.803706655299460
  0
ARC
  8
0
  6
CONTINUOUS
 62
3
 10
522.586782750955310
 20
-238.954382427494690
 40
10.000000000000068
 50
136.682825299161440
 51
238.061807908989040
  0
ARC
  8
0
  6
DASHDOT
 62
4
 10
464.381410956529860
 20
-184.071464372122360
 40
190.000000000000000
 50
38.926414549612090
 51
51.601104344369389
  0
ARC
  8
0
  6
CONTINUOUS
 62
3
 10
391.303947785562970
 20
-216.624258054016310
 40
9.999999999999854
 50
294.115030123906250
 51
24.010868112054702
  0
ARC
  8
0
  6
CONTINUOUS
 62
3
 10
391.671370384405240
 20
-177.571464372122360
 40
3.000000000000000
 50
270.000000000000000
 51
354.891555549113550
  0
ARC
  8
0
  6
CONTINUOUS
 62
3
 10
391.671370384405240
 20
-190.571464372122360
 40
3.000000000000029
 50
5.108444450886473
 51
90.000000000000000
  0
CIRCLE
  8
0
  6
CONTINUOUS
 62
3
 10
464.381410956529860
 20
-184.071464372122820
 40
44.000000000000000
  0
CIRCLE
  8
0
  6
CONTINUOUS
 62
3
 10
464.381410956529860
 20
-184.071464372122360
 40
70.000000000000000
  0
ARC
  8
0
  6
CONTINUOUS
 62
3
 10
394.432701605951710
 20
-222.893855594049000
 40
10.000000000000089
 50
293.824470809970080
 51
29.030811683541202
  0
ARC
  8
0
  6
DASHED
 62
3
 10
404.581410956530140
 20
-165.271464372121610
 40
0.200000000000045
 50
90.000000000000000
 51
180.000000000000000
  0
ARC
  8
0
  6
DASHED
 62
3
 10
377.442641822548690
 20
-160.571464372121570
 40
5.000000000000000
 50
90.000000000000000
 51
175.138594604201610
  0
ARC
  8
0
  6
DASHED
 62
3
 10
671.381410956530090
 20
-185.571464372121570
 40
300.000000000000170
 50
175.138594604201960
 51
180.000000000000000
  0
LINE
  8
0
  6
DASHED
 62
3
 10
405.881410956530090
 20
-165.071464372121570
 11
405.881410956530090
 21
-154.071464372121570
  0
LINE
  8
0
  6
DASHED
 62
3
 10
405.881410956530090
 20
-165.071464372121570
 11
404.581410956530140
 21
-165.071464372121570
  0
LINE
  8
0
  6
DASHED
 62
3
 10
404.381410956530090
 20
-185.571464372121570
 11
404.381410956530090
 21
-165.271464372121610
  0
LINE
  8
0
  6
DASHED
 62
3
 10
405.881410956530090
 20
-154.071464372121570
 11
400.881410956530090
 21
-154.071464372121570
  0
LINE
  8
0
  6
DASHED
 62
3
 10
400.881410956530090
 20
-217.071464372121570
 11
400.881410956530090
 21
-154.071464372121570
  0
LINE
  8
0
  6
DASHED
 62
3
 10
377.442641822548690
 20
-155.571464372121570
 11
400.881410956530090
 21
-155.571464372121570
  0
ARC
  8
0
  6
DASHED
 62
3
 10
671.381410956530090
 20
-185.571464372121570
 40
300.000000000000000
 50
180.000000000000000
 51
184.861405395798040
  0
LINE
  8
0
  6
DASHED
 62
3
 10
370.881410956530090
 20
-183.071464372121570
 11
371.391827804047810
 21
-183.071464372121570
  0
LINE
  8
0
  6
DASHED
 62
3
 10
370.881410956530090
 20
-188.071464372121570
 11
371.391827804047810
 21
-188.071464372121570
  0
LINE
  8
0
  6
DASHED
 62
3
 10
370.881410956530090
 20
-188.071464372121570
 11
370.881410956530090
 21
-183.071464372121570
  0
ARC
  8
0
  6
DASHED
 62
3
 10
377.442641822548690
 20
-210.571464372121570
 40
5.000000000000119
 50
184.861405395798390
 51
270.000000000000000
  0
LINE
  8
0
  6
DASHED
 62
3
 10
377.442641822548690
 20
-215.571464372121570
 11
400.881410956530090
 21
-215.571464372121570
  0
ARC
  8
0
  6
DASHED
 62
3
 10
404.581410956530140
 20
-205.871464372121520
 40
0.200000000000045
 50
180.000000000000000
 51
270.000000000000000
  0
LINE
  8
0
  6
DASHED
 62
3
 10
405.881410956530090
 20
-206.071464372121570
 11
404.581410956530140
 21
-206.071464372121570
  0
LINE
  8
0
  6
DASHED
 62
3
 10
404.381410956530090
 20
-185.571464372121570
 11
404.381410956530090
 21
-205.871464372121520
  0
LINE
  8
0
  6
DASHED
 62
3
 10
405.881410956530090
 20
-206.071464372121570
 11
405.881410956530090
 21
-217.071464372121570
  0
LINE
  8
0
  6
DASHED
 62
3
 10
405.881410956530090
 20
-217.071464372121570
 11
400.881410956530090
 21
-217.071464372121570
  0
ARC
  8
0
  6
DASHED
 62
3
 10
547.681410956529820
 20
-159.613964372121610
 40
18.799999999999983
 50
100.598785266066050
 51
180.000000000000000
  0
ARC
  8
0
  6
DASHED
 62
3
 10
543.855656322442880
 20
-139.168827994983900
 40
1.999999999999958
 50
280.598785266065990
 51
2.862405226112724
  0
ARC
  8
0
  6
DASHED
 62
3
 10
549.448669420158690
 20
-138.889177340098090
 40
1.999999999999927
 50
182.862405226112710
 51
265.126025186159040
  0
ARC
  8
0
  6
DASHED
 62
3
 10
547.681410956529820
 20
-159.613964372121610
 40
18.799999999999933
 50
35.808626813495749
 51
85.126025186157264
  0
ARC
  8
0
  6
DASHED
 62
3
 10
540.839957816209790
 20
-134.924806536011520
 40
8.999999999999948
 50
346.260856815786500
 51
19.463936333592187
  0
ARC
  8
0
  6
DASHED
 62
3
 10
548.319639011917840
 20
-136.753571523513780
 40
1.299999237060550
 50
272.862387240019760
 51
346.260856815788600
  0
ARC
  8
0
  6
DASHED
 62
3
 10
548.099913421165870
 20
-132.359059708476050
 40
1.299999237060645
 50
19.463936333587132
 51
92.862405909348169
  0
LINE
  8
0
  6
DASHED
 62
3
 10
546.183282448213050
 20
-129.651394205786370
 11
551.276919376490010
 21
-231.524132771326460
  0
LINE
  8
0
  6
DASHED
 62
3
 10
547.057190744730630
 20
-131.109572620547880
 11
547.406754063337760
 21
-138.100838992692760
  0
LINE
  8
0
  6
DASHED
 62
3
 10
547.057190744730630
 20
-131.109572620547880
 11
547.406754063337760
 21
-138.100838992692760
  0
LINE
  8
0
  6
DASHED
 62
3
 10
547.406754063337760
 20
-138.100838992692760
 11
548.384557875845530
 21
-138.051948802067410
  0
LINE
  8
0
  6
DASHED
 62
3
 10
547.057190744730630
 20
-131.109572620547880
 11
548.034994557238180
 21
-131.060682429922540
  0
LINE
  8
0
  6
DASHED
 62
3
 10
546.982284319315340
 20
-129.611444112231230
 11
552.075921247592310
 21
-231.484182677771200
  0
LINE
  8
0
  6
DASHED
 62
3
 10
545.384280577110760
 20
-129.691344299341410
 11
550.477917505387720
 21
-231.564082864882180
  0
LINE
  8
0
  6
DASHED
 62
3
 10
546.982284319315340
 20
-129.611444112231230
 11
545.384280577110760
 21
-129.691344299341410
  0
LINE
  8
0
  6
DASHED
 62
3
 10
528.881410956529860
 20
-199.613964372121610
 11
528.881410956529860
 21
-159.613964372121610
  0
ARC
  8
0
  6
DASHED
 62
3
 10
549.681410956529820
 20
-199.613964372121610
 40
20.799999999999955
 50
180.000000000000000
 51
265.808273843992540
  0
ARC
  8
0
  6
DASHED
 62
3
 10
549.681410956529820
 20
-199.613964372121610
 40
20.800000000000040
 50
279.916536608230560
 51
334.359929784105190
  0
ARC
  8
0
  6
DASHED
 62
3
 10
548.014863690146290
 20
-222.352975349050920
 40
1.999999999999927
 50
2.862405226112724
 51
85.808273843998350
  0
ARC
  8
0
  6
DASHED
 62
3
 10
553.607876787862100
 20
-222.073324694165110
 40
1.999999999999995
 50
99.916536608232732
 51
182.862405226112400
  0
LINE
  8
0
  6
DASHED
 62
3
 10
550.477917505387720
 20
-231.564082864882180
 11
552.075921247592310
 21
-231.484182677771200
  0
INSERT
  8
0
  2
SYM30
 10
551.826233162873220
 20
-226.490420983382050
 41
-1.000000000000000
 42
1.000000000000000
 43
1.000000000000000
 50
2.862405226113666
  0
ARC
  8
0
  6
DASHED
 62
3
 10
549.681410956529820
 20
-199.613964372121610
 40
20.799999999999926
 50
334.359929784105190
 51
5.724810452223396
  0
LINE
  8
0
  6
DASHED
 62
3
 10
570.377670308150750
 20
-197.539151404540600
 11
566.387645370494740
 21
-157.738652651423340
  0
ARC
  8
0
  6
DASHED
 62
3
 10
547.681410956529820
 20
-159.613964372121610
 40
18.799999999999837
 50
5.724810452223617
 51
35.808626813495749
  0
ARC
  8
0
  6
DASHDOT
 62
4
 10
464.381410956529860
 20
-184.071464372122360
 40
189.999999999999940
 50
218.349779666705870
 51
231.759041488419460
  0
ARC
  8
0
  6
CONTINUOUS
 62
3
 10
361.889051303376620
 20
-260.748163653773190
 40
9.999999999999950
 50
216.800938413478920
 51
344.803706655300350
  0
ARC
  8
0
  6
CONTINUOUS
 62
3
 10
546.607529394264700
 20
-282.167669429523130
 40
10.000000000000052
 50
180.074478852622290
 51
309.970383425430270
  0
ARC
  8
0
  6
CONTINUOUS
 62
3
 10
495.607572482708520
 20
-282.233964372122050
 40
40.999999999999964
 50
0.074478852621535
 51
58.061807908989444
  0
ARC
  8
0
  6
CONTINUOUS
 62
3
 10
616.881410956529860
 20
-308.287193124660690
 40
5.000000000000000
 50
0.000000000002606
 51
45.000000000001855
  0
CIRCLE
  8
0
  6
CONTINUOUS
 62
3
 10
598.731699381973840
 20
-318.421752797566340
 40
12.000000000000000
  0
ARC
  8
0
  6
DASHDOT
 62
4
 10
464.381410956529860
 20
-184.071464372122360
 40
190.000000000000140
 50
309.119041968700400
 51
320.880958031302550
  0
ARC
  8
0
  6
CONTINUOUS
 62
3
 10
588.597139709067960
 20
-336.571464372122360
 40
5.000000000000041
 50
225.000000000001850
 51
270.000000000000000
  0
ARC
  8
0
  6
CONTINUOUS
 62
3
 10
599.527159127157120
 20
-269.719737859691350
 40
9.999999999999984
 50
147.635625093021420
 51
224.999999999999090
  0
ARC
  8
0
  6
CONTINUOUS
 62
3
 10
550.029684444098850
 20
-319.217212542749390
 40
9.999999999999758
 50
45.000000000000000
 51
122.364374906979250
  0
ARC
  8
0
  6
CONTINUOUS
 62
3
 10
329.235662785902830
 20
-269.719737859691350
 40
9.999999999999758
 50
315.000000000000000
 51
32.364374906979279
  0
ARC
  8
0
  6
CONTINUOUS
 62
3
 10
378.733137468960880
 20
-319.217212542749620
 40
10.000000000000107
 50
57.635625093020330
 51
134.999999999999090
  0
ARC
  8
0
  6
CONTINUOUS
 62
3
 10
340.165682203991760
 20
-336.571464372122360
 40
5.000000000000000
 50
270.000000000000000
 51
315.000000000000000
  0
ARC
  8
0
  6
CONTINUOUS
 62
3
 10
311.881410956529860
 20
-308.287193124660460
 40
5.000000000000041
 50
135.000000000001820
 51
180.000000000000000
  0
ARC
  8
0
  6
CONTINUOUS
 62
3
 10
464.381410956529860
 20
-184.071464372122360
 40
149.999999999999910
 50
237.635625093021160
 51
302.364374906978870
  0
ARC
  8
0
  6
CONTINUOUS
 62
3
 10
606.881410956529860
 20
-326.571464372122360
 40
15.000000000000000
 50
270.000000000000000
 51
0.000000000000000
  0
ARC
  8
0
  6
CONTINUOUS
 62
3
 10
321.881410956529860
 20
-326.571464372122360
 40
15.000000000000000
 50
180.000000000000000
 51
270.000000000000000
  0
CIRCLE
  8
0
  6
CONTINUOUS
 62
3
 10
330.031122531085880
 20
-318.421752797566340
 40
12.000000000000000
  0
ARC
  8
0
  6
CONTINUOUS
 62
3
 10
384.881410956529860
 20
-344.071464372121910
 40
11.999999999999970
 50
177.134016017401560
 51
270.000000000000000
  0
ARC
  8
0
  6
CONTINUOUS
 62
3
 10
366.905816969933540
 20
-344.008492028623550
 40
5.999999999999909
 50
2.984000447292837
 51
23.964546172534565
  0
ARC
  8
0
  6
CONTINUOUS
 62
3
 10
543.881410956529860
 20
-344.071464372121910
 40
12.000000000000000
 50
270.000000000000000
 51
2.865983982598435
  0
ARC
  8
0
  6
CONTINUOUS
 62
3
 10
561.857004943126190
 20
-344.008492028623550
 40
5.999999999999934
 50
156.035453827466310
 51
177.015999552707170
  0
ARC
  8
0
  6
CONTINUOUS
 62
3
 10
495.607572482708520
 20
-282.233964372122050
 40
48.000000000000185
 50
6.015134369631197
 51
56.987251938308155
  0
ARC
  8
0
  6
CONTINUOUS
 62
3
 10
553.288238985403720
 20
-276.156077255297530
 40
9.999999999999867
 50
186.015134369631200
 51
313.994123956684400
  0
ARC
  8
0
  6
CONTINUOUS
 62
3
 10
356.856232628467980
 20
-253.514505963908050
 40
10.000000000000092
 50
212.855608111867750
 51
339.806925700099780
  0
ARC
  8
0
  6
CONTINUOUS
 62
3
 10
179.178022723554020
 20
-249.071464372122360
 40
5.000000000000034
 50
303.367012969231500
 51
0.000000000000000
  0
ARC
  8
0
  6
CONTINUOUS
 62
3
 10
159.678022723554020
 20
-352.971491679728840
 40
2.999999999999973
 50
268.122122552718340
 51
0.000000000000000
  0
ARC
  8
0
  6
CONTINUOUS
 62
3
 10
165.678022723554020
 20
-344.571464372122140
 40
3.000000000000000
 50
90.000000000000000
 51
180.000000000000000
  0
ARC
  8
0
  6
CONTINUOUS
 62
3
 10
159.678022723554020
 20
-338.571464372122360
 40
3.000000000000000
 50
180.000000000000000
 51
270.000000000000000
  0
ARC
  8
0
  6
CONTINUOUS
 62
3
 10
184.678022723554020
 20
-257.423110916367480
 40
5.000000000000034
 50
123.367012969231490
 51
143.130102354155980
  0
ARC
  8
0
  6
CONTINUOUS
 62
3
 10
171.678022723554020
 20
-268.976298159218230
 40
2.000000000000000
 50
180.000000000000000
 51
270.000000000000000
  0
ARC
  8
0
  6
CONTINUOUS
 62
3
 10
171.678022723554020
 20
-304.216125312794930
 40
2.000000000000000
 50
180.000000000000000
 51
270.000000000000000
  0
LINE
  8
0
  6
DASHDOT
 62
4
 10
584.943117148836110
 20
-304.633170564428840
 11
612.520281615111570
 21
-332.210335030704070
  0
LINE
  8
0
  6
CONTINUOUS
 62
3
 10
557.100752255964150
 20
-312.146144730884090
 11
585.061605803135310
 21
-340.106998278055240
  0
LINE
  8
0
  6
CONTINUOUS
 62
3
 10
592.456091315291590
 20
-276.790805671556650
 11
620.416944862462510
 21
-304.751659218727810
  0
LINE
  8
0
  6
CONTINUOUS
 62
3
 10
371.662069657095570
 20
-312.146144730884090
 11
343.701216109924420
 21
-340.106998278055020
  0
LINE
  8
0
  6
CONTINUOUS
 62
3
 10
336.306730597768140
 20
-276.790805671556650
 11
308.345877050596980
 21
-304.751659218727810
  0
LINE
  8
0
  6
DASHDOT
 62
4
 10
343.819704764223390
 20
-304.633170564428610
 11
316.242540297948150
 21
-332.210335030704070
  0
LINE
  8
0
  6
CONTINUOUS
 62
3
 10
606.881410956529860
 20
-341.571464372122360
 11
321.881410956529860
 21
-341.571464372122360
  0
LINE
  8
0
  6
CONTINUOUS
 62
3
 10
384.881410956529860
 20
-356.071464372122360
 11
464.381410956529860
 21
-356.071464372122360
  0
LINE
  8
0
  6
CONTINUOUS
 62
3
 10
543.881410956529860
 20
-356.071464372122360
 11
464.381410956529860
 21
-356.071464372122360
  0
LINE
  8
0
  6
CONTINUOUS
 62
3
 10
180.678022723554020
 20
-328.071464372121910
 11
179.678022723554020
 21
-329.071464372121910
  0
LINE
  8
0
  6
CONTINUOUS
 62
3
 10
162.678022723554020
 20
-352.971491679728840
 11
162.678022723554020
 21
-344.571464372122140
  0
LINE
  8
0
  6
CONTINUOUS
 62
3
 10
179.678022723554020
 20
-329.071464372121910
 11
176.678022723554020
 21
-329.071464372121910
  0
LINE
  8
0
  6
CONTINUOUS
 62
3
 10
176.678022723554020
 20
-341.571464372122140
 11
159.678022723554020
 21
-341.571464372122140
  0
LINE
  8
0
  6
DASHDOT
 62
4
 10
194.815892354536120
 20
-318.421752797566340
 11
142.660847232853480
 21
-318.421752797566340
  0
LINE
  8
0
  6
CONTINUOUS
 62
3
 10
176.678022723554020
 20
-306.216125312794930
 11
171.678022723554020
 21
-306.216125312794930
  0
LINE
  8
0
  6
CONTINUOUS
 62
3
 10
176.678022723554020
 20
-270.976298159218230
 11
171.678022723554020
 21
-270.976298159218230
  0
ENDSEC
  0
EOF
