  0
SECTION
  2
HEADER
  9
$TEXTSIZE
 40
2.5
  9
$ACADVER
  1
AC1009
  9
$DIMASZ
 40
3.863703297614046
  9
$DIMEXE
 40
2.000000000000000
  9
$DIMEXO
 40
1.000000000000000
  9
$DIMLFAC
 40
1.000000000000000
  9
$DIMSCALE
 40
1.000000000000000
  9
$DIMTAD
 70
1
  9
$DIMTFAC
 40
0.625000000000000
  9
$DIMTXT
 40
3.200000047683716
  9
$LUPREC
 70
3
  9
$REGENMODE
 70
1
  9
$TEXTSTYLE
  7
STANDARD1
  0
ENDSEC
  0
SECTION
  2
TABLES
  0
TABLE
  2
LTYPE
 70
4
  0
LTYPE
  2
CONTINUOUS
 70
64
  3
Solid line
 72
65
 73
0
 40
0.0
  0
LTYPE
  2
DASHED
 70
64
  3
-- -- -- -- -- -- -- -- -- -- -- -- -- -- --
 72
65
 73
2
 40
0.75
 49
0.5
 49
-0.25
  0
LTYPE
  2
DASHDOT
 70
64
  3
__ . __ . __ . __ . __ . __ . __ . __ . __ . __
 72
65
 73
4
 40
1.0
 49
0.5
 49
-0.25
 49
0.0
 49
-0.25
  0
LTYPE
  2
DIVIDE
 70
64
  3
__ . . __ . . __ . . __ . . __ . . __ . . __
 72
65
 73
6
 40
1.25
 49
0.5
 49
-0.25
 49
0.0
 49
-0.25
 49
0.0
 49
-0.25
  0
ENDTAB
  0
TABLE
  2
LAYER
 70
1
  0
LAYER
  2
0
 70
64
 62
2
  6
CONTINUOUS
  0
ENDTAB
  0
TABLE
  2
STYLE
 70
4
  0
STYLE
  2
STANDARD1
 70
64
 40
0.0
 41
1.0
 50
0.0
 71
0
 42
3.200000047683716
  3
MONOTXT
  4
BIGFONT
  0
STYLE
  2
STANDARD2
 70
68
 40
0.0
 41
1.0
 50
0.0
 71
0
 42
3.200000047683716
  3
MONOTXT
  4
BIGFONT
  0
STYLE
  2
STANDARD3
 70
64
 40
0.0
 41
1.0
 50
0.0
 71
0
 42
3.200000047683716
  3
MONOTXT
  4

  0
STYLE
  2
STANDARD4
 70
68
 40
0.0
 41
1.0
 50
0.0
 71
0
 42
3.200000047683716
  3
MONOTXT
  4

  0
ENDTAB
  0
TABLE
  2
VIEW
 70
0
  0
ENDTAB
  0
ENDSEC
  0
SECTION
  2
BLOCKS
  0
ENDSEC
  0
SECTION
  2
ENTITIES
  0
LINE
  8
0
  6
CONTINUOUS
 62
256
 10
55.706197146508885
 20
-115.190709804558520
 11
55.706197146508885
 21
-62.690709804558537
  0
LINE
  8
0
  6
CONTINUOUS
 62
256
 10
55.706197146509112
 20
-62.690709804558537
 11
55.706197146508600
 21
-168.216893731705570
  0
LINE
  8
0
  6
DASHDOT
 62
256
 10
293.917010745190280
 20
-20.838805149812401
 11
293.917010745190280
 21
-186.911836673291990
  0
CIRCLE
  8
0
  6
CONTINUOUS
 62
256
 10
293.917010745190050
 20
-100.190709804559560
 40
3.000000000000000
  0
ARC
  8
0
  6
CONTINUOUS
 62
256
 10
293.917003385182850
 20
-100.190709804559560
 40
8.000000000000096
 50
198.209956864282790
 51
161.789968677645760
  0
LINE
  8
0
  6
CONTINUOUS
 62
256
 10
283.917003385182850
 20
-97.690709804559560
 11
288.917003385182850
 21
-97.690709804559560
  0
LINE
  8
0
  6
CONTINUOUS
 62
256
 10
283.917003385182850
 20
-97.690709804559560
 11
283.917003385182850
 21
-102.690709804559560
  0
LINE
  8
0
  6
CONTINUOUS
 62
256
 10
288.917003385182850
 20
-97.690709804559560
 11
288.917003385182850
 21
-102.690709804559560
  0
CIRCLE
  8
0
  6
CONTINUOUS
 62
256
 10
293.917010745190050
 20
-100.190709804559560
 40
2.458500000000015
  0
LINE
  8
0
  6
CONTINUOUS
 62
256
 10
283.917003385182850
 20
-102.690709804559560
 11
288.917003385182850
 21
-102.690709804559560
  0
LINE
  8
0
  6
CONTINUOUS
 62
256
 10
291.917010745190280
 20
-41.326459193513188
 11
291.917010745190280
 21
-58.006076496780338
  0
LINE
  8
0
  6
CONTINUOUS
 62
256
 10
295.917010745190280
 20
-41.326459193513188
 11
295.917010745190280
 21
-58.006076496780338
  0
LINE
  8
0
  6
DASHDOT
 62
256
 10
312.834835182758750
 20
-115.190709804559560
 11
276.041025779504480
 21
-115.190709804559560
  0
LINE
  8
0
  6
DASHDOT
 62
256
 10
293.917010745190280
 20
-20.838805149812401
 11
293.917010745190280
 21
-186.911836673291990
  0
LINE
  8
0
  6
CONTINUOUS
 62
256
 10
355.317318340723200
 20
-144.620454651607470
 11
365.831224307562480
 21
-155.134360618445610
  0
LINE
  8
0
  6
CONTINUOUS
 62
256
 10
338.346755592247520
 20
-161.591017400086570
 11
348.860661559095210
 21
-172.104923366931980
  0
LINE
  8
0
  6
CONTINUOUS
 62
256
 10
229.417010745189600
 20
-172.690709804558650
 11
358.417010745189600
 21
-172.690709804558650
  0
LINE
  8
0
  6
CONTINUOUS
 62
256
 10
232.516703149662360
 20
-144.620454651617480
 11
222.002797182816270
 21
-155.134360618464710
  0
LINE
  8
0
  6
CONTINUOUS
 62
256
 10
249.487265898140780
 20
-161.591017400092940
 11
238.973359931303090
 21
-172.104923366931980
  0
LINE
  8
0
  6
CONTINUOUS
 62
256
 10
232.516703149655770
 20
-55.760964957510737
 11
222.002797182816490
 21
-45.247058990672599
  0
LINE
  8
0
  6
CONTINUOUS
 62
256
 10
221.417010745189600
 20
-35.690709804558651
 11
221.417010745189600
 21
-164.690709804558650
  0
LINE
  8
0
  6
CONTINUOUS
 62
256
 10
249.487265898131450
 20
-38.790402209031640
 11
238.973359931283770
 21
-28.276496242186226
  0
LINE
  8
0
  6
CONTINUOUS
 62
256
 10
229.417010745189600
 20
-27.690709804558651
 11
358.417010745189600
 21
-27.690709804558651
  0
LINE
  8
0
  6
CONTINUOUS
 62
256
 10
366.417010745189600
 20
-35.690709804558651
 11
366.417010745189600
 21
-164.690709804558650
  0
LINE
  8
0
  6
CONTINUOUS
 62
256
 10
355.317318340716610
 20
-55.760964957500732
 11
365.831224307562710
 21
-45.247058990653500
  0
LINE
  8
0
  6
CONTINUOUS
 62
256
 10
338.346755592238200
 20
-38.790402209025274
 11
348.860661559075880
 21
-28.276496242186226
  0
ARC
  8
0
  6
CONTINUOUS
 62
256
 10
297.917010745190280
 20
-58.006076496780338
 40
2.000000000000000
 50
180.000000000000000
 51
269.427325621609500
  0
ARC
  8
0
  6
CONTINUOUS
 62
256
 10
289.917010745190280
 20
-58.006076496780338
 40
2.000000000000305
 50
270.572674378390390
 51
0.000000000000000
  0
ARC
  8
0
  6
CONTINUOUS
 62
256
 10
289.917010745190280
 20
-41.326459193513188
 40
2.000000000000000
 50
0.000000000000000
 51
93.887441542153866
  0
ARC
  8
0
  6
CONTINUOUS
 62
256
 10
297.917010745190280
 20
-41.326459193513188
 40
2.000000000000140
 50
86.112558457846418
 51
180.000000000000000
  0
ARC
  8
0
  6
CONTINUOUS
 62
256
 10
223.369154647360570
 20
-108.190709804559560
 40
2.999999999999902
 50
6.469601610346050
 51
90.000000000000000
  0
ARC
  8
0
  6
CONTINUOUS
 62
256
 10
223.417010745189600
 20
-103.190709804559560
 40
2.000000000000000
 50
180.000000000000000
 51
270.000000000000000
  0
ARC
  8
0
  6
CONTINUOUS
 62
256
 10
223.369154647360570
 20
-92.190709804559560
 40
3.000000000000000
 50
270.000000000000000
 51
353.530398389671120
  0
ARC
  8
0
  6
CONTINUOUS
 62
256
 10
223.417010745189600
 20
-97.190709804559560
 40
2.000000000000000
 50
90.000000000000000
 51
180.000000000000000
  0
ARC
  8
0
  6
CONTINUOUS
 62
256
 10
364.417010745190960
 20
-97.190709804559560
 40
2.000000000000000
 50
0.000000000000000
 51
90.000000000000000
  0
ARC
  8
0
  6
CONTINUOUS
 62
256
 10
364.417010745190960
 20
-103.190709804559560
 40
2.000000000000000
 50
270.000000000000000
 51
0.000000000000000
  0
ARC
  8
0
  6
CONTINUOUS
 62
256
 10
364.464866843019990
 20
-108.190709804559560
 40
3.000000000000000
 50
90.000000000000000
 51
173.530398389653950
  0
ARC
  8
0
  6
CONTINUOUS
 62
256
 10
364.464866843019990
 20
-92.190709804559560
 40
2.999999999999799
 50
186.469601610328770
 51
270.000000000000000
  0
CIRCLE
  8
0
  6
CONTINUOUS
 62
256
 10
230.277400438396170
 20
-36.551099497774999
 40
5.300000000000011
  0
CIRCLE
  8
0
  6
CONTINUOUS
 62
256
 10
230.277400438405040
 20
-163.830320111353220
 40
5.300000000000011
  0
CIRCLE
  8
0
  6
CONTINUOUS
 62
256
 10
357.556621051983480
 20
-163.830320111343210
 40
5.300000000000011
  0
CIRCLE
  8
0
  6
CONTINUOUS
 62
256
 10
357.556621051973930
 20
-36.551099497764994
 40
5.300000000000011
  0
ARC
  8
0
  6
CONTINUOUS
 62
256
 10
257.144026961443610
 20
-142.425146744577550
 40
4.999999999999889
 50
228.954327619990690
 51
17.369633808356543
  0
ARC
  8
0
  6
CONTINUOUS
 62
256
 10
287.406539021817480
 20
-155.810973719243630
 40
4.999999999999622
 50
114.908479498619850
 51
263.323785686981860
  0
ARC
  8
0
  6
CONTINUOUS
 62
256
 10
343.543505974793560
 20
-126.137019199655810
 40
5.000000000000225
 50
193.525604501702190
 51
332.398001014701660
  0
ARC
  8
0
  6
CONTINUOUS
 62
256
 10
314.978185015378810
 20
-152.079311041831830
 40
4.999999999999915
 50
292.091845782585780
 51
70.964242295592584
  0
ARC
  8
0
  6
CONTINUOUS
 62
256
 10
268.261570049358620
 20
-118.467699783842480
 40
3.000000000000294
 50
299.601286977152820
 51
35.466151704764755
  0
ARC
  8
0
  6
CONTINUOUS
 62
256
 10
297.653265639337860
 20
-131.468343976057550
 40
2.999999999999606
 50
96.811961602215632
 51
192.676826329818790
  0
ARC
  8
0
  6
CONTINUOUS
 62
256
 10
302.165599726549090
 20
-130.591544987441130
 40
3.000000000000167
 50
358.020519821729640
 51
105.180454711340090
  0
ARC
  8
0
  6
CONTINUOUS
 62
256
 10
323.385322512155200
 20
-111.320337004292110
 40
3.000000000000015
 50
159.309392085947540
 51
266.469326975568260
  0
ARC
  8
0
  6
CONTINUOUS
 62
256
 10
278.140797990258760
 20
-135.857376471226530
 40
17.000000000000071
 50
294.908479498618020
 51
12.676826329814618
  0
ARC
  8
0
  6
CONTINUOUS
 62
256
 10
322.153664962109360
 20
-131.282376471225800
 40
16.999999999999893
 50
13.525604501697238
 51
86.469326975567711
  0
ARC
  8
0
  6
CONTINUOUS
 62
256
 10
278.140797990258760
 20
-135.857376471226530
 40
16.999999999999968
 50
119.601286977159330
 51
197.369633808356040
  0
ARC
  8
0
  6
CONTINUOUS
 62
256
 10
322.153664962109360
 20
-131.282376471225800
 40
16.999999999999861
 50
178.020519821724410
 51
250.964242295592870
  0
ARC
  8
0
  6
CONTINUOUS
 62
256
 10
293.917010745189600
 20
-100.190709804558650
 40
68.000000000000142
 50
186.469601610343260
 51
208.617330145903570
  0
ARC
  8
0
  6
CONTINUOUS
 62
256
 10
293.917010745189600
 20
-100.190709804558650
 40
68.000000000000043
 50
6.469601610342491
 51
28.617330145902912
  0
CIRCLE
  8
0
  6
CONTINUOUS
 62
256
 10
293.917010745189600
 20
-100.190709804559560
 40
28.500000000001705
  0
ARC
  8
0
  6
CONTINUOUS
 62
256
 10
362.388386152582600
 20
-62.832032769366492
 40
10.000000000000563
 50
135.000000000000910
 51
208.617330145903740
  0
ARC
  8
0
  6
CONTINUOUS
 62
256
 10
293.917010745189600
 20
-100.190709804558650
 40
68.000000000000426
 50
331.382669854104510
 51
353.530398389656740
  0
ARC
  8
0
  6
CONTINUOUS
 62
256
 10
362.388386152588280
 20
-137.549386839741710
 40
10.000000000000236
 50
151.382669854102600
 51
225.000000000002760
  0
ARC
  8
0
  6
CONTINUOUS
 62
256
 10
364.417010745189600
 20
-156.548574180818950
 40
2.000000000000000
 50
0.000000000000000
 51
45.000000000009209
  0
ARC
  8
0
  6
CONTINUOUS
 62
256
 10
358.417010745189600
 20
-164.690709804558650
 40
8.000000000000000
 50
270.000000000000000
 51
0.000000000000000
  0
ARC
  8
0
  6
CONTINUOUS
 62
256
 10
331.275687780382440
 20
-168.662085211952330
 40
9.999999999999920
 50
45.000000000002764
 51
118.617330145902780
  0
ARC
  8
0
  6
CONTINUOUS
 62
256
 10
350.274875121468310
 20
-170.690709804559560
 40
1.999999999999534
 50
224.999999999986190
 51
270.000000000000000
  0
ARC
  8
0
  6
CONTINUOUS
 62
256
 10
256.558333710006990
 20
-168.662085211957790
 40
10.000000000000218
 50
61.382669854105508
 51
135.000000000005510
  0
ARC
  8
0
  6
CONTINUOUS
 62
256
 10
293.917010745189600
 20
-100.190709804558650
 40
68.000000000000185
 50
241.382669854105220
 51
298.617330145903110
  0
ARC
  8
0
  6
CONTINUOUS
 62
256
 10
229.417010745189600
 20
-164.690709804558650
 40
8.000000000000000
 50
180.000000000000000
 51
270.000000000000000
  0
ARC
  8
0
  6
CONTINUOUS
 62
256
 10
225.445635337796380
 20
-137.549386839751720
 40
10.000000000000563
 50
315.000000000000910
 51
28.617330145899306
  0
ARC
  8
0
  6
CONTINUOUS
 62
256
 10
223.417010745189370
 20
-156.548574180838050
 40
2.000000000000177
 50
134.999999999995400
 51
180.000000000000000
  0
ARC
  8
0
  6
CONTINUOUS
 62
256
 10
237.559146368929990
 20
-170.690709804559560
 40
2.000000000000000
 50
270.000000000000000
 51
315.000000000013810
  0
ARC
  8
0
  6
CONTINUOUS
 62
256
 10
293.917010745189600
 20
-100.190709804558650
 40
67.999999999999559
 50
151.382669854105840
 51
173.530398389657510
  0
ARC
  8
0
  6
CONTINUOUS
 62
256
 10
225.445635337790690
 20
-62.832032769376497
 40
10.000000000000236
 50
331.382669854102570
 51
45.000000000002764
  0
ARC
  8
0
  6
CONTINUOUS
 62
256
 10
223.417010745189370
 20
-43.832845428299265
 40
2.000000000000000
 50
180.000000000000000
 51
225.000000000008920
  0
ARC
  8
0
  6
CONTINUOUS
 62
256
 10
229.417010745189600
 20
-35.690709804558651
 40
8.000000000000000
 50
90.000000000000000
 51
180.000000000000000
  0
ARC
  8
0
  6
CONTINUOUS
 62
256
 10
237.559146368910660
 20
-29.690709804558651
 40
1.999999999999534
 50
44.999999999986180
 51
90.000000000000000
  0
ARC
  8
0
  6
CONTINUOUS
 62
256
 10
256.558333709996530
 20
-31.719334397165881
 40
9.999999999999920
 50
225.000000000002760
 51
298.617330145902830
  0
CIRCLE
  8
0
  6
CONTINUOUS
 62
256
 10
293.917010745189600
 20
-100.190709804558650
 40
61.000000000000000
  0
ARC
  8
0
  6
CONTINUOUS
 62
256
 10
331.275687780371980
 20
-31.719334397160424
 40
10.000000000000218
 50
241.382669854105530
 51
315.000000000005570
  0
ARC
  8
0
  6
CONTINUOUS
 62
256
 10
293.917010745189600
 20
-100.190709804558650
 40
67.999999999999289
 50
61.382669854105067
 51
118.617330145903680
  0
ARC
  8
0
  6
CONTINUOUS
 62
256
 10
358.417010745189600
 20
-35.690709804558651
 40
8.000000000000000
 50
0.000000000000000
 51
90.000000000000000
  0
ARC
  8
0
  6
CONTINUOUS
 62
256
 10
364.417010745189600
 20
-43.832845428280166
 40
2.000000000000177
 50
314.999999999995400
 51
0.000000000000000
  0
ARC
  8
0
  6
CONTINUOUS
 62
256
 10
350.274875121448990
 20
-29.690709804558651
 40
2.000000000000000
 50
90.000000000000000
 51
135.000000000014040
  0
ARC
  8
0
  6
CONTINUOUS
 62
256
 10
293.917010745190510
 20
-458.190709804558650
 40
398.204623581088130
 50
87.093615629290085
 51
89.427325621611587
  0
ARC
  8
0
  6
CONTINUOUS
 62
256
 10
293.917010745190280
 20
-458.190709804558650
 40
398.204623581088530
 50
90.572674378388442
 51
92.906384370709887
  0
ARC
  8
0
  6
CONTINUOUS
 62
256
 10
275.917010745190510
 20
-103.647341512329260
 40
43.204623581088974
 50
92.906384370709901
 51
132.696269977174840
  0
ARC
  8
0
  6
CONTINUOUS
 62
256
 10
244.585109142549530
 20
-69.688849463467818
 40
2.999999999999679
 50
148.271543901143390
 51
312.696269977175230
  0
ARC
  8
0
  6
CONTINUOUS
 62
256
 10
311.917010745190510
 20
-103.647341512329260
 40
43.204623581089415
 50
47.303730022832184
 51
87.093615629290113
  0
ARC
  8
0
  6
CONTINUOUS
 62
256
 10
343.248912347827400
 20
-69.688849463464180
 40
2.999999999999885
 50
227.303730022827890
 51
31.728456098873554
  0
ARC
  8
0
  6
DASHDOT
 62
256
 10
293.917010745189370
 20
-100.190709804559560
 40
89.999999999999602
 50
308.633392784996260
 51
321.222539268991450
  0
ARC
  8
0
  6
DASHDOT
 62
256
 10
293.917010745190960
 20
-100.190709804558650
 40
89.999999999999602
 50
128.633392784984180
 51
141.366607215004020
  0
CIRCLE
  8
0
  6
CONTINUOUS
 62
256
 10
293.917010745190280
 20
-100.190709804559560
 40
65.000000000000000
  0
ARC
  8
0
  6
DASHDOT
 62
256
 10
293.917010745189600
 20
-100.190709804558650
 40
89.999999999999943
 50
38.873558913487919
 51
51.366607215015783
  0
ARC
  8
0
  6
DASHDOT
 62
256
 10
293.917010745189370
 20
-100.190709804558650
 40
90.000000000000199
 50
218.935345813929560
 51
231.366607215016130
  0
LINE
  8
0
  6
DASHDOT
 62
256
 10
191.907410647217830
 20
-100.190709804558520
 11
374.704945561358730
 21
-100.190709804559560
  0
LINE
  8
0
  6
DASHDOT
 62
256
 10
349.608831277815400
 20
-44.498889271924895
 11
363.225056459276860
 21
-30.882664090461617
  0
LINE
  8
0
  6
DASHDOT
 62
256
 10
224.190525765952660
 20
-30.464224825334497
 11
237.832443844869890
 21
-44.106142904249396
  0
LINE
  8
0
  6
DASHDOT
 62
256
 10
224.065333812678490
 20
-170.042386737081670
 11
238.302548553570430
 21
-155.805171996187820
  0
LINE
  8
0
  6
DASHDOT
 62
256
 10
349.230312058398570
 20
-155.504011117759660
 11
363.450449605963800
 21
-169.724148665322990
  0
CIRCLE
  8
0
  6
CONTINUOUS
 62
256
 10
293.917010745190050
 20
-100.190709804560470
 40
15.000000000004434
  0
LINE
  8
0
  6
CONTINUOUS
 62
256
 10
56.706197146509112
 20
-156.232623574898270
 11
75.206197146520935
 21
-156.232623574898300
  0
LINE
  8
0
  6
CONTINUOUS
 62
256
 10
56.706197146509112
 20
-166.190709804558760
 11
72.206197909460386
 21
-166.190709804558740
  0
LINE
  8
0
  6
CONTINUOUS
 62
256
 10
56.706197146509112
 20
-165.690709804558540
 11
72.206197909460386
 21
-165.690709804558540
  0
LINE
  8
0
  6
CONTINUOUS
 62
256
 10
56.706197146509112
 20
-161.323792399441340
 11
75.206197146520935
 21
-161.323792399441340
  0
LINE
  8
0
  6
CONTINUOUS
 62
256
 10
56.706197146509112
 20
-159.695365331663420
 11
75.206197146520935
 21
-159.695365331663420
  0
LINE
  8
0
  6
CONTINUOUS
 62
256
 10
56.706197146509112
 20
-155.231145211083000
 11
75.206197146520935
 21
-155.231145211083000
  0
LINE
  8
0
  6
CONTINUOUS
 62
256
 10
56.706197146509112
 20
-148.494310756067310
 11
75.206197146520935
 21
-148.494310756067310
  0
LINE
  8
0
  6
CONTINUOUS
 62
256
 10
56.706197146509112
 20
-146.905100963328550
 11
75.206197146520935
 21
-146.905100963328550
  0
LINE
  8
0
  6
CONTINUOUS
 62
256
 10
56.706197146509112
 20
-143.947105355195620
 11
75.206197146520935
 21
-143.947105355195620
  0
LINE
  8
0
  6
CONTINUOUS
 62
256
 10
56.706197146509112
 20
-142.468082201718520
 11
75.206197146520935
 21
-142.468082201718520
  0
LINE
  8
0
  6
CONTINUOUS
 62
256
 10
56.706197146509112
 20
-139.375351210053170
 11
75.206197146520935
 21
-139.375351210053170
  0
LINE
  8
0
  6
CONTINUOUS
 62
256
 10
56.706197146509112
 20
-138.028949484554690
 11
75.206197146520935
 21
-138.028949484554690
  0
LINE
  8
0
  6
CONTINUOUS
 62
256
 10
56.706197146509112
 20
-135.190709804558540
 11
75.206197146520935
 21
-135.190709804558540
  0
LINE
  8
0
  6
CONTINUOUS
 62
256
 10
56.706197146509112
 20
-95.190709804558537
 11
72.206197146520935
 21
-95.190709804558537
  0
LINE
  8
0
  6
CONTINUOUS
 62
256
 10
56.706197146509112
 20
-92.352470124562387
 11
72.206197146520935
 21
-92.352470124562387
  0
LINE
  8
0
  6
CONTINUOUS
 62
256
 10
56.706197146509112
 20
-91.006068399063679
 11
72.206197146520935
 21
-91.006068399063679
  0
LINE
  8
0
  6
CONTINUOUS
 62
256
 10
56.706197146509112
 20
-87.913337407398558
 11
75.206197146520935
 21
-87.913337407398558
  0
LINE
  8
0
  6
CONTINUOUS
 62
256
 10
56.706197146509112
 20
-86.434314253921457
 11
75.206197146520935
 21
-86.434314253921457
  0
LINE
  8
0
  6
CONTINUOUS
 62
256
 10
56.706197146509112
 20
-83.476318645788581
 11
75.206197146520935
 21
-83.476318645788581
  0
LINE
  8
0
  6
CONTINUOUS
 62
256
 10
56.706197146509112
 20
-81.887108853049767
 11
75.206197146520935
 21
-81.887108853049767
  0
LINE
  8
0
  6
CONTINUOUS
 62
256
 10
56.706197146509112
 20
-75.150274398034071
 11
75.206197146520935
 21
-75.150274398034071
  0
LINE
  8
0
  6
CONTINUOUS
 62
256
 10
56.706197146509112
 20
-74.148796034218776
 11
75.206197146520935
 21
-74.148796034218776
  0
LINE
  8
0
  6
CONTINUOUS
 62
256
 10
56.706197146509112
 20
-70.686054277453650
 11
75.206197146520935
 21
-70.686054277453650
  0
LINE
  8
0
  6
CONTINUOUS
 62
256
 10
56.706197146509112
 20
-69.057627209675957
 11
72.206197909460386
 21
-69.057627209675957
  0
LINE
  8
0
  6
CONTINUOUS
 62
256
 10
72.206197909460386
 20
-165.690709804558540
 11
72.206197909460386
 21
-161.440710758232850
  0
LINE
  8
0
  6
DASHDOT
 62
256
 10
138.416140836738120
 20
-36.551099497778523
 11
109.408883845911990
 21
-36.551099497778523
  0
LINE
  8
0
  6
DASHDOT
 62
256
 10
137.416140836738120
 20
-163.830320111355830
 11
109.408883845911990
 21
-163.830320111355830
  0
LINE
  8
0
  6
CONTINUOUS
 62
256
 10
77.206197909460386
 20
-169.940708850884220
 11
72.206197909460386
 21
-169.940708850884220
  0
LINE
  8
0
  6
CONTINUOUS
 62
256
 10
75.206197146520935
 20
-161.440710758232850
 11
72.206197909460386
 21
-161.440710758232850
  0
LINE
  8
0
  6
CONTINUOUS
 62
256
 10
72.206197909460386
 20
-169.940708850884220
 11
72.206197909460386
 21
-165.690709804558540
  0
POINT
  8
0
  6
CONTINUOUS
 62
256
 10
77.206197146520935
 20
-165.690709804558540
  0
LINE
  8
0
  6
CONTINUOUS
 62
256
 10
82.206197146520935
 20
-170.199437337026210
 11
76.075638958737883
 21
-170.145936766237900
  0
ARC
  8
0
  6
CONTINUOUS
 62
256
 10
77.706197146520935
 20
-169.660147392774890
 40
0.500000000000000
 50
180.000000000000000
 51
269.500000000008470
  0
LINE
  8
0
  6
CONTINUOUS
 62
256
 10
76.206197146520935
 20
-165.332588200428290
 11
76.806197146520844
 21
-165.332588200428290
  0
ARC
  8
0
  6
CONTINUOUS
 62
256
 10
76.806197146520844
 20
-165.732588200428840
 40
0.400000000000091
 50
0.000000000000000
 51
90.000000000000000
  0
ARC
  8
0
  6
CONTINUOUS
 62
256
 10
76.206197146520935
 20
-164.332588200428290
 40
1.000000000000000
 50
180.000000000000000
 51
270.000000000000000
  0
ARC
  8
0
  6
CONTINUOUS
 62
256
 10
124.206197146520940
 20
-107.190709804562180
 40
2.000000000000000
 50
90.000000000000000
 51
180.000000000000000
  0
ARC
  8
0
  6
CONTINUOUS
 62
256
 10
124.206197146520940
 20
-93.190709804562175
 40
2.000000000000000
 50
180.000000000000000
 51
270.000000000000000
  0
LINE
  8
0
  6
CONTINUOUS
 62
256
 10
129.206197146520710
 20
-105.190709804562180
 11
124.206197146520940
 21
-105.190709804562180
  0
LINE
  8
0
  6
CONTINUOUS
 62
256
 10
129.206197146520710
 20
-95.190709804562175
 11
124.206197146520940
 21
-95.190709804562175
  0
LINE
  8
0
  6
CONTINUOUS
 62
256
 10
161.706197146497290
 20
-102.690709804558520
 11
140.206197146497290
 21
-102.690709804558520
  0
LINE
  8
0
  6
CONTINUOUS
 62
256
 10
161.706197146497290
 20
-97.690709804558537
 11
140.206197146497290
 21
-97.690709804558537
  0
ARC
  8
0
  6
CONTINUOUS
 62
256
 10
140.206197146497290
 20
-100.190709804558520
 40
2.500000000000000
 50
90.000000000000000
 51
270.000000000000000
  0
LINE
  8
0
  6
CONTINUOUS
 62
256
 10
136.406197146497110
 20
-91.690702365896868
 11
136.709804618246380
 21
-91.994309837646142
  0
ARC
  8
0
  6
CONTINUOUS
 62
256
 10
137.106197146496920
 20
-91.940709804558537
 40
0.399999999999814
 50
187.700803502457570
 51
270.000000000000000
  0
LINE
  8
0
  6
CONTINUOUS
 62
256
 10
139.266004767632240
 20
-92.340709804558173
 11
139.825812388767640
 21
-92.190709804558537
  0
LINE
  8
0
  6
CONTINUOUS
 62
256
 10
139.266004767632240
 20
-92.340709804558173
 11
137.106197146496920
 21
-92.340709804558173
  0
ARC
  8
0
  6
CONTINUOUS
 62
256
 10
161.306197146497200
 20
-92.590709804558173
 40
0.400000000000091
 50
0.000000000000000
 51
90.000000000000000
  0
LINE
  8
0
  6
CONTINUOUS
 62
256
 10
133.706197146520940
 20
-91.690702365896868
 11
136.406197146497110
 21
-91.690702365896868
  0
LINE
  8
0
  6
CONTINUOUS
 62
256
 10
161.306197146497200
 20
-92.190709804558537
 11
139.825812388767640
 21
-92.190709804558537
  0
LINE
  8
0
  6
CONTINUOUS
 62
256
 10
136.706197146497290
 20
-100.190709804558520
 11
136.706197146497290
 21
-91.990702365897050
  0
LINE
  8
0
  6
CONTINUOUS
 62
256
 10
133.706197146520940
 20
-108.690717243220210
 11
136.406197146497110
 21
-108.690717243220210
  0
LINE
  8
0
  6
CONTINUOUS
 62
256
 10
136.406197146497110
 20
-108.690717243220210
 11
136.709804618246380
 21
-108.387109771470930
  0
ARC
  8
0
  6
CONTINUOUS
 62
256
 10
137.106197146496920
 20
-108.440709804558520
 40
0.399999999999636
 50
90.000000000000000
 51
172.299196497543190
  0
LINE
  8
0
  6
CONTINUOUS
 62
256
 10
139.266004767632240
 20
-108.040709804558900
 11
139.825812388767640
 21
-108.190709804558520
  0
LINE
  8
0
  6
CONTINUOUS
 62
256
 10
139.266004767632240
 20
-108.040709804558900
 11
137.106197146496920
 21
-108.040709804558900
  0
ARC
  8
0
  6
CONTINUOUS
 62
256
 10
161.306197146497200
 20
-107.790709804558900
 40
0.399999999999636
 50
270.000000000000000
 51
0.000000000000000
  0
LINE
  8
0
  6
CONTINUOUS
 62
256
 10
161.306197146497200
 20
-108.190709804558520
 11
139.825812388767640
 21
-108.190709804558520
  0
LINE
  8
0
  6
CONTINUOUS
 62
256
 10
136.706197146497290
 20
-100.190709804558520
 11
136.706197146497290
 21
-108.390717243220020
  0
LINE
  8
0
  6
CONTINUOUS
 62
256
 10
161.706197146497290
 20
-100.190709804558520
 11
161.706197146497290
 21
-107.790709804558900
  0
LINE
  8
0
  6
CONTINUOUS
 62
256
 10
161.706197146497290
 20
-100.190709804558520
 11
161.706197146497290
 21
-92.590709804558173
  0
LINE
  8
0
  6
CONTINUOUS
 62
256
 10
77.206197146520935
 20
-169.940708850884220
 11
77.206197146520935
 21
-165.732588200428840
  0
LINE
  8
0
  6
CONTINUOUS
 62
256
 10
72.206197909460386
 20
-168.648961457575890
 11
55.706197146508885
 21
-168.216893731705570
  0
ARC
  8
0
  6
CONTINUOUS
 62
256
 10
76.080002226487068
 20
-169.645955804705410
 40
0.500000000000166
 50
215.467192086431370
 51
269.500000000000510
  0
ARC
  8
0
  6
CONTINUOUS
 62
256
 10
72.706197146520935
 20
-89.690709804558537
 40
0.500000000000000
 50
90.000000000000000
 51
180.000000000000000
  0
ARC
  8
0
  6
CONTINUOUS
 62
256
 10
74.706197146520935
 20
-88.690709804558537
 40
0.500000000000000
 50
270.000000000000000
 51
0.000000000000000
  0
ARC
  8
0
  6
CONTINUOUS
 62
256
 10
74.706197146520935
 20
-99.690709804558537
 40
0.500000000000000
 50
0.000000000000000
 51
90.000000000000000
  0
ARC
  8
0
  6
CONTINUOUS
 62
256
 10
72.706197146520935
 20
-98.690709804558537
 40
0.500000000000000
 50
180.000000000000000
 51
270.000000000000000
  0
LINE
  8
0
  6
CONTINUOUS
 62
256
 10
72.206197146520935
 20
-89.690709804558537
 11
72.206197146520935
 21
-94.190709804558537
  0
LINE
  8
0
  6
CONTINUOUS
 62
256
 10
72.706197146520935
 20
-89.190709804558537
 11
74.706197146520935
 21
-89.190709804558537
  0
LINE
  8
0
  6
CONTINUOUS
 62
256
 10
72.206197146520935
 20
-98.690709804558537
 11
72.206197146520935
 21
-94.190709804558537
  0
LINE
  8
0
  6
CONTINUOUS
 62
256
 10
72.706197146520935
 20
-99.190709804558537
 11
74.706197146520935
 21
-99.190709804558537
  0
ARC
  8
0
  6
CONTINUOUS
 62
256
 10
76.206197146520935
 20
-99.940709804558537
 40
1.000000000000000
 50
180.000000000000000
 51
270.000000000000000
  0
ARC
  8
0
  6
CONTINUOUS
 62
256
 10
76.806197146520844
 20
-101.340709804559080
 40
0.400000000000091
 50
0.000000000000000
 51
90.000000000000000
  0
LINE
  8
0
  6
CONTINUOUS
 62
256
 10
76.206197146520935
 20
-100.940709804558520
 11
76.806197146520844
 21
-100.940709804558520
  0
ARC
  8
0
  6
CONTINUOUS
 62
256
 10
76.206197146520935
 20
-112.440709804558520
 40
1.000000000000000
 50
90.000000000000000
 51
180.000000000000000
  0
ARC
  8
0
  6
CONTINUOUS
 62
256
 10
76.806197146520844
 20
-111.040709804558900
 40
0.399999999999636
 50
270.000000000000000
 51
0.000000000000000
  0
LINE
  8
0
  6
CONTINUOUS
 62
256
 10
76.206197146520935
 20
-111.440709804558520
 11
76.806197146520844
 21
-111.440709804558520
  0
LINE
  8
0
  6
CONTINUOUS
 62
256
 10
77.206197146520935
 20
-101.340709804559080
 11
77.206197146520935
 21
-111.040709804558900
  0
LINE
  8
0
  6
CONTINUOUS
 62
256
 10
75.206197146520935
 20
-110.440335084784220
 11
75.206197146520935
 21
-164.332588200428290
  0
ARC
  8
0
  6
CONTINUOUS
 62
256
 10
75.706197146520935
 20
-58.812597656977232
 40
0.499999999999321
 50
90.999999999977078
 51
180.000000000000000
  0
ARC
  8
0
  6
CONTINUOUS
 62
256
 10
74.206197146520935
 20
-61.192834502253390
 40
0.999999999999819
 50
311.593253995591400
 51
0.000000000000000
  0
LINE
  8
0
  6
CONTINUOUS
 62
256
 10
75.697470943302505
 20
-58.312673809399712
 11
82.206197146520935
 21
-58.199063570922590
  0
LINE
  8
0
  6
CONTINUOUS
 62
256
 10
72.206197909460386
 20
-62.245549117904289
 11
55.706197146509112
 21
-62.677616843773649
  0
LINE
  8
0
  6
CONTINUOUS
 62
256
 10
75.206197146520935
 20
-58.812597656977232
 11
75.206197146520935
 21
-61.940710758232854
  0
LINE
  8
0
  6
CONTINUOUS
 62
256
 10
57.153932914875440
 20
-64.193448856874056
 11
72.206197909460386
 21
-63.404593075328307
  0
LINE
  8
0
  6
CONTINUOUS
 62
256
 10
75.206197146520935
 20
-64.584091519527647
 11
75.206197146520935
 21
-99.690709804558537
  0
ARC
  8
0
  6
CONTINUOUS
 62
256
 10
76.206197146520935
 20
-64.584091519527647
 40
1.000000000000000
 50
90.000000000000000
 51
180.000000000000000
  0
ARC
  8
0
  6
CONTINUOUS
 62
256
 10
76.806197146520844
 20
-63.184091519528010
 40
0.399999999999636
 50
270.000000000000000
 51
0.000000000000000
  0
LINE
  8
0
  6
CONTINUOUS
 62
256
 10
76.206197146520935
 20
-63.584091519527647
 11
76.806197146520844
 21
-63.584091519527647
  0
LINE
  8
0
  6
CONTINUOUS
 62
256
 10
82.206197146520935
 20
-58.199063570922590
 11
82.206197146520935
 21
-170.199437337026210
  0
LINE
  8
0
  6
CONTINUOUS
 62
256
 10
77.206197146520935
 20
-58.777687527121088
 11
77.206197146520935
 21
-63.184091519528010
  0
ARC
  8
0
  6
CONTINUOUS
 62
256
 10
77.706197146520935
 20
-58.777687527121088
 40
0.499999999999321
 50
90.999999999977078
 51
180.000000000000000
  0
LINE
  8
0
  6
CONTINUOUS
 62
256
 10
72.206197909460386
 20
-70.440708850884221
 11
72.206197909460386
 21
-61.940710758232854
  0
LINE
  8
0
  6
CONTINUOUS
 62
256
 10
77.206197909460386
 20
-61.940710758232854
 11
72.206197909460386
 21
-61.940710758232854
  0
LINE
  8
0
  6
CONTINUOUS
 62
256
 10
75.206197146520935
 20
-70.440708850884221
 11
72.206197909460386
 21
-70.440708850884221
  0
LINE
  8
0
  6
CONTINUOUS
 62
256
 10
117.206197146520940
 20
-33.199437337023483
 11
117.206197146520940
 21
-28.573359522169994
  0
LINE
  8
0
  6
DASHDOT
 62
256
 10
177.608323291387480
 20
-100.190709804558520
 11
77.353852195677973
 21
-100.190709804558520
  0
LINE
  8
0
  6
CONTINUOUS
 62
256
 10
82.706197146520935
 20
-168.190709804558540
 11
115.241101959395560
 21
-168.758608680500400
  0
LINE
  8
0
  6
CONTINUOUS
 62
256
 10
82.706197146520935
 20
-58.190709804558537
 11
115.241101959395560
 21
-57.622810928616673
  0
LINE
  8
0
  6
CONTINUOUS
 62
256
 10
82.706197146520935
 20
-170.199437337026210
 11
115.399436019588830
 21
-170.770099944269530
  0
LINE
  8
0
  6
CONTINUOUS
 62
256
 10
129.206197146520940
 20
-27.690709804559447
 11
121.708938546716580
 21
-27.481294218096082
  0
LINE
  8
0
  6
CONTINUOUS
 62
256
 10
118.180020198213010
 20
-27.573702197194507
 11
121.693108672367070
 21
-27.481708737944246
  0
LINE
  8
0
  6
CONTINUOUS
 62
256
 10
116.804273357874290
 20
-33.895589759729774
 11
103.830469701276340
 21
-56.366876860380216
  0
LINE
  8
0
  6
CONTINUOUS
 62
256
 10
129.206197146520940
 20
-172.703802765342520
 11
121.708938546716580
 21
-172.900125391020990
  0
LINE
  8
0
  6
CONTINUOUS
 62
256
 10
117.206197146520940
 20
-170.758304070813210
 11
117.206197146520940
 21
-171.808060086947080
  0
ARC
  8
0
  6
CONTINUOUS
 62
256
 10
101.232393489922970
 20
-54.866876860380216
 40
2.999999999999587
 50
271.000000000001930
 51
330.000000000000630
  0
ARC
  8
0
  6
CONTINUOUS
 62
256
 10
114.206197146520940
 20
-32.395589759729774
 40
3.000000000000049
 50
330.000000000000570
 51
0.000000000000000
  0
ARC
  8
0
  6
CONTINUOUS
 62
256
 10
115.364531206714450
 20
-172.769795334582340
 40
2.000000000000208
 50
18.697908624297707
 51
89.000000000004846
  0
ARC
  8
0
  6
CONTINUOUS
 62
256
 10
115.206197146520940
 20
-55.623115538303864
 40
2.000000000000027
 50
271.000000000001760
 51
0.000000000000000
  0
ARC
  8
0
  6
CONTINUOUS
 62
256
 10
115.206197146520940
 20
-170.758304070813210
 40
2.000000000000000
 50
0.000000000000000
 51
88.999999999998224
  0
ARC
  8
0
  6
CONTINUOUS
 62
256
 10
118.206197146520940
 20
-28.573359522169994
 40
0.999999999999931
 50
91.500000000002828
 51
180.000000000000000
  0
ARC
  8
0
  6
CONTINUOUS
 62
256
 10
118.206197146520940
 20
-171.808060086947080
 40
1.000000000000000
 50
180.000000000000000
 51
268.499999999997210
  0
LINE
  8
0
  6
CONTINUOUS
 62
256
 10
132.206197146520940
 20
-35.973376804559628
 11
131.443756710826160
 21
-35.190709804558537
  0
LINE
  8
0
  6
CONTINUOUS
 62
256
 10
132.206197146520940
 20
-164.355929804557430
 11
131.392990473811840
 21
-165.190709804558540
  0
LINE
  8
0
  6
CONTINUOUS
 62
256
 10
117.206197146520940
 20
-100.190709804558520
 11
117.206197146520940
 21
-33.199437337023483
  0
LINE
  8
0
  6
CONTINUOUS
 62
256
 10
117.206197146520940
 20
-100.190709804558520
 11
117.206197146520940
 21
-171.690709804557630
  0
LINE
  8
0
  6
CONTINUOUS
 62
256
 10
124.153843249905090
 20
-155.587846513217300
 11
129.206197146520940
 21
-155.720147056093990
  0
ARC
  8
0
  6
CONTINUOUS
 62
256
 10
124.206197146520940
 20
-153.588531863266330
 40
2.000000000000000
 50
180.000000000000000
 51
268.499999999997270
  0
LINE
  8
0
  6
CONTINUOUS
 62
256
 10
124.153843249905320
 20
-138.888673191462660
 11
129.206197146520940
 21
-139.034066695124240
  0
ARC
  8
0
  6
CONTINUOUS
 62
256
 10
124.206197146520940
 20
-136.889358541511680
 40
2.000000000000000
 50
180.000000000000000
 51
268.499999999997270
  0
LINE
  8
0
  6
CONTINUOUS
 62
256
 10
122.206197146520940
 20
-46.493751511979212
 11
122.206197146520940
 21
-93.190709804562175
  0
LINE
  8
0
  6
CONTINUOUS
 62
256
 10
118.180020198213010
 20
-172.807717411922570
 11
121.693108672367070
 21
-172.899710871172830
  0
LINE
  8
0
  6
CONTINUOUS
 62
256
 10
124.153843249905090
 20
-44.793573095899774
 11
129.206197146520940
 21
-44.661272553023082
  0
ARC
  8
0
  6
CONTINUOUS
 62
256
 10
124.206197146520940
 20
-46.792887745850749
 40
1.999999999999863
 50
91.500000000002828
 51
180.000000000000000
  0
LINE
  8
0
  6
CONTINUOUS
 62
256
 10
124.153843249905320
 20
-61.492746417654416
 11
129.206197146520940
 21
-61.347352913992836
  0
ARC
  8
0
  6
CONTINUOUS
 62
256
 10
124.206197146520940
 20
-63.492061067605391
 40
1.999999999999863
 50
91.500000000002828
 51
180.000000000000000
  0
ARC
  8
0
  6
CONTINUOUS
 62
256
 10
131.706197146520940
 20
-72.370953697932237
 40
2.000000000000000
 50
0.000000000000000
 51
37.568592028830572
  0
LINE
  8
0
  6
CONTINUOUS
 62
256
 10
133.291445124730220
 20
-71.151532176232649
 11
132.206197146520940
 21
-69.740709804560538
  0
ARC
  8
0
  6
CONTINUOUS
 62
256
 10
131.706197146520940
 20
-128.010465911193020
 40
1.999999999999633
 50
322.431407971189970
 51
0.000000000000000
  0
LINE
  8
0
  6
CONTINUOUS
 62
256
 10
133.291445124730220
 20
-129.229887432891700
 11
132.206197146520940
 21
-130.640709804563810
  0
LINE
  8
0
  6
CONTINUOUS
 62
256
 10
133.706197146520940
 20
-72.370953697932237
 11
133.706197146520940
 21
-100.190709804558520
  0
LINE
  8
0
  6
CONTINUOUS
 62
256
 10
133.706197146520940
 20
-128.010465911193020
 11
133.706197146520940
 21
-100.190709804558520
  0
LINE
  8
0
  6
CONTINUOUS
 62
256
 10
129.206197146520940
 20
-100.190709804558520
 11
129.206197146520940
 21
-172.703802765342520
  0
LINE
  8
0
  6
CONTINUOUS
 62
256
 10
132.206197146520940
 20
-100.190709804558520
 11
132.206197146520940
 21
-164.355929804557430
  0
LINE
  8
0
  6
CONTINUOUS
 62
256
 10
132.206197146520940
 20
-100.190709804558520
 11
132.206197146520940
 21
-35.973376804559628
  0
LINE
  8
0
  6
CONTINUOUS
 62
256
 10
129.206197146520710
 20
-100.190709804558520
 11
129.206197146520940
 21
-27.690709804559447
  0
LINE
  8
0
  6
CONTINUOUS
 62
256
 10
82.706197146520935
 20
-170.199437337026210
 11
82.706197146520935
 21
-100.190709804558520
  0
LINE
  8
0
  6
CONTINUOUS
 62
256
 10
82.706197146520935
 20
-58.199437337023483
 11
82.706197146520935
 21
-100.190709804558520
  0
LINE
  8
0
  6
CONTINUOUS
 62
256
 10
72.206197909460386
 20
-167.690709804558540
 11
56.706197146509112
 21
-167.690709804558540
  0
LINE
  8
0
  6
CONTINUOUS
 62
256
 10
56.706197146509112
 20
-64.690709804558537
 11
56.706197146509112
 21
-168.243079653275340
  0
ARC
  8
0
  6
CONTINUOUS
 62
256
 10
57.206197146509112
 20
-64.690709804558537
 40
0.500000000000000
 50
90.000000000000000
 51
180.000000000000000
  0
LINE
  8
0
  6
CONTINUOUS
 62
256
 10
221.417010745189600
 20
-84.190709804559162
 11
209.050345972247900
 21
-84.190709804559162
  0
ARC
  8
0
  6
CONTINUOUS
 62
256
 10
209.050345972247900
 20
-89.190709804559162
 40
5.000000000000000
 50
90.000000000000000
 51
173.967950853629670
  0
ARC
  8
0
  6
CONTINUOUS
 62
256
 10
502.417010745190280
 20
-120.190709804559110
 40
300.000000000000060
 50
173.967950853630190
 51
186.032049146369810
  0
LINE
  8
0
  6
CONTINUOUS
 62
256
 10
221.417010745189600
 20
-156.190709804559110
 11
209.050345972247900
 21
-156.190709804559110
  0
ARC
  8
0
  6
CONTINUOUS
 62
256
 10
209.050345972247900
 20
-151.190709804559050
 40
5.000000000000143
 50
186.032049146370330
 51
270.000000000000000
  0
ARC
  8
0
  6
CONTINUOUS
 62
256
 10
-142.298647802605050
 20
-148.590709804558860
 40
20.599999999999795
 50
235.000000000000260
 51
270.000000000000000
  0
ARC
  8
0
  6
CONTINUOUS
 62
256
 10
-160.193802853512350
 20
-158.034329938188190
 40
2.599999999999909
 50
180.000000000000000
 51
234.999999999994740
  0
LINE
  8
0
  6
CONTINUOUS
 62
256
 10
-162.793802853512260
 20
-158.034329938188190
 11
-162.793802853512260
 21
-115.190709804558520
  0
LINE
  8
0
  6
CONTINUOUS
 62
256
 10
-154.114322391436420
 20
-165.465241916911960
 11
-161.685101588025190
 21
-160.164125253339310
  0
ARC
  8
0
  6
CONTINUOUS
 62
256
 10
-71.793802853512261
 20
-150.190709804558540
 40
3.000000000000000
 50
180.000000000000000
 51
270.000000000000000
  0
LINE
  8
0
  6
CONTINUOUS
 62
256
 10
-67.793802853512261
 20
-153.190709804558540
 11
-71.793802853512261
 21
-153.190709804558540
  0
ARC
  8
0
  6
CONTINUOUS
 62
256
 10
-67.793802853512261
 20
-156.190709804558540
 40
3.000000000000000
 50
0.000000000000000
 51
90.000000000000000
  0
LINE
  8
0
  6
CONTINUOUS
 62
256
 10
-72.593802853490388
 20
-150.190709804558540
 11
-72.593802853491070
 21
-115.190709804558310
  0
ARC
  8
0
  6
CONTINUOUS
 62
256
 10
-71.593802853490615
 20
-150.190709804558540
 40
0.999999999999773
 50
180.000000000000000
 51
270.000000000000000
  0
LINE
  8
0
  6
CONTINUOUS
 62
256
 10
17.406197146509612
 20
-150.190709804558540
 11
17.406197146508930
 21
-115.190709804556950
  0
LINE
  8
0
  6
CONTINUOUS
 62
256
 10
16.406197146509385
 20
-151.190709804558540
 11
-71.593802853490615
 21
-151.190709804558540
  0
ARC
  8
0
  6
CONTINUOUS
 62
256
 10
16.406197146509385
 20
-150.190709804558540
 40
1.000000000000000
 50
270.000000000000000
 51
0.000000000000000
  0
LINE
  8
0
  6
CONTINUOUS
 62
256
 10
17.406197146509385
 20
-148.494310756067310
 11
55.706197146508885
 21
-148.494310756067310
  0
LINE
  8
0
  6
CONTINUOUS
 62
256
 10
17.406197146509385
 20
-146.905100963328550
 11
55.706197146508885
 21
-146.905100963328550
  0
LINE
  8
0
  6
CONTINUOUS
 62
256
 10
17.406197146509385
 20
-135.190709804558540
 11
55.706197146508885
 21
-135.190709804558540
  0
LINE
  8
0
  6
CONTINUOUS
 62
256
 10
17.406197146509385
 20
-138.028949484554690
 11
55.706197146508885
 21
-138.028949484554690
  0
LINE
  8
0
  6
CONTINUOUS
 62
256
 10
17.406197146509385
 20
-139.375351210053170
 11
55.706197146508885
 21
-139.375351210053170
  0
LINE
  8
0
  6
CONTINUOUS
 62
256
 10
17.406197146509385
 20
-142.468082201718520
 11
55.706197146508885
 21
-142.468082201718520
  0
LINE
  8
0
  6
CONTINUOUS
 62
256
 10
17.406197146509385
 20
-143.947105355195620
 11
55.706197146508885
 21
-143.947105355195620
  0
LINE
  8
0
  6
CONTINUOUS
 62
256
 10
-74.793802853512261
 20
-135.190709804558540
 11
-72.593802853490615
 21
-135.190709804558540
  0
LINE
  8
0
  6
CONTINUOUS
 62
256
 10
-74.793802853512261
 20
-138.028949484554690
 11
-72.593802853490615
 21
-138.028949484554690
  0
LINE
  8
0
  6
CONTINUOUS
 62
256
 10
-74.793802853512261
 20
-139.375351210053170
 11
-72.593802853490615
 21
-139.375351210053170
  0
LINE
  8
0
  6
CONTINUOUS
 62
256
 10
-74.793802853512261
 20
-142.468082201718520
 11
-72.593802853490615
 21
-142.468082201718520
  0
LINE
  8
0
  6
CONTINUOUS
 62
256
 10
-74.793802853512261
 20
-143.947105355195620
 11
-72.593802853490615
 21
-143.947105355195620
  0
LINE
  8
0
  6
CONTINUOUS
 62
256
 10
-74.793802853512261
 20
-146.905100963328550
 11
-72.593802853490615
 21
-146.905100963328550
  0
LINE
  8
0
  6
CONTINUOUS
 62
256
 10
-74.793802853512261
 20
-148.494310756067310
 11
-72.593802853490615
 21
-148.494310756067310
  0
LINE
  8
0
  6
CONTINUOUS
 62
256
 10
-64.951403199883543
 20
-155.231145211082780
 11
55.706197146508885
 21
-155.231145211082780
  0
LINE
  8
0
  6
CONTINUOUS
 62
256
 10
-64.793802853512261
 20
-156.232623574898070
 11
55.706197146508885
 21
-156.232623574898070
  0
LINE
  8
0
  6
CONTINUOUS
 62
256
 10
-64.793802853512261
 20
-159.695365331663420
 11
55.706197146508643
 21
-159.695365331663420
  0
LINE
  8
0
  6
CONTINUOUS
 62
256
 10
-64.793802853512261
 20
-161.323792399441340
 11
55.706197146508636
 21
-161.323792399441340
  0
LINE
  8
0
  6
CONTINUOUS
 62
256
 10
-64.793802853512261
 20
-166.190709804558760
 11
55.706197146508615
 21
-166.190709804558760
  0
LINE
  8
0
  6
CONTINUOUS
 62
256
 10
-64.793802853512261
 20
-165.690709804558540
 11
55.706197146508615
 21
-165.690709804558540
  0
LINE
  8
0
  6
CONTINUOUS
 62
256
 10
55.706197146508607
 20
-167.690709804558540
 11
-64.793802853512261
 21
-167.690709804558540
  0
LINE
  8
0
  6
CONTINUOUS
 62
256
 10
-74.793802853512261
 20
-115.190709804558520
 11
-74.793802853512261
 21
-150.190709804558540
  0
ARC
  8
0
  6
CONTINUOUS
 62
256
 10
-142.298647802605050
 20
-81.790709804558219
 40
20.599999999999909
 50
90.000000000000000
 51
124.999999999999790
  0
ARC
  8
0
  6
CONTINUOUS
 62
256
 10
-160.193802853512350
 20
-72.347089670928881
 40
2.600000000000037
 50
125.000000000002630
 51
180.000000000000000
  0
LINE
  8
0
  6
CONTINUOUS
 62
256
 10
-162.793802853512260
 20
-72.347089670928881
 11
-162.793802853512260
 21
-115.190709804558520
  0
LINE
  8
0
  6
CONTINUOUS
 62
256
 10
-154.114322391436420
 20
-64.916177692204883
 11
-161.685101588025190
 21
-70.217294355777767
  0
ARC
  8
0
  6
CONTINUOUS
 62
256
 10
-71.793802853512261
 20
-80.190709804558537
 40
3.000000000000000
 50
90.000000000000000
 51
180.000000000000000
  0
LINE
  8
0
  6
CONTINUOUS
 62
256
 10
-67.793802853512261
 20
-77.190709804558537
 11
-71.793802853512261
 21
-77.190709804558537
  0
ARC
  8
0
  6
CONTINUOUS
 62
256
 10
-67.793802853512261
 20
-74.190709804558537
 40
3.000000000000000
 50
270.000000000000000
 51
0.000000000000000
  0
LINE
  8
0
  6
CONTINUOUS
 62
256
 10
-72.593802853490388
 20
-80.190709804558537
 11
-72.593802853491070
 21
-115.190709804558760
  0
ARC
  8
0
  6
CONTINUOUS
 62
256
 10
-71.593802853490615
 20
-80.190709804558537
 40
1.000000000000000
 50
90.000000000000000
 51
180.000000000000000
  0
LINE
  8
0
  6
CONTINUOUS
 62
256
 10
17.406197146509612
 20
-80.190709804558537
 11
17.406197146508930
 21
-115.190709804560110
  0
LINE
  8
0
  6
CONTINUOUS
 62
256
 10
16.406197146509385
 20
-79.190709804558537
 11
-71.593802853490615
 21
-79.190709804558537
  0
ARC
  8
0
  6
CONTINUOUS
 62
256
 10
16.406197146509385
 20
-80.190709804558537
 40
1.000000000000227
 50
0.000000000000000
 51
90.000000000000000
  0
LINE
  8
0
  6
CONTINUOUS
 62
256
 10
17.406197146509385
 20
-81.887108853049767
 11
55.706197146508885
 21
-81.887108853049767
  0
LINE
  8
0
  6
CONTINUOUS
 62
256
 10
17.406197146509385
 20
-83.476318645788524
 11
55.706197146508885
 21
-83.476318645788524
  0
LINE
  8
0
  6
CONTINUOUS
 62
256
 10
17.406197146509385
 20
-95.190709804558537
 11
55.706197146508885
 21
-95.190709804558537
  0
LINE
  8
0
  6
CONTINUOUS
 62
256
 10
17.406197146509385
 20
-92.352470124562387
 11
55.706197146508885
 21
-92.352470124562387
  0
LINE
  8
0
  6
CONTINUOUS
 62
256
 10
17.406197146509385
 20
-91.006068399063906
 11
55.706197146508885
 21
-91.006068399063906
  0
LINE
  8
0
  6
CONTINUOUS
 62
256
 10
17.406197146509385
 20
-87.913337407398558
 11
55.706197146508885
 21
-87.913337407398558
  0
LINE
  8
0
  6
CONTINUOUS
 62
256
 10
17.406197146509385
 20
-86.434314253921457
 11
55.706197146508885
 21
-86.434314253921457
  0
LINE
  8
0
  6
CONTINUOUS
 62
256
 10
-74.793802853512261
 20
-95.190709804558537
 11
-72.593802853490615
 21
-95.190709804558537
  0
LINE
  8
0
  6
CONTINUOUS
 62
256
 10
-74.793802853512261
 20
-92.352470124562387
 11
-72.593802853490615
 21
-92.352470124562387
  0
LINE
  8
0
  6
CONTINUOUS
 62
256
 10
-74.793802853512261
 20
-91.006068399063906
 11
-72.593802853490615
 21
-91.006068399063906
  0
LINE
  8
0
  6
CONTINUOUS
 62
256
 10
-74.793802853512261
 20
-87.913337407398558
 11
-72.593802853490615
 21
-87.913337407398558
  0
LINE
  8
0
  6
CONTINUOUS
 62
256
 10
-74.793802853512261
 20
-86.434314253921457
 11
-72.593802853490615
 21
-86.434314253921457
  0
LINE
  8
0
  6
CONTINUOUS
 62
256
 10
-74.793802853512261
 20
-83.476318645788524
 11
-72.593802853490615
 21
-83.476318645788524
  0
LINE
  8
0
  6
CONTINUOUS
 62
256
 10
-74.793802853512261
 20
-81.887108853049767
 11
-72.593802853490615
 21
-81.887108853049767
  0
LINE
  8
0
  6
CONTINUOUS
 62
256
 10
-64.951403199883543
 20
-75.150274398034071
 11
55.706197146508885
 21
-75.150274398034071
  0
LINE
  8
0
  6
CONTINUOUS
 62
256
 10
-64.793802853512261
 20
-74.148796034218776
 11
55.706197146508885
 21
-74.148796034218776
  0
LINE
  8
0
  6
CONTINUOUS
 62
256
 10
-64.793802853512261
 20
-70.686054277453650
 11
55.706197146508885
 21
-70.686054277453650
  0
LINE
  8
0
  6
CONTINUOUS
 62
256
 10
-64.793802853512261
 20
-69.057627209675729
 11
55.706197146508885
 21
-69.057627209675729
  0
LINE
  8
0
  6
CONTINUOUS
 62
256
 10
-64.793802853512261
 20
-64.190709804558310
 11
55.706197146508885
 21
-64.190709804558310
  0
LINE
  8
0
  6
CONTINUOUS
 62
256
 10
-64.793802853512261
 20
-64.690709804558537
 11
55.706197146508885
 21
-64.690709804558537
  0
LINE
  8
0
  6
CONTINUOUS
 62
256
 10
55.706197146508885
 20
-62.690709804558537
 11
-64.793802853512261
 21
-62.690709804558537
  0
LINE
  8
0
  6
CONTINUOUS
 62
256
 10
-74.793802853512261
 20
-115.190709804558520
 11
-74.793802853512261
 21
-80.190709804558537
  0
LINE
  8
0
  6
DASHDOT
 62
256
 10
93.159277439247944
 20
-115.190709804558520
 11
-179.768538768621970
 21
-115.190709804558520
  0
LINE
  8
0
  6
CONTINUOUS
 62
256
 10
-71.184112035616863
 20
-68.566335816411254
 11
-71.093802853512045
 21
-67.863378850210893
  0
LINE
  8
0
  6
CONTINUOUS
 62
256
 10
-71.451569050708997
 20
-69.242278540623346
 11
-71.184112035616863
 21
-68.566335816411254
  0
LINE
  8
0
  6
CONTINUOUS
 62
256
 10
-71.885895675690080
 20
-69.865230923028747
 11
-71.451569050708997
 21
-69.242278540623346
  0
LINE
  8
0
  6
CONTINUOUS
 62
256
 10
-72.470400981935271
 20
-70.411253252927324
 11
-71.885895675690080
 21
-69.865230923028747
  0
LINE
  8
0
  6
CONTINUOUS
 62
256
 10
-73.182622758319908
 20
-70.859362198393939
 11
-72.470400981935271
 21
-70.411253252927324
  0
LINE
  8
0
  6
CONTINUOUS
 62
256
 10
-73.995190721396114
 20
-71.192337183956710
 11
-73.182622758319908
 21
-70.859362198393939
  0
LINE
  8
0
  6
CONTINUOUS
 62
256
 10
-74.876878340036228
 20
-71.397382167654953
 11
-73.995190721396114
 21
-71.192337183956710
  0
LINE
  8
0
  6
CONTINUOUS
 62
256
 10
-75.793802853512034
 20
-71.466617385755725
 11
-74.876878340036228
 21
-71.397382167654953
  0
LINE
  8
0
  6
CONTINUOUS
 62
256
 10
-76.710727366987840
 20
-71.397382167654953
 11
-75.793802853512034
 21
-71.466617385755725
  0
LINE
  8
0
  6
CONTINUOUS
 62
256
 10
-77.592414985627954
 20
-71.192337183956710
 11
-76.710727366987840
 21
-71.397382167654953
  0
LINE
  8
0
  6
CONTINUOUS
 62
256
 10
-78.404982948704159
 20
-70.859362198393939
 11
-77.592414985627954
 21
-71.192337183956710
  0
LINE
  8
0
  6
CONTINUOUS
 62
256
 10
-79.117204725088797
 20
-70.411253252927324
 11
-78.404982948704159
 21
-70.859362198393939
  0
LINE
  8
0
  6
CONTINUOUS
 62
256
 10
-79.701710031333988
 20
-69.865230923028747
 11
-79.117204725088797
 21
-70.411253252927324
  0
LINE
  8
0
  6
CONTINUOUS
 62
256
 10
-80.136036656315071
 20
-69.242278540623346
 11
-79.701710031333988
 21
-69.865230923028747
  0
LINE
  8
0
  6
CONTINUOUS
 62
256
 10
-80.403493671407205
 20
-68.566335816411254
 11
-80.136036656315071
 21
-69.242278540623346
  0
LINE
  8
0
  6
CONTINUOUS
 62
256
 10
-80.493802853512022
 20
-67.863378850210893
 11
-80.403493671407205
 21
-68.566335816411254
  0
LINE
  8
0
  6
CONTINUOUS
 62
256
 10
-80.403493671407205
 20
-67.160421884010532
 11
-80.493802853512022
 21
-67.863378850210893
  0
LINE
  8
0
  6
CONTINUOUS
 62
256
 10
-80.136036656315071
 20
-66.484479159798440
 11
-80.403493671407205
 21
-67.160421884010532
  0
LINE
  8
0
  6
CONTINUOUS
 62
256
 10
-79.701710031333988
 20
-65.861526777393038
 11
-80.136036656315071
 21
-66.484479159798440
  0
LINE
  8
0
  6
CONTINUOUS
 62
256
 10
-79.117204725088797
 20
-65.315504447494462
 11
-79.701710031333988
 21
-65.861526777393038
  0
LINE
  8
0
  6
CONTINUOUS
 62
256
 10
-78.404982948704159
 20
-64.867395502027847
 11
-79.117204725088797
 21
-65.315504447494462
  0
LINE
  8
0
  6
CONTINUOUS
 62
256
 10
-77.592414985627954
 20
-64.534420516465076
 11
-78.404982948704159
 21
-64.867395502027847
  0
LINE
  8
0
  6
CONTINUOUS
 62
256
 10
-76.710727366987840
 20
-64.329375532766832
 11
-77.592414985627954
 21
-64.534420516465076
  0
LINE
  8
0
  6
CONTINUOUS
 62
256
 10
-75.793802853512034
 20
-64.260140314666060
 11
-76.710727366987840
 21
-64.329375532766832
  0
LINE
  8
0
  6
CONTINUOUS
 62
256
 10
-74.876878340036228
 20
-64.329375532766832
 11
-75.793802853512034
 21
-64.260140314666060
  0
LINE
  8
0
  6
CONTINUOUS
 62
256
 10
-73.995190721396114
 20
-64.534420516465076
 11
-74.876878340036228
 21
-64.329375532766832
  0
LINE
  8
0
  6
CONTINUOUS
 62
256
 10
-73.182622758319908
 20
-64.867395502027847
 11
-73.995190721396114
 21
-64.534420516465076
  0
LINE
  8
0
  6
CONTINUOUS
 62
256
 10
-72.470400981935271
 20
-65.315504447494462
 11
-73.182622758319908
 21
-64.867395502027847
  0
LINE
  8
0
  6
CONTINUOUS
 62
256
 10
-71.885895675690080
 20
-65.861526777393038
 11
-72.470400981935271
 21
-65.315504447494462
  0
LINE
  8
0
  6
CONTINUOUS
 62
256
 10
-71.451569050708997
 20
-66.484479159798440
 11
-71.885895675690080
 21
-65.861526777393038
  0
LINE
  8
0
  6
CONTINUOUS
 62
256
 10
-71.184112035616863
 20
-67.160421884010532
 11
-71.451569050708997
 21
-66.484479159798440
  0
LINE
  8
0
  6
CONTINUOUS
 62
256
 10
-71.093802853512045
 20
-67.863378850210893
 11
-71.184112035616863
 21
-67.160421884010532
  0
LINE
  8
0
  6
CONTINUOUS
 62
256
 10
-77.793802853512261
 20
-64.871003296210574
 11
-75.793802853512261
 21
-66.046788781833357
  0
LINE
  8
0
  6
CONTINUOUS
 62
256
 10
-75.793802853512261
 20
-66.046788781833357
 11
-73.793802853512261
 21
-67.699430420956787
  0
LINE
  8
0
  6
CONTINUOUS
 62
256
 10
-73.793802853512261
 20
-64.871003296210574
 11
-75.793802853512261
 21
-66.046788781833357
  0
LINE
  8
0
  6
CONTINUOUS
 62
256
 10
-75.793802853512261
 20
-66.046788781833357
 11
-77.793802853512261
 21
-67.699430420956787
  0
LINE
  8
0
  6
CONTINUOUS
 62
256
 10
-71.184112035616863
 20
-163.220997725106540
 11
-71.093802853512045
 21
-162.518040758906180
  0
LINE
  8
0
  6
CONTINUOUS
 62
256
 10
-71.451569050708997
 20
-163.896940449318630
 11
-71.184112035616863
 21
-163.220997725106540
  0
LINE
  8
0
  6
CONTINUOUS
 62
256
 10
-71.885895675690080
 20
-164.519892831724040
 11
-71.451569050708997
 21
-163.896940449318630
  0
LINE
  8
0
  6
CONTINUOUS
 62
256
 10
-72.470400981935271
 20
-165.065915161622630
 11
-71.885895675690080
 21
-164.519892831724040
  0
LINE
  8
0
  6
CONTINUOUS
 62
256
 10
-73.182622758319908
 20
-165.514024107089260
 11
-72.470400981935271
 21
-165.065915161622630
  0
LINE
  8
0
  6
CONTINUOUS
 62
256
 10
-73.995190721396114
 20
-165.846999092652000
 11
-73.182622758319908
 21
-165.514024107089260
  0
LINE
  8
0
  6
CONTINUOUS
 62
256
 10
-74.876878340036228
 20
-166.052044076350260
 11
-73.995190721396114
 21
-165.846999092652000
  0
LINE
  8
0
  6
CONTINUOUS
 62
256
 10
-75.793802853512034
 20
-166.121279294451030
 11
-74.876878340036228
 21
-166.052044076350260
  0
LINE
  8
0
  6
CONTINUOUS
 62
256
 10
-76.710727366987840
 20
-166.052044076350260
 11
-75.793802853512034
 21
-166.121279294451030
  0
LINE
  8
0
  6
CONTINUOUS
 62
256
 10
-77.592414985627954
 20
-165.846999092652000
 11
-76.710727366987840
 21
-166.052044076350260
  0
LINE
  8
0
  6
CONTINUOUS
 62
256
 10
-78.404982948704159
 20
-165.514024107089260
 11
-77.592414985627954
 21
-165.846999092652000
  0
LINE
  8
0
  6
CONTINUOUS
 62
256
 10
-79.117204725088797
 20
-165.065915161622630
 11
-78.404982948704159
 21
-165.514024107089260
  0
LINE
  8
0
  6
CONTINUOUS
 62
256
 10
-79.701710031333988
 20
-164.519892831724040
 11
-79.117204725088797
 21
-165.065915161622630
  0
LINE
  8
0
  6
CONTINUOUS
 62
256
 10
-80.136036656315071
 20
-163.896940449318630
 11
-79.701710031333988
 21
-164.519892831724040
  0
LINE
  8
0
  6
CONTINUOUS
 62
256
 10
-80.403493671407205
 20
-163.220997725106540
 11
-80.136036656315071
 21
-163.896940449318630
  0
LINE
  8
0
  6
CONTINUOUS
 62
256
 10
-80.493802853512022
 20
-162.518040758906180
 11
-80.403493671407205
 21
-163.220997725106540
  0
LINE
  8
0
  6
CONTINUOUS
 62
256
 10
-80.403493671407205
 20
-161.815083792705820
 11
-80.493802853512022
 21
-162.518040758906180
  0
LINE
  8
0
  6
CONTINUOUS
 62
256
 10
-80.136036656315071
 20
-161.139141068493730
 11
-80.403493671407205
 21
-161.815083792705820
  0
LINE
  8
0
  6
CONTINUOUS
 62
256
 10
-79.701710031333988
 20
-160.516188686088330
 11
-80.136036656315071
 21
-161.139141068493730
  0
LINE
  8
0
  6
CONTINUOUS
 62
256
 10
-79.117204725088797
 20
-159.970166356189740
 11
-79.701710031333988
 21
-160.516188686088330
  0
LINE
  8
0
  6
CONTINUOUS
 62
256
 10
-78.404982948704159
 20
-159.522057410723110
 11
-79.117204725088797
 21
-159.970166356189740
  0
LINE
  8
0
  6
CONTINUOUS
 62
256
 10
-77.592414985627954
 20
-159.189082425160360
 11
-78.404982948704159
 21
-159.522057410723110
  0
LINE
  8
0
  6
CONTINUOUS
 62
256
 10
-76.710727366987840
 20
-158.984037441462110
 11
-77.592414985627954
 21
-159.189082425160360
  0
LINE
  8
0
  6
CONTINUOUS
 62
256
 10
-75.793802853512034
 20
-158.914802223361330
 11
-76.710727366987840
 21
-158.984037441462110
  0
LINE
  8
0
  6
CONTINUOUS
 62
256
 10
-74.876878340036228
 20
-158.984037441462110
 11
-75.793802853512034
 21
-158.914802223361330
  0
LINE
  8
0
  6
CONTINUOUS
 62
256
 10
-73.995190721396114
 20
-159.189082425160360
 11
-74.876878340036228
 21
-158.984037441462110
  0
LINE
  8
0
  6
CONTINUOUS
 62
256
 10
-73.182622758319908
 20
-159.522057410723110
 11
-73.995190721396114
 21
-159.189082425160360
  0
LINE
  8
0
  6
CONTINUOUS
 62
256
 10
-72.470400981935271
 20
-159.970166356189740
 11
-73.182622758319908
 21
-159.522057410723110
  0
LINE
  8
0
  6
CONTINUOUS
 62
256
 10
-71.885895675690080
 20
-160.516188686088330
 11
-72.470400981935271
 21
-159.970166356189740
  0
LINE
  8
0
  6
CONTINUOUS
 62
256
 10
-71.451569050708997
 20
-161.139141068493730
 11
-71.885895675690080
 21
-160.516188686088330
  0
LINE
  8
0
  6
CONTINUOUS
 62
256
 10
-71.184112035616863
 20
-161.815083792705820
 11
-71.451569050708997
 21
-161.139141068493730
  0
LINE
  8
0
  6
CONTINUOUS
 62
256
 10
-71.093802853512045
 20
-162.518040758906180
 11
-71.184112035616863
 21
-161.815083792705820
  0
LINE
  8
0
  6
CONTINUOUS
 62
256
 10
-77.793802853512261
 20
-165.510416312906500
 11
-75.793802853512261
 21
-164.334630827283720
  0
LINE
  8
0
  6
CONTINUOUS
 62
256
 10
-75.793802853512261
 20
-164.334630827283720
 11
-73.793802853512261
 21
-162.681989188160290
  0
LINE
  8
0
  6
CONTINUOUS
 62
256
 10
-73.793802853512261
 20
-165.510416312906500
 11
-75.793802853512261
 21
-164.334630827283720
  0
LINE
  8
0
  6
CONTINUOUS
 62
256
 10
-75.793802853512261
 20
-164.334630827283720
 11
-77.793802853512261
 21
-162.681989188160290
  0
LINE
  8
0
  6
CONTINUOUS
 62
256
 10
-64.793802853512261
 20
-61.190709804558310
 11
-142.298647802605050
 21
-61.190709804558310
  0
LINE
  8
0
  6
CONTINUOUS
 62
256
 10
-64.793802853512261
 20
-61.190709804558310
 11
-64.793802853512261
 21
-74.190709804558537
  0
LINE
  8
0
  6
CONTINUOUS
 62
256
 10
-64.793802853512261
 20
-169.190709804558760
 11
-64.793802853512261
 21
-156.190709804558540
  0
LINE
  8
0
  6
CONTINUOUS
 62
256
 10
-64.793802853512261
 20
-169.190709804558760
 11
-142.298647802605050
 21
-169.190709804558760
  0
CIRCLE
  8
0
  6
DASHED
 62
256
 10
-60.593802853479019
 20
36.332797955722526
 40
6.000000000000000
  0
ARC
  8
0
  6
DASHED
 62
256
 10
-60.593802853479019
 20
36.332797955722526
 40
7.000000000000000
 50
180.000000000000000
 51
0.000000000000000
  0
LINE
  8
0
  6
DASHED
 62
256
 10
-53.593802853479019
 20
56.332797955722526
 11
-53.593802853479019
 21
36.332797955722526
  0
LINE
  8
0
  6
DASHED
 62
256
 10
-67.593802853479019
 20
56.332797955722526
 11
-67.593802853479019
 21
36.332797955722526
  0
LINE
  8
0
  6
DASHDOT
 62
256
 10
-60.593802853479019
 20
27.332797955722526
 11
-60.593802853479019
 21
54.334397278272263
  0
LINE
  8
0
  6
DASHDOT
 62
256
 10
-51.593802853479019
 20
36.332797955722526
 11
-69.593802853479019
 21
36.332797955722526
  0
LINE
  8
0
  6
DASHDOT
 62
256
 10
173.249782441906060
 20
113.832797955722530
 11
-185.406272556621160
 21
113.832797955722530
  0
ARC
  8
0
  6
CONTINUOUS
 62
256
 10
-142.298647802593000
 20
75.432797955722549
 40
20.599999999999891
 50
235.000000000000400
 51
270.000000000000000
  0
ARC
  8
0
  6
CONTINUOUS
 62
256
 10
-160.193802853500300
 20
65.989177822093211
 40
2.599999999999909
 50
180.000000000000000
 51
234.999999999998520
  0
LINE
  8
0
  6
CONTINUOUS
 62
256
 10
-154.114322391424370
 20
58.558265843369327
 11
-161.685101588013140
 21
63.859382506941870
  0
LINE
  8
0
  6
CONTINUOUS
 62
256
 10
-162.793802853500210
 20
65.989177822093211
 11
-162.793802853500210
 21
113.832797955722530
  0
LINE
  8
0
  6
CONTINUOUS
 62
256
 10
-64.793802853500210
 20
72.790884185382765
 11
55.706197146520935
 21
72.790884185382765
  0
LINE
  8
0
  6
CONTINUOUS
 62
256
 10
-64.793802853500210
 20
67.699715360839832
 11
55.706197146520935
 21
67.699715360839832
  0
LINE
  8
0
  6
CONTINUOUS
 62
256
 10
-64.793802853500210
 20
63.332797955722526
 11
55.706197146520935
 21
63.332797955722526
  0
LINE
  8
0
  6
CONTINUOUS
 62
256
 10
-64.793802853500210
 20
62.832797955722526
 11
55.706197146520935
 21
62.832797955722526
  0
LINE
  8
0
  6
CONTINUOUS
 62
256
 10
55.706197146520935
 20
60.332797955722526
 11
17.406197146520981
 21
60.332797955722526
  0
LINE
  8
0
  6
CONTINUOUS
 62
256
 10
17.406197146520981
 20
61.332797955722526
 11
17.406197146520981
 21
23.332797955722526
  0
ARC
  8
0
  6
CONTINUOUS
 62
256
 10
16.406197146520981
 20
23.332797955722526
 40
1.000000000000000
 50
270.000000000000000
 51
0.000000000000000
  0
LINE
  8
0
  6
CONTINUOUS
 62
256
 10
-71.593802853479019
 20
22.332797955722526
 11
16.406197146520981
 21
22.332797955722526
  0
ARC
  8
0
  6
CONTINUOUS
 62
256
 10
-71.593802853479019
 20
23.332797955722526
 40
1.000000000000000
 50
180.000000000000000
 51
270.000000000000000
  0
LINE
  8
0
  6
CONTINUOUS
 62
256
 10
-65.593802853479019
 20
21.832797955722526
 11
-57.593802853479019
 21
21.832797955722526
  0
LINE
  8
0
  6
CONTINUOUS
 62
256
 10
2.406197146520981
 20
21.832797955722526
 11
10.406197146520981
 21
21.832797955722526
  0
LINE
  8
0
  6
CONTINUOUS
 62
256
 10
2.406197146520981
 20
22.332797955722526
 11
2.406197146520981
 21
21.832797955722526
  0
LINE
  8
0
  6
CONTINUOUS
 62
256
 10
10.406197146520981
 20
22.332797955722526
 11
10.406197146520981
 21
21.832797955722526
  0
LINE
  8
0
  6
CONTINUOUS
 62
256
 10
-57.593802853479019
 20
22.332797955722526
 11
-57.593802853479019
 21
21.832797955722526
  0
LINE
  8
0
  6
CONTINUOUS
 62
256
 10
-65.593802853479019
 20
22.332797955722526
 11
-65.593802853479019
 21
21.832797955722526
  0
LINE
  8
0
  6
CONTINUOUS
 62
256
 10
17.406197146520981
 20
61.332797955722526
 11
-64.793802853500210
 21
61.332797955722526
  0
LINE
  8
0
  6
CONTINUOUS
 62
256
 10
-71.184112035604812
 20
65.802510035174635
 11
-71.093802853499994
 21
66.505467001374996
  0
LINE
  8
0
  6
CONTINUOUS
 62
256
 10
-71.451569050696946
 20
65.126567310962542
 11
-71.184112035604812
 21
65.802510035174635
  0
LINE
  8
0
  6
CONTINUOUS
 62
256
 10
-71.885895675678029
 20
64.503614928557141
 11
-71.451569050696946
 21
65.126567310962542
  0
LINE
  8
0
  6
CONTINUOUS
 62
256
 10
-72.470400981923220
 20
63.957592598658564
 11
-71.885895675678029
 21
64.503614928557141
  0
LINE
  8
0
  6
CONTINUOUS
 62
256
 10
-73.182622758307858
 20
63.509483653191943
 11
-72.470400981923220
 21
63.957592598658564
  0
LINE
  8
0
  6
CONTINUOUS
 62
256
 10
-73.995190721384063
 20
63.176508667629186
 11
-73.182622758307858
 21
63.509483653191943
  0
LINE
  8
0
  6
CONTINUOUS
 62
256
 10
-74.876878340024177
 20
62.971463683930935
 11
-73.995190721384063
 21
63.176508667629186
  0
LINE
  8
0
  6
CONTINUOUS
 62
256
 10
-75.793802853499983
 20
62.902228465830163
 11
-74.876878340024177
 21
62.971463683930935
  0
LINE
  8
0
  6
CONTINUOUS
 62
256
 10
-76.710727366975789
 20
62.971463683930935
 11
-75.793802853499983
 21
62.902228465830163
  0
LINE
  8
0
  6
CONTINUOUS
 62
256
 10
-77.592414985615903
 20
63.176508667629186
 11
-76.710727366975789
 21
62.971463683930935
  0
LINE
  8
0
  6
CONTINUOUS
 62
256
 10
-78.404982948692108
 20
63.509483653191943
 11
-77.592414985615903
 21
63.176508667629186
  0
LINE
  8
0
  6
CONTINUOUS
 62
256
 10
-79.117204725076746
 20
63.957592598658564
 11
-78.404982948692108
 21
63.509483653191943
  0
LINE
  8
0
  6
CONTINUOUS
 62
256
 10
-79.701710031321937
 20
64.503614928557141
 11
-79.117204725076746
 21
63.957592598658564
  0
LINE
  8
0
  6
CONTINUOUS
 62
256
 10
-80.136036656303020
 20
65.126567310962542
 11
-79.701710031321937
 21
64.503614928557141
  0
LINE
  8
0
  6
CONTINUOUS
 62
256
 10
-80.403493671395154
 20
65.802510035174635
 11
-80.136036656303020
 21
65.126567310962542
  0
LINE
  8
0
  6
CONTINUOUS
 62
256
 10
-80.493802853499972
 20
66.505467001374996
 11
-80.403493671395154
 21
65.802510035174635
  0
LINE
  8
0
  6
CONTINUOUS
 62
256
 10
-80.403493671395154
 20
67.208423967575357
 11
-80.493802853499972
 21
66.505467001374996
  0
LINE
  8
0
  6
CONTINUOUS
 62
256
 10
-80.136036656303020
 20
67.884366691787449
 11
-80.403493671395154
 21
67.208423967575357
  0
LINE
  8
0
  6
CONTINUOUS
 62
256
 10
-79.701710031321937
 20
68.507319074192850
 11
-80.136036656303020
 21
67.884366691787449
  0
LINE
  8
0
  6
CONTINUOUS
 62
256
 10
-79.117204725076746
 20
69.053341404091427
 11
-79.701710031321937
 21
68.507319074192850
  0
LINE
  8
0
  6
CONTINUOUS
 62
256
 10
-78.404982948692108
 20
69.501450349558041
 11
-79.117204725076746
 21
69.053341404091427
  0
LINE
  8
0
  6
CONTINUOUS
 62
256
 10
-77.592414985615903
 20
69.834425335120812
 11
-78.404982948692108
 21
69.501450349558041
  0
LINE
  8
0
  6
CONTINUOUS
 62
256
 10
-76.710727366975789
 20
70.039470318819056
 11
-77.592414985615903
 21
69.834425335120812
  0
LINE
  8
0
  6
CONTINUOUS
 62
256
 10
-75.793802853499983
 20
70.108705536919828
 11
-76.710727366975789
 21
70.039470318819056
  0
LINE
  8
0
  6
CONTINUOUS
 62
256
 10
-74.876878340024177
 20
70.039470318819056
 11
-75.793802853499983
 21
70.108705536919828
  0
LINE
  8
0
  6
CONTINUOUS
 62
256
 10
-73.995190721384063
 20
69.834425335120812
 11
-74.876878340024177
 21
70.039470318819056
  0
LINE
  8
0
  6
CONTINUOUS
 62
256
 10
-73.182622758307858
 20
69.501450349558041
 11
-73.995190721384063
 21
69.834425335120812
  0
LINE
  8
0
  6
CONTINUOUS
 62
256
 10
-72.470400981923220
 20
69.053341404091427
 11
-73.182622758307858
 21
69.501450349558041
  0
LINE
  8
0
  6
CONTINUOUS
 62
256
 10
-71.885895675678029
 20
68.507319074192850
 11
-72.470400981923220
 21
69.053341404091427
  0
LINE
  8
0
  6
CONTINUOUS
 62
256
 10
-71.451569050696946
 20
67.884366691787449
 11
-71.885895675678029
 21
68.507319074192850
  0
LINE
  8
0
  6
CONTINUOUS
 62
256
 10
-71.184112035604812
 20
67.208423967575357
 11
-71.451569050696946
 21
67.884366691787449
  0
LINE
  8
0
  6
CONTINUOUS
 62
256
 10
-71.093802853499994
 20
66.505467001374996
 11
-71.184112035604812
 21
67.208423967575357
  0
LINE
  8
0
  6
CONTINUOUS
 62
256
 10
-77.793802853500210
 20
63.513091447374563
 11
-75.793802853500210
 21
64.688876932997459
  0
LINE
  8
0
  6
CONTINUOUS
 62
256
 10
-75.793802853500210
 20
64.688876932997459
 11
-73.793802853500210
 21
66.341518572120776
  0
LINE
  8
0
  6
CONTINUOUS
 62
256
 10
-73.793802853500210
 20
63.513091447374563
 11
-75.793802853500210
 21
64.688876932997459
  0
LINE
  8
0
  6
CONTINUOUS
 62
256
 10
-75.793802853500210
 20
64.688876932997459
 11
-77.793802853500210
 21
66.341518572120776
  0
LINE
  8
0
  6
CONTINUOUS
 62
256
 10
-64.793802853500210
 20
62.493101594913469
 11
-64.793802853499983
 21
113.832797955722530
  0
ARC
  8
0
  6
CONTINUOUS
 62
256
 10
-67.793802853500210
 20
62.493101594913583
 40
3.000000000000000
 50
270.000000000000000
 51
359.999999999997780
  0
LINE
  8
0
  6
CONTINUOUS
 62
256
 10
-71.793802853500210
 20
59.493101594913583
 11
-67.793802853500210
 21
59.493101594913583
  0
ARC
  8
0
  6
CONTINUOUS
 62
256
 10
-71.793802853500210
 20
56.493101594913583
 40
3.000000000000000
 50
90.000000000000000
 51
180.000000000000000
  0
LINE
  8
0
  6
CONTINUOUS
 62
256
 10
-74.793802853500210
 20
54.832797955722526
 11
-142.298647802593000
 21
54.832797955722526
  0
LINE
  8
0
  6
CONTINUOUS
 62
256
 10
-74.793802853500210
 20
54.832797955722526
 11
-74.793802853500210
 21
56.493101594913583
  0
LINE
  8
0
  6
CONTINUOUS
 62
256
 10
-72.593802853479019
 20
59.384468053879573
 11
-72.593802853479019
 21
23.332797955722526
  0
LINE
  8
0
  6
CONTINUOUS
 62
256
 10
-72.593802853479019
 20
56.332797955722526
 11
17.406197146520981
 21
56.332797955722526
  0
LINE
  8
0
  6
CONTINUOUS
 62
256
 10
-71.184112035604812
 20
160.457171943869700
 11
-71.093802853499994
 21
161.160128910070060
  0
LINE
  8
0
  6
CONTINUOUS
 62
256
 10
-71.451569050696946
 20
159.781229219657600
 11
-71.184112035604812
 21
160.457171943869700
  0
LINE
  8
0
  6
CONTINUOUS
 62
256
 10
-71.885895675678029
 20
159.158276837252200
 11
-71.451569050696946
 21
159.781229219657600
  0
LINE
  8
0
  6
CONTINUOUS
 62
256
 10
-72.470400981923220
 20
158.612254507353610
 11
-71.885895675678029
 21
159.158276837252200
  0
LINE
  8
0
  6
CONTINUOUS
 62
256
 10
-73.182622758307858
 20
158.164145561886980
 11
-72.470400981923220
 21
158.612254507353610
  0
LINE
  8
0
  6
CONTINUOUS
 62
256
 10
-73.995190721384063
 20
157.831170576324240
 11
-73.182622758307858
 21
158.164145561886980
  0
LINE
  8
0
  6
CONTINUOUS
 62
256
 10
-74.876878340024177
 20
157.626125592625980
 11
-73.995190721384063
 21
157.831170576324240
  0
LINE
  8
0
  6
CONTINUOUS
 62
256
 10
-75.793802853499983
 20
157.556890374525210
 11
-74.876878340024177
 21
157.626125592625980
  0
LINE
  8
0
  6
CONTINUOUS
 62
256
 10
-76.710727366975789
 20
157.626125592625980
 11
-75.793802853499983
 21
157.556890374525210
  0
LINE
  8
0
  6
CONTINUOUS
 62
256
 10
-77.592414985615903
 20
157.831170576324240
 11
-76.710727366975789
 21
157.626125592625980
  0
LINE
  8
0
  6
CONTINUOUS
 62
256
 10
-78.404982948692108
 20
158.164145561886980
 11
-77.592414985615903
 21
157.831170576324240
  0
LINE
  8
0
  6
CONTINUOUS
 62
256
 10
-79.117204725076746
 20
158.612254507353610
 11
-78.404982948692108
 21
158.164145561886980
  0
LINE
  8
0
  6
CONTINUOUS
 62
256
 10
-79.701710031321937
 20
159.158276837252200
 11
-79.117204725076746
 21
158.612254507353610
  0
LINE
  8
0
  6
CONTINUOUS
 62
256
 10
-80.136036656303020
 20
159.781229219657600
 11
-79.701710031321937
 21
159.158276837252200
  0
LINE
  8
0
  6
CONTINUOUS
 62
256
 10
-80.403493671395154
 20
160.457171943869700
 11
-80.136036656303020
 21
159.781229219657600
  0
LINE
  8
0
  6
CONTINUOUS
 62
256
 10
-80.493802853499972
 20
161.160128910070060
 11
-80.403493671395154
 21
160.457171943869700
  0
LINE
  8
0
  6
CONTINUOUS
 62
256
 10
-80.403493671395154
 20
161.863085876270420
 11
-80.493802853499972
 21
161.160128910070060
  0
LINE
  8
0
  6
CONTINUOUS
 62
256
 10
-80.136036656303020
 20
162.539028600482510
 11
-80.403493671395154
 21
161.863085876270420
  0
LINE
  8
0
  6
CONTINUOUS
 62
256
 10
-79.701710031321937
 20
163.161980982887910
 11
-80.136036656303020
 21
162.539028600482510
  0
LINE
  8
0
  6
CONTINUOUS
 62
256
 10
-79.117204725076746
 20
163.708003312786500
 11
-79.701710031321937
 21
163.161980982887910
  0
LINE
  8
0
  6
CONTINUOUS
 62
256
 10
-78.404982948692108
 20
164.156112258253130
 11
-79.117204725076746
 21
163.708003312786500
  0
LINE
  8
0
  6
CONTINUOUS
 62
256
 10
-77.592414985615903
 20
164.489087243815870
 11
-78.404982948692108
 21
164.156112258253130
  0
LINE
  8
0
  6
CONTINUOUS
 62
256
 10
-76.710727366975789
 20
164.694132227514130
 11
-77.592414985615903
 21
164.489087243815870
  0
LINE
  8
0
  6
CONTINUOUS
 62
256
 10
-75.793802853499983
 20
164.763367445614900
 11
-76.710727366975789
 21
164.694132227514130
  0
LINE
  8
0
  6
CONTINUOUS
 62
256
 10
-74.876878340024177
 20
164.694132227514130
 11
-75.793802853499983
 21
164.763367445614900
  0
LINE
  8
0
  6
CONTINUOUS
 62
256
 10
-73.995190721384063
 20
164.489087243815870
 11
-74.876878340024177
 21
164.694132227514130
  0
LINE
  8
0
  6
CONTINUOUS
 62
256
 10
-73.182622758307858
 20
164.156112258253130
 11
-73.995190721384063
 21
164.489087243815870
  0
LINE
  8
0
  6
CONTINUOUS
 62
256
 10
-72.470400981923220
 20
163.708003312786500
 11
-73.182622758307858
 21
164.156112258253130
  0
LINE
  8
0
  6
CONTINUOUS
 62
256
 10
-71.885895675678029
 20
163.161980982887910
 11
-72.470400981923220
 21
163.708003312786500
  0
LINE
  8
0
  6
CONTINUOUS
 62
256
 10
-71.451569050696946
 20
162.539028600482510
 11
-71.885895675678029
 21
163.161980982887910
  0
LINE
  8
0
  6
CONTINUOUS
 62
256
 10
-71.184112035604812
 20
161.863085876270420
 11
-71.451569050696946
 21
162.539028600482510
  0
LINE
  8
0
  6
CONTINUOUS
 62
256
 10
-71.093802853499994
 20
161.160128910070060
 11
-71.184112035604812
 21
161.863085876270420
  0
LINE
  8
0
  6
CONTINUOUS
 62
256
 10
-77.793802853500210
 20
164.152504464070490
 11
-75.793802853500210
 21
162.976718978447710
  0
LINE
  8
0
  6
CONTINUOUS
 62
256
 10
-75.793802853500210
 20
162.976718978447710
 11
-73.793802853500210
 21
161.324077339324280
  0
LINE
  8
0
  6
CONTINUOUS
 62
256
 10
-73.793802853500210
 20
164.152504464070490
 11
-75.793802853500210
 21
162.976718978447710
  0
LINE
  8
0
  6
CONTINUOUS
 62
256
 10
-75.793802853500210
 20
162.976718978447710
 11
-77.793802853500210
 21
161.324077339324280
  0
LINE
  8
0
  6
CONTINUOUS
 62
256
 10
-64.793802853500210
 20
172.832797955722530
 11
-64.793802853499983
 21
113.832797955722530
  0
ARC
  8
0
  6
CONTINUOUS
 62
256
 10
-142.298647802593000
 20
152.232797955722500
 40
20.600000000000023
 50
90.000000000000000
 51
124.999999999999630
  0
ARC
  8
0
  6
CONTINUOUS
 62
256
 10
-160.193802853500300
 20
161.676418089351840
 40
2.600000000000131
 50
125.000000000001180
 51
180.000000000000000
  0
LINE
  8
0
  6
CONTINUOUS
 62
256
 10
-162.793802853500210
 20
161.676418089351840
 11
-162.793802853500210
 21
113.832797955722530
  0
LINE
  8
0
  6
CONTINUOUS
 62
256
 10
-154.114322391424370
 20
169.107330068075730
 11
-161.685101588013140
 21
163.806213404503180
  0
LINE
  8
0
  6
CONTINUOUS
 62
256
 10
-64.793802853500210
 20
172.832797955722530
 11
-142.298647802593000
 21
172.832797955722530
  0
LINE
  8
0
  6
CONTINUOUS
 62
256
 10
55.706197146520935
 20
60.332797955722526
 11
55.706197146520935
 21
113.832797955722530
  0
LINE
  8
0
  6
CONTINUOUS
 62
256
 10
-64.793802853500210
 20
99.832797955722526
 11
55.706197146520935
 21
99.832797955722526
  0
LINE
  8
0
  6
CONTINUOUS
 62
256
 10
-64.793802853499983
 20
95.446683163972580
 11
55.706197146520935
 21
95.446683163972580
  0
LINE
  8
0
  6
CONTINUOUS
 62
256
 10
-64.793802853499983
 20
94.204763299084675
 11
55.706197146520935
 21
94.204763299084675
  0
LINE
  8
0
  6
CONTINUOUS
 62
256
 10
-64.793802853499983
 20
90.994558275726376
 11
55.706197146520935
 21
90.994558275726376
  0
LINE
  8
0
  6
CONTINUOUS
 62
256
 10
-64.793802853500210
 20
89.648156550227782
 11
55.706197146520935
 21
89.648156550227782
  0
LINE
  8
0
  6
CONTINUOUS
 62
256
 10
-64.793802853500210
 20
86.555425558562547
 11
55.706197146520935
 21
86.555425558562547
  0
LINE
  8
0
  6
CONTINUOUS
 62
256
 10
-64.793802853500210
 20
85.076402405085446
 11
55.706197146520935
 21
85.076402405085446
  0
LINE
  8
0
  6
CONTINUOUS
 62
256
 10
-64.793802853500210
 20
82.118406796952513
 11
55.706197146520935
 21
82.118406796952513
  0
LINE
  8
0
  6
CONTINUOUS
 62
256
 10
-64.793802853500210
 20
80.529197004213756
 11
55.706197146520935
 21
80.529197004213756
  0
LINE
  8
0
  6
CONTINUOUS
 62
256
 10
55.706197146520935
 20
167.332797955722530
 11
55.706197146520935
 21
113.832797955722530
  0
LINE
  8
0
  6
CONTINUOUS
 62
256
 10
-64.793802853500210
 20
164.832797955722530
 11
55.706197146520935
 21
164.832797955722530
  0
LINE
  8
0
  6
CONTINUOUS
 62
256
 10
-64.793802853500210
 20
164.332797955722530
 11
55.706197146520935
 21
164.332797955722530
  0
LINE
  8
0
  6
CONTINUOUS
 62
256
 10
-64.793802853500210
 20
159.965880550605220
 11
55.706197146520935
 21
159.965880550605220
  0
LINE
  8
0
  6
CONTINUOUS
 62
256
 10
-64.793802853500210
 20
154.874711726062290
 11
55.706197146520935
 21
154.874711726062260
  0
LINE
  8
0
  6
CONTINUOUS
 62
256
 10
-64.793802853500210
 20
147.136398907231300
 11
55.706197146520935
 21
147.136398907231300
  0
LINE
  8
0
  6
CONTINUOUS
 62
256
 10
-64.793802853500210
 20
145.547189114492540
 11
55.706197146520935
 21
145.547189114492540
  0
LINE
  8
0
  6
CONTINUOUS
 62
256
 10
-64.793802853500210
 20
142.589193506359610
 11
55.706197146520935
 21
142.589193506359610
  0
LINE
  8
0
  6
CONTINUOUS
 62
256
 10
-64.793802853500210
 20
141.110170352882510
 11
55.706197146520935
 21
141.110170352882510
  0
LINE
  8
0
  6
CONTINUOUS
 62
256
 10
-64.793802853500210
 20
138.017439361217270
 11
55.706197146520935
 21
138.017439361217270
  0
LINE
  8
0
  6
CONTINUOUS
 62
256
 10
-64.793802853500210
 20
136.671037635718680
 11
55.706197146520935
 21
136.671037635718680
  0
LINE
  8
0
  6
CONTINUOUS
 62
256
 10
-64.793802853500210
 20
132.218912747472470
 11
55.706197146520935
 21
132.218912747472470
  0
LINE
  8
0
  6
CONTINUOUS
 62
256
 10
-64.793802853500210
 20
133.460832612360380
 11
55.706197146520935
 21
133.460832612360380
  0
LINE
  8
0
  6
CONTINUOUS
 62
256
 10
-64.793802853500210
 20
127.832797955722530
 11
55.706197146520935
 21
127.832797955722530
  0
LINE
  8
0
  6
CONTINUOUS
 62
256
 10
55.706197146520935
 20
167.332797955722530
 11
-64.793802853500210
 21
167.332797955722530
  0
LINE
  8
0
  6
CONTINUOUS
 62
256
 10
75.206197146520935
 20
150.082797002048210
 11
75.206197146520935
 21
176.332797955722530
  0
LINE
  8
0
  6
CONTINUOUS
 62
256
 10
76.206197146520935
 20
151.082797955722530
 11
76.806197146521299
 21
151.082797955722530
  0
LINE
  8
0
  6
CONTINUOUS
 62
256
 10
77.206197146520935
 20
150.682797955722890
 11
77.206197146520935
 21
140.982797955723070
  0
ARC
  8
0
  6
CONTINUOUS
 62
256
 10
76.806197146521299
 20
150.682797955722890
 40
0.399999999999636
 50
0.000000000000000
 51
90.000000000000000
  0
ARC
  8
0
  6
CONTINUOUS
 62
256
 10
76.206197146520935
 20
152.082797955722530
 40
1.000000000000000
 50
180.000000000000000
 51
270.000000000000000
  0
LINE
  8
0
  6
CONTINUOUS
 62
256
 10
76.206197146520935
 20
140.582797955722530
 11
76.806197146521299
 21
140.582797955722530
  0
ARC
  8
0
  6
CONTINUOUS
 62
256
 10
76.806197146521299
 20
140.982797955723070
 40
0.400000000000546
 50
270.000000000000000
 51
0.000000000000000
  0
ARC
  8
0
  6
CONTINUOUS
 62
256
 10
76.206197146520935
 20
139.582797955722530
 40
1.000000000000000
 50
90.000000000000000
 51
180.000000000000000
  0
ARC
  8
0
  6
CONTINUOUS
 62
256
 10
74.206197146520935
 20
163.832797955722530
 40
1.000000000000000
 50
270.000000000000000
 51
0.000000000000000
  0
ARC
  8
0
  6
CONTINUOUS
 62
256
 10
75.706197146520935
 20
176.332797955722530
 40
0.500000000000000
 50
90.000000000000000
 51
180.000000000000000
  0
ARC
  8
0
  6
CONTINUOUS
 62
256
 10
64.706197146520935
 20
170.832797955722530
 40
7.999999999999964
 50
207.975174367152760
 51
270.000000000000000
  0
ARC
  8
0
  6
CONTINUOUS
 62
256
 10
57.199414268299734
 20
166.845541904344830
 40
0.500000000000217
 50
27.975174367227915
 51
91.499999999989853
  0
ARC
  8
0
  6
CONTINUOUS
 62
256
 10
57.206197146520935
 20
166.845719520261810
 40
0.500000000000872
 50
91.499999999987068
 51
180.000000000000000
  0
ARC
  8
0
  6
CONTINUOUS
 62
256
 10
56.206197146520935
 20
166.859155273537000
 40
0.499999999999054
 50
271.499999999992550
 51
0.000000000000000
  0
LINE
  8
0
  6
CONTINUOUS
 62
256
 10
82.206197146520935
 20
176.832797955722530
 11
82.206197146520935
 21
113.832797955722530
  0
LINE
  8
0
  6
CONTINUOUS
 62
256
 10
75.206197146520935
 20
113.832797955722530
 11
75.206197146520935
 21
141.582798909396840
  0
LINE
  8
0
  6
CONTINUOUS
 62
256
 10
74.206197146520935
 20
162.832797955722530
 11
64.706197146520935
 21
162.832797955722530
  0
LINE
  8
0
  6
CONTINUOUS
 62
256
 10
82.206197146520935
 20
176.832797955722530
 11
75.706197146520935
 21
176.832797955722530
  0
LINE
  8
0
  6
CONTINUOUS
 62
256
 10
55.706197146520935
 20
113.832797955722530
 11
55.706197146520935
 21
166.332797955722530
  0
LINE
  8
0
  6
CONTINUOUS
 62
256
 10
56.219285620674782
 20
166.359326611050160
 11
55.706197146520935
 21
166.332797955722530
  0
LINE
  8
0
  6
CONTINUOUS
 62
256
 10
56.706197146520935
 20
166.845719520261810
 11
56.706197146520935
 21
113.832797955722530
  0
LINE
  8
0
  6
CONTINUOUS
 62
256
 10
72.206197146520935
 20
173.332797955722530
 11
72.206197146520935
 21
164.832797955722530
  0
ARC
  8
0
  6
CONTINUOUS
 62
256
 10
70.206197146520935
 20
164.832797955722530
 40
2.000000000000000
 50
270.000000000000000
 51
0.000000000000000
  0
LINE
  8
0
  6
CONTINUOUS
 62
256
 10
74.706197146520935
 20
173.832797955722530
 11
72.706197146520935
 21
173.832797955722530
  0
ARC
  8
0
  6
CONTINUOUS
 62
256
 10
72.706197146520935
 20
173.332797955722530
 40
0.500000000000000
 50
90.000000000000000
 51
180.000000000000000
  0
ARC
  8
0
  6
CONTINUOUS
 62
256
 10
74.706197146520935
 20
174.332797955722530
 40
0.500000000000000
 50
270.000000000000000
 51
0.000000000000000
  0
LINE
  8
0
  6
CONTINUOUS
 62
256
 10
72.206197909460386
 20
167.582782930636310
 11
72.206197909460386
 21
176.082781023287680
  0
LINE
  8
0
  6
CONTINUOUS
 62
256
 10
75.206197146520935
 20
176.082781023287680
 11
72.206197909460386
 21
176.082781023287680
  0
LINE
  8
0
  6
CONTINUOUS
 62
256
 10
75.206197146520935
 20
77.582798909396843
 11
75.206197146520935
 21
51.332797955722526
  0
LINE
  8
0
  6
CONTINUOUS
 62
256
 10
76.206197146520935
 20
76.582797955722526
 11
76.806197146521299
 21
76.582797955722526
  0
LINE
  8
0
  6
CONTINUOUS
 62
256
 10
77.206197146520935
 20
76.982797955723072
 11
77.206197146520935
 21
86.682797955722890
  0
ARC
  8
0
  6
CONTINUOUS
 62
256
 10
76.806197146521299
 20
76.982797955723072
 40
0.400000000000546
 50
270.000000000000000
 51
0.000000000000000
  0
ARC
  8
0
  6
CONTINUOUS
 62
256
 10
76.206197146520935
 20
75.582797955722526
 40
1.000000000000000
 50
90.000000000000000
 51
180.000000000000000
  0
LINE
  8
0
  6
CONTINUOUS
 62
256
 10
76.206197146520935
 20
87.082797955722526
 11
76.806197146521299
 21
87.082797955722526
  0
ARC
  8
0
  6
CONTINUOUS
 62
256
 10
76.806197146521299
 20
86.682797955722890
 40
0.399999999999636
 50
0.000000000000000
 51
90.000000000000000
  0
ARC
  8
0
  6
CONTINUOUS
 62
256
 10
76.206197146520935
 20
88.082797955722526
 40
1.000000000000000
 50
180.000000000000000
 51
270.000000000000000
  0
ARC
  8
0
  6
CONTINUOUS
 62
256
 10
74.206197146520935
 20
63.832797955722526
 40
1.000000000000000
 50
0.000000000000000
 51
90.000000000000000
  0
ARC
  8
0
  6
CONTINUOUS
 62
256
 10
75.706197146520935
 20
51.332797955722526
 40
0.500000000000000
 50
180.000000000000000
 51
270.000000000000000
  0
ARC
  8
0
  6
CONTINUOUS
 62
256
 10
64.706197146520935
 20
56.832797955722526
 40
8.000000000000000
 50
90.000000000000000
 51
152.024825632841500
  0
ARC
  8
0
  6
CONTINUOUS
 62
256
 10
57.199414268299734
 20
60.820054007101135
 40
0.499999999999963
 50
268.500000000010170
 51
332.024825632772090
  0
ARC
  8
0
  6
CONTINUOUS
 62
256
 10
57.206197146520935
 20
60.819876391183243
 40
0.500000000000000
 50
180.000000000000000
 51
268.500000000010350
  0
ARC
  8
0
  6
CONTINUOUS
 62
256
 10
56.206197146520935
 20
60.806440637908054
 40
0.500000000000000
 50
0.000000000000000
 51
88.500000000010303
  0
LINE
  8
0
  6
CONTINUOUS
 62
256
 10
82.206197146520935
 20
50.832797955722526
 11
82.206197146520935
 21
113.832797955722530
  0
LINE
  8
0
  6
CONTINUOUS
 62
256
 10
75.206197146520935
 20
113.832797955722530
 11
75.206197146520935
 21
86.082797002048210
  0
LINE
  8
0
  6
CONTINUOUS
 62
256
 10
74.206197146520935
 20
64.832797955722526
 11
64.706197146520935
 21
64.832797955722526
  0
LINE
  8
0
  6
CONTINUOUS
 62
256
 10
82.206197146520935
 20
50.832797955722526
 11
75.706197146520935
 21
50.832797955722526
  0
LINE
  8
0
  6
CONTINUOUS
 62
256
 10
55.706197146520935
 20
113.832797955723440
 11
55.706197146520935
 21
61.332797955722526
  0
LINE
  8
0
  6
CONTINUOUS
 62
256
 10
56.219285620674782
 20
61.306269300395797
 11
55.706197146520935
 21
61.332797955722526
  0
LINE
  8
0
  6
CONTINUOUS
 62
256
 10
56.706197146520935
 20
60.819876391183243
 11
56.706197146520935
 21
113.832797955722530
  0
LINE
  8
0
  6
CONTINUOUS
 62
256
 10
72.206197146520935
 20
54.332797955722526
 11
72.206197146520935
 21
62.832797955722526
  0
ARC
  8
0
  6
CONTINUOUS
 62
256
 10
70.206197146520935
 20
62.832797955722526
 40
2.000000000000000
 50
0.000000000000000
 51
90.000000000000000
  0
LINE
  8
0
  6
CONTINUOUS
 62
256
 10
74.706197146520935
 20
53.832797955722526
 11
72.706197146520935
 21
53.832797955722526
  0
ARC
  8
0
  6
CONTINUOUS
 62
256
 10
72.706197146520935
 20
54.332797955722526
 40
0.500000000000000
 50
180.000000000000000
 51
270.000000000000000
  0
ARC
  8
0
  6
CONTINUOUS
 62
256
 10
74.706197146520935
 20
53.332797955722526
 40
0.500000000000000
 50
0.000000000000000
 51
90.000000000000000
  0
LINE
  8
0
  6
CONTINUOUS
 62
256
 10
72.206197909460386
 20
60.082812980809649
 11
72.206197909460386
 21
51.582814888158282
  0
LINE
  8
0
  6
CONTINUOUS
 62
256
 10
75.206197146520935
 20
51.582814888158282
 11
72.206197909460386
 21
51.582814888158282
  0
LINE
  8
0
  6
DASHDOT
 62
256
 10
137.416140836738120
 20
177.472408262502540
 11
109.408883845911990
 21
177.472408262502540
  0
LINE
  8
0
  6
DASHDOT
 62
256
 10
137.416140836738120
 20
50.193187648925232
 11
109.408883845911990
 21
50.193187648925232
  0
ARC
  8
0
  6
CONTINUOUS
 62
256
 10
161.306197146497200
 20
121.432797955722890
 40
0.400000000000091
 50
0.000000000000000
 51
90.000000000000000
  0
LINE
  8
0
  6
CONTINUOUS
 62
256
 10
137.706197146497290
 20
105.982797955722160
 11
137.706197146497290
 21
103.832797955722340
  0
LINE
  8
0
  6
CONTINUOUS
 62
256
 10
139.266004767632240
 20
105.982797955722160
 11
139.825812388767640
 21
105.832797955722530
  0
LINE
  8
0
  6
CONTINUOUS
 62
256
 10
139.266004767632240
 20
105.982797955722160
 11
137.106197146496920
 21
105.982797955722160
  0
LINE
  8
0
  6
CONTINUOUS
 62
256
 10
136.406197146497110
 20
122.332805394384200
 11
136.709804618246380
 21
122.029197922634010
  0
ARC
  8
0
  6
CONTINUOUS
 62
256
 10
137.106197146496920
 20
122.082797955722530
 40
0.399999999999936
 50
187.700803502586670
 51
270.000000000000000
  0
LINE
  8
0
  6
CONTINUOUS
 62
256
 10
136.706197146497290
 20
113.832797955722530
 11
136.706197146497290
 21
122.032805394384010
  0
LINE
  8
0
  6
CONTINUOUS
 62
256
 10
133.706197146520940
 20
122.332805394384200
 11
136.406197146497110
 21
122.332805394384200
  0
LINE
  8
0
  6
CONTINUOUS
 62
256
 10
133.706197146520940
 20
105.332790517060840
 11
136.406197146497110
 21
105.332790517060840
  0
LINE
  8
0
  6
CONTINUOUS
 62
256
 10
136.406197146497110
 20
105.332790517060840
 11
136.709804618246380
 21
105.636397988811040
  0
ARC
  8
0
  6
CONTINUOUS
 62
256
 10
137.106197146496920
 20
105.582797955722530
 40
0.399999999999636
 50
90.000000000000000
 51
172.299196497413900
  0
LINE
  8
0
  6
CONTINUOUS
 62
256
 10
139.266004767632240
 20
121.682797955722890
 11
139.825812388767640
 21
121.832797955722530
  0
LINE
  8
0
  6
CONTINUOUS
 62
256
 10
139.266004767632240
 20
121.682797955722890
 11
137.106197146496920
 21
121.682797955722890
  0
LINE
  8
0
  6
CONTINUOUS
 62
256
 10
136.706197146497290
 20
113.832797955722530
 11
136.706197146497290
 21
105.632790517061030
  0
LINE
  8
0
  6
CONTINUOUS
 62
256
 10
161.706197146497290
 20
113.832797955722530
 11
161.706197146497290
 21
121.432797955722890
  0
LINE
  8
0
  6
CONTINUOUS
 62
256
 10
161.306197146497200
 20
121.832797955722530
 11
139.825812388767640
 21
121.832797955722530
  0
LINE
  8
0
  6
CONTINUOUS
 62
256
 10
161.706197146497290
 20
103.832797955722340
 11
137.706197146497290
 21
103.832797955722340
  0
LINE
  8
0
  6
CONTINUOUS
 62
256
 10
161.706197146497290
 20
103.832797955722340
 11
161.706197146497290
 21
106.232797955722160
  0
ARC
  8
0
  6
CONTINUOUS
 62
256
 10
161.306197146497200
 20
106.232797955722160
 40
0.399999999999636
 50
270.000000000000000
 51
0.000000000000000
  0
LINE
  8
0
  6
CONTINUOUS
 62
256
 10
161.306197146497200
 20
105.832797955722530
 11
139.825812388767640
 21
105.832797955722530
  0
LINE
  8
0
  6
CONTINUOUS
 62
256
 10
161.706197146497290
 20
113.832797955722530
 11
161.706197146497290
 21
106.232797955722160
  0
ARC
  8
0
  6
CONTINUOUS
 62
256
 10
115.206197146520940
 20
56.804865768591299
 40
2.000000000000000
 50
0.000000000000000
 51
39.285346512634725
  0
ARC
  8
0
  6
CONTINUOUS
 62
256
 10
115.206197146520940
 20
60.461720018083724
 40
2.000000000000000
 50
0.000000000000000
 51
39.285346512634725
  0
LINE
  8
0
  6
CONTINUOUS
 62
256
 10
103.581969842174200
 20
74.172954002502593
 11
116.754201491699160
 21
58.071231650676054
  0
ARC
  8
0
  6
CONTINUOUS
 62
256
 10
102.033965496995960
 20
72.906588120416927
 40
2.000000000000331
 50
39.285346512654776
 51
90.000000000000000
  0
LINE
  8
0
  6
CONTINUOUS
 62
256
 10
103.581969842174200
 20
77.829808251995019
 11
116.754201491699160
 21
61.728085900168480
  0
ARC
  8
0
  6
CONTINUOUS
 62
256
 10
102.033965496995960
 20
76.563442369909353
 40
2.000000000000331
 50
39.285346512654776
 51
90.000000000000000
  0
LINE
  8
0
  6
CONTINUOUS
 62
256
 10
104.981810533994580
 20
78.563442369909353
 11
115.206197146520940
 21
78.563442369909353
  0
ARC
  8
0
  6
CONTINUOUS
 62
256
 10
102.033965496995960
 20
151.102153541535700
 40
2.000000000000000
 50
270.000000000000000
 51
320.714653487345000
  0
ARC
  8
0
  6
CONTINUOUS
 62
256
 10
102.033965496995960
 20
154.759007791028130
 40
2.000000000000000
 50
270.000000000000000
 51
320.714653487345000
  0
ARC
  8
0
  6
CONTINUOUS
 62
256
 10
115.206197146520940
 20
167.203875893361330
 40
1.999999999999755
 50
320.714653487365410
 51
0.000000000000000
  0
ARC
  8
0
  6
CONTINUOUS
 62
256
 10
115.206197146520940
 20
170.860730142853750
 40
1.999999999999755
 50
320.714653487365410
 51
0.000000000000000
  0
LINE
  8
0
  6
CONTINUOUS
 62
256
 10
104.981810533994580
 20
149.102153541535700
 11
115.206197146520940
 21
149.102153541535700
  0
LINE
  8
0
  6
CONTINUOUS
 62
256
 10
103.581969842174200
 20
153.492641908942460
 11
116.754201491699160
 21
169.594364260769000
  0
LINE
  8
0
  6
CONTINUOUS
 62
256
 10
103.581969842174200
 20
149.835787659450030
 11
116.754201491699160
 21
165.937510011276570
  0
ARC
  8
0
  6
CONTINUOUS
 62
256
 10
104.981810533994580
 20
109.832797955722530
 40
2.000000000000000
 50
90.000000000000000
 51
180.000000000000000
  0
ARC
  8
0
  6
CONTINUOUS
 62
256
 10
104.981810533994580
 20
117.832797955722530
 40
2.000000000000000
 50
180.000000000000000
 51
270.000000000000000
  0
ARC
  8
0
  6
CONTINUOUS
 62
256
 10
115.206197146520940
 20
109.832797955722530
 40
2.000000000000000
 50
0.000000000000000
 51
90.000000000000000
  0
ARC
  8
0
  6
CONTINUOUS
 62
256
 10
115.206197146520940
 20
117.832797955722530
 40
2.000000000000000
 50
270.000000000000000
 51
0.000000000000000
  0
LINE
  8
0
  6
CONTINUOUS
 62
256
 10
115.206197146520940
 20
115.832797955722530
 11
104.981810533994580
 21
115.832797955722530
  0
LINE
  8
0
  6
CONTINUOUS
 62
256
 10
115.206197146520940
 20
111.832797955722530
 11
104.981810533994580
 21
111.832797955722530
  0
LINE
  8
0
  6
CONTINUOUS
 62
256
 10
82.706197146520935
 20
50.832797955722526
 11
115.241101959395560
 21
50.264899079780662
  0
ARC
  8
0
  6
CONTINUOUS
 62
256
 10
115.206197146520940
 20
48.265203689467853
 40
2.000000000000000
 50
0.000000000000000
 51
88.999999999998224
  0
LINE
  8
0
  6
CONTINUOUS
 62
256
 10
82.706197146520935
 20
50.832797955722526
 11
82.706197146520935
 21
113.832797955722530
  0
LINE
  8
0
  6
CONTINUOUS
 62
256
 10
82.706197146520935
 20
176.832797955722530
 11
82.706197146520935
 21
113.832797955722530
  0
LINE
  8
0
  6
CONTINUOUS
 62
256
 10
82.706197146520935
 20
176.832797955722530
 11
115.241101959395560
 21
177.400696831664390
  0
ARC
  8
0
  6
CONTINUOUS
 62
256
 10
115.206197146520940
 20
179.400392221977200
 40
2.000000000000027
 50
271.000000000001760
 51
0.000000000000000
  0
LINE
  8
0
  6
CONTINUOUS
 62
256
 10
117.206197146520940
 20
180.824070423257580
 11
117.206197146520940
 21
185.450148238111070
  0
LINE
  8
0
  6
CONTINUOUS
 62
256
 10
129.206197146520940
 20
186.332797955721620
 11
121.708938546716580
 21
186.542213542184980
  0
LINE
  8
0
  6
CONTINUOUS
 62
256
 10
118.180020198213010
 20
186.449805563086560
 11
121.693108672367070
 21
186.541799022336820
  0
LINE
  8
0
  6
CONTINUOUS
 62
256
 10
129.206197146520940
 20
41.319704994938547
 11
121.708938546716580
 21
41.123382369260071
  0
LINE
  8
0
  6
CONTINUOUS
 62
256
 10
117.206197146520940
 20
43.265203689467853
 11
117.206197146520940
 21
42.215447673333983
  0
ARC
  8
0
  6
CONTINUOUS
 62
256
 10
118.206197146520940
 20
185.450148238111070
 40
0.999999999999931
 50
91.500000000002828
 51
180.000000000000000
  0
ARC
  8
0
  6
CONTINUOUS
 62
256
 10
118.206197146520940
 20
42.215447673333983
 40
1.000000000000000
 50
180.000000000000000
 51
268.499999999997270
  0
LINE
  8
0
  6
CONTINUOUS
 62
256
 10
132.206197146520940
 20
178.050127955721420
 11
131.443753788355590
 21
178.832797955722530
  0
LINE
  8
0
  6
CONTINUOUS
 62
256
 10
132.206197146520940
 20
49.667577955723615
 11
131.392990473811840
 21
48.832797955722526
  0
LINE
  8
0
  6
CONTINUOUS
 62
256
 10
117.206197146520940
 20
113.832797955722530
 11
117.206197146520940
 21
180.824070423257580
  0
LINE
  8
0
  6
CONTINUOUS
 62
256
 10
117.206197146520940
 20
113.832797955722530
 11
117.206197146520940
 21
42.332797955723436
  0
LINE
  8
0
  6
CONTINUOUS
 62
256
 10
124.153843249905090
 20
58.435661247063763
 11
129.206197146520940
 21
58.303360704187071
  0
ARC
  8
0
  6
CONTINUOUS
 62
256
 10
124.206197146520940
 20
60.434975897014738
 40
2.000000000000000
 50
180.000000000000000
 51
268.499999999997210
  0
LINE
  8
0
  6
CONTINUOUS
 62
256
 10
124.153843249905320
 20
75.134834568818405
 11
129.206197146520940
 21
74.989441065156825
  0
ARC
  8
0
  6
CONTINUOUS
 62
256
 10
124.206197146520940
 20
77.134149218769380
 40
2.000000000000000
 50
180.000000000000000
 51
268.499999999997270
  0
LINE
  8
0
  6
CONTINUOUS
 62
256
 10
122.206197146520940
 20
113.832797955722530
 11
122.206197146520940
 21
60.434975897014738
  0
LINE
  8
0
  6
CONTINUOUS
 62
256
 10
118.180020198213010
 20
41.215790348358496
 11
121.693108672367070
 21
41.123796889108235
  0
LINE
  8
0
  6
CONTINUOUS
 62
256
 10
124.153843249905090
 20
169.229934664381290
 11
129.206197146520940
 21
169.362235207257980
  0
ARC
  8
0
  6
CONTINUOUS
 62
256
 10
124.206197146520940
 20
167.230620014430310
 40
1.999999999999863
 50
91.500000000002828
 51
180.000000000000000
  0
LINE
  8
0
  6
CONTINUOUS
 62
256
 10
124.153843249905320
 20
152.530761342626650
 11
129.206197146520940
 21
152.676154846288230
  0
ARC
  8
0
  6
CONTINUOUS
 62
256
 10
124.206197146520940
 20
150.531446692675670
 40
1.999999999999863
 50
91.500000000002828
 51
180.000000000000000
  0
LINE
  8
0
  6
CONTINUOUS
 62
256
 10
122.206197146520940
 20
113.832797955722530
 11
122.206197146520940
 21
167.230620014430310
  0
ARC
  8
0
  6
CONTINUOUS
 62
256
 10
131.706197146520940
 20
141.652554062348830
 40
2.000000000000000
 50
0.000000000000000
 51
37.568592028830572
  0
LINE
  8
0
  6
CONTINUOUS
 62
256
 10
133.291445124730220
 20
142.871975584048410
 11
132.206197146520940
 21
144.282797955720530
  0
ARC
  8
0
  6
CONTINUOUS
 62
256
 10
131.706197146520940
 20
86.013041849088040
 40
2.000000000000188
 50
322.431407971169340
 51
0.000000000000000
  0
LINE
  8
0
  6
CONTINUOUS
 62
256
 10
133.291445124730220
 20
84.793620327388453
 11
132.206197146520940
 21
83.382797955717251
  0
LINE
  8
0
  6
CONTINUOUS
 62
256
 10
133.706197146520940
 20
141.652554062348830
 11
133.706197146520940
 21
113.832797955722530
  0
LINE
  8
0
  6
CONTINUOUS
 62
256
 10
133.706197146520940
 20
86.013041849088040
 11
133.706197146520940
 21
113.832797955722530
  0
LINE
  8
0
  6
CONTINUOUS
 62
256
 10
129.206197146520940
 20
113.832797955722530
 11
129.206197146520940
 21
41.319704994938547
  0
LINE
  8
0
  6
CONTINUOUS
 62
256
 10
132.206197146520940
 20
113.832797955722530
 11
132.206197146520940
 21
49.667577955723615
  0
LINE
  8
0
  6
CONTINUOUS
 62
256
 10
132.206197146520940
 20
113.832797955722530
 11
132.206197146520940
 21
178.050127955721420
  0
LINE
  8
0
  6
CONTINUOUS
 62
256
 10
129.206197146520710
 20
113.832797955722530
 11
129.206197146520940
 21
186.332797955721620
  0
LINE
  8
0
  6
CONTINUOUS
 62
256
 10
-265.284957743286550
 20
-168.000107005405480
 11
-265.669884076724370
 21
-167.777868981081040
  0
LINE
  8
0
  6
CONTINUOUS
 62
256
 10
-264.766479510948780
 20
-167.700764704938790
 11
-265.284957384986280
 21
-168.000107329766590
  0
LINE
  8
0
  6
CONTINUOUS
 62
256
 10
-266.721093280499020
 20
-169.690709804558710
 11
-271.029518087632940
 21
-169.690709804558710
  0
LINE
  8
0
  6
CONTINUOUS
 62
256
 10
-259.540392794556850
 20
-169.690709804558710
 11
-263.848817601690770
 21
-169.690709804558710
  0
ARC
  8
0
  6
CONTINUOUS
 62
256
 10
-265.284955441094890
 20
-165.690709804558590
 40
4.249999046324634
 50
213.421071121225200
 51
336.366468944172710
  0
ARC
  8
0
  6
CONTINUOUS
 62
256
 10
-265.284955441094890
 20
-165.690709804558590
 40
7.000000000000442
 50
201.417537750192740
 51
214.849904579047180
  0
ARC
  8
0
  6
CONTINUOUS
 62
256
 10
-265.284955441094890
 20
-165.690709804558590
 40
7.000000000000076
 50
325.150095420952820
 51
348.763010699953780
  0
LINE
  8
0
  6
CONTINUOUS
 62
256
 10
-339.029486130110510
 20
-169.690709804558710
 11
-334.721061322976600
 21
-169.690709804558710
  0
LINE
  8
0
  6
CONTINUOUS
 62
256
 10
-331.848785644168340
 20
-169.690709804558710
 11
-327.540360837034430
 21
-169.690709804558710
  0
ARC
  8
0
  6
CONTINUOUS
 62
256
 10
-333.284923483572470
 20
-165.690709804558590
 40
4.249999046324591
 50
203.633531055827580
 51
326.578928878775400
  0
ARC
  8
0
  6
CONTINUOUS
 62
256
 10
-333.284923483572470
 20
-165.690709804558590
 40
7.000000000000076
 50
325.150095420952820
 51
338.582462249807290
  0
ARC
  8
0
  6
CONTINUOUS
 62
256
 10
-333.284923483572470
 20
-165.690709804558590
 40
7.000000000000003
 50
191.236989300046050
 51
214.849904579047060
  0
LINE
  8
0
  6
CONTINUOUS
 62
256
 10
-333.803399413718580
 20
-167.700764704938790
 11
-333.284921539681140
 21
-168.000107329766590
  0
LINE
  8
0
  6
CONTINUOUS
 62
256
 10
-333.284921181380810
 20
-168.000107005405480
 11
-332.899994847942930
 21
-167.777868981081040
  0
LINE
  8
0
  6
CONTINUOUS
 62
256
 10
-355.483842860385610
 20
-150.696281629591510
 11
-356.427075086064520
 21
-149.753049403912540
  0
LINE
  8
0
  6
CONTINUOUS
 62
256
 10
-358.261547833643590
 20
-111.440709804558650
 11
-361.284939462333680
 21
-111.440709804558650
  0
LINE
  8
0
  6
CONTINUOUS
 62
256
 10
-357.946987513697990
 20
-100.940709804558650
 11
-361.128535133571060
 21
-100.940709804558650
  0
ARC
  8
0
  6
CONTINUOUS
 62
256
 10
-357.284923483572470
 20
-106.190709804558650
 40
4.249999046325767
 50
99.623514640088402
 51
256.935183523701940
  0
LINE
  8
0
  6
CONTINUOUS
 62
256
 10
-359.284922293794010
 20
-107.345409115295790
 11
-358.198269596172050
 21
-107.972786843586050
  0
LINE
  8
0
  6
CONTINUOUS
 62
256
 10
-359.284921569619540
 20
-105.036014049357110
 11
-358.089242773359730
 21
-104.345685497676640
  0
ARC
  8
0
  6
CONTINUOUS
 62
256
 10
-354.284939462333680
 20
-94.190709804558651
 40
5.000000000000000
 50
180.000000000000000
 51
225.659700457678980
  0
ARC
  8
0
  6
CONTINUOUS
 62
256
 10
-354.284939462333680
 20
-94.190709804558651
 40
4.999999999999961
 50
126.240455740104170
 51
180.000000000000000
  0
ARC
  8
0
  6
CONTINUOUS
 62
256
 10
-331.284939462333680
 20
-66.190709804558537
 40
4.249999046325946
 50
65.218555277062109
 51
124.030593798567840
  0
LINE
  8
0
  6
CONTINUOUS
 62
256
 10
-326.034939462333680
 20
-62.084821056344197
 11
-326.034939462333680
 21
-60.335247358385573
  0
ARC
  8
0
  6
CONTINUOUS
 62
256
 10
-317.284939462333680
 20
-103.647341512328300
 40
45.000000000000014
 50
148.490164730419280
 51
180.000000000000000
  0
ARC
  8
0
  6
CONTINUOUS
 62
256
 10
-317.284939462333680
 20
-103.647341512328300
 40
44.999999999999915
 50
92.906384370709901
 51
115.154512373013530
  0
ARC
  8
0
  6
CONTINUOUS
 62
256
 10
-341.666496767518880
 20
-63.466006748859286
 40
1.999999999999010
 50
6.702562772192431
 51
45.000000000000576
  0
LINE
  8
0
  6
CONTINUOUS
 62
256
 10
-272.534939462333680
 20
-62.084821056344197
 11
-272.534939462333680
 21
-60.335247358385573
  0
ARC
  8
0
  6
CONTINUOUS
 62
256
 10
-267.284939462333680
 20
-66.190709804558537
 40
4.249999046325890
 50
55.969406201432427
 51
114.781444722938160
  0
ARC
  8
0
  6
CONTINUOUS
 62
256
 10
-256.903382157148490
 20
-63.466006748859286
 40
2.000000000000016
 50
135.000000000000000
 51
173.297437227807560
  0
ARC
  8
0
  6
CONTINUOUS
 62
256
 10
-281.284939462333680
 20
-103.647341512328300
 40
44.999999999999929
 50
64.845487626986554
 51
87.093615629290099
  0
LINE
  8
0
  6
DASHDOT
 62
256
 10
-280.698610659750560
 20
-100.190709804558480
 11
-318.640404022677100
 21
-100.190709804558520
  0
LINE
  8
0
  6
CONTINUOUS
 62
256
 10
-359.284921099387820
 20
-105.036014421461100
 11
-359.284922053062130
 21
-107.345409257886890
  0
LINE
  8
0
  6
DASHDOT
 62
256
 10
-384.883600166385240
 20
-115.190709804558520
 11
-196.196972761751910
 21
-115.190709804558520
  0
LINE
  8
0
  6
CONTINUOUS
 62
256
 10
-226.784939462334820
 20
-151.190709804558540
 11
-226.784939462334820
 21
-164.690709804558310
  0
LINE
  8
0
  6
CONTINUOUS
 62
256
 10
-226.784939462334820
 20
-35.690709804558310
 11
-226.784939462334880
 21
-79.190709804558765
  0
LINE
  8
0
  6
CONTINUOUS
 62
256
 10
-241.784939462333680
 20
-79.190709804558765
 11
-214.418274689391300
 21
-79.190709804558765
  0
LINE
  8
0
  6
CONTINUOUS
 62
256
 10
-241.784939462333680
 20
-151.190709804558540
 11
-214.418274689391300
 21
-151.190709804558540
  0
LINE
  8
0
  6
CONTINUOUS
 62
256
 10
-207.284939462333680
 20
-112.690709804558310
 11
-207.795356309851400
 21
-112.690709804558310
  0
LINE
  8
0
  6
CONTINUOUS
 62
256
 10
-207.284939462333680
 20
-117.690709804558520
 11
-207.284939462333680
 21
-112.690709804558520
  0
LINE
  8
0
  6
CONTINUOUS
 62
256
 10
-207.284939462333680
 20
-117.690709804558520
 11
-207.795356309851400
 21
-117.690709804558520
  0
ARC
  8
0
  6
CONTINUOUS
 62
256
 10
-214.418274689391300
 20
-146.190709804558540
 40
5.000000000000000
 50
270.000000000000000
 51
353.967950853629470
  0
ARC
  8
0
  6
CONTINUOUS
 62
256
 10
-214.418274689391300
 20
-84.190709804558765
 40
5.000000000000143
 50
6.032049146370343
 51
90.000000000000000
  0
ARC
  8
0
  6
CONTINUOUS
 62
256
 10
-507.784939462333680
 20
-115.190709804558520
 40
300.000000000000060
 50
353.967950853630270
 51
6.032049146369773
  0
ARC
  8
0
  6
CONTINUOUS
 62
256
 10
-295.784939462333680
 20
-97.534266221548933
 40
1.000000000000000
 50
180.000000000000000
 51
258.787728582356180
  0
LINE
  8
0
  6
CONTINUOUS
 62
256
 10
-296.784939462333680
 20
-94.484430563710021
 11
-296.784939462333680
 21
-97.534266221548933
  0
ARC
  8
0
  6
CONTINUOUS
 62
256
 10
-295.784939462333680
 20
-94.484430563710021
 40
1.000000000000268
 50
80.405931773124522
 51
180.000000000000000
  0
ARC
  8
0
  6
CONTINUOUS
 62
256
 10
-295.784939462333680
 20
-88.922858731431234
 40
1.000000000000000
 50
179.999999999986980
 51
262.410457608142620
  0
LINE
  8
0
  6
CONTINUOUS
 62
256
 10
-296.784939462333680
 20
-85.899072772804857
 11
-296.784939462333680
 21
-88.922858731431006
  0
ARC
  8
0
  6
CONTINUOUS
 62
256
 10
-295.784939462333680
 20
-85.899072772804857
 40
1.000000000000077
 50
83.186145655820326
 51
180.000000000000000
  0
ARC
  8
0
  6
CONTINUOUS
 62
256
 10
-295.784939462333680
 20
-80.366149505826797
 40
1.000000000000000
 50
180.000000000000000
 51
264.260829522738450
  0
LINE
  8
0
  6
CONTINUOUS
 62
256
 10
-296.784939462333680
 20
-77.352237319533515
 11
-296.784939462333680
 21
-80.366149505826797
  0
ARC
  8
0
  6
CONTINUOUS
 62
256
 10
-295.784939462333680
 20
-77.352237319533515
 40
1.000000000000042
 50
84.715267045464316
 51
180.000000000000000
  0
ARC
  8
0
  6
CONTINUOUS
 62
256
 10
-275.667637674401820
 20
-97.513802375436171
 40
1.000000000000082
 50
299.999999999997270
 51
36.813854344187355
  0
LINE
  8
0
  6
CONTINUOUS
 62
256
 10
-275.167637674401820
 20
-98.379827779220705
 11
-277.786313130179340
 21
-99.891720758533893
  0
ARC
  8
0
  6
CONTINUOUS
 62
256
 10
-278.286313130179340
 20
-99.025695354749359
 40
0.999999999999834
 50
217.589542391867670
 51
299.999999999997730
  0
ARC
  8
0
  6
CONTINUOUS
 62
256
 10
-268.265861049903490
 20
-93.240384648800500
 40
0.999999999999885
 50
300.000000000003810
 51
35.284732954544275
  0
LINE
  8
0
  6
CONTINUOUS
 62
256
 10
-267.765861049903490
 20
-94.106410052584806
 11
-270.375985568009240
 21
-95.613366145731561
  0
ARC
  8
0
  6
CONTINUOUS
 62
256
 10
-270.875985568009240
 20
-94.747340741947255
 40
0.999999999999940
 50
215.739170477274090
 51
300.000000000002560
  0
ARC
  8
0
  6
CONTINUOUS
 62
256
 10
-293.386410191944490
 20
-107.743740458148960
 40
0.999999999999961
 50
231.618272422159780
 51
299.999999999997330
  0
LINE
  8
0
  6
CONTINUOUS
 62
256
 10
-290.142634616920190
 20
-107.025646295097430
 11
-292.886410191944490
 21
-108.609765861933510
  0
ARC
  8
0
  6
CONTINUOUS
 62
256
 10
-285.744010778960840
 20
-103.331399099808320
 40
0.999999999999673
 50
221.212271417651180
 51
300.000000000003410
  0
LINE
  8
0
  6
CONTINUOUS
 62
256
 10
-282.602775621904700
 20
-102.672506674673040
 11
-285.244010778960840
 21
-104.197424503592610
  0
ARC
  8
0
  6
CONTINUOUS
 62
256
 10
-283.102775621904700
 20
-101.806481270888530
 40
1.000000000000082
 50
299.999999999997270
 51
39.594068226849963
  0
ARC
  8
0
  6
CONTINUOUS
 62
256
 10
-295.784939462333680
 20
-106.358948938230700
 40
1.000000000000000
 50
180.000000000000000
 51
248.381727577839200
  0
ARC
  8
0
  6
CONTINUOUS
 62
256
 10
-299.284939462333680
 20
-115.190709804558520
 40
8.500000000000128
 50
51.618272422158320
 51
68.381727577842469
  0
ARC
  8
0
  6
CONTINUOUS
 62
256
 10
-290.642634616920190
 20
-106.159620891313120
 40
0.999999999999885
 50
300.000000000003810
 51
46.260204708329255
  0
LINE
  8
0
  6
CONTINUOUS
 62
256
 10
-296.784939462333680
 20
-103.190709804558520
 11
-296.784939462333680
 21
-106.358948938230700
  0
ARC
  8
0
  6
CONTINUOUS
 62
256
 10
-295.784939462333680
 20
-103.190709804558520
 40
0.999999999999964
 50
73.739795291702634
 51
180.000000000000000
  0
ARC
  8
0
  6
CONTINUOUS
 62
256
 10
-299.284939462333680
 20
-115.190709804558520
 40
13.499999999999927
 50
46.260204708312138
 51
73.739795291689092
  0
ARC
  8
0
  6
CONTINUOUS
 62
256
 10
-299.284939462333680
 20
-115.190709804558520
 40
17.000000000000114
 50
41.212271417649752
 51
78.787728582350042
  0
ARC
  8
0
  6
CONTINUOUS
 62
256
 10
-299.284939462333680
 20
-115.190709804558520
 40
22.000000000000025
 50
39.594068226860820
 51
80.405931773138747
  0
ARC
  8
0
  6
CONTINUOUS
 62
256
 10
-299.284939462333680
 20
-115.190709804558520
 40
30.499999999999964
 50
36.813854344181067
 51
83.186145655818933
  0
ARC
  8
0
  6
CONTINUOUS
 62
256
 10
-299.284939462333680
 20
-115.190709804558520
 40
25.499999999999890
 50
37.589542391857954
 51
82.410457608141925
  0
ARC
  8
0
  6
CONTINUOUS
 62
256
 10
-299.284939462333680
 20
-115.190709804558520
 40
33.999999999999829
 50
35.739170477266640
 51
84.260829522733033
  0
ARC
  8
0
  6
CONTINUOUS
 62
256
 10
-299.284939462333680
 20
-115.190709804558520
 40
38.999999999999865
 50
35.284732954534789
 51
84.715267045465410
  0
ARC
  8
0
  6
CONTINUOUS
 62
256
 10
-272.167637674401820
 20
-103.575980201927220
 40
0.999999999999730
 50
23.186145655819846
 51
119.999999999997370
  0
LINE
  8
0
  6
CONTINUOUS
 62
256
 10
-272.667637674401820
 20
-102.709954798142680
 11
-275.286313130179340
 21
-104.221847777455860
  0
ARC
  8
0
  6
CONTINUOUS
 62
256
 10
-274.786313130179340
 20
-105.087873181240410
 40
1.000000000000082
 50
119.999999999997300
 51
202.410457608146120
  0
ARC
  8
0
  6
CONTINUOUS
 62
256
 10
-264.765861049903490
 20
-99.302562475291552
 40
1.000000000000249
 50
24.715267045455473
 51
119.999999999996050
  0
LINE
  8
0
  6
CONTINUOUS
 62
256
 10
-265.265861049903490
 20
-98.436537071507018
 11
-267.875985568009240
 21
-99.943493164653773
  0
ARC
  8
0
  6
CONTINUOUS
 62
256
 10
-267.375985568009240
 20
-100.809518568438070
 40
0.999999999999885
 50
120.000000000003810
 51
204.260829522746350
  0
ARC
  8
0
  6
CONTINUOUS
 62
256
 10
-289.886410191944490
 20
-113.805918284640260
 40
1.000000000000082
 50
119.999999999997300
 51
188.381727577833000
  0
LINE
  8
0
  6
CONTINUOUS
 62
256
 10
-287.642634616920190
 20
-111.355773314019640
 11
-290.386410191944490
 21
-112.939892880855720
  0
ARC
  8
0
  6
CONTINUOUS
 62
256
 10
-282.244010778960840
 20
-109.393576926299370
 40
1.000000000000082
 50
119.999999999997300
 51
198.787728582347000
  0
LINE
  8
0
  6
CONTINUOUS
 62
256
 10
-280.102775621904240
 20
-107.002633693595480
 11
-282.744010778960840
 21
-108.527551522514840
  0
ARC
  8
0
  6
CONTINUOUS
 62
256
 10
-279.602775621904240
 20
-107.868659097379800
 40
1.000000000000094
 50
20.405931773138683
 51
120.000000000004160
  0
ARC
  8
0
  6
CONTINUOUS
 62
256
 10
-289.886410191944490
 20
-116.575501324477050
 40
1.000000000000059
 50
171.618272422154460
 51
239.999999999995050
  0
ARC
  8
0
  6
CONTINUOUS
 62
256
 10
-299.284939462333680
 20
-115.190709804558520
 40
8.499999999999972
 50
351.618272422157820
 51
8.381727577842204
  0
ARC
  8
0
  6
CONTINUOUS
 62
256
 10
-287.142634616920190
 20
-112.221798717803940
 40
0.999999999999879
 50
13.739795291686027
 51
120.000000000003810
  0
LINE
  8
0
  6
CONTINUOUS
 62
256
 10
-287.642634616920190
 20
-119.025646295097430
 11
-290.386410191944490
 21
-117.441526728261350
  0
ARC
  8
0
  6
CONTINUOUS
 62
256
 10
-287.142634616920190
 20
-118.159620891313120
 40
0.999999999999885
 50
239.999999999996160
 51
346.260204708314010
  0
ARC
  8
0
  6
CONTINUOUS
 62
256
 10
-299.284939462333680
 20
-115.190709804558520
 40
13.500000000000130
 50
346.260204708311850
 51
13.739795291688171
  0
ARC
  8
0
  6
CONTINUOUS
 62
256
 10
-282.244010778960840
 20
-120.987842682817700
 40
0.999999999999646
 50
161.212271417644640
 51
239.999999999995770
  0
LINE
  8
0
  6
CONTINUOUS
 62
256
 10
-280.102775621904240
 20
-123.378785915521580
 11
-282.744010778960840
 21
-121.853868086602010
  0
ARC
  8
0
  6
CONTINUOUS
 62
256
 10
-299.284939462333680
 20
-115.190709804558520
 40
17.000000000000146
 50
341.212271417650070
 51
18.787728582350436
  0
ARC
  8
0
  6
CONTINUOUS
 62
256
 10
-279.602775621904240
 20
-122.512760511737270
 40
0.999999999999885
 50
239.999999999996160
 51
339.594068226861740
  0
ARC
  8
0
  6
CONTINUOUS
 62
256
 10
-274.786313130179340
 20
-125.293546427876890
 40
0.999999999999701
 50
157.589542391853970
 51
240.000000000001820
  0
ARC
  8
0
  6
CONTINUOUS
 62
256
 10
-267.375985568009240
 20
-129.571901040678770
 40
0.999999999999769
 50
155.739170477266270
 51
240.000000000003040
  0
ARC
  8
0
  6
CONTINUOUS
 62
256
 10
-299.284939462333680
 20
-115.190709804558520
 40
22.000000000000206
 50
339.594068226860770
 51
20.405931773139223
  0
LINE
  8
0
  6
CONTINUOUS
 62
256
 10
-272.667637674401820
 20
-127.671464810974380
 11
-275.286313130179340
 21
-126.159571831661420
  0
ARC
  8
0
  6
CONTINUOUS
 62
256
 10
-272.167637674401820
 20
-126.805439407189850
 40
1.000000000000082
 50
240.000000000002670
 51
336.813854344180360
  0
ARC
  8
0
  6
CONTINUOUS
 62
256
 10
-299.284939462333680
 20
-115.190709804558520
 40
30.499999999999954
 50
336.813854344181150
 51
23.186145655818844
  0
ARC
  8
0
  6
CONTINUOUS
 62
256
 10
-299.284939462333680
 20
-115.190709804558520
 40
25.500000000000085
 50
337.589542391857490
 51
22.410457608142028
  0
ARC
  8
0
  6
CONTINUOUS
 62
256
 10
-299.284939462333680
 20
-115.190709804558520
 40
34.000000000000007
 50
335.739170477266780
 51
24.260829522733218
  0
ARC
  8
0
  6
CONTINUOUS
 62
256
 10
-299.284939462333680
 20
-115.190709804558520
 40
39.000000000000213
 50
335.284732954534830
 51
24.715267045465190
  0
LINE
  8
0
  6
CONTINUOUS
 62
256
 10
-265.265861049903490
 20
-131.944882537609830
 11
-267.875985568009240
 21
-130.437926444463300
  0
ARC
  8
0
  6
CONTINUOUS
 62
256
 10
-264.765861049903490
 20
-131.078857133825520
 40
0.999999999999885
 50
239.999999999996160
 51
335.284732954543760
  0
CIRCLE
  8
0
  6
CONTINUOUS
 62
256
 10
-299.284939462333680
 20
-115.190709804558520
 40
5.000000000000000
  0
ARC
  8
0
  6
CONTINUOUS
 62
256
 10
-268.265861049903490
 20
-137.141034960316800
 40
0.999999999999776
 50
324.715267045465680
 51
60.000000000003851
  0
ARC
  8
0
  6
CONTINUOUS
 62
256
 10
-270.875985568009240
 20
-135.634078867169820
 40
0.999999999999885
 50
59.999999999996206
 51
144.260829522735750
  0
ARC
  8
0
  6
CONTINUOUS
 62
256
 10
-295.784939462333680
 20
-150.015270103290280
 40
0.999999999999973
 50
95.739170477261709
 51
180.000000000000000
  0
ARC
  8
0
  6
CONTINUOUS
 62
256
 10
-295.784939462333680
 20
-153.029182289583560
 40
1.000000000000000
 50
180.000000000000000
 51
275.284732954535800
  0
ARC
  8
0
  6
CONTINUOUS
 62
256
 10
-295.784939462333680
 20
-141.458560877685840
 40
0.999999999999975
 50
97.589542391854238
 51
180.000000000000000
  0
ARC
  8
0
  6
CONTINUOUS
 62
256
 10
-275.667637674401820
 20
-132.867617233680680
 40
0.999999999999911
 50
323.186145655802870
 51
59.999999999997016
  0
ARC
  8
0
  6
CONTINUOUS
 62
256
 10
-278.286313130178880
 20
-131.355724254367710
 40
1.000000000000082
 50
60.000000000002721
 51
142.410457608146830
  0
ARC
  8
0
  6
CONTINUOUS
 62
256
 10
-295.784939462333680
 20
-144.482346836312220
 40
1.000000000000000
 50
180.000000000000000
 51
276.813854344180240
  0
ARC
  8
0
  6
CONTINUOUS
 62
256
 10
-295.784939462333680
 20
-135.896989045407050
 40
1.000000000000000
 50
180.000000000000000
 51
279.594068226874700
  0
ARC
  8
0
  6
CONTINUOUS
 62
256
 10
-295.784939462333680
 20
-132.847153387568140
 40
0.999999999999982
 50
101.212271417644000
 51
180.000000000000000
  0
ARC
  8
0
  6
CONTINUOUS
 62
256
 10
-283.102775621904700
 20
-128.574938338228320
 40
1.000000000000318
 50
320.405931773139570
 51
59.999999999995502
  0
ARC
  8
0
  6
CONTINUOUS
 62
256
 10
-285.744010778960840
 20
-127.050020509308960
 40
1.000000000000082
 50
60.000000000002721
 51
138.787728582338080
  0
ARC
  8
0
  6
CONTINUOUS
 62
256
 10
-290.642634616920190
 20
-124.221798717803940
 40
0.999999999999858
 50
313.739795291671330
 51
59.999999999995389
  0
ARC
  8
0
  6
CONTINUOUS
 62
256
 10
-295.784939462333680
 20
-127.190709804558520
 40
1.000000000000000
 50
180.000000000000000
 51
286.260204708296730
  0
ARC
  8
0
  6
CONTINUOUS
 62
256
 10
-295.784939462333680
 20
-124.022470670886360
 40
1.000000000000090
 50
111.618272422161990
 51
180.000000000000000
  0
ARC
  8
0
  6
CONTINUOUS
 62
256
 10
-293.386410191944490
 20
-122.637679150967870
 40
0.999999999999885
 50
59.999999999996206
 51
128.381727577839710
  0
ARC
  8
0
  6
CONTINUOUS
 62
256
 10
-299.284939462333680
 20
-115.190709804558520
 40
39.000000000000000
 50
275.284732954534600
 51
324.715267045465230
  0
ARC
  8
0
  6
CONTINUOUS
 62
256
 10
-299.284939462333680
 20
-115.190709804558520
 40
30.500000000000124
 50
276.813854344181040
 51
323.186145655818850
  0
ARC
  8
0
  6
CONTINUOUS
 62
256
 10
-299.284939462333680
 20
-115.190709804558520
 40
34.000000000000085
 50
275.739170477266950
 51
324.260829522732990
  0
ARC
  8
0
  6
CONTINUOUS
 62
256
 10
-299.284939462333680
 20
-115.190709804558520
 40
25.499999999999918
 50
277.589542391858170
 51
322.410457608142110
  0
ARC
  8
0
  6
CONTINUOUS
 62
256
 10
-299.284939462333680
 20
-115.190709804558520
 40
22.000000000000146
 50
279.594068226861170
 51
320.405931773139120
  0
ARC
  8
0
  6
CONTINUOUS
 62
256
 10
-299.284939462333680
 20
-115.190709804558520
 40
17.000000000000060
 50
281.212271417650020
 51
318.787728582350210
  0
ARC
  8
0
  6
CONTINUOUS
 62
256
 10
-299.284939462333680
 20
-115.190709804558520
 40
13.499999999999977
 50
286.260204708310820
 51
313.739795291687760
  0
ARC
  8
0
  6
CONTINUOUS
 62
256
 10
-299.284939462333680
 20
-115.190709804558520
 40
8.499999999999904
 50
291.618272422157700
 51
308.381727577842810
  0
LINE
  8
0
  6
CONTINUOUS
 62
256
 10
-275.167637674401820
 20
-132.001591829896370
 11
-277.786313130178880
 21
-130.489698850583180
  0
LINE
  8
0
  6
CONTINUOUS
 62
256
 10
-296.784939462333680
 20
-153.029182289583560
 11
-296.784939462333680
 21
-150.015270103290280
  0
LINE
  8
0
  6
CONTINUOUS
 62
256
 10
-267.765861049903490
 20
-136.275009556532270
 11
-270.375985568009240
 21
-134.768053463385510
  0
LINE
  8
0
  6
CONTINUOUS
 62
256
 10
-282.602775621904700
 20
-127.708912934444020
 11
-285.244010778960840
 21
-126.183995105524450
  0
LINE
  8
0
  6
CONTINUOUS
 62
256
 10
-290.142634616920190
 20
-123.355773314019640
 11
-292.886410191944490
 21
-121.771653747183560
  0
LINE
  8
0
  6
CONTINUOUS
 62
256
 10
-296.784939462333680
 20
-127.190709804558520
 11
-296.784939462333680
 21
-124.022470670886360
  0
LINE
  8
0
  6
CONTINUOUS
 62
256
 10
-296.784939462333680
 20
-135.896989045407050
 11
-296.784939462333680
 21
-132.847153387568140
  0
LINE
  8
0
  6
CONTINUOUS
 62
256
 10
-296.784939462333680
 20
-144.482346836312220
 11
-296.784939462333680
 21
-141.458560877685840
  0
ARC
  8
0
  6
CONTINUOUS
 62
256
 10
-299.284939462333680
 20
-115.190709804558520
 40
39.000000000000227
 50
155.284732954534800
 51
204.715267045465200
  0
ARC
  8
0
  6
CONTINUOUS
 62
256
 10
-299.284939462333680
 20
-115.190709804558520
 40
34.000000000000007
 50
155.739170477266780
 51
204.260829522733250
  0
ARC
  8
0
  6
CONTINUOUS
 62
256
 10
-299.284939462333680
 20
-115.190709804558520
 40
25.500000000000000
 50
157.589542391858000
 51
202.410457608142450
  0
ARC
  8
0
  6
CONTINUOUS
 62
256
 10
-299.284939462333680
 20
-115.190709804558520
 40
30.499999999999954
 50
156.813854344181150
 51
203.186145655818820
  0
ARC
  8
0
  6
CONTINUOUS
 62
256
 10
-299.284939462333680
 20
-115.190709804558520
 40
22.000000000000206
 50
159.594068226860770
 51
200.405931773139230
  0
ARC
  8
0
  6
CONTINUOUS
 62
256
 10
-299.284939462333680
 20
-115.190709804558520
 40
16.999999999999716
 50
161.212271417649590
 51
198.787728582350440
  0
ARC
  8
0
  6
CONTINUOUS
 62
256
 10
-299.284939462333680
 20
-115.190709804558520
 40
13.499999999999687
 50
166.260204708311360
 51
193.739795291688210
  0
ARC
  8
0
  6
CONTINUOUS
 62
256
 10
-311.427244307747170
 20
-112.221798717803940
 40
0.999999999999885
 50
59.999999999996206
 51
166.260204708308440
  0
ARC
  8
0
  6
CONTINUOUS
 62
256
 10
-318.967103302763120
 20
-107.868659097379800
 40
0.999999999999885
 50
59.999999999996206
 51
159.594068226861740
  0
LINE
  8
0
  6
CONTINUOUS
 62
256
 10
-318.467103302763120
 20
-107.002633693595480
 11
-315.825868145706520
 21
-108.527551522514840
  0
ARC
  8
0
  6
CONTINUOUS
 62
256
 10
-316.325868145706520
 20
-109.393576926299370
 40
1.000000000000076
 50
341.212271417653030
 51
60.000000000002721
  0
LINE
  8
0
  6
CONTINUOUS
 62
256
 10
-310.927244307747170
 20
-111.355773314019640
 11
-308.183468732722870
 21
-112.939892880855720
  0
ARC
  8
0
  6
CONTINUOUS
 62
256
 10
-308.683468732722870
 20
-113.805918284640260
 40
1.000000000000026
 50
351.618272422167310
 51
60.000000000001499
  0
ARC
  8
0
  6
CONTINUOUS
 62
256
 10
-331.193893356658120
 20
-100.809518568438070
 40
0.999999999999863
 50
335.739170477254390
 51
59.999999999995801
  0
LINE
  8
0
  6
CONTINUOUS
 62
256
 10
-333.304017874763870
 20
-98.436537071507018
 11
-330.693893356658120
 21
-99.943493164653773
  0
ARC
  8
0
  6
CONTINUOUS
 62
256
 10
-333.804017874763870
 20
-99.302562475291552
 40
1.000000000000082
 50
60.000000000002721
 51
155.284732954544150
  0
ARC
  8
0
  6
CONTINUOUS
 62
256
 10
-323.783565794488030
 20
-105.087873181240410
 40
0.999999999999701
 50
337.589542391853970
 51
60.000000000001812
  0
LINE
  8
0
  6
CONTINUOUS
 62
256
 10
-325.902241250265550
 20
-102.709954798142680
 11
-323.283565794488030
 21
-104.221847777455860
  0
ARC
  8
0
  6
CONTINUOUS
 62
256
 10
-326.402241250265550
 20
-103.575980201927220
 40
1.000000000000082
 50
60.000000000002721
 51
156.813854344180360
  0
ARC
  8
0
  6
CONTINUOUS
 62
256
 10
-299.284939462333680
 20
-115.190709804558520
 40
38.999999999999986
 50
95.284732954534590
 51
144.715267045465230
  0
ARC
  8
0
  6
CONTINUOUS
 62
256
 10
-299.284939462333680
 20
-115.190709804558520
 40
34.000000000000071
 50
95.739170477266939
 51
144.260829522733330
  0
ARC
  8
0
  6
CONTINUOUS
 62
256
 10
-299.284939462333680
 20
-115.190709804558520
 40
25.500000000000160
 50
97.589542391858117
 51
142.410457608142080
  0
ARC
  8
0
  6
CONTINUOUS
 62
256
 10
-299.284939462333680
 20
-115.190709804558520
 40
30.500000000000135
 50
96.813854344181038
 51
143.186145655818930
  0
ARC
  8
0
  6
CONTINUOUS
 62
256
 10
-299.284939462333680
 20
-115.190709804558520
 40
22.000000000000131
 50
99.594068226861211
 51
140.405931773139140
  0
ARC
  8
0
  6
CONTINUOUS
 62
256
 10
-299.284939462333680
 20
-115.190709804558520
 40
17.000000000000046
 50
101.212271417650020
 51
138.787728582350240
  0
ARC
  8
0
  6
CONTINUOUS
 62
256
 10
-299.284939462333680
 20
-115.190709804558520
 40
13.499999999999963
 50
106.260204708310880
 51
133.739795291687780
  0
ARC
  8
0
  6
CONTINUOUS
 62
256
 10
-302.784939462333680
 20
-103.190709804558520
 40
1.000000000000000
 50
0.000000000000000
 51
106.260204708296920
  0
LINE
  8
0
  6
CONTINUOUS
 62
256
 10
-301.784939462333680
 20
-103.190709804558520
 11
-301.784939462333680
 21
-106.358948938230700
  0
ARC
  8
0
  6
CONTINUOUS
 62
256
 10
-307.927244307747170
 20
-106.159620891313120
 40
0.999999999999858
 50
133.739795291671330
 51
239.999999999995340
  0
ARC
  8
0
  6
CONTINUOUS
 62
256
 10
-299.284939462333680
 20
-115.190709804558520
 40
8.499999999999904
 50
111.618272422157720
 51
128.381727577841810
  0
ARC
  8
0
  6
CONTINUOUS
 62
256
 10
-302.784939462333680
 20
-106.358948938230700
 40
1.000000000000090
 50
291.618272422162020
 51
0.000000000000000
  0
ARC
  8
0
  6
CONTINUOUS
 62
256
 10
-315.467103302762670
 20
-101.806481270888530
 40
1.000000000000173
 50
140.405931773149600
 51
240.000000000002330
  0
LINE
  8
0
  6
CONTINUOUS
 62
256
 10
-315.967103302762670
 20
-102.672506674673040
 11
-313.325868145706520
 21
-104.197424503592610
  0
ARC
  8
0
  6
CONTINUOUS
 62
256
 10
-312.825868145706520
 20
-103.331399099808320
 40
0.999999999999885
 50
239.999999999996160
 51
318.787728582349130
  0
LINE
  8
0
  6
CONTINUOUS
 62
256
 10
-308.427244307747170
 20
-107.025646295097430
 11
-305.683468732722870
 21
-108.609765861933510
  0
ARC
  8
0
  6
CONTINUOUS
 62
256
 10
-305.183468732722870
 20
-107.743740458148960
 40
1.000000000000082
 50
240.000000000002670
 51
308.381727577839230
  0
ARC
  8
0
  6
CONTINUOUS
 62
256
 10
-327.693893356658120
 20
-94.747340741947255
 40
0.999999999999885
 50
239.999999999996160
 51
324.260829522725320
  0
LINE
  8
0
  6
CONTINUOUS
 62
256
 10
-330.804017874763870
 20
-94.106410052584806
 11
-328.193893356658120
 21
-95.613366145731561
  0
ARC
  8
0
  6
CONTINUOUS
 62
256
 10
-330.304017874763870
 20
-93.240384648800500
 40
0.999999999999908
 50
144.715267045455050
 51
239.999999999996560
  0
ARC
  8
0
  6
CONTINUOUS
 62
256
 10
-320.283565794488030
 20
-99.025695354749359
 40
1.000000000000082
 50
240.000000000002670
 51
322.410457608131140
  0
LINE
  8
0
  6
CONTINUOUS
 62
256
 10
-323.402241250265550
 20
-98.379827779220705
 11
-320.783565794488030
 21
-99.891720758533893
  0
ARC
  8
0
  6
CONTINUOUS
 62
256
 10
-322.902241250265550
 20
-97.513802375436171
 40
0.999999999999774
 50
143.186145655813330
 51
240.000000000003440
  0
ARC
  8
0
  6
CONTINUOUS
 62
256
 10
-302.784939462333680
 20
-77.352237319533515
 40
1.000000000000000
 50
0.000000000000000
 51
95.284732954535926
  0
LINE
  8
0
  6
CONTINUOUS
 62
256
 10
-301.784939462333680
 20
-77.352237319533515
 11
-301.784939462333680
 21
-80.366149505826797
  0
ARC
  8
0
  6
CONTINUOUS
 62
256
 10
-302.784939462333680
 20
-80.366149505826797
 40
0.999999999999973
 50
275.739170477261670
 51
0.000000000000000
  0
ARC
  8
0
  6
CONTINUOUS
 62
256
 10
-302.784939462333680
 20
-85.899072772804857
 40
1.000000000000000
 50
0.000000000000000
 51
96.813854344180172
  0
LINE
  8
0
  6
CONTINUOUS
 62
256
 10
-301.784939462333680
 20
-85.899072772804857
 11
-301.784939462333680
 21
-88.922858731431006
  0
ARC
  8
0
  6
CONTINUOUS
 62
256
 10
-302.784939462333680
 20
-88.922858731431234
 40
0.999999999999749
 50
277.589542391855960
 51
0.000000000013028
  0
ARC
  8
0
  6
CONTINUOUS
 62
256
 10
-302.784939462333680
 20
-94.484430563710021
 40
1.000000000000000
 50
0.000000000000000
 51
99.594068226874853
  0
LINE
  8
0
  6
CONTINUOUS
 62
256
 10
-301.784939462333680
 20
-94.484430563710021
 11
-301.784939462333680
 21
-97.534266221548933
  0
ARC
  8
0
  6
CONTINUOUS
 62
256
 10
-302.784939462333680
 20
-97.534266221548933
 40
0.999999999999982
 50
281.212271417643990
 51
0.000000000000000
  0
ARC
  8
0
  6
CONTINUOUS
 62
256
 10
-311.427244307747170
 20
-118.159620891313120
 40
0.999999999999879
 50
193.739795291686020
 51
300.000000000003810
  0
LINE
  8
0
  6
CONTINUOUS
 62
256
 10
-310.927244307747170
 20
-119.025646295097430
 11
-308.183468732722870
 21
-117.441526728261350
  0
ARC
  8
0
  6
CONTINUOUS
 62
256
 10
-299.284939462333680
 20
-115.190709804558520
 40
8.499999999999972
 50
171.618272422157790
 51
188.381727577842210
  0
ARC
  8
0
  6
CONTINUOUS
 62
256
 10
-308.683468732722870
 20
-116.575501324477050
 40
0.999999999999885
 50
300.000000000003810
 51
8.381727577845361
  0
LINE
  8
0
  6
CONTINUOUS
 62
256
 10
-301.784939462333680
 20
-144.482346836312220
 11
-301.784939462333680
 21
-141.458560877685840
  0
LINE
  8
0
  6
CONTINUOUS
 62
256
 10
-301.784939462333680
 20
-135.896989045407050
 11
-301.784939462333680
 21
-132.847153387568140
  0
LINE
  8
0
  6
CONTINUOUS
 62
256
 10
-301.784939462333680
 20
-127.190709804558520
 11
-301.784939462333680
 21
-124.022470670886360
  0
LINE
  8
0
  6
CONTINUOUS
 62
256
 10
-308.427244307747170
 20
-123.355773314019640
 11
-305.683468732722870
 21
-121.771653747183560
  0
LINE
  8
0
  6
CONTINUOUS
 62
256
 10
-315.967103302762670
 20
-127.708912934444020
 11
-313.325868145706520
 21
-126.183995105524450
  0
LINE
  8
0
  6
CONTINUOUS
 62
256
 10
-330.804017874763870
 20
-136.275009556532270
 11
-328.193893356658120
 21
-134.768053463385510
  0
LINE
  8
0
  6
CONTINUOUS
 62
256
 10
-323.402241250265550
 20
-132.001591829896370
 11
-320.783565794488480
 21
-130.489698850583180
  0
ARC
  8
0
  6
CONTINUOUS
 62
256
 10
-299.284939462333680
 20
-115.190709804558520
 40
8.499999999999949
 50
231.618272422157330
 51
248.381727577842410
  0
ARC
  8
0
  6
CONTINUOUS
 62
256
 10
-299.284939462333680
 20
-115.190709804558520
 40
13.499999999999927
 50
226.260204708312130
 51
253.739795291689030
  0
ARC
  8
0
  6
CONTINUOUS
 62
256
 10
-299.284939462333680
 20
-115.190709804558520
 40
16.999999999999773
 50
221.212271417650750
 51
258.787728582349980
  0
ARC
  8
0
  6
CONTINUOUS
 62
256
 10
-299.284939462333680
 20
-115.190709804558520
 40
22.000000000000018
 50
219.594068226860770
 51
260.405931773138780
  0
ARC
  8
0
  6
CONTINUOUS
 62
256
 10
-299.284939462333680
 20
-115.190709804558520
 40
25.499999999999879
 50
217.589542391857920
 51
262.410457608141830
  0
ARC
  8
0
  6
CONTINUOUS
 62
256
 10
-299.284939462333680
 20
-115.190709804558520
 40
33.999999999999972
 50
215.739170477266950
 51
264.260829522733050
  0
ARC
  8
0
  6
CONTINUOUS
 62
256
 10
-299.284939462333680
 20
-115.190709804558520
 40
30.499999999999972
 50
216.813854344181070
 51
263.186145655819020
  0
ARC
  8
0
  6
CONTINUOUS
 62
256
 10
-299.284939462333680
 20
-115.190709804558520
 40
38.999999999999872
 50
215.284732954534800
 51
264.715267045465400
  0
ARC
  8
0
  6
CONTINUOUS
 62
256
 10
-305.183468732722870
 20
-122.637679150967870
 40
0.999999999999961
 50
51.618272422159770
 51
120.000000000004590
  0
ARC
  8
0
  6
CONTINUOUS
 62
256
 10
-302.784939462333680
 20
-124.022470670886360
 40
1.000000000000000
 50
0.000000000000000
 51
68.381727577839243
  0
ARC
  8
0
  6
CONTINUOUS
 62
256
 10
-302.784939462333680
 20
-127.190709804558520
 40
0.999999999999977
 50
253.739795291702850
 51
0.000000000000000
  0
ARC
  8
0
  6
CONTINUOUS
 62
256
 10
-307.927244307747170
 20
-124.221798717803940
 40
0.999999999999885
 50
120.000000000003810
 51
226.260204708329240
  0
ARC
  8
0
  6
CONTINUOUS
 62
256
 10
-312.825868145706520
 20
-127.050020509308960
 40
1.000000000000165
 50
41.212271417643834
 51
119.999999999998080
  0
ARC
  8
0
  6
CONTINUOUS
 62
256
 10
-315.467103302762670
 20
-128.574938338228320
 40
0.999999999999885
 50
120.000000000003810
 51
219.594068226860320
  0
ARC
  8
0
  6
CONTINUOUS
 62
256
 10
-302.784939462333680
 20
-132.847153387568140
 40
1.000000000000000
 50
0.000000000000000
 51
78.787728582356308
  0
ARC
  8
0
  6
CONTINUOUS
 62
256
 10
-302.784939462333680
 20
-135.896989045407050
 40
1.000000000000268
 50
260.405931773124510
 51
0.000000000000000
  0
ARC
  8
0
  6
CONTINUOUS
 62
256
 10
-320.283565794488480
 20
-131.355724254367710
 40
1.000000000000194
 50
37.589542391851786
 51
119.999999999997670
  0
ARC
  8
0
  6
CONTINUOUS
 62
256
 10
-322.902241250265550
 20
-132.867617233680680
 40
0.999999999999885
 50
120.000000000003810
 51
216.813854344195820
  0
ARC
  8
0
  6
CONTINUOUS
 62
256
 10
-302.784939462333680
 20
-141.458560877685840
 40
1.000000000000000
 50
0.000000000000000
 51
82.410457608145990
  0
ARC
  8
0
  6
CONTINUOUS
 62
256
 10
-327.693893356658120
 20
-135.634078867169820
 40
0.999999999999807
 50
35.739170477263514
 51
120.000000000002610
  0
ARC
  8
0
  6
CONTINUOUS
 62
256
 10
-330.304017874763870
 20
-137.141034960316800
 40
1.000000000000082
 50
119.999999999997300
 51
215.284732954534750
  0
ARC
  8
0
  6
CONTINUOUS
 62
256
 10
-333.804017874763870
 20
-131.078857133825520
 40
1.000000000000249
 50
204.715267045455480
 51
300.000000000003300
  0
LINE
  8
0
  6
CONTINUOUS
 62
256
 10
-333.304017874763870
 20
-131.944882537609830
 11
-330.693893356658120
 21
-130.437926444463300
  0
ARC
  8
0
  6
CONTINUOUS
 62
256
 10
-326.402241250265550
 20
-126.805439407189850
 40
0.999999999999730
 50
203.186145655819840
 51
299.999999999997390
  0
LINE
  8
0
  6
CONTINUOUS
 62
256
 10
-325.902241250265550
 20
-127.671464810974380
 11
-323.283565794488030
 21
-126.159571831661420
  0
ARC
  8
0
  6
CONTINUOUS
 62
256
 10
-331.193893356658120
 20
-129.571901040678770
 40
1.000000000000082
 50
299.999999999997270
 51
24.260829522734443
  0
ARC
  8
0
  6
CONTINUOUS
 62
256
 10
-323.783565794488030
 20
-125.293546427876890
 40
1.000000000000082
 50
299.999999999997270
 51
22.410457608146118
  0
ARC
  8
0
  6
CONTINUOUS
 62
256
 10
-318.967103302763120
 20
-122.512760511737270
 40
1.000000000000094
 50
200.405931773138660
 51
300.000000000004150
  0
LINE
  8
0
  6
CONTINUOUS
 62
256
 10
-318.467103302763120
 20
-123.378785915521580
 11
-315.825868145706520
 21
-121.853868086602010
  0
ARC
  8
0
  6
CONTINUOUS
 62
256
 10
-316.325868145706520
 20
-120.987842682817700
 40
0.999999999999885
 50
300.000000000003810
 51
18.787728582347054
  0
LINE
  8
0
  6
CONTINUOUS
 62
256
 10
-301.784939462333680
 20
-153.029182289583560
 11
-301.784939462333680
 21
-150.015270103290280
  0
ARC
  8
0
  6
CONTINUOUS
 62
256
 10
-302.784939462333680
 20
-144.482346836312220
 40
1.000000000000077
 50
263.186145655820330
 51
0.000000000000000
  0
ARC
  8
0
  6
CONTINUOUS
 62
256
 10
-302.784939462333680
 20
-153.029182289583560
 40
1.000000000000042
 50
264.715267045464260
 51
0.000000000000000
  0
ARC
  8
0
  6
CONTINUOUS
 62
256
 10
-302.784939462333680
 20
-150.015270103290280
 40
1.000000000000000
 50
0.000000000000000
 51
84.260829522738462
  0
ARC
  8
0
  6
CONTINUOUS
 62
256
 10
-299.284939462333680
 20
-461.790709804558670
 40
400.599999999999910
 50
84.256318189006564
 51
90.000000000000000
  0
ARC
  8
0
  6
CONTINUOUS
 62
256
 10
-259.854072462246340
 20
-69.768763062260177
 40
6.600000000000278
 50
44.999999999997208
 51
84.256318189005128
  0
ARC
  8
0
  6
CONTINUOUS
 62
256
 10
-299.284939462333680
 20
-461.790709804558670
 40
390.797000000000030
 50
84.582036237639471
 51
90.000000000000000
  0
ARC
  8
0
  6
CONTINUOUS
 62
256
 10
-262.668974523315340
 20
-75.726227728591766
 40
3.000000000000346
 50
44.999999999996930
 51
84.582036237634838
  0
ARC
  8
0
  6
CONTINUOUS
 62
256
 10
-262.668974523315340
 20
-154.655191880525310
 40
3.000000000000067
 50
275.417963762365730
 51
315.000000000003470
  0
ARC
  8
0
  6
CONTINUOUS
 62
256
 10
-299.284939462333680
 20
231.409290195441600
 40
390.797000000000030
 50
270.000000000000000
 51
275.417963762360500
  0
ARC
  8
0
  6
CONTINUOUS
 62
256
 10
-271.913048874814310
 20
-138.730507462470540
 40
20.797000000000015
 50
315.000000000000000
 51
354.998349729064610
  0
LINE
  8
0
  6
CONTINUOUS
 62
256
 10
-257.207349146477670
 20
-153.436207190807180
 11
-260.547654179755340
 21
-156.776512224085080
  0
ARC
  8
0
  6
CONTINUOUS
 62
256
 10
-540.884939462334050
 20
-115.190709804558520
 40
290.797000000000140
 50
354.998349729065010
 51
0.000000000000000
  0
ARC
  8
0
  6
CONTINUOUS
 62
256
 10
-335.900904401352020
 20
-154.655191880525310
 40
3.000000000000346
 50
224.999999999996930
 51
264.582036237634780
  0
ARC
  8
0
  6
CONTINUOUS
 62
256
 10
-299.284939462333680
 20
231.409290195441600
 40
390.797000000000030
 50
264.582036237639500
 51
270.000000000000000
  0
ARC
  8
0
  6
CONTINUOUS
 62
256
 10
-326.656830049853060
 20
-138.730507462470540
 40
20.796999999999880
 50
185.001650270935300
 51
225.000000000000060
  0
LINE
  8
0
  6
CONTINUOUS
 62
256
 10
-341.362529778189700
 20
-153.436207190807180
 11
-338.022224744912020
 21
-156.776512224085080
  0
ARC
  8
0
  6
CONTINUOUS
 62
256
 10
-57.684939462333546
 20
-115.190709804558520
 40
290.797000000000250
 50
180.000000000000000
 51
185.001650270934930
  0
ARC
  8
0
  6
CONTINUOUS
 62
256
 10
-335.900904401352020
 20
-75.726227728591766
 40
3.000000000000067
 50
95.417963762365673
 51
135.000000000003470
  0
ARC
  8
0
  6
CONTINUOUS
 62
256
 10
-299.284939462333680
 20
-461.790709804558670
 40
390.797000000000030
 50
90.000000000000000
 51
95.417963762360529
  0
ARC
  8
0
  6
CONTINUOUS
 62
256
 10
-326.656830049853060
 20
-91.650912146646533
 40
20.797000000000015
 50
135.000000000000000
 51
174.998349729064670
  0
LINE
  8
0
  6
CONTINUOUS
 62
256
 10
-341.362529778189700
 20
-76.945212418309893
 11
-338.022224744912020
 21
-73.604907385031993
  0
ARC
  8
0
  6
CONTINUOUS
 62
256
 10
-57.684939462333546
 20
-115.190709804558520
 40
290.796999999999910
 50
174.998349729065040
 51
180.000000000000000
  0
ARC
  8
0
  6
CONTINUOUS
 62
256
 10
-262.294872224187320
 20
-87.126953173542915
 40
20.599999999999916
 50
5.752282731536487
 51
44.999999999997314
  0
LINE
  8
0
  6
CONTINUOUS
 62
256
 10
-247.728472531743710
 20
-72.560553481100669
 11
-255.187167706414700
 21
-65.101858306428994
  0
ARC
  8
0
  6
CONTINUOUS
 62
256
 10
-540.884939462334050
 20
-115.190709804558520
 40
300.600000000000360
 50
0.000000000000000
 51
5.752282731536604
  0
ARC
  8
0
  6
CONTINUOUS
 62
256
 10
-262.294872224187320
 20
-87.126953173542915
 40
10.797000000000011
 50
5.752282731536912
 51
44.999999999998295
  0
LINE
  8
0
  6
CONTINUOUS
 62
256
 10
-254.660240307715980
 20
-79.492321257072035
 11
-260.547654179755340
 21
-73.604907385031993
  0
ARC
  8
0
  6
CONTINUOUS
 62
256
 10
-540.884939462334050
 20
-115.190709804558520
 40
290.797000000000480
 50
0.000000000000000
 51
5.752282731536623
  0
ARC
  8
0
  6
CONTINUOUS
 62
256
 10
-540.884939462334050
 20
-115.190709804558520
 40
300.599999999999910
 50
354.247717268463420
 51
0.000000000000000
  0
LINE
  8
0
  6
CONTINUOUS
 62
256
 10
-247.728472531743710
 20
-157.820866128016410
 11
-255.187167706414700
 21
-165.279561302688080
  0
ARC
  8
0
  6
CONTINUOUS
 62
256
 10
-262.294872224187320
 20
-143.254466435574160
 40
20.600000000000069
 50
315.000000000002670
 51
354.247717268463480
  0
ARC
  8
0
  6
CONTINUOUS
 62
256
 10
-299.284939462333680
 20
231.409290195441600
 40
400.599999999999910
 50
270.000000000000000
 51
275.743681810993510
  0
ARC
  8
0
  6
CONTINUOUS
 62
256
 10
-259.854072462246340
 20
-160.612656546856900
 40
6.600000000000009
 50
275.743681810995100
 51
315.000000000002790
  0
ARC
  8
0
  6
CONTINUOUS
 62
256
 10
-57.684939462333318
 20
-115.190709804558520
 40
300.600000000000360
 50
180.000000000000000
 51
185.752282731536610
  0
LINE
  8
0
  6
CONTINUOUS
 62
256
 10
-350.841406392923660
 20
-157.820866128016410
 11
-343.382711218252670
 21
-165.279561302688080
  0
ARC
  8
0
  6
CONTINUOUS
 62
256
 10
-336.275006700480050
 20
-143.254466435574160
 40
20.599999999999916
 50
185.752282731536470
 51
224.999999999997300
  0
ARC
  8
0
  6
CONTINUOUS
 62
256
 10
-299.284939462333680
 20
231.409290195441600
 40
400.599999999999910
 50
264.256318189006550
 51
270.000000000000000
  0
ARC
  8
0
  6
CONTINUOUS
 62
256
 10
-338.715806462421030
 20
-160.612656546856900
 40
6.600000000000278
 50
224.999999999997190
 51
264.256318189004620
  0
ARC
  8
0
  6
CONTINUOUS
 62
256
 10
-57.684939462333318
 20
-115.190709804558520
 40
300.599999999999910
 50
174.247717268463390
 51
180.000000000000000
  0
LINE
  8
0
  6
CONTINUOUS
 62
256
 10
-350.841406392923660
 20
-72.560553481100669
 11
-343.382711218252670
 21
-65.101858306428994
  0
ARC
  8
0
  6
CONTINUOUS
 62
256
 10
-336.275006700480050
 20
-87.126953173542915
 40
20.600000000000069
 50
135.000000000002700
 51
174.247717268463480
  0
ARC
  8
0
  6
CONTINUOUS
 62
256
 10
-299.284939462333680
 20
-461.790709804558670
 40
400.599999999999910
 50
90.000000000000000
 51
95.743681810993436
  0
ARC
  8
0
  6
CONTINUOUS
 62
256
 10
-338.715806462421030
 20
-69.768763062260177
 40
6.600000000000009
 50
95.743681810995113
 51
135.000000000002870
  0
LINE
  8
0
  6
CONTINUOUS
 62
256
 10
-241.784939462333680
 20
-85.202723950128302
 11
-241.784939462333680
 21
-79.190709804558765
  0
LINE
  8
0
  6
CONTINUOUS
 62
256
 10
-243.284978979135870
 20
-79.190709804558765
 11
-241.784939462333680
 21
-79.190709804558765
  0
LINE
  8
0
  6
CONTINUOUS
 62
256
 10
-243.284978979135870
 20
-151.190709804558310
 11
-241.784939462333680
 21
-151.190709804558310
  0
LINE
  8
0
  6
CONTINUOUS
 62
256
 10
-241.784939462333680
 20
-151.190709804558540
 11
-241.784939462333680
 21
-145.183208866820910
  0
LINE
  8
0
  6
DASHDOT
 62
256
 10
-243.593118929708570
 20
-44.498889271924270
 11
-229.742457054354080
 21
-30.648227396567904
  0
LINE
  8
0
  6
DASHDOT
 62
256
 10
-369.011424441571310
 20
-30.464224825333872
 11
-355.369506362654080
 21
-44.106142904248770
  0
LINE
  8
0
  6
DASHDOT
 62
256
 10
-369.136616394845420
 20
-170.042386737081070
 11
-354.899401653953530
 21
-155.805171996187200
  0
LINE
  8
0
  6
DASHDOT
 62
256
 10
-243.971638149125400
 20
-155.504011117759030
 11
-229.751500601560170
 21
-169.724148665322390
  0
LINE
  8
0
  6
DASHDOT
 62
256
 10
-299.284939462333680
 20
-18.406481162793625
 11
-299.284939462333680
 21
-186.911836673291420
  0
ARC
  8
0
  6
CONTINUOUS
 62
256
 10
-273.534939462333680
 20
-60.335247358385573
 40
1.000000000000000
 50
0.000000000000000
 51
79.855205773680638
  0
ARC
  8
0
  6
CONTINUOUS
 62
256
 10
-361.284939462333680
 20
-112.440709804558650
 40
1.000000000000000
 50
90.000000000000000
 51
180.000000000000000
  0
ARC
  8
0
  6
CONTINUOUS
 62
256
 10
-361.128535133571060
 20
-99.940709804558651
 40
1.000000000000224
 50
175.167582959104580
 51
270.000000000000000
  0
ARC
  8
0
  6
CONTINUOUS
 62
256
 10
-325.034939462333680
 20
-60.335247358385573
 40
1.000000000000064
 50
100.144794226318720
 51
180.000000000000000
  0
ARC
  8
0
  6
CONTINUOUS
 62
256
 10
-342.284939462333680
 20
-135.610913780181480
 40
20.000000000000000
 50
180.000000000000000
 51
225.000000000000450
  0
ARC
  8
0
  6
CONTINUOUS
 62
256
 10
-299.284939462333680
 20
-458.190709804558540
 40
400.000000000000000
 50
90.000000000000000
 51
92.906384370709901
  0
ARC
  8
0
  6
CONTINUOUS
 62
256
 10
-299.284939462333680
 20
-458.190709804558540
 40
399.999999999999940
 50
87.093615629290099
 51
90.000000000000000
  0
LINE
  8
0
  6
CONTINUOUS
 62
256
 10
-362.284939462333680
 20
-103.647341512328300
 11
-362.284939462333680
 21
-135.610913780181480
  0
CIRCLE
  8
0
  6
CONTINUOUS
 62
256
 10
-235.645329155540710
 20
-163.830320111342640
 40
5.000000000000000
  0
CIRCLE
  8
0
  6
CONTINUOUS
 62
256
 10
-362.924549769119150
 20
-163.830320111352420
 40
5.000000000000000
  0
CIRCLE
  8
0
  6
CONTINUOUS
 62
256
 10
-362.924549769128930
 20
-36.551099497773976
 40
5.000000000000000
  0
ARC
  8
0
  6
DASHDOT
 62
256
 10
-299.284939462334820
 20
-100.190709804558310
 40
89.999999999999815
 50
38.633392784995969
 51
51.366607215015975
  0
CIRCLE
  8
0
  6
CONTINUOUS
 62
256
 10
-235.645329155550480
 20
-36.551099497764199
 40
5.000000000000000
  0
ARC
  8
0
  6
CONTINUOUS
 62
256
 10
-234.784939462334820
 20
-35.690709804558310
 40
8.000000000000000
 50
0.000000000000000
 51
90.000000000000000
  0
ARC
  8
0
  6
DASHDOT
 62
256
 10
-299.284939462335050
 20
-100.190709804558520
 40
89.999999999999972
 50
308.633392784996090
 51
321.366607215015960
  0
ARC
  8
0
  6
CONTINUOUS
 62
256
 10
-234.784939462334820
 20
-164.690709804558310
 40
8.000000000000000
 50
270.000000000000000
 51
0.000000000000000
  0
ARC
  8
0
  6
DASHDOT
 62
256
 10
-299.284939462335050
 20
-100.190709804558310
 40
89.999999999999972
 50
218.633392784996090
 51
231.366607215015930
  0
ARC
  8
0
  6
CONTINUOUS
 62
256
 10
-363.784939462334820
 20
-164.690709804558310
 40
8.000000000000000
 50
180.000000000000000
 51
270.000000000000000
  0
ARC
  8
0
  6
DASHDOT
 62
256
 10
-299.284939462334820
 20
-100.190709804558310
 40
89.999999999999943
 50
128.633392784996090
 51
141.366607215015960
  0
ARC
  8
0
  6
CONTINUOUS
 62
256
 10
-363.784939462334820
 20
-35.690709804558310
 40
8.000000000000000
 50
90.000000000000000
 51
180.000000000000000
  0
ARC
  8
0
  6
CONTINUOUS
 62
256
 10
-295.284939462333450
 20
-35.199437337022630
 40
2.000000000000000
 50
90.000000000000000
 51
180.000000000000000
  0
ARC
  8
0
  6
CONTINUOUS
 62
256
 10
-303.284939462333450
 20
-35.199437337022630
 40
2.000000000000000
 50
0.000000000000000
 51
90.000000000000000
  0
ARC
  8
0
  6
CONTINUOUS
 62
256
 10
-303.284939462333450
 20
-56.210610794669719
 40
2.000000000000030
 50
270.570116666734690
 51
0.000000000000000
  0
ARC
  8
0
  6
CONTINUOUS
 62
256
 10
-295.284939462333450
 20
-56.210610794669719
 40
2.000000000000000
 50
180.000000000000000
 51
269.429883333265310
  0
ARC
  8
0
  6
CONTINUOUS
 62
256
 10
-242.970854136075450
 20
-49.533478727786132
 40
1.999999999999976
 50
44.999999999998849
 51
135.000000000001140
  0
ARC
  8
0
  6
CONTINUOUS
 62
256
 10
-248.627708385567640
 20
-43.876624478293820
 40
1.999999999999815
 50
314.999999999996530
 51
45.000000000004604
  0
ARC
  8
0
  6
CONTINUOUS
 62
256
 10
-264.498401144917470
 20
-59.747317237643472
 40
2.000000000000053
 50
249.074092097575060
 51
314.999999999999430
  0
ARC
  8
0
  6
CONTINUOUS
 62
256
 10
-355.599024788592150
 20
-49.533478727786189
 40
2.000000000000177
 50
44.999999999995396
 51
134.999999999995400
  0
ARC
  8
0
  6
CONTINUOUS
 62
256
 10
-349.942170539099720
 20
-43.876624478293820
 40
1.999999999999855
 50
134.999999999995400
 51
225.000000000004010
  0
ARC
  8
0
  6
CONTINUOUS
 62
256
 10
-334.071477779749900
 20
-59.747317237643529
 40
2.000000000000016
 50
225.000000000000000
 51
290.925907902425370
  0
LINE
  8
0
  6
CONTINUOUS
 62
256
 10
-363.784939462334820
 20
-172.690709804558310
 11
-234.784939462334820
 21
-172.690709804558310
  0
LINE
  8
0
  6
CONTINUOUS
 62
256
 10
-371.784939462334820
 20
-35.690709804558310
 11
-371.784939462334820
 21
-164.690709804558310
  0
LINE
  8
0
  6
CONTINUOUS
 62
256
 10
-363.784939462334820
 20
-27.690709804558310
 11
-234.284939462334820
 21
-27.690709804558310
  0
LINE
  8
0
  6
CONTINUOUS
 62
256
 10
-297.284939462333450
 20
-35.199437337022630
 11
-297.284939462333450
 21
-56.210610794669719
  0
LINE
  8
0
  6
CONTINUOUS
 62
256
 10
-301.284939462333450
 20
-35.199437337022630
 11
-301.284939462333450
 21
-56.210610794669719
  0
LINE
  8
0
  6
CONTINUOUS
 62
256
 10
-244.385067698448550
 20
-48.119265165413083
 11
-258.317595719521590
 21
-62.051793186486179
  0
LINE
  8
0
  6
CONTINUOUS
 62
256
 10
-247.213494823194760
 20
-45.290838040666870
 11
-263.084187582544360
 21
-61.161530800016578
  0
LINE
  8
0
  6
CONTINUOUS
 62
256
 10
-354.184811226218810
 20
-48.119265165413083
 11
-340.252283205145770
 21
-62.051793186486179
  0
LINE
  8
0
  6
CONTINUOUS
 62
256
 10
-351.356384101472600
 20
-45.290838040666870
 11
-335.485691342123000
 21
-61.161530800016635
  0
LINE
  8
0
  6
CONTINUOUS
 62
256
 10
72.206197909460386
 20
141.582798909396840
 11
72.206197909460386
 21
150.082797002048210
  0
LINE
  8
0
  6
CONTINUOUS
 62
256
 10
77.206197909460386
 20
150.082797002048210
 11
72.206197909460386
 21
150.082797002048210
  0
LINE
  8
0
  6
CONTINUOUS
 62
256
 10
77.206197909460386
 20
141.582798909396840
 11
72.206197909460386
 21
141.582798909396840
  0
LINE
  8
0
  6
CONTINUOUS
 62
256
 10
72.206197909460386
 20
86.082797002048210
 11
72.206197909460386
 21
77.582798909396843
  0
LINE
  8
0
  6
CONTINUOUS
 62
256
 10
77.206197909460386
 20
77.582798909396843
 11
72.206197909460386
 21
77.582798909396843
  0
LINE
  8
0
  6
CONTINUOUS
 62
256
 10
77.206197909460386
 20
86.082797002048210
 11
72.206197909460386
 21
86.082797002048210
  0
LINE
  8
0
  6
CONTINUOUS
 62
256
 10
77.206197909460386
 20
-110.440335084784220
 11
72.206197909460386
 21
-110.440335084784220
  0
LINE
  8
0
  6
CONTINUOUS
 62
256
 10
77.206197909460386
 20
-101.940336992132870
 11
72.206197909460386
 21
-101.940336992132870
  0
LINE
  8
0
  6
CONTINUOUS
 62
256
 10
72.206197909460386
 20
-110.440335084784220
 11
72.206197909460386
 21
-101.940336992132870
  0
LINE
  8
0
  6
CONTINUOUS
 62
256
 10
56.706197146520935
 20
159.965880550605220
 11
75.206197146520935
 21
159.965880550605220
  0
LINE
  8
0
  6
CONTINUOUS
 62
256
 10
56.706197146520935
 20
154.874711726062290
 11
75.206197146520935
 21
154.874711726062290
  0
LINE
  8
0
  6
CONTINUOUS
 62
256
 10
56.706197146520935
 20
147.136398907231300
 11
72.206197909460386
 21
147.136398907231300
  0
LINE
  8
0
  6
CONTINUOUS
 62
256
 10
56.706197146520935
 20
145.547189114492540
 11
72.206197909460386
 21
145.547189114492540
  0
LINE
  8
0
  6
CONTINUOUS
 62
256
 10
56.706197146520935
 20
142.589193506359610
 11
72.206197909460386
 21
142.589193506359610
  0
LINE
  8
0
  6
CONTINUOUS
 62
256
 10
56.706197146520935
 20
141.110170352882510
 11
75.206197146520935
 21
141.110170352882510
  0
LINE
  8
0
  6
CONTINUOUS
 62
256
 10
56.706197146520935
 20
138.017439361217270
 11
75.206197146520935
 21
138.017439361217270
  0
LINE
  8
0
  6
CONTINUOUS
 62
256
 10
56.706197146520935
 20
136.671037635718680
 11
75.206197146520935
 21
136.671037635718680
  0
LINE
  8
0
  6
CONTINUOUS
 62
256
 10
56.706197146520935
 20
133.460832612360380
 11
75.206197146520935
 21
133.460832612360380
  0
LINE
  8
0
  6
CONTINUOUS
 62
256
 10
56.706197146520935
 20
132.218912747472470
 11
75.206197146520935
 21
132.218912747472470
  0
LINE
  8
0
  6
CONTINUOUS
 62
256
 10
56.706197146520935
 20
127.832797955722530
 11
75.206197146520935
 21
127.832797955722530
  0
LINE
  8
0
  6
CONTINUOUS
 62
256
 10
56.706197146520935
 20
99.832797955722526
 11
75.206197146520935
 21
99.832797955722526
  0
LINE
  8
0
  6
CONTINUOUS
 62
256
 10
56.706197146520935
 20
94.204763299084675
 11
75.206197146520935
 21
94.204763299084675
  0
LINE
  8
0
  6
CONTINUOUS
 62
256
 10
56.706197146520935
 20
95.446683163972594
 11
75.206197146520935
 21
95.446683163972580
  0
LINE
  8
0
  6
CONTINUOUS
 62
256
 10
56.706197146520935
 20
89.648156550227782
 11
75.206197146520935
 21
89.648156550227782
  0
LINE
  8
0
  6
CONTINUOUS
 62
256
 10
56.706197146520935
 20
90.994558275726376
 11
75.206197146520935
 21
90.994558275726376
  0
LINE
  8
0
  6
CONTINUOUS
 62
256
 10
56.706197146520935
 20
86.555425558562561
 11
75.206197146520935
 21
86.555425558562547
  0
LINE
  8
0
  6
CONTINUOUS
 62
256
 10
56.706197146520935
 20
85.076402405085446
 11
72.206197909460386
 21
85.076402405085446
  0
LINE
  8
0
  6
CONTINUOUS
 62
256
 10
56.706197146520935
 20
82.118406796952513
 11
72.206197909460386
 21
82.118406796952513
  0
LINE
  8
0
  6
CONTINUOUS
 62
256
 10
56.706197146520935
 20
80.529197004213756
 11
72.206197909460386
 21
80.529197004213756
  0
LINE
  8
0
  6
CONTINUOUS
 62
256
 10
56.706197146520935
 20
72.790884185382765
 11
75.206197146520935
 21
72.790884185382765
  0
LINE
  8
0
  6
CONTINUOUS
 62
256
 10
56.706197146520935
 20
67.699715360839832
 11
75.206197146520935
 21
67.699715360839832
  0
LINE
  8
0
  6
CONTINUOUS
 62
256
 10
75.206197146520935
 20
-99.690709804558537
 11
75.206197146520935
 21
-101.940336992132870
  0
LINE
  8
0
  6
CONTINUOUS
 62
256
 10
122.206197146520940
 20
-107.190709804562180
 11
122.206197146520940
 21
-153.588531863266330
  0
TEXT
  8
0
  6
CONTINUOUS
 62
256
 10
-326.859100341796870
 20
61.354751586914062
 40
7.919999599456787
  1
ＳＣＡＬＥ１／１
 50
0.000002504478167
 41
0.984848598876354
  7
STANDARD1
  0
TEXT
  8
0
  6
CONTINUOUS
 62
256
 10
-326.859100341796870
 20
74.074752807617187
 40
7.919999599456787
  1
１／３～１／５０
 50
0.000002504478167
 41
0.984848598876354
  7
STANDARD1
  0
TEXT
  8
0
  6
CONTINUOUS
 62
256
 10
-326.859100341796870
 20
86.794754028320313
 40
7.919999599456787
  1
０．１ｋＷ
 50
0.000002504478167
 41
0.984848598876354
  7
STANDARD1
  0
TEXT
  8
0
  6
CONTINUOUS
 62
256
 10
-326.859100341796870
 20
99.514755249023438
 40
7.919999599456787
  1
ＧＭ－ＳＦＳＢ
 50
0.000002504478167
 41
0.984848598876354
  7
STANDARD1
  0
TEXT
  8
0
  6
CONTINUOUS
 62
256
 10
-326.859100341796870
 20
112.234756469726560
 40
7.919999599456787
  1
三菱ギヤードモートル
 50
0.000002504478167
 41
0.984848598876354
  7
STANDARD1
  0
TEXT
  8
0
  6
CONTINUOUS
 62
256
 10
-326.859100341796870
 20
124.954757690429690
 40
7.919999599456787
  1
Ｓ１８９
 50
0.000002504478167
 41
0.984848598876354
  7
STANDARD1
  0
LINE
  8
0
  6
CONTINUOUS
 62
256
 10
-248.868226098602890
 20
-71.420799914241243
 11
-248.381422706897300
 21
-70.933996522535622
  0
LINE
  8
0
  6
CONTINUOUS
 62
256
 10
-255.515029572016630
 20
-64.773996440827531
 11
-255.028226180311010
 21
-64.287193049121910
  0
LINE
  8
0
  6
CONTINUOUS
 62
256
 10
-248.555087489634130
 20
-71.168252963390870
 11
-255.232186792107030
 21
-64.491153660917959
  0
LINE
  8
0
  6
CONTINUOUS
 62
256
 10
-248.868226098602890
 20
-71.420799914241243
 11
-255.515029572016630
 21
-64.773996440827531
  0
POINT
  8
0
  6
CONTINUOUS
 62
256
 10
-252.191627835309760
 20
-68.097398177534387
  0
ARC
  8
0
  6
CONTINUOUS
 62
256
 10
-254.454369400236800
 20
-70.360139742461428
 40
6.099999427795398
 50
354.601910595264880
 51
95.398072101890989
  0
LINE
  8
0
  6
CONTINUOUS
 62
256
 10
-248.868226098602890
 20
-158.960619694875590
 11
-248.381422706897300
 21
-159.447423086581210
  0
LINE
  8
0
  6
CONTINUOUS
 62
256
 10
-255.515029572016630
 20
-165.607423168289330
 11
-255.028226180311010
 21
-166.094226559994920
  0
LINE
  8
0
  6
CONTINUOUS
 62
256
 10
-248.555087489634130
 20
-159.213166645725980
 11
-255.232186792107030
 21
-165.890265948198900
  0
LINE
  8
0
  6
CONTINUOUS
 62
256
 10
-248.868226098602890
 20
-158.960619694875590
 11
-255.515029572016630
 21
-165.607423168289330
  0
POINT
  8
0
  6
CONTINUOUS
 62
256
 10
-252.191627835309760
 20
-162.284021431582460
  0
ARC
  8
0
  6
CONTINUOUS
 62
256
 10
-254.454369400236800
 20
-160.021279866655420
 40
6.099999427795400
 50
264.601927898109010
 51
5.398089404735109
  0
LINE
  8
0
  6
CONTINUOUS
 62
256
 10
-349.701652826064450
 20
-71.420799914241243
 11
-350.188456217770070
 21
-70.933996522535622
  0
LINE
  8
0
  6
CONTINUOUS
 62
256
 10
-343.054849352650760
 20
-64.773996440827531
 11
-343.541652744356380
 21
-64.287193049121910
  0
LINE
  8
0
  6
CONTINUOUS
 62
256
 10
-350.014791435033260
 20
-71.168252963390870
 11
-343.337692132560330
 21
-64.491153660917959
  0
LINE
  8
0
  6
CONTINUOUS
 62
256
 10
-349.701652826064450
 20
-71.420799914241243
 11
-343.054849352650760
 21
-64.773996440827531
  0
POINT
  8
0
  6
CONTINUOUS
 62
256
 10
-346.378251089357600
 20
-68.097398177534387
  0
ARC
  8
0
  6
CONTINUOUS
 62
256
 10
-344.115509524430590
 20
-70.360139742461428
 40
6.099999427795419
 50
84.601927898108499
 51
185.398089404735090
  0
LINE
  8
0
  6
CONTINUOUS
 62
256
 10
-349.701652826064450
 20
-158.960619694875590
 11
-350.188456217770070
 21
-159.447423086581210
  0
LINE
  8
0
  6
CONTINUOUS
 62
256
 10
-343.054849352650760
 20
-165.607423168289330
 11
-343.541652744356380
 21
-166.094226559994920
  0
LINE
  8
0
  6
CONTINUOUS
 62
256
 10
-350.014791435033260
 20
-159.213166645725980
 11
-343.337692132560330
 21
-165.890265948198900
  0
LINE
  8
0
  6
CONTINUOUS
 62
256
 10
-349.701652826064450
 20
-158.960619694875590
 11
-343.054849352650760
 21
-165.607423168289330
  0
POINT
  8
0
  6
CONTINUOUS
 62
256
 10
-346.378251089357600
 20
-162.284021431582460
  0
ARC
  8
0
  6
CONTINUOUS
 62
256
 10
-344.115509524430590
 20
-160.021279866655420
 40
6.099999427795398
 50
174.601910595264910
 51
275.398072101891500
  0
LINE
  8
0
  6
CONTINUOUS
 62
256
 10
131.443756710826160
 20
-35.190709804558537
 11
129.206197146520940
 21
-35.190709804558537
  0
LINE
  8
0
  6
CONTINUOUS
 62
256
 10
131.443756710826160
 20
-165.190709804558540
 11
129.206197146520940
 21
-165.190709804558540
  0
LINE
  8
0
  6
CONTINUOUS
 62
256
 10
131.443753788355590
 20
178.832797955722530
 11
129.206197146520940
 21
178.832797955722530
  0
LINE
  8
0
  6
CONTINUOUS
 62
256
 10
131.392990473811840
 20
48.832797955722526
 11
129.206197146520940
 21
48.832797955722526
  0
ENDSEC
  0
EOF
