  0
SECTION
  2
HEADER
  9
$TEXTSIZE
 40
2.5
  9
$ACADVER
  1
AC1009
  9
$DIMASZ
 40
3.863703297614046
  9
$DIMEXE
 40
2.000000000000000
  9
$DIMEXO
 40
1.000000000000000
  9
$DIMLFAC
 40
1.000000000000000
  9
$DIMSCALE
 40
1.000000000000000
  9
$DIMTAD
 70
1
  9
$DIMTFAC
 40
0.625000000000000
  9
$DIMTXT
 40
3.200000047683716
  9
$LUPREC
 70
3
  9
$REGENMODE
 70
1
  9
$TEXTSTYLE
  7
STANDARD1
  0
ENDSEC
  0
SECTION
  2
TABLES
  0
TABLE
  2
LTYPE
 70
4
  0
LTYPE
  2
CONTINUOUS
 70
64
  3
Solid line
 72
65
 73
0
 40
0.0
  0
LTYPE
  2
DASHED
 70
64
  3
-- -- -- -- -- -- -- -- -- -- -- -- -- -- --
 72
65
 73
2
 40
0.75
 49
0.5
 49
-0.25
  0
LTYPE
  2
DASHDOT
 70
64
  3
__ . __ . __ . __ . __ . __ . __ . __ . __ . __
 72
65
 73
4
 40
1.0
 49
0.5
 49
-0.25
 49
0.0
 49
-0.25
  0
LTYPE
  2
DIVIDE
 70
64
  3
__ . . __ . . __ . . __ . . __ . . __ . . __
 72
65
 73
6
 40
1.25
 49
0.5
 49
-0.25
 49
0.0
 49
-0.25
 49
0.0
 49
-0.25
  0
ENDTAB
  0
TABLE
  2
LAYER
 70
1
  0
LAYER
  2
0
 70
64
 62
2
  6
CONTINUOUS
  0
ENDTAB
  0
TABLE
  2
STYLE
 70
4
  0
STYLE
  2
STANDARD1
 70
64
 40
0.0
 41
1.0
 50
0.0
 71
0
 42
3.200000047683716
  3
MONOTXT
  4
BIGFONT
  0
STYLE
  2
STANDARD2
 70
68
 40
0.0
 41
1.0
 50
0.0
 71
0
 42
3.200000047683716
  3
MONOTXT
  4
BIGFONT
  0
STYLE
  2
STANDARD3
 70
64
 40
0.0
 41
1.0
 50
0.0
 71
0
 42
3.200000047683716
  3
MONOTXT
  4

  0
STYLE
  2
STANDARD4
 70
68
 40
0.0
 41
1.0
 50
0.0
 71
0
 42
3.200000047683716
  3
MONOTXT
  4

  0
ENDTAB
  0
TABLE
  2
VIEW
 70
0
  0
ENDTAB
  0
ENDSEC
  0
SECTION
  2
BLOCKS
  0
ENDSEC
  0
SECTION
  2
ENTITIES
  0
ARC
  8
0
  6
CONTINUOUS
 62
256
 10
169.370865501876780
 20
-85.854222497974675
 40
0.399999999999636
 50
0.000000000000000
 51
90.000000000000000
  0
LINE
  8
0
  6
CONTINUOUS
 62
256
 10
169.370865501876780
 20
-85.454222497975024
 11
144.330673123012280
 21
-85.454222497975024
  0
LINE
  8
0
  6
CONTINUOUS
 62
256
 10
143.770865501876870
 20
-85.604222497974675
 11
142.170865501876960
 21
-85.604222497974675
  0
LINE
  8
0
  6
CONTINUOUS
 62
256
 10
144.330673123012280
 20
-85.454222497975024
 11
143.770865501876870
 21
-85.604222497974675
  0
ARC
  8
0
  6
CONTINUOUS
 62
256
 10
142.170865501876960
 20
-85.204222497975024
 40
0.399999999999636
 50
180.000000000000000
 51
270.000000000000000
  0
LINE
  8
0
  6
CONTINUOUS
 62
256
 10
169.770865501876870
 20
-94.954222497975039
 11
169.770865501876870
 21
-85.854222497974675
  0
LINE
  8
0
  6
CONTINUOUS
 62
256
 10
169.770865501876840
 20
115.521746941324640
 11
169.770865501876840
 21
103.521746941324650
  0
LINE
  8
0
  6
CONTINUOUS
 62
256
 10
169.770865501876840
 20
103.521746941324650
 11
144.770866515741520
 21
103.521746941324650
  0
LINE
  8
0
  6
CONTINUOUS
 62
256
 10
144.770865501876840
 20
106.021746941324650
 11
144.770865501876840
 21
103.521746941324650
  0
LINE
  8
0
  6
CONTINUOUS
 62
256
 10
144.330673123012250
 20
106.021746941324640
 11
143.770865501876840
 21
106.171746941324270
  0
LINE
  8
0
  6
CONTINUOUS
 62
256
 10
143.770865501876840
 20
106.171746941324270
 11
142.170865501876930
 21
106.171746941324270
  0
LINE
  8
0
  6
CONTINUOUS
 62
256
 10
169.370865501876750
 20
106.021746941324640
 11
144.330673123012250
 21
106.021746941324640
  0
ARC
  8
0
  6
CONTINUOUS
 62
256
 10
142.170865501876930
 20
105.771746941324180
 40
0.400000000000091
 50
90.000000000000000
 51
180.000000000000000
  0
ARC
  8
0
  6
CONTINUOUS
 62
256
 10
169.370865501876750
 20
106.421746941324270
 40
0.400000000000091
 50
270.000000000000000
 51
0.000000000000000
  0
ARC
  8
0
  6
CONTINUOUS
 62
256
 10
142.170865501876960
 20
125.271746941325090
 40
0.400000000000091
 50
180.000000000000000
 51
270.000000000000000
  0
LINE
  8
0
  6
CONTINUOUS
 62
256
 10
147.658910610465230
 20
-91.953978357350024
 11
169.770865501876870
 21
-91.953978357350024
  0
ARC
  8
0
  6
CONTINUOUS
 62
256
 10
147.658910610465230
 20
-94.842023465937928
 40
2.888045108587903
 50
90.000000000000000
 51
182.226471171998070
  0
LINE
  8
0
  6
CONTINUOUS
 62
256
 10
48.770848609168752
 20
-112.954222497975020
 11
48.770848609168752
 21
-60.454222497975024
  0
LINE
  8
0
  6
CONTINUOUS
 62
256
 10
48.770848609169320
 20
-165.467315458759910
 11
48.770848609168752
 21
-112.954222497975020
  0
LINE
  8
0
  6
CONTINUOUS
 62
256
 10
48.770848609168752
 20
-60.454222497975024
 11
48.770848609168752
 21
-112.954222497975020
  0
CIRCLE
  8
0
  6
CONTINUOUS
 62
256
 10
299.648449087229890
 20
-94.954222497975024
 40
2.458500000000015
  0
CIRCLE
  8
0
  6
CONTINUOUS
 62
256
 10
299.648449087229890
 20
-94.954222497975024
 40
3.000000000000000
  0
ARC
  8
0
  6
CONTINUOUS
 62
256
 10
299.648449087229890
 20
-94.954222497975024
 40
9.500000000000016
 50
198.434948822922880
 51
161.591512067616610
  0
LINE
  8
0
  6
CONTINUOUS
 62
256
 10
293.648449087229890
 20
-97.954222497975024
 11
293.648449087229890
 21
-91.954222497975024
  0
LINE
  8
0
  6
CONTINUOUS
 62
256
 10
287.648449087229890
 20
-97.954222497975024
 11
287.648449087229890
 21
-91.954222497975024
  0
LINE
  8
0
  6
CONTINUOUS
 62
256
 10
293.648449087229890
 20
-97.954222497975024
 11
287.648449087229890
 21
-97.954222497975024
  0
LINE
  8
0
  6
CONTINUOUS
 62
256
 10
293.648449087229890
 20
-91.954222497975024
 11
287.648449087229890
 21
-91.954222497975024
  0
LINE
  8
0
  6
CONTINUOUS
 62
256
 10
370.148449087229890
 20
-99.954222497975024
 11
369.297569684693370
 21
-99.954222497975024
  0
LINE
  8
0
  6
CONTINUOUS
 62
256
 10
370.148449087229890
 20
-89.954222497975024
 11
369.297569684693370
 21
-89.954222497975024
  0
LINE
  8
0
  6
CONTINUOUS
 62
256
 10
229.148449087229890
 20
-99.954222497975024
 11
229.999328489766410
 21
-99.954222497975024
  0
LINE
  8
0
  6
CONTINUOUS
 62
256
 10
229.148449087229890
 20
-89.954222497975024
 11
229.999328489766410
 21
-89.954222497975024
  0
LINE
  8
0
  6
DASHDOT
 62
256
 10
299.648449087229890
 20
-184.296766970032050
 11
299.648449087229890
 21
-15.028092535248106
  0
LINE
  8
0
  6
DASHDOT
 62
256
 10
196.370337720508360
 20
-94.954222497975024
 11
381.932770350128520
 21
-94.954222497975024
  0
LINE
  8
0
  6
CONTINUOUS
 62
256
 10
227.148449087229890
 20
-158.954222497975050
 11
227.148449087229890
 21
-30.954222497975024
  0
LINE
  8
0
  6
DASHDOT
 62
256
 10
357.276905345758000
 20
-37.325766239447432
 11
369.165567292704740
 21
-25.437104292500692
  0
LINE
  8
0
  6
DASHDOT
 62
256
 10
242.028231288538110
 20
-37.334004699283753
 11
230.048794170403880
 21
-25.354567581149524
  0
LINE
  8
0
  6
DASHDOT
 62
256
 10
242.145411789755370
 20
-152.457259795449150
 11
230.230071042807820
 21
-164.372600542396700
  0
LINE
  8
0
  6
DASHDOT
 62
256
 10
356.702532584489060
 20
-152.008305995233800
 11
369.069939856069370
 21
-164.375713266814100
  0
LINE
  8
0
  6
CONTINUOUS
 62
256
 10
235.648449087229890
 20
-22.454222497975024
 11
363.648449087229890
 21
-22.454222497975024
  0
LINE
  8
0
  6
CONTINUOUS
 62
256
 10
344.078193934283260
 20
-33.553914902445285
 11
354.592099901126400
 21
-23.040008935601691
  0
LINE
  8
0
  6
CONTINUOUS
 62
256
 10
361.048756682760540
 20
-50.524477650921654
 11
371.562662649602770
 21
-40.010571684079878
  0
LINE
  8
0
  6
CONTINUOUS
 62
256
 10
372.148449087229890
 20
-158.954222497975050
 11
372.148449087229890
 21
-30.954222497975024
  0
LINE
  8
0
  6
CONTINUOUS
 62
256
 10
254.148449087229890
 20
-167.454222497975050
 11
235.648449087229890
 21
-167.454222497975050
  0
LINE
  8
0
  6
CONTINUOUS
 62
256
 10
342.148449087229890
 20
-172.954222497975050
 11
342.148449087229890
 21
-170.454222497975050
  0
LINE
  8
0
  6
CONTINUOUS
 62
256
 10
299.648449087229890
 20
-174.954222497975050
 11
340.148449087229890
 21
-174.954222497975050
  0
LINE
  8
0
  6
CONTINUOUS
 62
256
 10
299.648449087229890
 20
-174.954222497975050
 11
259.148449087229890
 21
-174.954222497975050
  0
LINE
  8
0
  6
CONTINUOUS
 62
256
 10
257.148449087229890
 20
-172.954222497975050
 11
257.148449087229890
 21
-170.454222497975050
  0
LINE
  8
0
  6
CONTINUOUS
 62
256
 10
345.148449087229890
 20
-167.454222497975050
 11
363.648449087229890
 21
-167.454222497975050
  0
LINE
  8
0
  6
CONTINUOUS
 62
256
 10
238.248141491699240
 20
-50.524477650921654
 11
227.734235524857010
 21
-40.010571684079878
  0
LINE
  8
0
  6
CONTINUOUS
 62
256
 10
255.218704240176070
 20
-33.553914902445285
 11
244.704798273333380
 21
-23.040008935601691
  0
LINE
  8
0
  6
CONTINUOUS
 62
256
 10
238.248141491699240
 20
-139.383967345028400
 11
227.734235524857010
 21
-149.897873311870200
  0
LINE
  8
0
  6
CONTINUOUS
 62
256
 10
255.218704240176070
 20
-156.354530093504790
 11
244.704798273333380
 21
-166.868436060348390
  0
LINE
  8
0
  6
CONTINUOUS
 62
256
 10
361.048756682760540
 20
-139.383967345028400
 11
371.562662649602770
 21
-149.897873311870200
  0
LINE
  8
0
  6
CONTINUOUS
 62
256
 10
344.078193934283260
 20
-156.354530093504790
 11
354.592099901126400
 21
-166.868436060348390
  0
ARC
  8
0
  6
CONTINUOUS
 62
256
 10
370.148449087229890
 20
-97.954222497975024
 40
2.000000000000000
 50
270.000000000000000
 51
0.000000000000000
  0
ARC
  8
0
  6
CONTINUOUS
 62
256
 10
369.297569684693370
 20
-101.954222497975020
 40
2.000000000000000
 50
90.000000000000000
 51
174.260829522738450
  0
ARC
  8
0
  6
CONTINUOUS
 62
256
 10
370.148449087229890
 20
-91.954222497975024
 40
2.000000000000000
 50
0.000000000000000
 51
90.000000000000000
  0
ARC
  8
0
  6
CONTINUOUS
 62
256
 10
369.297569684693370
 20
-87.954222497975024
 40
1.999999999999945
 50
185.739170477261690
 51
270.000000000000000
  0
ARC
  8
0
  6
CONTINUOUS
 62
256
 10
229.999328489766410
 20
-87.954222497975024
 40
2.000000000000000
 50
270.000000000000000
 51
354.260829522738450
  0
ARC
  8
0
  6
CONTINUOUS
 62
256
 10
229.999328489766410
 20
-101.954222497975020
 40
1.999999999999945
 50
5.739170477261706
 51
90.000000000000000
  0
ARC
  8
0
  6
CONTINUOUS
 62
256
 10
229.148449087229890
 20
-97.954222497975024
 40
2.000000000000000
 50
180.000000000000000
 51
270.000000000000000
  0
ARC
  8
0
  6
CONTINUOUS
 62
256
 10
229.148449087229890
 20
-91.954222497975024
 40
2.000000000000000
 50
90.000000000000000
 51
180.000000000000000
  0
ARC
  8
0
  6
CONTINUOUS
 62
256
 10
299.648449087229890
 20
-94.954222497975024
 40
68.000000000000142
 50
5.739170477266929
 51
28.617330145899032
  0
ARC
  8
0
  6
CONTINUOUS
 62
256
 10
299.648449087229890
 20
-94.954222497975024
 40
68.000000000000142
 50
185.739170477266900
 51
208.617330145899020
  0
CIRCLE
  8
0
  6
CONTINUOUS
 62
256
 10
363.288059394019460
 20
-158.593832804764160
 40
5.300000000000011
  0
CIRCLE
  8
0
  6
CONTINUOUS
 62
256
 10
236.008838780440330
 20
-158.593832804764160
 40
5.300000000000011
  0
CIRCLE
  8
0
  6
CONTINUOUS
 62
256
 10
236.008838780440330
 20
-31.314612191185915
 40
5.300000000000011
  0
CIRCLE
  8
0
  6
CONTINUOUS
 62
256
 10
363.288059394019460
 20
-31.314612191185915
 40
5.300000000000011
  0
ARC
  8
0
  6
CONTINUOUS
 62
256
 10
299.648449087229890
 20
-447.454222497975020
 40
398.525806533542830
 50
86.806152787379048
 51
90.000000000000000
  0
ARC
  8
0
  6
CONTINUOUS
 62
256
 10
299.648449087229890
 20
-447.454222497975020
 40
398.525806533542890
 50
90.000000000000000
 51
93.193847212620952
  0
ARC
  8
0
  6
CONTINUOUS
 62
256
 10
280.148449087229440
 20
-97.997858984588675
 40
48.525806533542799
 50
93.193847212620526
 51
107.911740528482510
  0
ARC
  8
0
  6
CONTINUOUS
 62
256
 10
319.148449087229890
 20
-97.997858984588675
 40
48.525806533542294
 50
72.088259471517517
 51
86.806152787378920
  0
ARC
  8
0
  6
CONTINUOUS
 62
256
 10
334.995293502608090
 20
-48.969435993360094
 40
3.000000000000047
 50
252.088259471516470
 51
52.451819439402151
  0
ARC
  8
0
  6
CONTINUOUS
 62
256
 10
264.301604671851690
 20
-48.969435993360094
 40
3.000000000000072
 50
127.548180560597600
 51
287.911740528475380
  0
ARC
  8
0
  6
DASHDOT
 62
256
 10
299.648449087229890
 20
-94.954222497975024
 40
90.000000000000000
 50
39.279579828218417
 51
50.553627173633600
  0
ARC
  8
0
  6
DASHDOT
 62
256
 10
299.648449087229890
 20
-94.954222497975024
 40
89.999999999999943
 50
129.575489307112040
 51
140.541687205807340
  0
ARC
  8
0
  6
DASHDOT
 62
256
 10
299.648449087229890
 20
-94.954222497975024
 40
90.000000000000028
 50
219.191107777904530
 51
230.093367670272840
  0
ARC
  8
0
  6
DASHDOT
 62
256
 10
299.648449087229890
 20
-94.954222497975024
 40
90.000000000000028
 50
308.819758311615320
 51
320.551979161785880
  0
ARC
  8
0
  6
CONTINUOUS
 62
256
 10
363.648449087229890
 20
-158.954222497975050
 40
8.500000000000000
 50
270.000000000000000
 51
0.000000000000000
  0
CIRCLE
  8
0
  6
CONTINUOUS
 62
256
 10
299.648449087229890
 20
-94.954222497975024
 40
26.956362337679252
  0
ARC
  8
0
  6
CONTINUOUS
 62
256
 10
363.648449087229890
 20
-30.954222497975024
 40
8.500000000000000
 50
0.000000000000000
 51
90.000000000000000
  0
ARC
  8
0
  6
CONTINUOUS
 62
256
 10
235.648449087229890
 20
-158.954222497975050
 40
8.500000000000000
 50
180.000000000000000
 51
270.000000000000000
  0
ARC
  8
0
  6
CONTINUOUS
 62
256
 10
299.648449087229890
 20
-94.954222497975024
 40
68.000000000000185
 50
61.382669854100463
 51
118.617330145899560
  0
ARC
  8
0
  6
CONTINUOUS
 62
256
 10
254.148449087229890
 20
-170.454222497975050
 40
3.000000000000000
 50
0.000000000000000
 51
90.000000000000000
  0
ARC
  8
0
  6
CONTINUOUS
 62
256
 10
235.648449087229890
 20
-30.954222497975024
 40
8.500000000000000
 50
90.000000000000000
 51
180.000000000000000
  0
ARC
  8
0
  6
CONTINUOUS
 62
256
 10
340.148449087229890
 20
-172.954222497975050
 40
2.000000000000000
 50
270.000000000000000
 51
0.000000000000000
  0
ARC
  8
0
  6
CONTINUOUS
 62
256
 10
259.148449087229890
 20
-172.954222497975050
 40
2.000000000000000
 50
180.000000000000000
 51
270.000000000000000
  0
ARC
  8
0
  6
CONTINUOUS
 62
256
 10
345.148449087229890
 20
-170.454222497975050
 40
3.000000000000000
 50
90.000000000000000
 51
180.000000000000000
  0
ARC
  8
0
  6
CONTINUOUS
 62
256
 10
370.148449087229890
 20
-38.596358121706544
 40
2.000000000000016
 50
314.999999999990790
 51
0.000000000000000
  0
ARC
  8
0
  6
CONTINUOUS
 62
256
 10
337.007126122417960
 20
-26.482847090579526
 40
9.999999999999638
 50
241.382669854100750
 51
314.999999999998010
  0
ARC
  8
0
  6
CONTINUOUS
 62
256
 10
229.148449087229890
 20
-38.596358121706544
 40
2.000000000000000
 50
180.000000000000000
 51
225.000000000008920
  0
ARC
  8
0
  6
CONTINUOUS
 62
256
 10
368.119824494625850
 20
-57.595545462787413
 40
10.000000000000082
 50
134.999999999998180
 51
208.617330145899250
  0
ARC
  8
0
  6
CONTINUOUS
 62
256
 10
243.290584710960050
 20
-24.454222497975024
 40
2.000000000000338
 50
45.000000000000000
 51
90.000000000000000
  0
ARC
  8
0
  6
CONTINUOUS
 62
256
 10
299.648449087229890
 20
-94.954222497975024
 40
68.000000000000355
 50
331.382669854100980
 51
354.260829522733050
  0
ARC
  8
0
  6
CONTINUOUS
 62
256
 10
262.289772052041830
 20
-26.482847090579526
 40
10.000000000000401
 50
225.000000000000000
 51
298.617330145899130
  0
ARC
  8
0
  6
CONTINUOUS
 62
256
 10
231.177073679833940
 20
-57.595545462787413
 40
9.999999999999641
 50
331.382669854100700
 51
45.000000000001847
  0
ARC
  8
0
  6
CONTINUOUS
 62
256
 10
356.006313463499740
 20
-24.454222497975024
 40
2.000000000000000
 50
90.000000000000000
 51
135.000000000000230
  0
ARC
  8
0
  6
CONTINUOUS
 62
256
 10
229.148449087229890
 20
-151.312086874243530
 40
2.000000000000016
 50
134.999999999990790
 51
180.000000000000000
  0
ARC
  8
0
  6
CONTINUOUS
 62
256
 10
243.290584710960050
 20
-165.454222497975050
 40
2.000000000000000
 50
270.000000000000000
 51
315.000000000000000
  0
ARC
  8
0
  6
CONTINUOUS
 62
256
 10
262.289772052041830
 20
-163.425597905370550
 40
9.999999999999638
 50
61.382669854100726
 51
135.000000000000000
  0
ARC
  8
0
  6
CONTINUOUS
 62
256
 10
231.177073679833940
 20
-132.312899533162640
 40
10.000000000000082
 50
314.999999999998180
 51
28.617330145899260
  0
ARC
  8
0
  6
CONTINUOUS
 62
256
 10
370.148449087229890
 20
-151.312086874243530
 40
2.000000000000000
 50
0.000000000000000
 51
45.000000000009209
  0
ARC
  8
0
  6
CONTINUOUS
 62
256
 10
356.006313463499740
 20
-165.454222497975050
 40
2.000000000000338
 50
225.000000000000000
 51
270.000000000000000
  0
ARC
  8
0
  6
CONTINUOUS
 62
256
 10
337.007126122417960
 20
-163.425597905370550
 40
10.000000000000082
 50
45.000000000001847
 51
118.617330145899320
  0
ARC
  8
0
  6
CONTINUOUS
 62
256
 10
368.119824494625850
 20
-132.312899533162640
 40
9.999999999999638
 50
151.382669854100730
 51
225.000000000001960
  0
ARC
  8
0
  6
CONTINUOUS
 62
256
 10
299.648449087229890
 20
-94.954222497975024
 40
68.000000000000213
 50
241.382669854100440
 51
298.617330145899530
  0
ARC
  8
0
  6
CONTINUOUS
 62
256
 10
299.648449087229890
 20
-94.954222497975024
 40
68.000000000000369
 50
151.382669854100980
 51
174.260829522733080
  0
CIRCLE
  8
0
  6
CONTINUOUS
 62
256
 10
299.648449087229890
 20
-94.954222497975024
 40
22.000000000000000
  0
CIRCLE
  8
0
  6
CONTINUOUS
 62
256
 10
299.648449087229890
 20
-94.954222497975024
 40
61.000000000000000
  0
CIRCLE
  8
0
  6
CONTINUOUS
 62
256
 10
299.648449087229890
 20
-94.954222497975024
 40
17.500000000000000
  0
LINE
  8
0
  6
DASHDOT
 62
256
 10
316.163376294178310
 20
-112.954222497975020
 11
283.033518018426550
 21
-112.954222497975020
  0
LINE
  8
0
  6
CONTINUOUS
 62
256
 10
48.770848609168752
 20
-163.954222497975250
 11
66.270848609168752
 21
-163.954222497975250
  0
LINE
  8
0
  6
CONTINUOUS
 62
256
 10
48.770848609168752
 20
-163.454222497975020
 11
66.270848609168752
 21
-163.454222497975020
  0
LINE
  8
0
  6
CONTINUOUS
 62
256
 10
48.770848609168752
 20
-157.458878025079910
 11
66.270848609168752
 21
-157.458878025079910
  0
LINE
  8
0
  6
CONTINUOUS
 62
256
 10
48.770848609168752
 20
-159.087305092857830
 11
66.270848609168752
 21
-159.087305092857830
  0
LINE
  8
0
  6
CONTINUOUS
 62
256
 10
48.770848609168752
 20
-153.996136268314790
 11
66.270848609168752
 21
-153.996136268314790
  0
LINE
  8
0
  6
CONTINUOUS
 62
256
 10
48.770848609168752
 20
-152.994657904499490
 11
66.270848609168752
 21
-152.994657904499490
  0
LINE
  8
0
  6
CONTINUOUS
 62
256
 10
48.770848609168752
 20
-144.668613656745040
 11
66.270848609168752
 21
-144.668613656745040
  0
LINE
  8
0
  6
CONTINUOUS
 62
256
 10
48.770848609168752
 20
-146.257823449483790
 11
66.270848609168752
 21
-146.257823449483790
  0
LINE
  8
0
  6
CONTINUOUS
 62
256
 10
48.770848609168752
 20
-140.231594895135000
 11
66.270848609168752
 21
-140.231594895135000
  0
LINE
  8
0
  6
CONTINUOUS
 62
256
 10
48.770848609168752
 20
-141.710618048612100
 11
66.270848609168752
 21
-141.710618048612100
  0
LINE
  8
0
  6
CONTINUOUS
 62
256
 10
48.770848609168752
 20
-137.138863903469660
 11
66.270848609168752
 21
-137.138863903469660
  0
LINE
  8
0
  6
CONTINUOUS
 62
256
 10
48.770848609168752
 20
-135.792462177971170
 11
66.270848609168752
 21
-135.792462177971170
  0
LINE
  8
0
  6
CONTINUOUS
 62
256
 10
48.770848609168752
 20
-132.954222497975020
 11
66.270848609168752
 21
-132.954222497975020
  0
LINE
  8
0
  6
CONTINUOUS
 62
256
 10
48.770848609168752
 20
-92.954222497975024
 11
66.270848609168752
 21
-92.954222497975024
  0
LINE
  8
0
  6
CONTINUOUS
 62
256
 10
48.770848609168752
 20
-90.115982817978875
 11
66.270848609168752
 21
-90.115982817978875
  0
LINE
  8
0
  6
CONTINUOUS
 62
256
 10
48.770848609168752
 20
-88.769581092480166
 11
66.270848609168752
 21
-88.769581092480166
  0
LINE
  8
0
  6
CONTINUOUS
 62
256
 10
48.770848609168752
 20
-85.676850100815045
 11
66.270848609168752
 21
-85.676850100815045
  0
LINE
  8
0
  6
CONTINUOUS
 62
256
 10
48.770848609168752
 20
-84.197826947337944
 11
66.270848609168752
 21
-84.197826947337944
  0
LINE
  8
0
  6
CONTINUOUS
 62
256
 10
48.770848609168752
 20
-81.239831339205011
 11
66.270848609168752
 21
-81.239831339205011
  0
LINE
  8
0
  6
CONTINUOUS
 62
256
 10
48.770848609168752
 20
-79.650621546466255
 11
66.270848609168752
 21
-79.650621546466255
  0
LINE
  8
0
  6
CONTINUOUS
 62
256
 10
48.770848609168752
 20
-72.913787091450558
 11
66.270848609168752
 21
-72.913787091450558
  0
LINE
  8
0
  6
CONTINUOUS
 62
256
 10
48.770848609168752
 20
-71.912308727635263
 11
66.270848609168752
 21
-71.912308727635263
  0
LINE
  8
0
  6
CONTINUOUS
 62
256
 10
48.770848609168752
 20
-68.449566970870137
 11
66.270848609168752
 21
-68.449566970870137
  0
LINE
  8
0
  6
CONTINUOUS
 62
256
 10
48.770848609168752
 20
-66.821139903092444
 11
66.270848609168752
 21
-66.821139903092444
  0
LINE
  8
0
  6
CONTINUOUS
 62
256
 10
48.770848609168752
 20
-61.954222497975024
 11
66.270848609168752
 21
-61.954222497975024
  0
LINE
  8
0
  6
CONTINUOUS
 62
256
 10
48.770848609168752
 20
-62.454222497975024
 11
66.270848609168752
 21
-62.454222497975024
  0
LINE
  8
0
  6
DASHDOT
 62
256
 10
140.766847859531940
 20
-158.593832804764130
 11
114.935089541630530
 21
-158.593832804764130
  0
LINE
  8
0
  6
DASHDOT
 62
256
 10
141.266847859531940
 20
-31.314612191185915
 11
114.935089541630530
 21
-31.314612191185915
  0
ARC
  8
0
  6
CONTINUOUS
 62
256
 10
121.270848609168750
 20
-166.558623391761100
 40
1.000000000000000
 50
180.000000000000000
 51
268.499999999984200
  0
LINE
  8
0
  6
CONTINUOUS
 62
256
 10
121.244671660860600
 20
-167.558280716736590
 11
124.770848609184210
 21
-167.650616909743800
  0
ARC
  8
0
  6
CONTINUOUS
 62
256
 10
67.270848609168752
 20
-166.372985049739330
 40
1.000000000000000
 50
180.000000000000000
 51
270.000000000000000
  0
LINE
  8
0
  6
CONTINUOUS
 62
256
 10
70.870848609169116
 20
-167.372985049739330
 11
67.270848609168752
 21
-167.372985049739330
  0
ARC
  8
0
  6
CONTINUOUS
 62
256
 10
67.270848609168752
 20
-103.704222497975020
 40
1.000000000000000
 50
180.000000000000000
 51
270.000000000000000
  0
ARC
  8
0
  6
CONTINUOUS
 62
256
 10
70.870848609169116
 20
-105.104222497974660
 40
0.399999999999636
 50
0.000000000000000
 51
90.000000000000000
  0
LINE
  8
0
  6
CONTINUOUS
 62
256
 10
71.270848609168752
 20
-105.104222497974660
 11
71.270848609168752
 21
-114.804222497975370
  0
LINE
  8
0
  6
CONTINUOUS
 62
256
 10
70.870848609169116
 20
-104.704222497975020
 11
67.270848609168752
 21
-104.704222497975020
  0
ARC
  8
0
  6
CONTINUOUS
 62
256
 10
67.270848609168752
 20
-116.204222497975020
 40
1.000000000000000
 50
90.000000000000000
 51
180.000000000000000
  0
ARC
  8
0
  6
CONTINUOUS
 62
256
 10
70.870848609169116
 20
-114.804222497975370
 40
0.399999999999636
 50
270.000000000000000
 51
0.000000000000000
  0
LINE
  8
0
  6
CONTINUOUS
 62
256
 10
70.870848609169116
 20
-115.204222497975020
 11
67.270848609168752
 21
-115.204222497975020
  0
LINE
  8
0
  6
CONTINUOUS
 62
256
 10
71.270848609168752
 20
-48.793087011707030
 11
71.270848609168752
 21
-51.464287567331667
  0
ARC
  8
0
  6
CONTINUOUS
 62
256
 10
67.270848609168752
 20
-52.864287567331303
 40
1.000000000000000
 50
90.000000000000000
 51
180.000000000000000
  0
ARC
  8
0
  6
CONTINUOUS
 62
256
 10
70.870848609169116
 20
-51.464287567331667
 40
0.399999999999636
 50
270.000000000000000
 51
0.000000000000000
  0
LINE
  8
0
  6
CONTINUOUS
 62
256
 10
70.870848609169116
 20
-51.864287567331303
 11
67.270848609168752
 21
-51.864287567331303
  0
ARC
  8
0
  6
CONTINUOUS
 62
256
 10
70.870848609169116
 20
-167.772985049739870
 40
0.399999999999636
 50
0.000000000000000
 51
90.000000000000000
  0
ARC
  8
0
  6
CONTINUOUS
 62
256
 10
67.270848609168752
 20
-49.393087011707394
 40
1.000000000000000
 50
90.000000000000000
 51
180.000000000000000
  0
LINE
  8
0
  6
CONTINUOUS
 62
256
 10
70.870848609169116
 20
-48.393087011707394
 11
67.270848609168752
 21
-48.393087011707394
  0
ARC
  8
0
  6
CONTINUOUS
 62
256
 10
70.870848609168661
 20
-48.793087011707030
 40
0.400000000000091
 50
0.000000000000000
 51
90.000000000000000
  0
ARC
  8
0
  6
CONTINUOUS
 62
256
 10
71.770848609168752
 20
-173.454222497975020
 40
0.500000000000000
 50
180.000000000000000
 51
270.000000000000000
  0
LINE
  8
0
  6
CONTINUOUS
 62
256
 10
71.270849372108202
 20
-173.704221544300710
 11
66.270849372108202
 21
-173.704221544300710
  0
LINE
  8
0
  6
CONTINUOUS
 62
256
 10
66.270849372108202
 20
-173.704221544300710
 11
66.270849372108202
 21
-165.204223451649340
  0
LINE
  8
0
  6
CONTINUOUS
 62
256
 10
71.270848609168752
 20
-167.772985049739870
 11
71.270848609168752
 21
-173.704221544300710
  0
LINE
  8
0
  6
CONTINUOUS
 62
256
 10
76.770848609168752
 20
-112.954222497975020
 11
76.770848609168752
 21
-47.410584835654845
  0
LINE
  8
0
  6
CONTINUOUS
 62
256
 10
76.770848609168752
 20
-173.954222497975020
 11
76.770848609168752
 21
-112.954222497975020
  0
ARC
  8
0
  6
CONTINUOUS
 62
256
 10
66.770848609168752
 20
-47.919312368118881
 40
0.500000000000000
 50
90.000000000000000
 51
180.000000000000000
  0
ARC
  8
0
  6
CONTINUOUS
 62
256
 10
66.770848609168752
 20
-173.454222497975020
 40
0.500000000000162
 50
209.999873810899710
 51
270.000000000000000
  0
LINE
  8
0
  6
CONTINUOUS
 62
256
 10
76.270848609168752
 20
-173.954222497975020
 11
66.770848609168752
 21
-173.954222497975020
  0
LINE
  8
0
  6
CONTINUOUS
 62
256
 10
76.270848609168752
 20
-47.419312368118881
 11
66.770848609168752
 21
-47.419312368118881
  0
LINE
  8
0
  6
CONTINUOUS
 62
256
 10
66.270848609168752
 20
-114.204221544300690
 11
66.270848609168752
 21
-166.372985049739330
  0
LINE
  8
0
  6
CONTINUOUS
 62
256
 10
66.270848609168752
 20
-165.925569086219870
 11
48.770848609168752
 21
-165.467315458759910
  0
LINE
  8
0
  6
CONTINUOUS
 62
256
 10
66.270848609168752
 20
-105.704223451649340
 11
66.270848609168752
 21
-47.919312368118881
  0
LINE
  8
0
  6
CONTINUOUS
 62
256
 10
66.270848609168752
 20
-59.982875909730204
 11
48.770848609168752
 21
-60.441129537190136
  0
ARC
  8
0
  6
CONTINUOUS
 62
256
 10
147.658910610465230
 20
-95.066421530012121
 40
2.888045108587921
 50
177.773528828001930
 51
270.000000000000000
  0
LINE
  8
0
  6
CONTINUOUS
 62
256
 10
147.658910610465230
 20
-97.954466638600024
 11
169.770865501876870
 21
-97.954466638600024
  0
LINE
  8
0
  6
CONTINUOUS
 62
256
 10
169.770865501876870
 20
-94.954222497975010
 11
169.770865501876870
 21
-104.054222497975370
  0
LINE
  8
0
  6
CONTINUOUS
 62
256
 10
141.570865501877050
 20
-105.954222497975020
 11
139.270848609168750
 21
-105.954222497975020
  0
LINE
  8
0
  6
CONTINUOUS
 62
256
 10
141.570865501877050
 20
-83.882298977924620
 11
139.270848609168750
 21
-83.882298977924620
  0
ARC
  8
0
  6
CONTINUOUS
 62
256
 10
142.170865501876960
 20
-104.704222497975020
 40
0.399999999999636
 50
90.000000000000000
 51
180.000000000000000
  0
LINE
  8
0
  6
CONTINUOUS
 62
256
 10
141.770865501876870
 20
-94.954222497975024
 11
141.770865501876870
 21
-105.754222497975210
  0
LINE
  8
0
  6
CONTINUOUS
 62
256
 10
144.330673123012280
 20
-104.454222497975020
 11
143.770865501876870
 21
-104.304222497975370
  0
LINE
  8
0
  6
CONTINUOUS
 62
256
 10
143.770865501876870
 20
-104.304222497975370
 11
142.170865501876960
 21
-104.304222497975370
  0
LINE
  8
0
  6
CONTINUOUS
 62
256
 10
141.570865501877050
 20
-105.954222497975020
 11
141.770865501876870
 21
-105.754222497975210
  0
LINE
  8
0
  6
CONTINUOUS
 62
256
 10
169.370865501876780
 20
-104.454222497975020
 11
144.330673123012280
 21
-104.454222497975020
  0
LINE
  8
0
  6
CONTINUOUS
 62
256
 10
141.770865501876870
 20
-94.882298977924620
 11
141.770865501876870
 21
-84.082298977924438
  0
LINE
  8
0
  6
CONTINUOUS
 62
256
 10
141.570865501877050
 20
-83.882298977924620
 11
141.770865501876870
 21
-84.082298977924438
  0
ARC
  8
0
  6
CONTINUOUS
 62
256
 10
169.370865501876780
 20
-104.054222497975370
 40
0.399999999999636
 50
270.000000000000000
 51
0.000000000000000
  0
ARC
  8
0
  6
CONTINUOUS
 62
256
 10
107.688856027907150
 20
-47.535828474382470
 40
3.000000000000000
 50
270.000000000000000
 51
318.942708126126600
  0
LINE
  8
0
  6
CONTINUOUS
 62
256
 10
119.533008175331570
 20
-38.505682218894435
 11
109.951015594069740
 21
-49.506268551425819
  0
ARC
  8
0
  6
CONTINUOUS
 62
256
 10
117.270848609168750
 20
-36.535242141850176
 40
3.000000000000703
 50
318.942708126116430
 51
0.000000000000000
  0
ARC
  8
0
  6
CONTINUOUS
 62
256
 10
107.688856027907150
 20
-51.192682723876715
 40
3.000000000000000
 50
270.000000000000000
 51
318.942708126126600
  0
ARC
  8
0
  6
CONTINUOUS
 62
256
 10
117.270848609168750
 20
-40.192096391344421
 40
3.000000000000703
 50
318.942708126116430
 51
0.000000000000000
  0
LINE
  8
0
  6
CONTINUOUS
 62
256
 10
119.533008175331570
 20
-42.162536468388680
 11
109.951015594069740
 21
-53.163122800920064
  0
LINE
  8
0
  6
CONTINUOUS
 62
256
 10
119.061152290289560
 20
-54.192682723876715
 11
110.430430649909340
 21
-54.192682723876715
  0
ARC
  8
0
  6
CONTINUOUS
 62
256
 10
128.270848609168750
 20
-102.954222497975020
 40
3.000000000000000
 50
90.000000000000000
 51
180.000000000000000
  0
ARC
  8
0
  6
CONTINUOUS
 62
256
 10
128.270848609168750
 20
-86.954222497975024
 40
3.000000000000000
 50
180.000000000000000
 51
270.000000000000000
  0
LINE
  8
0
  6
CONTINUOUS
 62
256
 10
128.270848609168750
 20
-99.954222497975024
 11
132.270848609168750
 21
-99.954222497975024
  0
LINE
  8
0
  6
CONTINUOUS
 62
256
 10
128.270848609168750
 20
-89.954222497975024
 11
132.270848609168750
 21
-89.954222497975024
  0
LINE
  8
0
  6
CONTINUOUS
 62
256
 10
128.192317764249760
 20
-133.690779299710810
 11
132.270848609172840
 21
-133.797579388533450
  0
ARC
  8
0
  6
CONTINUOUS
 62
256
 10
128.270848609172840
 20
-130.691807324783440
 40
3.000000000000000
 50
180.000000000000000
 51
268.500000000010860
  0
LINE
  8
0
  6
CONTINUOUS
 62
256
 10
128.192317764245220
 20
-150.376859660674200
 11
132.270848609168750
 21
-150.483659749496840
  0
ARC
  8
0
  6
CONTINUOUS
 62
256
 10
128.270848609168750
 20
-147.377887685747740
 40
3.000000000000000
 50
180.000000000000000
 51
268.500000000001590
  0
LINE
  8
0
  6
CONTINUOUS
 62
256
 10
125.270848609168750
 20
-147.377887685747740
 11
125.270848609168750
 21
-102.954222497975020
  0
LINE
  8
0
  6
CONTINUOUS
 62
256
 10
125.270848609168750
 20
-42.530557310202312
 11
125.270848609168750
 21
-86.954222497975024
  0
LINE
  8
0
  6
CONTINUOUS
 62
256
 10
128.192317764245220
 20
-39.531585335275850
 11
132.270848609168750
 21
-39.424785246453212
  0
ARC
  8
0
  6
CONTINUOUS
 62
256
 10
128.270848609168750
 20
-42.530557310202312
 40
2.999999999999788
 50
91.499999999998479
 51
180.000000000000000
  0
LINE
  8
0
  6
CONTINUOUS
 62
256
 10
128.192317764249760
 20
-56.217665696239237
 11
132.270848609172840
 21
-56.110865607416599
  0
LINE
  8
0
  6
CONTINUOUS
 62
256
 10
124.770848609168750
 20
-22.257828086206246
 11
132.270848609168750
 21
-22.454222497975024
  0
LINE
  8
0
  6
CONTINUOUS
 62
256
 10
124.760541521485270
 20
-174.943700702352540
 11
76.770848609168752
 21
-173.954222497975020
  0
LINE
  8
0
  6
CONTINUOUS
 62
256
 10
112.278297328056150
 20
-46.834437675152913
 11
76.770848609168752
 21
-47.454222497975024
  0
LINE
  8
0
  6
CONTINUOUS
 62
256
 10
121.244671660860600
 20
-22.350164279213459
 11
124.757760135014450
 21
-22.258170819964107
  0
LINE
  8
0
  6
DASHDOT
 62
256
 10
182.486837097927950
 20
-94.954222497975024
 11
90.729789847906886
 21
-94.954222497975024
  0
LINE
  8
0
  6
CONTINUOUS
 62
256
 10
109.902882968121500
 20
-45.420793291861628
 11
119.868924820522350
 21
-28.159102453145351
  0
LINE
  8
0
  6
CONTINUOUS
 62
256
 10
139.270848609168750
 20
-94.954222497975024
 11
139.270848609168750
 21
-73.686838200870625
  0
LINE
  8
0
  6
CONTINUOUS
 62
256
 10
135.270848609168750
 20
-30.754222497975206
 11
134.491523112431420
 21
-29.954222497975024
  0
LINE
  8
0
  6
CONTINUOUS
 62
256
 10
135.270848609168750
 20
-159.154222497974840
 11
134.491523112431420
 21
-159.954222497975020
  0
LINE
  8
0
  6
CONTINUOUS
 62
256
 10
139.270848609168750
 20
-94.954222497975024
 11
139.270848609168750
 21
-116.221606795079420
  0
ARC
  8
0
  6
CONTINUOUS
 62
256
 10
128.270848609172840
 20
-59.216637671166609
 40
3.000000000000686
 50
91.499999999989342
 51
180.000000000000000
  0
ARC
  8
0
  6
CONTINUOUS
 62
256
 10
124.770848609168750
 20
-174.443806949697320
 40
0.500000000000239
 50
268.818811086687840
 51
0.000000000000000
  0
ARC
  8
0
  6
CONTINUOUS
 62
256
 10
121.270848609168750
 20
-23.349821604188946
 40
0.999999999999937
 50
91.500000000015845
 51
180.000000000000000
  0
ARC
  8
0
  6
CONTINUOUS
 62
256
 10
137.270848609168750
 20
-73.686838200870625
 40
2.000000000000000
 50
0.000000000000000
 51
40.236358309266507
  0
ARC
  8
0
  6
CONTINUOUS
 62
256
 10
137.270848609168750
 20
-116.221606795079420
 40
1.999999999999609
 50
319.763641690733830
 51
0.000000000000000
  0
ARC
  8
0
  6
CONTINUOUS
 62
256
 10
117.270848609168750
 20
-26.659102453145351
 40
3.000000000000247
 50
330.000000000002730
 51
0.000000000000000
  0
ARC
  8
0
  6
CONTINUOUS
 62
256
 10
107.304806756767900
 20
-43.920793291861628
 40
3.000000000000496
 50
271.000000000001590
 51
330.000000000002610
  0
LINE
  8
0
  6
CONTINUOUS
 62
256
 10
76.270848609168752
 20
-94.954222497975024
 11
76.270848609168752
 21
-47.462950030439060
  0
LINE
  8
0
  6
CONTINUOUS
 62
256
 10
134.491523112431420
 20
-29.954222497975024
 11
132.270848609168750
 21
-29.954222497975024
  0
LINE
  8
0
  6
CONTINUOUS
 62
256
 10
134.491523112431420
 20
-159.954222497975020
 11
132.270848609168750
 21
-159.954222497975020
  0
LINE
  8
0
  6
CONTINUOUS
 62
256
 10
76.270848609168752
 20
-173.943913219624850
 11
76.270848609168752
 21
-94.954222497975024
  0
LINE
  8
0
  6
CONTINUOUS
 62
256
 10
132.270848609168750
 20
-94.954222497975024
 11
132.270848609168750
 21
-22.454222497975024
  0
LINE
  8
0
  6
CONTINUOUS
 62
256
 10
138.797621179906860
 20
-117.513491278011320
 11
135.270848609168750
 21
-121.681495225248000
  0
LINE
  8
0
  6
CONTINUOUS
 62
256
 10
138.797621179906860
 20
-72.394953717938733
 11
135.270848609168750
 21
-68.226949770702049
  0
LINE
  8
0
  6
CONTINUOUS
 62
256
 10
132.270848609168750
 20
-94.954222497975024
 11
132.270848609168750
 21
-167.454222497975020
  0
LINE
  8
0
  6
CONTINUOUS
 62
256
 10
135.270848609168750
 20
-94.954222497975024
 11
135.270848609168750
 21
-30.754222497975206
  0
LINE
  8
0
  6
CONTINUOUS
 62
256
 10
135.270848609168750
 20
-94.954222497975024
 11
135.270848609168750
 21
-159.154222497974840
  0
LINE
  8
0
  6
CONTINUOUS
 62
256
 10
124.770848609184210
 20
-167.650616909743800
 11
132.270848609168750
 21
-167.454222497975020
  0
LINE
  8
0
  6
CONTINUOUS
 62
256
 10
120.270848609168750
 20
-166.558623391761100
 11
120.270848609168750
 21
-23.349821604188946
  0
LINE
  8
0
  6
CONTINUOUS
 62
256
 10
125.270848609168750
 20
-167.637523948958910
 11
125.270848609168750
 21
-174.443806949697320
  0
LINE
  8
0
  6
CONTINUOUS
 62
256
 10
227.148449087229890
 20
-78.954222497975138
 11
214.781784314287510
 21
-78.954222497975138
  0
ARC
  8
0
  6
CONTINUOUS
 62
256
 10
214.781784314287510
 20
-83.954222497975138
 40
5.000000000000000
 50
90.000000000000000
 51
173.967950853629670
  0
ARC
  8
0
  6
CONTINUOUS
 62
256
 10
508.148449087229890
 20
-114.954222497975080
 40
300.000000000000060
 50
173.967950853630190
 51
186.032049146369810
  0
ARC
  8
0
  6
CONTINUOUS
 62
256
 10
214.781784314287510
 20
-145.954222497975020
 40
5.000000000000143
 50
186.032049146370330
 51
270.000000000000000
  0
LINE
  8
0
  6
CONTINUOUS
 62
256
 10
227.148449087229890
 20
-150.954222497975020
 11
214.781784314287510
 21
-150.954222497975050
  0
ARC
  8
0
  6
CONTINUOUS
 62
256
 10
-149.233996339945180
 20
-146.354222497975340
 40
20.599999999999795
 50
235.000000000000260
 51
270.000000000000000
  0
ARC
  8
0
  6
CONTINUOUS
 62
256
 10
-167.129151390852480
 20
-155.797842631604680
 40
2.599999999999909
 50
180.000000000000000
 51
234.999999999994740
  0
LINE
  8
0
  6
CONTINUOUS
 62
256
 10
-169.729151390852390
 20
-155.797842631604680
 11
-169.729151390852390
 21
-112.954222497975020
  0
LINE
  8
0
  6
CONTINUOUS
 62
256
 10
-161.049670928776550
 20
-163.228754610328450
 11
-168.620450125365320
 21
-157.927637946755790
  0
ARC
  8
0
  6
CONTINUOUS
 62
256
 10
-78.729151390852394
 20
-147.954222497975020
 40
3.000000000000000
 50
180.000000000000000
 51
270.000000000000000
  0
LINE
  8
0
  6
CONTINUOUS
 62
256
 10
-74.729151390852394
 20
-150.954222497975020
 11
-78.729151390852394
 21
-150.954222497975020
  0
ARC
  8
0
  6
CONTINUOUS
 62
256
 10
-74.729151390852394
 20
-153.954222497975020
 40
3.000000000000000
 50
0.000000000000000
 51
90.000000000000000
  0
LINE
  8
0
  6
CONTINUOUS
 62
256
 10
-79.529151390830521
 20
-147.954222497975020
 11
-79.529151390831203
 21
-112.954222497974800
  0
ARC
  8
0
  6
CONTINUOUS
 62
256
 10
-78.529151390830748
 20
-147.954222497975020
 40
0.999999999999773
 50
180.000000000000000
 51
270.000000000000000
  0
LINE
  8
0
  6
CONTINUOUS
 62
256
 10
10.470848609169479
 20
-147.954222497975020
 11
10.470848609168797
 21
-112.954222497973430
  0
LINE
  8
0
  6
CONTINUOUS
 62
256
 10
9.470848609169252
 20
-148.954222497975020
 11
-78.529151390830748
 21
-148.954222497975020
  0
ARC
  8
0
  6
CONTINUOUS
 62
256
 10
9.470848609169252
 20
-147.954222497975020
 40
1.000000000000000
 50
270.000000000000000
 51
0.000000000000000
  0
LINE
  8
0
  6
CONTINUOUS
 62
256
 10
10.470848609169252
 20
-146.257823449483790
 11
48.770848609168752
 21
-146.257823449483790
  0
LINE
  8
0
  6
CONTINUOUS
 62
256
 10
10.470848609169252
 20
-144.668613656745040
 11
48.770848609168752
 21
-144.668613656745040
  0
LINE
  8
0
  6
CONTINUOUS
 62
256
 10
10.470848609169252
 20
-132.954222497975020
 11
48.770848609168752
 21
-132.954222497975020
  0
LINE
  8
0
  6
CONTINUOUS
 62
256
 10
10.470848609169252
 20
-135.792462177971170
 11
48.770848609168752
 21
-135.792462177971170
  0
LINE
  8
0
  6
CONTINUOUS
 62
256
 10
10.470848609169252
 20
-137.138863903469660
 11
48.770848609168752
 21
-137.138863903469660
  0
LINE
  8
0
  6
CONTINUOUS
 62
256
 10
10.470848609169252
 20
-140.231594895135000
 11
48.770848609168752
 21
-140.231594895135000
  0
LINE
  8
0
  6
CONTINUOUS
 62
256
 10
10.470848609169252
 20
-141.710618048612100
 11
48.770848609168752
 21
-141.710618048612100
  0
LINE
  8
0
  6
CONTINUOUS
 62
256
 10
-81.729151390852394
 20
-132.954222497975020
 11
-79.529151390830748
 21
-132.954222497975020
  0
LINE
  8
0
  6
CONTINUOUS
 62
256
 10
-81.729151390852394
 20
-135.792462177971170
 11
-79.529151390830748
 21
-135.792462177971170
  0
LINE
  8
0
  6
CONTINUOUS
 62
256
 10
-81.729151390852394
 20
-137.138863903469660
 11
-79.529151390830748
 21
-137.138863903469660
  0
LINE
  8
0
  6
CONTINUOUS
 62
256
 10
-81.729151390852394
 20
-140.231594895135000
 11
-79.529151390830748
 21
-140.231594895135000
  0
LINE
  8
0
  6
CONTINUOUS
 62
256
 10
-81.729151390852394
 20
-141.710618048612100
 11
-79.529151390830748
 21
-141.710618048612100
  0
LINE
  8
0
  6
CONTINUOUS
 62
256
 10
-81.729151390852394
 20
-144.668613656745040
 11
-79.529151390830748
 21
-144.668613656745040
  0
LINE
  8
0
  6
CONTINUOUS
 62
256
 10
-81.729151390852394
 20
-146.257823449483790
 11
-79.529151390830748
 21
-146.257823449483790
  0
LINE
  8
0
  6
CONTINUOUS
 62
256
 10
-71.886751737223676
 20
-152.994657904499260
 11
66.270848609168752
 21
-152.994657904499260
  0
LINE
  8
0
  6
CONTINUOUS
 62
256
 10
-71.729151390852394
 20
-153.996136268314560
 11
66.270848609168752
 21
-153.996136268314560
  0
LINE
  8
0
  6
CONTINUOUS
 62
256
 10
-81.729151390852394
 20
-112.954222497975020
 11
-81.729151390852394
 21
-147.954222497975020
  0
ARC
  8
0
  6
CONTINUOUS
 62
256
 10
-149.233996339945180
 20
-79.554222497974706
 40
20.599999999999909
 50
90.000000000000000
 51
124.999999999999790
  0
ARC
  8
0
  6
CONTINUOUS
 62
256
 10
-167.129151390852480
 20
-70.110602364345368
 40
2.600000000000037
 50
125.000000000002630
 51
180.000000000000000
  0
LINE
  8
0
  6
CONTINUOUS
 62
256
 10
-169.729151390852390
 20
-70.110602364345368
 11
-169.729151390852390
 21
-112.954222497975020
  0
LINE
  8
0
  6
CONTINUOUS
 62
256
 10
-161.049670928776550
 20
-62.679690385621370
 11
-168.620450125365320
 21
-67.980807049194254
  0
ARC
  8
0
  6
CONTINUOUS
 62
256
 10
-78.729151390852394
 20
-77.954222497975024
 40
3.000000000000000
 50
90.000000000000000
 51
180.000000000000000
  0
LINE
  8
0
  6
CONTINUOUS
 62
256
 10
-74.729151390852394
 20
-74.954222497975024
 11
-78.729151390852394
 21
-74.954222497975024
  0
ARC
  8
0
  6
CONTINUOUS
 62
256
 10
-74.729151390852394
 20
-71.954222497975024
 40
3.000000000000000
 50
270.000000000000000
 51
0.000000000000000
  0
LINE
  8
0
  6
CONTINUOUS
 62
256
 10
-79.529151390830521
 20
-77.954222497975024
 11
-79.529151390831203
 21
-112.954222497975250
  0
ARC
  8
0
  6
CONTINUOUS
 62
256
 10
-78.529151390830748
 20
-77.954222497975024
 40
1.000000000000000
 50
90.000000000000000
 51
180.000000000000000
  0
LINE
  8
0
  6
CONTINUOUS
 62
256
 10
10.470848609169479
 20
-77.954222497975024
 11
10.470848609168797
 21
-112.954222497976620
  0
LINE
  8
0
  6
CONTINUOUS
 62
256
 10
9.470848609169252
 20
-76.954222497975024
 11
-78.529151390830748
 21
-76.954222497975024
  0
ARC
  8
0
  6
CONTINUOUS
 62
256
 10
9.470848609169252
 20
-77.954222497975024
 40
1.000000000000227
 50
0.000000000000000
 51
90.000000000000000
  0
LINE
  8
0
  6
CONTINUOUS
 62
256
 10
10.470848609169252
 20
-79.650621546466255
 11
48.770848609168752
 21
-79.650621546466255
  0
LINE
  8
0
  6
CONTINUOUS
 62
256
 10
10.470848609169252
 20
-81.239831339205011
 11
48.770848609168752
 21
-81.239831339205011
  0
LINE
  8
0
  6
CONTINUOUS
 62
256
 10
10.470848609169252
 20
-92.954222497975024
 11
48.770848609168752
 21
-92.954222497975024
  0
LINE
  8
0
  6
CONTINUOUS
 62
256
 10
10.470848609169252
 20
-90.115982817978875
 11
48.770848609168752
 21
-90.115982817978875
  0
LINE
  8
0
  6
CONTINUOUS
 62
256
 10
10.470848609169252
 20
-88.769581092480394
 11
48.770848609168752
 21
-88.769581092480394
  0
LINE
  8
0
  6
CONTINUOUS
 62
256
 10
10.470848609169252
 20
-85.676850100815045
 11
48.770848609168752
 21
-85.676850100815045
  0
LINE
  8
0
  6
CONTINUOUS
 62
256
 10
10.470848609169252
 20
-84.197826947337944
 11
48.770848609168752
 21
-84.197826947337944
  0
LINE
  8
0
  6
CONTINUOUS
 62
256
 10
-81.729151390852394
 20
-92.954222497975024
 11
-79.529151390830748
 21
-92.954222497975024
  0
LINE
  8
0
  6
CONTINUOUS
 62
256
 10
-81.729151390852394
 20
-90.115982817978875
 11
-79.529151390830748
 21
-90.115982817978875
  0
LINE
  8
0
  6
CONTINUOUS
 62
256
 10
-81.729151390852394
 20
-88.769581092480394
 11
-79.529151390830748
 21
-88.769581092480394
  0
LINE
  8
0
  6
CONTINUOUS
 62
256
 10
-81.729151390852394
 20
-85.676850100815045
 11
-79.529151390830748
 21
-85.676850100815045
  0
LINE
  8
0
  6
CONTINUOUS
 62
256
 10
-81.729151390852394
 20
-84.197826947337944
 11
-79.529151390830748
 21
-84.197826947337944
  0
LINE
  8
0
  6
CONTINUOUS
 62
256
 10
-81.729151390852394
 20
-81.239831339205011
 11
-79.529151390830748
 21
-81.239831339205011
  0
LINE
  8
0
  6
CONTINUOUS
 62
256
 10
-81.729151390852394
 20
-79.650621546466255
 11
-79.529151390830748
 21
-79.650621546466255
  0
LINE
  8
0
  6
CONTINUOUS
 62
256
 10
-71.886751737223676
 20
-72.913787091450558
 11
66.270848609168752
 21
-72.913787091450558
  0
LINE
  8
0
  6
CONTINUOUS
 62
256
 10
-71.729151390852394
 20
-71.912308727635263
 11
66.270848609168752
 21
-71.912308727635263
  0
LINE
  8
0
  6
CONTINUOUS
 62
256
 10
-71.729151390852394
 20
-68.449566970870137
 11
66.270848609168752
 21
-68.449566970870137
  0
LINE
  8
0
  6
CONTINUOUS
 62
256
 10
-71.729151390852394
 20
-66.821139903092217
 11
66.270848609168752
 21
-66.821139903092217
  0
LINE
  8
0
  6
CONTINUOUS
 62
256
 10
-71.729151390852394
 20
-61.954222497974797
 11
66.270848609168752
 21
-61.954222497974797
  0
LINE
  8
0
  6
CONTINUOUS
 62
256
 10
-71.729151390852394
 20
-62.454222497975024
 11
66.270848609168752
 21
-62.454222497975024
  0
LINE
  8
0
  6
CONTINUOUS
 62
256
 10
48.770848609168752
 20
-60.454222497975024
 11
-71.729151390852394
 21
-60.454222497975024
  0
LINE
  8
0
  6
CONTINUOUS
 62
256
 10
-81.729151390852394
 20
-112.954222497975020
 11
-81.729151390852394
 21
-77.954222497975024
  0
LINE
  8
0
  6
CONTINUOUS
 62
256
 10
-78.119460572956996
 20
-66.329848509827741
 11
-78.029151390852178
 21
-65.626891543627380
  0
LINE
  8
0
  6
CONTINUOUS
 62
256
 10
-78.386917588049130
 20
-67.005791234039833
 11
-78.119460572956996
 21
-66.329848509827741
  0
LINE
  8
0
  6
CONTINUOUS
 62
256
 10
-78.821244213030212
 20
-67.628743616445234
 11
-78.386917588049130
 21
-67.005791234039833
  0
LINE
  8
0
  6
CONTINUOUS
 62
256
 10
-79.405749519275403
 20
-68.174765946343811
 11
-78.821244213030212
 21
-67.628743616445234
  0
LINE
  8
0
  6
CONTINUOUS
 62
256
 10
-80.117971295660041
 20
-68.622874891810426
 11
-79.405749519275403
 21
-68.174765946343811
  0
LINE
  8
0
  6
CONTINUOUS
 62
256
 10
-80.930539258736246
 20
-68.955849877373197
 11
-80.117971295660041
 21
-68.622874891810426
  0
LINE
  8
0
  6
CONTINUOUS
 62
256
 10
-81.812226877376361
 20
-69.160894861071441
 11
-80.930539258736246
 21
-68.955849877373197
  0
LINE
  8
0
  6
CONTINUOUS
 62
256
 10
-82.729151390852167
 20
-69.230130079172213
 11
-81.812226877376361
 21
-69.160894861071441
  0
LINE
  8
0
  6
CONTINUOUS
 62
256
 10
-83.646075904327972
 20
-69.160894861071441
 11
-82.729151390852167
 21
-69.230130079172213
  0
LINE
  8
0
  6
CONTINUOUS
 62
256
 10
-84.527763522968087
 20
-68.955849877373197
 11
-83.646075904327972
 21
-69.160894861071441
  0
LINE
  8
0
  6
CONTINUOUS
 62
256
 10
-85.340331486044292
 20
-68.622874891810426
 11
-84.527763522968087
 21
-68.955849877373197
  0
LINE
  8
0
  6
CONTINUOUS
 62
256
 10
-86.052553262428930
 20
-68.174765946343811
 11
-85.340331486044292
 21
-68.622874891810426
  0
LINE
  8
0
  6
CONTINUOUS
 62
256
 10
-86.637058568674121
 20
-67.628743616445234
 11
-86.052553262428930
 21
-68.174765946343811
  0
LINE
  8
0
  6
CONTINUOUS
 62
256
 10
-87.071385193655203
 20
-67.005791234039833
 11
-86.637058568674121
 21
-67.628743616445234
  0
LINE
  8
0
  6
CONTINUOUS
 62
256
 10
-87.338842208747337
 20
-66.329848509827741
 11
-87.071385193655203
 21
-67.005791234039833
  0
LINE
  8
0
  6
CONTINUOUS
 62
256
 10
-87.429151390852155
 20
-65.626891543627380
 11
-87.338842208747337
 21
-66.329848509827741
  0
LINE
  8
0
  6
CONTINUOUS
 62
256
 10
-87.338842208747337
 20
-64.923934577427019
 11
-87.429151390852155
 21
-65.626891543627380
  0
LINE
  8
0
  6
CONTINUOUS
 62
256
 10
-87.071385193655203
 20
-64.247991853214927
 11
-87.338842208747337
 21
-64.923934577427019
  0
LINE
  8
0
  6
CONTINUOUS
 62
256
 10
-86.637058568674121
 20
-63.625039470809526
 11
-87.071385193655203
 21
-64.247991853214927
  0
LINE
  8
0
  6
CONTINUOUS
 62
256
 10
-86.052553262428930
 20
-63.079017140910942
 11
-86.637058568674121
 21
-63.625039470809526
  0
LINE
  8
0
  6
CONTINUOUS
 62
256
 10
-85.340331486044292
 20
-62.630908195444327
 11
-86.052553262428930
 21
-63.079017140910942
  0
LINE
  8
0
  6
CONTINUOUS
 62
256
 10
-84.527763522968087
 20
-62.297933209881570
 11
-85.340331486044292
 21
-62.630908195444327
  0
LINE
  8
0
  6
CONTINUOUS
 62
256
 10
-83.646075904327972
 20
-62.092888226183319
 11
-84.527763522968087
 21
-62.297933209881570
  0
LINE
  8
0
  6
CONTINUOUS
 62
256
 10
-82.729151390852167
 20
-62.023653008082547
 11
-83.646075904327972
 21
-62.092888226183319
  0
LINE
  8
0
  6
CONTINUOUS
 62
256
 10
-81.812226877376361
 20
-62.092888226183319
 11
-82.729151390852167
 21
-62.023653008082547
  0
LINE
  8
0
  6
CONTINUOUS
 62
256
 10
-80.930539258736246
 20
-62.297933209881570
 11
-81.812226877376361
 21
-62.092888226183319
  0
LINE
  8
0
  6
CONTINUOUS
 62
256
 10
-80.117971295660041
 20
-62.630908195444327
 11
-80.930539258736246
 21
-62.297933209881570
  0
LINE
  8
0
  6
CONTINUOUS
 62
256
 10
-79.405749519275403
 20
-63.079017140910942
 11
-80.117971295660041
 21
-62.630908195444327
  0
LINE
  8
0
  6
CONTINUOUS
 62
256
 10
-78.821244213030212
 20
-63.625039470809526
 11
-79.405749519275403
 21
-63.079017140910942
  0
LINE
  8
0
  6
CONTINUOUS
 62
256
 10
-78.386917588049130
 20
-64.247991853214927
 11
-78.821244213030212
 21
-63.625039470809526
  0
LINE
  8
0
  6
CONTINUOUS
 62
256
 10
-78.119460572956996
 20
-64.923934577427019
 11
-78.386917588049130
 21
-64.247991853214927
  0
LINE
  8
0
  6
CONTINUOUS
 62
256
 10
-78.029151390852178
 20
-65.626891543627380
 11
-78.119460572956996
 21
-64.923934577427019
  0
LINE
  8
0
  6
CONTINUOUS
 62
256
 10
-84.729151390852394
 20
-62.634515989627062
 11
-82.729151390852394
 21
-63.810301475249844
  0
LINE
  8
0
  6
CONTINUOUS
 62
256
 10
-82.729151390852394
 20
-63.810301475249844
 11
-80.729151390852394
 21
-65.462943114373275
  0
LINE
  8
0
  6
CONTINUOUS
 62
256
 10
-80.729151390852394
 20
-62.634515989627062
 11
-82.729151390852394
 21
-63.810301475249844
  0
LINE
  8
0
  6
CONTINUOUS
 62
256
 10
-82.729151390852394
 20
-63.810301475249844
 11
-84.729151390852394
 21
-65.462943114373275
  0
LINE
  8
0
  6
CONTINUOUS
 62
256
 10
-78.119460572956996
 20
-160.984510418523030
 11
-78.029151390852178
 21
-160.281553452322670
  0
LINE
  8
0
  6
CONTINUOUS
 62
256
 10
-78.386917588049130
 20
-161.660453142735120
 11
-78.119460572956996
 21
-160.984510418523030
  0
LINE
  8
0
  6
CONTINUOUS
 62
256
 10
-78.821244213030212
 20
-162.283405525140520
 11
-78.386917588049130
 21
-161.660453142735120
  0
LINE
  8
0
  6
CONTINUOUS
 62
256
 10
-79.405749519275403
 20
-162.829427855039110
 11
-78.821244213030212
 21
-162.283405525140520
  0
LINE
  8
0
  6
CONTINUOUS
 62
256
 10
-80.117971295660041
 20
-163.277536800505740
 11
-79.405749519275403
 21
-162.829427855039110
  0
LINE
  8
0
  6
CONTINUOUS
 62
256
 10
-80.930539258736246
 20
-163.610511786068490
 11
-80.117971295660041
 21
-163.277536800505740
  0
LINE
  8
0
  6
CONTINUOUS
 62
256
 10
-81.812226877376361
 20
-163.815556769766740
 11
-80.930539258736246
 21
-163.610511786068490
  0
LINE
  8
0
  6
CONTINUOUS
 62
256
 10
-82.729151390852167
 20
-163.884791987867520
 11
-81.812226877376361
 21
-163.815556769766740
  0
LINE
  8
0
  6
CONTINUOUS
 62
256
 10
-83.646075904327972
 20
-163.815556769766740
 11
-82.729151390852167
 21
-163.884791987867520
  0
LINE
  8
0
  6
CONTINUOUS
 62
256
 10
-84.527763522968087
 20
-163.610511786068490
 11
-83.646075904327972
 21
-163.815556769766740
  0
LINE
  8
0
  6
CONTINUOUS
 62
256
 10
-85.340331486044292
 20
-163.277536800505740
 11
-84.527763522968087
 21
-163.610511786068490
  0
LINE
  8
0
  6
CONTINUOUS
 62
256
 10
-86.052553262428930
 20
-162.829427855039110
 11
-85.340331486044292
 21
-163.277536800505740
  0
LINE
  8
0
  6
CONTINUOUS
 62
256
 10
-86.637058568674121
 20
-162.283405525140520
 11
-86.052553262428930
 21
-162.829427855039110
  0
LINE
  8
0
  6
CONTINUOUS
 62
256
 10
-87.071385193655203
 20
-161.660453142735120
 11
-86.637058568674121
 21
-162.283405525140520
  0
LINE
  8
0
  6
CONTINUOUS
 62
256
 10
-87.338842208747337
 20
-160.984510418523030
 11
-87.071385193655203
 21
-161.660453142735120
  0
LINE
  8
0
  6
CONTINUOUS
 62
256
 10
-87.429151390852155
 20
-160.281553452322670
 11
-87.338842208747337
 21
-160.984510418523030
  0
LINE
  8
0
  6
CONTINUOUS
 62
256
 10
-87.338842208747337
 20
-159.578596486122310
 11
-87.429151390852155
 21
-160.281553452322670
  0
LINE
  8
0
  6
CONTINUOUS
 62
256
 10
-87.071385193655203
 20
-158.902653761910220
 11
-87.338842208747337
 21
-159.578596486122310
  0
LINE
  8
0
  6
CONTINUOUS
 62
256
 10
-86.637058568674121
 20
-158.279701379504810
 11
-87.071385193655203
 21
-158.902653761910220
  0
LINE
  8
0
  6
CONTINUOUS
 62
256
 10
-86.052553262428930
 20
-157.733679049606220
 11
-86.637058568674121
 21
-158.279701379504810
  0
LINE
  8
0
  6
CONTINUOUS
 62
256
 10
-85.340331486044292
 20
-157.285570104139590
 11
-86.052553262428930
 21
-157.733679049606220
  0
LINE
  8
0
  6
CONTINUOUS
 62
256
 10
-84.527763522968087
 20
-156.952595118576850
 11
-85.340331486044292
 21
-157.285570104139590
  0
LINE
  8
0
  6
CONTINUOUS
 62
256
 10
-83.646075904327972
 20
-156.747550134878590
 11
-84.527763522968087
 21
-156.952595118576850
  0
LINE
  8
0
  6
CONTINUOUS
 62
256
 10
-82.729151390852167
 20
-156.678314916777820
 11
-83.646075904327972
 21
-156.747550134878590
  0
LINE
  8
0
  6
CONTINUOUS
 62
256
 10
-81.812226877376361
 20
-156.747550134878590
 11
-82.729151390852167
 21
-156.678314916777820
  0
LINE
  8
0
  6
CONTINUOUS
 62
256
 10
-80.930539258736246
 20
-156.952595118576850
 11
-81.812226877376361
 21
-156.747550134878590
  0
LINE
  8
0
  6
CONTINUOUS
 62
256
 10
-80.117971295660041
 20
-157.285570104139590
 11
-80.930539258736246
 21
-156.952595118576850
  0
LINE
  8
0
  6
CONTINUOUS
 62
256
 10
-79.405749519275403
 20
-157.733679049606220
 11
-80.117971295660041
 21
-157.285570104139590
  0
LINE
  8
0
  6
CONTINUOUS
 62
256
 10
-78.821244213030212
 20
-158.279701379504810
 11
-79.405749519275403
 21
-157.733679049606220
  0
LINE
  8
0
  6
CONTINUOUS
 62
256
 10
-78.386917588049130
 20
-158.902653761910220
 11
-78.821244213030212
 21
-158.279701379504810
  0
LINE
  8
0
  6
CONTINUOUS
 62
256
 10
-78.119460572956996
 20
-159.578596486122310
 11
-78.386917588049130
 21
-158.902653761910220
  0
LINE
  8
0
  6
CONTINUOUS
 62
256
 10
-78.029151390852178
 20
-160.281553452322670
 11
-78.119460572956996
 21
-159.578596486122310
  0
LINE
  8
0
  6
CONTINUOUS
 62
256
 10
-84.729151390852394
 20
-163.273929006322990
 11
-82.729151390852394
 21
-162.098143520700210
  0
LINE
  8
0
  6
CONTINUOUS
 62
256
 10
-82.729151390852394
 20
-162.098143520700210
 11
-80.729151390852394
 21
-160.445501881576770
  0
LINE
  8
0
  6
CONTINUOUS
 62
256
 10
-80.729151390852394
 20
-163.273929006322990
 11
-82.729151390852394
 21
-162.098143520700210
  0
LINE
  8
0
  6
CONTINUOUS
 62
256
 10
-82.729151390852394
 20
-162.098143520700210
 11
-84.729151390852394
 21
-160.445501881576770
  0
LINE
  8
0
  6
CONTINUOUS
 62
256
 10
-71.729151390852394
 20
-58.954222497974797
 11
-149.233996339945180
 21
-58.954222497974797
  0
LINE
  8
0
  6
CONTINUOUS
 62
256
 10
-71.729151390852394
 20
-58.954222497974797
 11
-71.729151390852394
 21
-71.954222497975024
  0
LINE
  8
0
  6
CONTINUOUS
 62
256
 10
-71.729151390852394
 20
-166.954222497975250
 11
-71.729151390852394
 21
-153.954222497975020
  0
LINE
  8
0
  6
CONTINUOUS
 62
256
 10
-71.729151390852394
 20
-166.954222497975250
 11
-149.233996339945180
 21
-166.954222497975250
  0
LINE
  8
0
  6
DASHDOT
 62
256
 10
87.441866009067326
 20
-112.954222497975020
 11
-186.901558471686710
 21
-112.954222497975020
  0
LINE
  8
0
  6
CONTINUOUS
 62
256
 10
-71.729151390852394
 20
-157.458878025079910
 11
66.270848609168752
 21
-157.458878025079910
  0
LINE
  8
0
  6
CONTINUOUS
 62
256
 10
-71.729151390852394
 20
-159.087305092857830
 11
66.270848609168752
 21
-159.087305092857830
  0
LINE
  8
0
  6
CONTINUOUS
 62
256
 10
-71.729151390852394
 20
-163.454222497975020
 11
48.770848609169320
 21
-163.454222497975020
  0
LINE
  8
0
  6
CONTINUOUS
 62
256
 10
-71.729151390852394
 20
-163.954222497975250
 11
48.770848609169320
 21
-163.954222497975250
  0
LINE
  8
0
  6
CONTINUOUS
 62
256
 10
48.770848609169320
 20
-165.454222497975020
 11
-71.729151390852394
 21
-165.454222497975020
  0
CIRCLE
  8
0
  6
DASHED
 62
256
 10
-67.529151390834045
 20
38.021746941324693
 40
6.000000000000000
  0
ARC
  8
0
  6
DASHED
 62
256
 10
-67.529151390834045
 20
38.021746941324693
 40
7.000000000000000
 50
180.000000000000000
 51
0.000000000000000
  0
LINE
  8
0
  6
DASHED
 62
256
 10
-60.529151390834045
 20
58.021746941324693
 11
-60.529151390834045
 21
38.021746941324693
  0
LINE
  8
0
  6
DASHED
 62
256
 10
-74.529151390834045
 20
58.021746941324693
 11
-74.529151390834045
 21
38.021746941324693
  0
LINE
  8
0
  6
DASHDOT
 62
256
 10
-67.529151390834045
 20
29.021746941324693
 11
-67.529151390834045
 21
56.023346263874430
  0
LINE
  8
0
  6
DASHDOT
 62
256
 10
-58.529151390834045
 20
38.021746941324693
 11
-76.529151390834045
 21
38.021746941324693
  0
LINE
  8
0
  6
DASHDOT
 62
256
 10
178.523149976618240
 20
115.521746941324640
 11
-194.057917136628930
 21
115.521746941324640
  0
ARC
  8
0
  6
CONTINUOUS
 62
256
 10
-149.233996339948020
 20
77.121746941324716
 40
20.599999999999891
 50
235.000000000000400
 51
270.000000000000000
  0
ARC
  8
0
  6
CONTINUOUS
 62
256
 10
-167.129151390855330
 20
67.678126807695378
 40
2.599999999999909
 50
180.000000000000000
 51
234.999999999998520
  0
LINE
  8
0
  6
CONTINUOUS
 62
256
 10
-161.049670928779390
 20
60.247214828971494
 11
-168.620450125368170
 21
65.548331492544037
  0
LINE
  8
0
  6
CONTINUOUS
 62
256
 10
-169.729151390855240
 20
67.678126807695378
 11
-169.729151390855240
 21
115.521746941324640
  0
LINE
  8
0
  6
CONTINUOUS
 62
256
 10
-71.729151390855236
 20
74.479833170984932
 11
66.270848609168752
 21
74.479833170984932
  0
LINE
  8
0
  6
CONTINUOUS
 62
256
 10
-71.729151390855236
 20
69.388664346441999
 11
66.270848609168752
 21
69.388664346441999
  0
LINE
  8
0
  6
CONTINUOUS
 62
256
 10
-71.729151390855236
 20
65.021746941324693
 11
66.270848609168752
 21
65.021746941324693
  0
LINE
  8
0
  6
CONTINUOUS
 62
256
 10
-71.729151390855236
 20
64.521746941324693
 11
66.270848609168752
 21
64.521746941324693
  0
LINE
  8
0
  6
CONTINUOUS
 62
256
 10
48.770848609165910
 20
62.021746941324693
 11
10.470848609165955
 21
62.021746941324693
  0
LINE
  8
0
  6
CONTINUOUS
 62
256
 10
10.470848609165955
 20
63.021746941324693
 11
10.470848609165955
 21
25.021746941324693
  0
ARC
  8
0
  6
CONTINUOUS
 62
256
 10
9.470848609165955
 20
25.021746941324693
 40
1.000000000000000
 50
270.000000000000000
 51
0.000000000000000
  0
LINE
  8
0
  6
CONTINUOUS
 62
256
 10
-78.529151390834045
 20
24.021746941324693
 11
9.470848609165955
 21
24.021746941324693
  0
ARC
  8
0
  6
CONTINUOUS
 62
256
 10
-78.529151390834045
 20
25.021746941324693
 40
1.000000000000000
 50
180.000000000000000
 51
270.000000000000000
  0
LINE
  8
0
  6
CONTINUOUS
 62
256
 10
-72.529151390834045
 20
23.521746941324693
 11
-64.529151390834045
 21
23.521746941324693
  0
LINE
  8
0
  6
CONTINUOUS
 62
256
 10
-4.529151390834045
 20
23.521746941324693
 11
3.470848609165955
 21
23.521746941324693
  0
LINE
  8
0
  6
CONTINUOUS
 62
256
 10
-4.529151390834045
 20
24.021746941324693
 11
-4.529151390834045
 21
23.521746941324693
  0
LINE
  8
0
  6
CONTINUOUS
 62
256
 10
3.470848609165955
 20
24.021746941324693
 11
3.470848609165955
 21
23.521746941324693
  0
LINE
  8
0
  6
CONTINUOUS
 62
256
 10
-64.529151390834045
 20
24.021746941324693
 11
-64.529151390834045
 21
23.521746941324693
  0
LINE
  8
0
  6
CONTINUOUS
 62
256
 10
-72.529151390834045
 20
24.021746941324693
 11
-72.529151390834045
 21
23.521746941324693
  0
LINE
  8
0
  6
CONTINUOUS
 62
256
 10
10.470848609165955
 20
63.021746941324693
 11
-71.729151390855236
 21
63.021746941324693
  0
LINE
  8
0
  6
CONTINUOUS
 62
256
 10
-78.119460572959838
 20
67.491459020776801
 11
-78.029151390855020
 21
68.194415986977162
  0
LINE
  8
0
  6
CONTINUOUS
 62
256
 10
-78.386917588051972
 20
66.815516296564709
 11
-78.119460572959838
 21
67.491459020776801
  0
LINE
  8
0
  6
CONTINUOUS
 62
256
 10
-78.821244213033054
 20
66.192563914159308
 11
-78.386917588051972
 21
66.815516296564709
  0
LINE
  8
0
  6
CONTINUOUS
 62
256
 10
-79.405749519278245
 20
65.646541584260731
 11
-78.821244213033054
 21
66.192563914159308
  0
LINE
  8
0
  6
CONTINUOUS
 62
256
 10
-80.117971295662883
 20
65.198432638794117
 11
-79.405749519278245
 21
65.646541584260731
  0
LINE
  8
0
  6
CONTINUOUS
 62
256
 10
-80.930539258739088
 20
64.865457653231346
 11
-80.117971295662883
 21
65.198432638794117
  0
LINE
  8
0
  6
CONTINUOUS
 62
256
 10
-81.812226877379203
 20
64.660412669533102
 11
-80.930539258739088
 21
64.865457653231346
  0
LINE
  8
0
  6
CONTINUOUS
 62
256
 10
-82.729151390855009
 20
64.591177451432330
 11
-81.812226877379203
 21
64.660412669533102
  0
LINE
  8
0
  6
CONTINUOUS
 62
256
 10
-83.646075904330814
 20
64.660412669533102
 11
-82.729151390855009
 21
64.591177451432330
  0
LINE
  8
0
  6
CONTINUOUS
 62
256
 10
-84.527763522970929
 20
64.865457653231346
 11
-83.646075904330814
 21
64.660412669533102
  0
LINE
  8
0
  6
CONTINUOUS
 62
256
 10
-85.340331486047134
 20
65.198432638794117
 11
-84.527763522970929
 21
64.865457653231346
  0
LINE
  8
0
  6
CONTINUOUS
 62
256
 10
-86.052553262431772
 20
65.646541584260731
 11
-85.340331486047134
 21
65.198432638794117
  0
LINE
  8
0
  6
CONTINUOUS
 62
256
 10
-86.637058568676963
 20
66.192563914159308
 11
-86.052553262431772
 21
65.646541584260731
  0
LINE
  8
0
  6
CONTINUOUS
 62
256
 10
-87.071385193658045
 20
66.815516296564709
 11
-86.637058568676963
 21
66.192563914159308
  0
LINE
  8
0
  6
CONTINUOUS
 62
256
 10
-87.338842208750179
 20
67.491459020776801
 11
-87.071385193658045
 21
66.815516296564709
  0
LINE
  8
0
  6
CONTINUOUS
 62
256
 10
-87.429151390854997
 20
68.194415986977162
 11
-87.338842208750179
 21
67.491459020776801
  0
LINE
  8
0
  6
CONTINUOUS
 62
256
 10
-87.338842208750179
 20
68.897372953177523
 11
-87.429151390854997
 21
68.194415986977162
  0
LINE
  8
0
  6
CONTINUOUS
 62
256
 10
-87.071385193658045
 20
69.573315677389616
 11
-87.338842208750179
 21
68.897372953177523
  0
LINE
  8
0
  6
CONTINUOUS
 62
256
 10
-86.637058568676963
 20
70.196268059795017
 11
-87.071385193658045
 21
69.573315677389616
  0
LINE
  8
0
  6
CONTINUOUS
 62
256
 10
-86.052553262431772
 20
70.742290389693594
 11
-86.637058568676963
 21
70.196268059795017
  0
LINE
  8
0
  6
CONTINUOUS
 62
256
 10
-85.340331486047134
 20
71.190399335160208
 11
-86.052553262431772
 21
70.742290389693594
  0
LINE
  8
0
  6
CONTINUOUS
 62
256
 10
-84.527763522970929
 20
71.523374320722979
 11
-85.340331486047134
 21
71.190399335160208
  0
LINE
  8
0
  6
CONTINUOUS
 62
256
 10
-83.646075904330814
 20
71.728419304421223
 11
-84.527763522970929
 21
71.523374320722979
  0
LINE
  8
0
  6
CONTINUOUS
 62
256
 10
-82.729151390855009
 20
71.797654522521995
 11
-83.646075904330814
 21
71.728419304421223
  0
LINE
  8
0
  6
CONTINUOUS
 62
256
 10
-81.812226877379203
 20
71.728419304421223
 11
-82.729151390855009
 21
71.797654522521995
  0
LINE
  8
0
  6
CONTINUOUS
 62
256
 10
-80.930539258739088
 20
71.523374320722979
 11
-81.812226877379203
 21
71.728419304421223
  0
LINE
  8
0
  6
CONTINUOUS
 62
256
 10
-80.117971295662883
 20
71.190399335160208
 11
-80.930539258739088
 21
71.523374320722979
  0
LINE
  8
0
  6
CONTINUOUS
 62
256
 10
-79.405749519278245
 20
70.742290389693594
 11
-80.117971295662883
 21
71.190399335160208
  0
LINE
  8
0
  6
CONTINUOUS
 62
256
 10
-78.821244213033054
 20
70.196268059795017
 11
-79.405749519278245
 21
70.742290389693594
  0
LINE
  8
0
  6
CONTINUOUS
 62
256
 10
-78.386917588051972
 20
69.573315677389616
 11
-78.821244213033054
 21
70.196268059795017
  0
LINE
  8
0
  6
CONTINUOUS
 62
256
 10
-78.119460572959838
 20
68.897372953177523
 11
-78.386917588051972
 21
69.573315677389616
  0
LINE
  8
0
  6
CONTINUOUS
 62
256
 10
-78.029151390855020
 20
68.194415986977162
 11
-78.119460572959838
 21
68.897372953177523
  0
LINE
  8
0
  6
CONTINUOUS
 62
256
 10
-84.729151390855236
 20
65.202040432976730
 11
-82.729151390855236
 21
66.377825918599626
  0
LINE
  8
0
  6
CONTINUOUS
 62
256
 10
-82.729151390855236
 20
66.377825918599626
 11
-80.729151390855236
 21
68.030467557722943
  0
LINE
  8
0
  6
CONTINUOUS
 62
256
 10
-80.729151390855236
 20
65.202040432976730
 11
-82.729151390855236
 21
66.377825918599626
  0
LINE
  8
0
  6
CONTINUOUS
 62
256
 10
-82.729151390855236
 20
66.377825918599626
 11
-84.729151390855236
 21
68.030467557722943
  0
LINE
  8
0
  6
CONTINUOUS
 62
256
 10
-71.729151390855236
 20
64.182050580515636
 11
-71.729151390855009
 21
115.521746941324640
  0
ARC
  8
0
  6
CONTINUOUS
 62
256
 10
-74.729151390855236
 20
64.182050580515750
 40
3.000000000000000
 50
270.000000000000000
 51
359.999999999997780
  0
LINE
  8
0
  6
CONTINUOUS
 62
256
 10
-78.729151390855236
 20
61.182050580515750
 11
-74.729151390855236
 21
61.182050580515750
  0
ARC
  8
0
  6
CONTINUOUS
 62
256
 10
-78.729151390855236
 20
58.182050580515750
 40
3.000000000000000
 50
90.000000000000000
 51
180.000000000000000
  0
LINE
  8
0
  6
CONTINUOUS
 62
256
 10
-81.729151390855236
 20
56.521746941324693
 11
-149.233996339948020
 21
56.521746941324693
  0
LINE
  8
0
  6
CONTINUOUS
 62
256
 10
-81.729151390855236
 20
56.521746941324693
 11
-81.729151390855236
 21
58.182050580515750
  0
LINE
  8
0
  6
CONTINUOUS
 62
256
 10
-79.529151390834045
 20
61.073417039481740
 11
-79.529151390834045
 21
25.021746941324693
  0
LINE
  8
0
  6
CONTINUOUS
 62
256
 10
-79.529151390834045
 20
58.021746941324693
 11
10.470848609165955
 21
58.021746941324693
  0
LINE
  8
0
  6
CONTINUOUS
 62
256
 10
-78.119460572959838
 20
162.146120929471920
 11
-78.029151390855020
 21
162.849077895672280
  0
LINE
  8
0
  6
CONTINUOUS
 62
256
 10
-78.386917588051972
 20
161.470178205259830
 11
-78.119460572959838
 21
162.146120929471920
  0
LINE
  8
0
  6
CONTINUOUS
 62
256
 10
-78.821244213033054
 20
160.847225822854430
 11
-78.386917588051972
 21
161.470178205259830
  0
LINE
  8
0
  6
CONTINUOUS
 62
256
 10
-79.405749519278245
 20
160.301203492955840
 11
-78.821244213033054
 21
160.847225822854430
  0
LINE
  8
0
  6
CONTINUOUS
 62
256
 10
-80.117971295662883
 20
159.853094547489210
 11
-79.405749519278245
 21
160.301203492955840
  0
LINE
  8
0
  6
CONTINUOUS
 62
256
 10
-80.930539258739088
 20
159.520119561926460
 11
-80.117971295662883
 21
159.853094547489210
  0
LINE
  8
0
  6
CONTINUOUS
 62
256
 10
-81.812226877379203
 20
159.315074578228210
 11
-80.930539258739088
 21
159.520119561926460
  0
LINE
  8
0
  6
CONTINUOUS
 62
256
 10
-82.729151390855009
 20
159.245839360127430
 11
-81.812226877379203
 21
159.315074578228210
  0
LINE
  8
0
  6
CONTINUOUS
 62
256
 10
-83.646075904330814
 20
159.315074578228210
 11
-82.729151390855009
 21
159.245839360127430
  0
LINE
  8
0
  6
CONTINUOUS
 62
256
 10
-84.527763522970929
 20
159.520119561926460
 11
-83.646075904330814
 21
159.315074578228210
  0
LINE
  8
0
  6
CONTINUOUS
 62
256
 10
-85.340331486047134
 20
159.853094547489210
 11
-84.527763522970929
 21
159.520119561926460
  0
LINE
  8
0
  6
CONTINUOUS
 62
256
 10
-86.052553262431772
 20
160.301203492955840
 11
-85.340331486047134
 21
159.853094547489210
  0
LINE
  8
0
  6
CONTINUOUS
 62
256
 10
-86.637058568676963
 20
160.847225822854430
 11
-86.052553262431772
 21
160.301203492955840
  0
LINE
  8
0
  6
CONTINUOUS
 62
256
 10
-87.071385193658045
 20
161.470178205259830
 11
-86.637058568676963
 21
160.847225822854430
  0
LINE
  8
0
  6
CONTINUOUS
 62
256
 10
-87.338842208750179
 20
162.146120929471920
 11
-87.071385193658045
 21
161.470178205259830
  0
LINE
  8
0
  6
CONTINUOUS
 62
256
 10
-87.429151390854997
 20
162.849077895672280
 11
-87.338842208750179
 21
162.146120929471920
  0
LINE
  8
0
  6
CONTINUOUS
 62
256
 10
-87.338842208750179
 20
163.552034861872640
 11
-87.429151390854997
 21
162.849077895672280
  0
LINE
  8
0
  6
CONTINUOUS
 62
256
 10
-87.071385193658045
 20
164.227977586084730
 11
-87.338842208750179
 21
163.552034861872640
  0
LINE
  8
0
  6
CONTINUOUS
 62
256
 10
-86.637058568676963
 20
164.850929968490140
 11
-87.071385193658045
 21
164.227977586084730
  0
LINE
  8
0
  6
CONTINUOUS
 62
256
 10
-86.052553262431772
 20
165.396952298388730
 11
-86.637058568676963
 21
164.850929968490140
  0
LINE
  8
0
  6
CONTINUOUS
 62
256
 10
-85.340331486047134
 20
165.845061243855350
 11
-86.052553262431772
 21
165.396952298388730
  0
LINE
  8
0
  6
CONTINUOUS
 62
256
 10
-84.527763522970929
 20
166.178036229418100
 11
-85.340331486047134
 21
165.845061243855350
  0
LINE
  8
0
  6
CONTINUOUS
 62
256
 10
-83.646075904330814
 20
166.383081213116360
 11
-84.527763522970929
 21
166.178036229418100
  0
LINE
  8
0
  6
CONTINUOUS
 62
256
 10
-82.729151390855009
 20
166.452316431217130
 11
-83.646075904330814
 21
166.383081213116360
  0
LINE
  8
0
  6
CONTINUOUS
 62
256
 10
-81.812226877379203
 20
166.383081213116360
 11
-82.729151390855009
 21
166.452316431217130
  0
LINE
  8
0
  6
CONTINUOUS
 62
256
 10
-80.930539258739088
 20
166.178036229418100
 11
-81.812226877379203
 21
166.383081213116360
  0
LINE
  8
0
  6
CONTINUOUS
 62
256
 10
-80.117971295662883
 20
165.845061243855350
 11
-80.930539258739088
 21
166.178036229418100
  0
LINE
  8
0
  6
CONTINUOUS
 62
256
 10
-79.405749519278245
 20
165.396952298388730
 11
-80.117971295662883
 21
165.845061243855350
  0
LINE
  8
0
  6
CONTINUOUS
 62
256
 10
-78.821244213033054
 20
164.850929968490140
 11
-79.405749519278245
 21
165.396952298388730
  0
LINE
  8
0
  6
CONTINUOUS
 62
256
 10
-78.386917588051972
 20
164.227977586084730
 11
-78.821244213033054
 21
164.850929968490140
  0
LINE
  8
0
  6
CONTINUOUS
 62
256
 10
-78.119460572959838
 20
163.552034861872640
 11
-78.386917588051972
 21
164.227977586084730
  0
LINE
  8
0
  6
CONTINUOUS
 62
256
 10
-78.029151390855020
 20
162.849077895672280
 11
-78.119460572959838
 21
163.552034861872640
  0
LINE
  8
0
  6
CONTINUOUS
 62
256
 10
-84.729151390855236
 20
165.841453449672600
 11
-82.729151390855236
 21
164.665667964049820
  0
LINE
  8
0
  6
CONTINUOUS
 62
256
 10
-82.729151390855236
 20
164.665667964049820
 11
-80.729151390855236
 21
163.013026324926390
  0
LINE
  8
0
  6
CONTINUOUS
 62
256
 10
-80.729151390855236
 20
165.841453449672600
 11
-82.729151390855236
 21
164.665667964049820
  0
LINE
  8
0
  6
CONTINUOUS
 62
256
 10
-82.729151390855236
 20
164.665667964049820
 11
-84.729151390855236
 21
163.013026324926390
  0
LINE
  8
0
  6
CONTINUOUS
 62
256
 10
-71.729151390855236
 20
174.521746941324640
 11
-71.729151390855009
 21
115.521746941324640
  0
ARC
  8
0
  6
CONTINUOUS
 62
256
 10
-149.233996339948020
 20
153.921746941324730
 40
20.599999999999909
 50
90.000000000000000
 51
124.999999999999790
  0
ARC
  8
0
  6
CONTINUOUS
 62
256
 10
-167.129151390855330
 20
163.365367074954070
 40
2.600000000000037
 50
125.000000000002630
 51
180.000000000000000
  0
LINE
  8
0
  6
CONTINUOUS
 62
256
 10
-169.729151390855240
 20
163.365367074954070
 11
-169.729151390855240
 21
115.521746941324640
  0
LINE
  8
0
  6
CONTINUOUS
 62
256
 10
-161.049670928779390
 20
170.796279053677840
 11
-168.620450125368170
 21
165.495162390105410
  0
LINE
  8
0
  6
CONTINUOUS
 62
256
 10
-71.729151390855236
 20
174.521746941324640
 11
-149.233996339948020
 21
174.521746941324640
  0
LINE
  8
0
  6
CONTINUOUS
 62
256
 10
48.770848609165910
 20
62.021746941324693
 11
48.770848609165910
 21
115.521746941324640
  0
LINE
  8
0
  6
CONTINUOUS
 62
256
 10
-71.729151390855236
 20
101.521746941324690
 11
66.270848609168752
 21
101.521746941324690
  0
LINE
  8
0
  6
CONTINUOUS
 62
256
 10
-71.729151390855009
 20
97.135632149574747
 11
66.270848609168752
 21
97.135632149574747
  0
LINE
  8
0
  6
CONTINUOUS
 62
256
 10
-71.729151390855009
 20
95.893712284686842
 11
66.270848609168752
 21
95.893712284686842
  0
LINE
  8
0
  6
CONTINUOUS
 62
256
 10
-71.729151390855009
 20
92.683507261328543
 11
66.270848609168752
 21
92.683507261328543
  0
LINE
  8
0
  6
CONTINUOUS
 62
256
 10
-71.729151390855236
 20
91.337105535829949
 11
66.270848609168752
 21
91.337105535829949
  0
LINE
  8
0
  6
CONTINUOUS
 62
256
 10
-71.729151390855236
 20
88.244374544164714
 11
66.270848609168752
 21
88.244374544164714
  0
LINE
  8
0
  6
CONTINUOUS
 62
256
 10
-71.729151390855236
 20
86.765351390687613
 11
66.270848609168752
 21
86.765351390687613
  0
LINE
  8
0
  6
CONTINUOUS
 62
256
 10
-71.729151390855236
 20
83.807355782554680
 11
66.270848609168752
 21
83.807355782554680
  0
LINE
  8
0
  6
CONTINUOUS
 62
256
 10
-71.729151390855236
 20
82.218145989815923
 11
66.270848609168752
 21
82.218145989815923
  0
LINE
  8
0
  6
CONTINUOUS
 62
256
 10
48.770848609165910
 20
169.021746941324640
 11
48.770848609165910
 21
115.521746941324640
  0
LINE
  8
0
  6
CONTINUOUS
 62
256
 10
-71.729151390855236
 20
166.521746941324640
 11
66.270848609168752
 21
166.521746941324640
  0
LINE
  8
0
  6
CONTINUOUS
 62
256
 10
-71.729151390855236
 20
166.021746941324640
 11
66.270848609168752
 21
166.021746941324640
  0
LINE
  8
0
  6
CONTINUOUS
 62
256
 10
-71.729151390855236
 20
161.654829536207440
 11
66.270848609168752
 21
161.654829536207440
  0
LINE
  8
0
  6
CONTINUOUS
 62
256
 10
-71.729151390855236
 20
156.563660711664400
 11
66.270848609168752
 21
156.563660711664400
  0
LINE
  8
0
  6
CONTINUOUS
 62
256
 10
-71.729151390855236
 20
148.825347892833410
 11
66.270848609168752
 21
148.825347892833410
  0
LINE
  8
0
  6
CONTINUOUS
 62
256
 10
-71.729151390855236
 20
147.236138100094650
 11
66.270848609168752
 21
147.236138100094650
  0
LINE
  8
0
  6
CONTINUOUS
 62
256
 10
-71.729151390855236
 20
144.278142491961720
 11
66.270848609168752
 21
144.278142491961720
  0
LINE
  8
0
  6
CONTINUOUS
 62
256
 10
-71.729151390855236
 20
142.799119338484620
 11
66.270848609168752
 21
142.799119338484620
  0
LINE
  8
0
  6
CONTINUOUS
 62
256
 10
-71.729151390855236
 20
139.706388346819490
 11
66.270848609168752
 21
139.706388346819490
  0
LINE
  8
0
  6
CONTINUOUS
 62
256
 10
-71.729151390855236
 20
138.359986621320790
 11
66.270848609168752
 21
138.359986621320790
  0
LINE
  8
0
  6
CONTINUOUS
 62
256
 10
-71.729151390855236
 20
133.907861733074700
 11
66.270848609168752
 21
133.907861733074700
  0
LINE
  8
0
  6
CONTINUOUS
 62
256
 10
-71.729151390855236
 20
135.149781597962600
 11
66.270848609168752
 21
135.149781597962600
  0
LINE
  8
0
  6
CONTINUOUS
 62
256
 10
-71.729151390855236
 20
129.521746941324640
 11
66.270848609168752
 21
129.521746941324640
  0
LINE
  8
0
  6
CONTINUOUS
 62
256
 10
48.770848609165910
 20
169.021746941324640
 11
-71.729151390855236
 21
169.021746941324640
  0
LINE
  8
0
  6
CONTINUOUS
 62
256
 10
65.297025557476445
 20
169.428314193162810
 11
48.770848609168752
 21
168.995561019755770
  0
LINE
  8
0
  6
CONTINUOUS
 62
256
 10
66.270848609168752
 20
115.521746941324640
 11
66.270848609168752
 21
144.271747894998950
  0
LINE
  8
0
  6
CONTINUOUS
 62
256
 10
66.770848609168752
 20
185.021746941324640
 11
76.770848609168752
 21
185.021746941324640
  0
ARC
  8
0
  6
CONTINUOUS
 62
256
 10
65.270848609168752
 20
170.427971518138290
 40
0.999999999999925
 50
271.499999999989770
 51
0.000000000000000
  0
ARC
  8
0
  6
CONTINUOUS
 62
256
 10
66.770848609168752
 20
184.521746941324640
 40
0.500000000000000
 50
90.000000000000000
 51
180.000000000000000
  0
ARC
  8
0
  6
CONTINUOUS
 62
256
 10
66.770848609168752
 20
46.521746941324636
 40
0.500000000000000
 50
180.000000000000000
 51
270.000000000000000
  0
ARC
  8
0
  6
CONTINUOUS
 62
256
 10
65.270848609168752
 20
60.615522364511889
 40
1.000000000000000
 50
0.000000000000000
 51
88.500000000010303
  0
LINE
  8
0
  6
CONTINUOUS
 62
256
 10
66.770848609168752
 20
46.021746941324636
 11
76.770848609168752
 21
46.021746941324636
  0
LINE
  8
0
  6
CONTINUOUS
 62
256
 10
76.270848609168752
 20
46.021746941324636
 11
76.270848609168752
 21
115.521746941324640
  0
LINE
  8
0
  6
CONTINUOUS
 62
256
 10
65.297025557476445
 20
61.615179689487377
 11
48.770848609168752
 21
62.047932862894413
  0
LINE
  8
0
  6
CONTINUOUS
 62
256
 10
48.770848609168752
 20
62.047932862894413
 11
48.770848609166023
 21
115.521746941324640
  0
ARC
  8
0
  6
CONTINUOUS
 62
256
 10
67.270848609168752
 20
76.271746941324636
 40
1.000000000000000
 50
90.000000000000000
 51
180.000000000000000
  0
ARC
  8
0
  6
CONTINUOUS
 62
256
 10
70.870848609169116
 20
77.671746941324272
 40
0.399999999999636
 50
270.000000000000000
 51
0.000000000000000
  0
LINE
  8
0
  6
CONTINUOUS
 62
256
 10
71.270848609168752
 20
77.671746941324272
 11
71.270848609168752
 21
87.371746941325000
  0
LINE
  8
0
  6
CONTINUOUS
 62
256
 10
70.870848609169116
 20
77.271746941324636
 11
67.270848609168752
 21
77.271746941324636
  0
ARC
  8
0
  6
CONTINUOUS
 62
256
 10
67.270848609168752
 20
88.771746941324636
 40
1.000000000000000
 50
180.000000000000000
 51
270.000000000000000
  0
ARC
  8
0
  6
CONTINUOUS
 62
256
 10
70.870848609169116
 20
87.371746941325000
 40
0.399999999999636
 50
0.000000000000000
 51
90.000000000000000
  0
LINE
  8
0
  6
CONTINUOUS
 62
256
 10
70.870848609169116
 20
87.771746941324636
 11
67.270848609168752
 21
87.771746941324636
  0
ARC
  8
0
  6
CONTINUOUS
 62
256
 10
67.270848609168752
 20
154.771746941324640
 40
1.000000000000000
 50
180.000000000000000
 51
270.000000000000000
  0
ARC
  8
0
  6
CONTINUOUS
 62
256
 10
70.870848609169116
 20
153.371746941325000
 40
0.399999999999636
 50
0.000000000000000
 51
90.000000000000000
  0
LINE
  8
0
  6
CONTINUOUS
 62
256
 10
71.270848609168752
 20
153.371746941325000
 11
71.270848609168752
 21
143.671746941324270
  0
LINE
  8
0
  6
CONTINUOUS
 62
256
 10
48.770848609168752
 20
168.995561019755770
 11
48.770848609166023
 21
115.521746941324640
  0
LINE
  8
0
  6
CONTINUOUS
 62
256
 10
70.870848609169116
 20
153.771746941324640
 11
67.270848609168752
 21
153.771746941324640
  0
LINE
  8
0
  6
CONTINUOUS
 62
256
 10
76.270848609168752
 20
185.021746941324640
 11
76.270848609168752
 21
115.521746941324640
  0
ARC
  8
0
  6
CONTINUOUS
 62
256
 10
67.270848609168752
 20
142.271746941324640
 40
1.000000000000000
 50
90.000000000000000
 51
180.000000000000000
  0
ARC
  8
0
  6
CONTINUOUS
 62
256
 10
70.870848609169116
 20
143.671746941324270
 40
0.399999999999636
 50
270.000000000000000
 51
0.000000000000000
  0
LINE
  8
0
  6
CONTINUOUS
 62
256
 10
70.870848609169116
 20
143.271746941324640
 11
67.270848609168752
 21
143.271746941324640
  0
LINE
  8
0
  6
CONTINUOUS
 62
256
 10
66.270848609168752
 20
115.521746941324640
 11
66.270848609168752
 21
86.771745987650320
  0
LINE
  8
0
  6
CONTINUOUS
 62
256
 10
66.270848609168752
 20
78.271747894998953
 11
66.270848609168752
 21
46.521746941324636
  0
LINE
  8
0
  6
CONTINUOUS
 62
256
 10
66.270848609168752
 20
152.771745987650320
 11
66.270848609168752
 21
184.521746941324640
  0
LINE
  8
0
  6
DASHDOT
 62
256
 10
140.766847859531940
 20
179.161357248113750
 11
114.935089541630530
 21
179.161357248113750
  0
LINE
  8
0
  6
DASHDOT
 62
256
 10
140.766847859531940
 20
51.882136634535527
 11
114.935089541630530
 21
51.882136634535527
  0
LINE
  8
0
  6
CONTINUOUS
 62
256
 10
144.330673123012280
 20
125.021746941324640
 11
143.770865501876870
 21
124.871746941325000
  0
LINE
  8
0
  6
CONTINUOUS
 62
256
 10
143.770865501876870
 20
124.871746941325000
 11
142.170865501876960
 21
124.871746941325000
  0
LINE
  8
0
  6
CONTINUOUS
 62
256
 10
169.370865501876780
 20
125.021746941324640
 11
144.330673123012280
 21
125.021746941324640
  0
ARC
  8
0
  6
CONTINUOUS
 62
256
 10
169.370865501876780
 20
124.621746941325000
 40
0.400000000000091
 50
0.000000000000000
 51
90.000000000000000
  0
LINE
  8
0
  6
CONTINUOUS
 62
256
 10
169.770865501876870
 20
115.521746941324640
 11
169.770865501876870
 21
124.621746941325000
  0
LINE
  8
0
  6
CONTINUOUS
 62
256
 10
141.570865501877050
 20
104.521746941324640
 11
139.270848609168750
 21
104.521746941324640
  0
LINE
  8
0
  6
CONTINUOUS
 62
256
 10
141.570865501877050
 20
126.593670461375040
 11
139.270848609168750
 21
126.593670461375040
  0
LINE
  8
0
  6
CONTINUOUS
 62
256
 10
141.770865501876870
 20
115.521746941324640
 11
141.770865501876870
 21
104.721746941324450
  0
LINE
  8
0
  6
CONTINUOUS
 62
256
 10
141.570865501877050
 20
104.521746941324640
 11
141.770865501876870
 21
104.721746941324450
  0
LINE
  8
0
  6
CONTINUOUS
 62
256
 10
141.770865501876870
 20
115.521746941324620
 11
141.770865501876870
 21
126.393670461375220
  0
LINE
  8
0
  6
CONTINUOUS
 62
256
 10
141.570865501877050
 20
126.593670461375040
 11
141.770865501876870
 21
126.393670461375220
  0
ARC
  8
0
  6
CONTINUOUS
 62
256
 10
108.101252176353680
 20
73.695598170595076
 40
1.999999999999347
 50
39.045725661486529
 51
90.000000000000000
  0
LINE
  8
0
  6
CONTINUOUS
 62
256
 10
109.654539129332060
 20
74.955478975157348
 11
119.824135562148040
 21
62.417545704844088
  0
ARC
  8
0
  6
CONTINUOUS
 62
256
 10
118.270848609168750
 20
61.157664900280906
 40
2.000000000000000
 50
0.000000000000000
 51
39.045725661490216
  0
ARC
  8
0
  6
CONTINUOUS
 62
256
 10
108.101252176353680
 20
70.038743921103560
 40
1.999999999999347
 50
39.045725661486529
 51
90.000000000000000
  0
LINE
  8
0
  6
CONTINUOUS
 62
256
 10
109.654539129332060
 20
71.298624725665832
 11
119.824135562148040
 21
58.760691455352571
  0
ARC
  8
0
  6
CONTINUOUS
 62
256
 10
118.270848609168750
 20
57.500810650789390
 40
2.000000000000000
 50
0.000000000000000
 51
39.045725661490216
  0
LINE
  8
0
  6
CONTINUOUS
 62
256
 10
110.944472888883410
 20
75.695598170594167
 11
118.747017566306110
 21
75.695598170594167
  0
LINE
  8
0
  6
CONTINUOUS
 62
256
 10
110.944472888883410
 20
155.347895712055110
 11
118.747017566306110
 21
155.347895712055110
  0
ARC
  8
0
  6
CONTINUOUS
 62
256
 10
108.101252176353680
 20
161.004749961545710
 40
2.000000000000000
 50
270.000000000000000
 51
320.954274338513870
  0
LINE
  8
0
  6
CONTINUOUS
 62
256
 10
109.654539129332060
 20
159.744869156983440
 11
119.824135562148040
 21
172.282802427296700
  0
ARC
  8
0
  6
CONTINUOUS
 62
256
 10
118.270848609168750
 20
173.542683231859880
 40
2.000000000000627
 50
320.954274338509610
 51
0.000000000000000
  0
ARC
  8
0
  6
CONTINUOUS
 62
256
 10
118.270848609168750
 20
169.885828982368370
 40
2.000000000000627
 50
320.954274338509610
 51
0.000000000000000
  0
ARC
  8
0
  6
CONTINUOUS
 62
256
 10
108.101252176353680
 20
157.347895712054200
 40
2.000000000000000
 50
270.000000000000000
 51
320.954274338513870
  0
LINE
  8
0
  6
CONTINUOUS
 62
256
 10
109.654539129332060
 20
156.088014907491920
 11
119.824135562148040
 21
168.625948177805180
  0
ARC
  8
0
  6
CONTINUOUS
 62
256
 10
118.270848609168750
 20
119.521746941324640
 40
2.000000000000000
 50
270.000000000000000
 51
0.000000000000000
  0
ARC
  8
0
  6
CONTINUOUS
 62
256
 10
118.270848609168750
 20
111.521746941324640
 40
2.000000000000000
 50
0.000000000000000
 51
90.000000000000000
  0
ARC
  8
0
  6
CONTINUOUS
 62
256
 10
111.054223800839740
 20
111.521746941324640
 40
2.000000000000000
 50
90.000000000000000
 51
180.000000000000000
  0
ARC
  8
0
  6
CONTINUOUS
 62
256
 10
111.054223800839740
 20
119.521746941324640
 40
2.000000000000000
 50
180.000000000000000
 51
270.000000000000000
  0
LINE
  8
0
  6
CONTINUOUS
 62
256
 10
118.270848609168750
 20
113.521746941324640
 11
111.054223800839740
 21
113.521746941324640
  0
LINE
  8
0
  6
CONTINUOUS
 62
256
 10
118.270848609168750
 20
117.521746941324640
 11
111.054223800839740
 21
117.521746941324640
  0
LINE
  8
0
  6
CONTINUOUS
 62
256
 10
117.661034978777470
 20
45.308006083317196
 11
76.770848609168752
 21
46.021746941324636
  0
ARC
  8
0
  6
CONTINUOUS
 62
256
 10
117.608677759465540
 20
42.308462997847528
 40
3.000000000000397
 50
23.717082663696431
 51
88.999999999998352
  0
ARC
  8
0
  6
CONTINUOUS
 62
256
 10
117.608677759465540
 20
188.735030884802650
 40
3.000000000000496
 50
271.000000000001590
 51
336.282917336303740
  0
LINE
  8
0
  6
CONTINUOUS
 62
256
 10
76.770848609168752
 20
46.021746941324636
 11
76.770848609168752
 21
185.021746941324640
  0
LINE
  8
0
  6
CONTINUOUS
 62
256
 10
117.661034978777470
 20
185.735487799332990
 11
76.770848609168752
 21
185.021746941324640
  0
LINE
  8
0
  6
CONTINUOUS
 62
256
 10
124.770848609168750
 20
188.218141353094320
 11
132.270848609168750
 21
188.021746941324640
  0
LINE
  8
0
  6
CONTINUOUS
 62
256
 10
121.244671660860600
 20
188.125805160086200
 11
124.757760135014450
 21
188.217798619336460
  0
LINE
  8
0
  6
CONTINUOUS
 62
256
 10
139.270848609168750
 20
115.521746941324640
 11
139.270848609168750
 21
136.789131238429040
  0
LINE
  8
0
  6
CONTINUOUS
 62
256
 10
135.270848609168750
 20
179.721746941324450
 11
134.491523112431420
 21
180.521746941324640
  0
LINE
  8
0
  6
CONTINUOUS
 62
256
 10
135.270848609168750
 20
51.321746941324818
 11
134.491523112431420
 21
50.521746941324636
  0
LINE
  8
0
  6
CONTINUOUS
 62
256
 10
139.270848609168750
 20
115.521746941324640
 11
139.270848609168750
 21
94.254362644220237
  0
ARC
  8
0
  6
CONTINUOUS
 62
256
 10
121.270848609168750
 20
187.126147835110710
 40
0.999999999999937
 50
91.500000000015845
 51
180.000000000000000
  0
ARC
  8
0
  6
CONTINUOUS
 62
256
 10
137.270848609168750
 20
136.789131238429040
 40
2.000000000000000
 50
0.000000000000000
 51
40.236358309286203
  0
ARC
  8
0
  6
CONTINUOUS
 62
256
 10
137.270848609168750
 20
94.254362644220237
 40
1.999999999999609
 50
319.763641690733830
 51
0.000000000000000
  0
LINE
  8
0
  6
CONTINUOUS
 62
256
 10
134.491523112431420
 20
180.521746941324640
 11
132.270848609168750
 21
180.521746941324640
  0
LINE
  8
0
  6
CONTINUOUS
 62
256
 10
134.491523112431420
 20
50.521746941324636
 11
132.270848609168750
 21
50.521746941324636
  0
LINE
  8
0
  6
CONTINUOUS
 62
256
 10
132.270848609168750
 20
115.521746941324640
 11
132.270848609168750
 21
188.021746941324640
  0
LINE
  8
0
  6
CONTINUOUS
 62
256
 10
138.797621179906860
 20
92.962478161288345
 11
135.270848609168750
 21
88.794474214051661
  0
LINE
  8
0
  6
CONTINUOUS
 62
256
 10
138.797621179906860
 20
138.081015721361840
 11
135.270848609168750
 21
142.249019668597610
  0
LINE
  8
0
  6
CONTINUOUS
 62
256
 10
132.270848609168750
 20
115.521746941324640
 11
132.270848609168750
 21
43.021746941324636
  0
LINE
  8
0
  6
CONTINUOUS
 62
256
 10
135.270848609168750
 20
115.521746941324640
 11
135.270848609168750
 21
179.721746941324450
  0
LINE
  8
0
  6
CONTINUOUS
 62
256
 10
135.270848609168750
 20
115.521746941324640
 11
135.270848609168750
 21
51.321746941324818
  0
LINE
  8
0
  6
CONTINUOUS
 62
256
 10
121.297025557476900
 20
42.734387271579180
 11
132.270848609168750
 21
43.021746941324636
  0
LINE
  8
0
  6
CONTINUOUS
 62
256
 10
120.270848609168750
 20
43.734044596554668
 11
120.270848609168750
 21
187.126147835110710
  0
ARC
  8
0
  6
CONTINUOUS
 62
256
 10
121.270848609168750
 20
43.734044596554668
 40
1.000000000000000
 50
180.000000000000000
 51
271.500000000015750
  0
LINE
  8
0
  6
CONTINUOUS
 62
256
 10
128.192317764249760
 20
154.258303743060420
 11
132.270848609172840
 21
154.365103831883060
  0
ARC
  8
0
  6
CONTINUOUS
 62
256
 10
128.270848609172840
 20
151.259331768133960
 40
2.999999999999777
 50
91.499999999989811
 51
180.000000000000000
  0
LINE
  8
0
  6
CONTINUOUS
 62
256
 10
128.192317764245220
 20
170.944384104024720
 11
132.270848609168750
 21
171.051184192847360
  0
ARC
  8
0
  6
CONTINUOUS
 62
256
 10
128.270848609168750
 20
167.945412129098260
 40
2.999999999999788
 50
91.499999999998479
 51
180.000000000000000
  0
LINE
  8
0
  6
CONTINUOUS
 62
256
 10
128.192317764249760
 20
76.785190139589758
 11
132.270848609172840
 21
76.678390050767121
  0
ARC
  8
0
  6
CONTINUOUS
 62
256
 10
128.270848609172840
 20
79.784162114516221
 40
3.000000000000000
 50
180.000000000000000
 51
268.500000000010350
  0
LINE
  8
0
  6
CONTINUOUS
 62
256
 10
128.192317764245220
 20
60.099109778625461
 11
132.270848609168750
 21
59.992309689802823
  0
ARC
  8
0
  6
CONTINUOUS
 62
256
 10
128.270848609168750
 20
63.098081753551924
 40
3.000000000000000
 50
180.000000000000000
 51
268.500000000001590
  0
LINE
  8
0
  6
CONTINUOUS
 62
256
 10
125.270848609168750
 20
167.945412129098260
 11
125.270848609168750
 21
115.521746941324640
  0
LINE
  8
0
  6
CONTINUOUS
 62
256
 10
125.270848609168750
 20
63.098081753551924
 11
125.270848609168750
 21
115.521746941324640
  0
ARC
  8
0
  6
CONTINUOUS
 62
256
 10
-281.300396800051890
 20
-135.975055831308510
 40
35.999999999999908
 50
302.753463526023380
 51
309.352837971038750
  0
ARC
  8
0
  6
CONTINUOUS
 62
256
 10
-281.300396800051890
 20
-135.975055831308510
 40
35.999999999999972
 50
320.856406748460700
 51
329.999999999999320
  0
LINE
  8
0
  6
CONTINUOUS
 62
256
 10
-273.640414462624900
 20
-173.954222497975020
 11
-264.741434977058820
 21
-173.954222497975020
  0
ARC
  8
0
  6
CONTINUOUS
 62
256
 10
-268.741434977058820
 20
-169.454222497975080
 40
5.249999999999369
 50
134.139448286042240
 51
180.000000000000000
  0
ARC
  8
0
  6
CONTINUOUS
 62
256
 10
-268.741434977058820
 20
-169.454222497975080
 40
5.249999999999932
 50
29.537822073031958
 51
55.926371714192648
  0
ARC
  8
0
  6
CONTINUOUS
 62
256
 10
-268.741434977058820
 20
-169.454222497975080
 40
4.249999046324511
 50
112.132537888801830
 51
77.933282111433385
  0
LINE
  8
0
  6
CONTINUOUS
 62
256
 10
-334.842455491492270
 20
-173.954222497975020
 11
-343.741434977058820
 21
-173.954222497975020
  0
ARC
  8
0
  6
CONTINUOUS
 62
256
 10
-339.741434977058820
 20
-169.454222497975080
 40
5.249999999999377
 50
124.073628285807590
 51
150.462177926968310
  0
ARC
  8
0
  6
CONTINUOUS
 62
256
 10
-339.741434977058820
 20
-169.454222497975080
 40
5.250000000000000
 50
0.000000000000000
 51
45.860551713957662
  0
ARC
  8
0
  6
CONTINUOUS
 62
256
 10
-339.741434977058820
 20
-169.454222497975080
 40
4.249999046324500
 50
102.066717888566610
 51
67.867462111198179
  0
ARC
  8
0
  6
CONTINUOUS
 62
256
 10
-327.182473154065750
 20
-135.975055831308570
 40
36.000000000000036
 50
230.647162028961050
 51
237.246536473976730
  0
ARC
  8
0
  6
CONTINUOUS
 62
256
 10
-327.182473154065750
 20
-135.975055831308570
 40
35.999999999999915
 50
210.000000000000510
 51
219.143593251539300
  0
ARC
  8
0
  6
CONTINUOUS
 62
256
 10
-367.741434977059040
 20
-109.954222497975020
 40
5.249999999999813
 50
29.872905158686109
 51
90.000000000000000
  0
ARC
  8
0
  6
CONTINUOUS
 62
256
 10
-367.741434977059040
 20
-109.954222497975020
 40
5.250000000000000
 50
270.000000000000000
 51
329.000370493683870
  0
ARC
  8
0
  6
CONTINUOUS
 62
256
 10
-337.241434977058820
 20
-56.954222497975081
 40
5.250000000000322
 50
324.745941876891490
 51
0.000000000000000
  0
ARC
  8
0
  6
CONTINUOUS
 62
256
 10
-337.241434977058820
 20
-56.954222497975081
 40
5.250000000000000
 50
180.000000000000000
 51
224.625857802113470
  0
ARC
  8
0
  6
CONTINUOUS
 62
256
 10
-337.241434977058820
 20
-56.954222497975081
 40
4.249999046326014
 50
312.474863978032660
 51
236.896935700973590
  0
ARC
  8
0
  6
CONTINUOUS
 62
256
 10
-271.241434977058820
 20
-56.954222497975081
 40
5.250000000000258
 50
315.374142197886440
 51
0.000000000000000
  0
ARC
  8
0
  6
CONTINUOUS
 62
256
 10
-271.241434977058820
 20
-56.954222497975081
 40
5.250000000000000
 50
180.000000000000000
 51
215.254058123108650
  0
ARC
  8
0
  6
CONTINUOUS
 62
256
 10
-271.241434977058590
 20
-56.954222497975081
 40
4.249999046325289
 50
303.103064299014480
 51
227.525136021979990
  0
LINE
  8
0
  6
CONTINUOUS
 62
256
 10
-250.123482263812550
 20
-153.975055831308740
 11
-247.224702787256090
 21
-148.954222497975020
  0
LINE
  8
0
  6
CONTINUOUS
 62
256
 10
-231.741434977058820
 20
-158.954222497975020
 11
-231.741434977058820
 21
-148.954222497975020
  0
LINE
  8
0
  6
CONTINUOUS
 62
256
 10
-231.741434977058820
 20
-76.954222497975252
 11
-231.741434977058820
 21
-30.954222497975024
  0
ARC
  8
0
  6
CONTINUOUS
 62
256
 10
-284.741434977058820
 20
-97.707765353961634
 40
50.000000000000021
 50
24.523778772326569
 51
88.510141843145860
  0
LINE
  8
0
  6
CONTINUOUS
 62
256
 10
-270.741432592874220
 20
-170.608918834746250
 11
-270.741433546548480
 21
-168.299522090971830
  0
LINE
  8
0
  6
CONTINUOUS
 62
256
 10
-266.741437361243410
 20
-168.299527114877550
 11
-266.741436407569150
 21
-170.608921951303330
  0
LINE
  8
0
  6
CONTINUOUS
 62
256
 10
-266.741436891011740
 20
-168.299526742773540
 11
-268.741432552039210
 21
-167.144823562987200
  0
LINE
  8
0
  6
CONTINUOUS
 62
256
 10
-268.741437279250480
 20
-171.763619698821970
 11
-270.741431976721290
 21
-170.608918573919310
  0
LINE
  8
0
  6
CONTINUOUS
 62
256
 10
-270.741433708570070
 20
-168.299522517424690
 11
-268.741432541503570
 21
-167.144823275513320
  0
LINE
  8
0
  6
CONTINUOUS
 62
256
 10
-266.741436166837220
 20
-170.608921808712240
 11
-268.741436920950210
 21
-171.763620023183080
  0
LINE
  8
0
  6
CONTINUOUS
 62
256
 10
-337.741437361243410
 20
-170.608918834746250
 11
-337.741436407569150
 21
-168.299522090971830
  0
LINE
  8
0
  6
CONTINUOUS
 62
256
 10
-341.741432592874220
 20
-168.299527114877550
 11
-341.741433546548480
 21
-170.608921951303330
  0
LINE
  8
0
  6
CONTINUOUS
 62
256
 10
-341.741433063105890
 20
-168.299526742773540
 11
-339.741437402078420
 21
-167.144823562987200
  0
LINE
  8
0
  6
CONTINUOUS
 62
256
 10
-339.741432674867160
 20
-171.763619698821970
 11
-337.741437977396340
 21
-170.608918573919310
  0
LINE
  8
0
  6
CONTINUOUS
 62
256
 10
-337.741436245547560
 20
-168.299522517424690
 11
-339.741437412614060
 21
-167.144823275513320
  0
LINE
  8
0
  6
CONTINUOUS
 62
256
 10
-341.741433787280410
 20
-170.608921808712240
 11
-339.741433033167430
 21
-171.763620023183080
  0
CIRCLE
  8
0
  6
CONTINUOUS
 62
256
 10
-367.741434977058360
 20
-109.954222497975020
 40
4.249999046325684
  0
LINE
  8
0
  6
CONTINUOUS
 62
256
 10
-365.741437361243020
 20
-111.108918834746190
 11
-365.741436407568700
 21
-108.799522090971760
  0
LINE
  8
0
  6
CONTINUOUS
 62
256
 10
-369.741432592873710
 20
-108.799527114877490
 11
-369.741433546548020
 21
-111.108921951303270
  0
LINE
  8
0
  6
CONTINUOUS
 62
256
 10
-369.741433063105430
 20
-108.799526742773480
 11
-367.741437402077960
 21
-107.644823562987140
  0
LINE
  8
0
  6
CONTINUOUS
 62
256
 10
-367.741432674866700
 20
-112.263619698821910
 11
-365.741437977395890
 21
-111.108918573919250
  0
LINE
  8
0
  6
CONTINUOUS
 62
256
 10
-365.741436245547110
 20
-108.799522517424630
 11
-367.741437412613550
 21
-107.644823275513260
  0
LINE
  8
0
  6
CONTINUOUS
 62
256
 10
-369.741433787279900
 20
-111.108921808712180
 11
-367.741433033166910
 21
-112.263620023183020
  0
LINE
  8
0
  6
CONTINUOUS
 62
256
 10
-335.241437361243410
 20
-58.108918834746248
 11
-335.241436407569150
 21
-55.799522090971834
  0
LINE
  8
0
  6
CONTINUOUS
 62
256
 10
-339.241432592874220
 20
-55.799527114877549
 11
-339.241433546548480
 21
-58.108921951303330
  0
LINE
  8
0
  6
CONTINUOUS
 62
256
 10
-339.241433063105890
 20
-55.799526742773537
 11
-337.241437402078420
 21
-54.644823562987199
  0
LINE
  8
0
  6
CONTINUOUS
 62
256
 10
-337.241432674867160
 20
-59.263619698821969
 11
-335.241437977396340
 21
-58.108918573919311
  0
LINE
  8
0
  6
CONTINUOUS
 62
256
 10
-335.241436245547560
 20
-55.799522517424691
 11
-337.241437412614060
 21
-54.644823275513318
  0
LINE
  8
0
  6
CONTINUOUS
 62
256
 10
-339.241433787280410
 20
-58.108921808712239
 11
-337.241433033167430
 21
-59.263620023183080
  0
LINE
  8
0
  6
CONTINUOUS
 62
256
 10
-273.241432592873990
 20
-58.108918834746248
 11
-273.241433546548250
 21
-55.799522090971834
  0
LINE
  8
0
  6
CONTINUOUS
 62
256
 10
-269.241437361243190
 20
-55.799527114877549
 11
-269.241436407568930
 21
-58.108921951303330
  0
LINE
  8
0
  6
CONTINUOUS
 62
256
 10
-269.241436891011520
 20
-55.799526742773537
 11
-271.241432552038990
 21
-54.644823562987199
  0
LINE
  8
0
  6
CONTINUOUS
 62
256
 10
-271.241437279250250
 20
-59.263619698821969
 11
-273.241431976721060
 21
-58.108918573919311
  0
LINE
  8
0
  6
CONTINUOUS
 62
256
 10
-273.241433708569840
 20
-55.799522517424691
 11
-271.241432541503340
 21
-54.644823275513318
  0
LINE
  8
0
  6
CONTINUOUS
 62
256
 10
-269.241436166836990
 20
-58.108921808712239
 11
-271.241436920949980
 21
-59.263620023183080
  0
LINE
  8
0
  6
DASHDOT
 62
256
 10
-304.241434977058820
 20
-181.795893995474220
 11
-304.241434977058820
 21
-112.954222497975020
  0
LINE
  8
0
  6
DASHDOT
 62
256
 10
-304.241434977058820
 20
-94.954222497975024
 11
-304.241434977058820
 21
-10.761054572293688
  0
LINE
  8
0
  6
DASHDOT
 62
256
 10
-388.353390366075470
 20
-112.954222497975020
 11
-202.496636875825060
 21
-112.954222497975020
  0
LINE
  8
0
  6
DASHDOT
 62
256
 10
-287.460328269819000
 20
-94.954222497975024
 11
-320.958138895166480
 21
-94.954222497975024
  0
LINE
  8
0
  6
CONTINUOUS
 62
256
 10
-246.741434977058820
 20
-76.954222497975252
 11
-219.374770204116430
 21
-76.954222497975252
  0
LINE
  8
0
  6
CONTINUOUS
 62
256
 10
-246.741434977058820
 20
-148.954222497975020
 11
-219.374770204116430
 21
-148.954222497975020
  0
LINE
  8
0
  6
CONTINUOUS
 62
256
 10
-212.241434977058820
 20
-110.454222497974800
 11
-212.751851824576530
 21
-110.454222497974800
  0
LINE
  8
0
  6
CONTINUOUS
 62
256
 10
-212.241434977058820
 20
-115.454222497975020
 11
-212.241434977058820
 21
-110.454222497975020
  0
LINE
  8
0
  6
CONTINUOUS
 62
256
 10
-212.241434977058820
 20
-115.454222497975020
 11
-212.751851824576530
 21
-115.454222497975020
  0
ARC
  8
0
  6
CONTINUOUS
 62
256
 10
-219.374770204116430
 20
-143.954222497975020
 40
5.000000000000000
 50
270.000000000000000
 51
353.967950853629470
  0
ARC
  8
0
  6
CONTINUOUS
 62
256
 10
-219.374770204116430
 20
-81.954222497975252
 40
5.000000000000143
 50
6.032049146370343
 51
90.000000000000000
  0
ARC
  8
0
  6
CONTINUOUS
 62
256
 10
-512.741434977058820
 20
-112.954222497975020
 40
300.000000000000060
 50
353.967950853630270
 51
6.032049146369773
  0
ARC
  8
0
  6
CONTINUOUS
 62
256
 10
-300.741434977058820
 20
-95.297778914965420
 40
1.000000000000000
 50
180.000000000000000
 51
258.787728582356180
  0
LINE
  8
0
  6
CONTINUOUS
 62
256
 10
-301.741434977058820
 20
-92.247943257126508
 11
-301.741434977058820
 21
-95.297778914965420
  0
ARC
  8
0
  6
CONTINUOUS
 62
256
 10
-300.741434977058820
 20
-92.247943257126508
 40
1.000000000000268
 50
80.405931773124522
 51
180.000000000000000
  0
ARC
  8
0
  6
CONTINUOUS
 62
256
 10
-300.741434977058820
 20
-86.686371424847721
 40
1.000000000000000
 50
179.999999999986980
 51
262.410457608142620
  0
LINE
  8
0
  6
CONTINUOUS
 62
256
 10
-301.741434977058820
 20
-83.662585466221344
 11
-301.741434977058820
 21
-86.686371424847493
  0
ARC
  8
0
  6
CONTINUOUS
 62
256
 10
-300.741434977058820
 20
-83.662585466221344
 40
1.000000000000077
 50
83.186145655820326
 51
180.000000000000000
  0
ARC
  8
0
  6
CONTINUOUS
 62
256
 10
-300.741434977058820
 20
-78.129662199243285
 40
1.000000000000000
 50
180.000000000000000
 51
264.260829522738450
  0
LINE
  8
0
  6
CONTINUOUS
 62
256
 10
-301.741434977058820
 20
-75.115750012950002
 11
-301.741434977058820
 21
-78.129662199243285
  0
ARC
  8
0
  6
CONTINUOUS
 62
256
 10
-300.741434977058820
 20
-75.115750012950002
 40
1.000000000000042
 50
84.715267045464316
 51
180.000000000000000
  0
ARC
  8
0
  6
CONTINUOUS
 62
256
 10
-280.624133189126950
 20
-95.277315068852658
 40
1.000000000000082
 50
299.999999999997270
 51
36.813854344187355
  0
LINE
  8
0
  6
CONTINUOUS
 62
256
 10
-280.124133189126950
 20
-96.143340472637192
 11
-282.742808644904470
 21
-97.655233451950380
  0
ARC
  8
0
  6
CONTINUOUS
 62
256
 10
-283.242808644904470
 20
-96.789208048165847
 40
0.999999999999834
 50
217.589542391867670
 51
299.999999999997730
  0
ARC
  8
0
  6
CONTINUOUS
 62
256
 10
-273.222356564628630
 20
-91.003897342216987
 40
0.999999999999885
 50
300.000000000003810
 51
35.284732954544275
  0
LINE
  8
0
  6
CONTINUOUS
 62
256
 10
-272.722356564628630
 20
-91.869922746001293
 11
-275.332481082734380
 21
-93.376878839148048
  0
ARC
  8
0
  6
CONTINUOUS
 62
256
 10
-275.832481082734380
 20
-92.510853435363742
 40
0.999999999999940
 50
215.739170477274090
 51
300.000000000002560
  0
ARC
  8
0
  6
CONTINUOUS
 62
256
 10
-298.342905706669630
 20
-105.507253151565460
 40
0.999999999999961
 50
231.618272422159780
 51
299.999999999997330
  0
LINE
  8
0
  6
CONTINUOUS
 62
256
 10
-295.099130131645320
 20
-104.789158988513900
 11
-297.842905706669630
 21
-106.373278555349980
  0
ARC
  8
0
  6
CONTINUOUS
 62
256
 10
-290.700506293685980
 20
-101.094911793224810
 40
0.999999999999673
 50
221.212271417651180
 51
300.000000000003410
  0
LINE
  8
0
  6
CONTINUOUS
 62
256
 10
-287.559271136629830
 20
-100.436019368089550
 11
-290.200506293685980
 21
-101.960937197009120
  0
ARC
  8
0
  6
CONTINUOUS
 62
256
 10
-288.059271136629830
 20
-99.569993964305013
 40
1.000000000000082
 50
299.999999999997270
 51
39.594068226849963
  0
ARC
  8
0
  6
CONTINUOUS
 62
256
 10
-300.741434977058820
 20
-104.122461631647180
 40
1.000000000000000
 50
180.000000000000000
 51
248.381727577839200
  0
ARC
  8
0
  6
CONTINUOUS
 62
256
 10
-304.241434977058820
 20
-112.954222497975020
 40
8.500000000000128
 50
51.618272422158320
 51
68.381727577842469
  0
ARC
  8
0
  6
CONTINUOUS
 62
256
 10
-295.599130131645320
 20
-103.923133584729610
 40
0.999999999999885
 50
300.000000000003810
 51
46.260204708329255
  0
LINE
  8
0
  6
CONTINUOUS
 62
256
 10
-301.741434977058820
 20
-100.954222497975020
 11
-301.741434977058820
 21
-104.122461631647180
  0
ARC
  8
0
  6
CONTINUOUS
 62
256
 10
-300.741434977058820
 20
-100.954222497975020
 40
0.999999999999964
 50
73.739795291702634
 51
180.000000000000000
  0
ARC
  8
0
  6
CONTINUOUS
 62
256
 10
-304.241434977058820
 20
-112.954222497975020
 40
13.499999999999927
 50
46.260204708312138
 51
73.739795291689092
  0
ARC
  8
0
  6
CONTINUOUS
 62
256
 10
-304.241434977058820
 20
-112.954222497975020
 40
17.000000000000114
 50
41.212271417649752
 51
78.787728582350027
  0
ARC
  8
0
  6
CONTINUOUS
 62
256
 10
-304.241434977058820
 20
-112.954222497975020
 40
22.000000000000025
 50
39.594068226860820
 51
80.405931773138747
  0
ARC
  8
0
  6
CONTINUOUS
 62
256
 10
-304.241434977058820
 20
-112.954222497975020
 40
30.499999999999964
 50
36.813854344181067
 51
83.186145655818933
  0
ARC
  8
0
  6
CONTINUOUS
 62
256
 10
-304.241434977058820
 20
-112.954222497975020
 40
25.499999999999890
 50
37.589542391857954
 51
82.410457608141925
  0
ARC
  8
0
  6
CONTINUOUS
 62
256
 10
-304.241434977058820
 20
-112.954222497975020
 40
33.999999999999829
 50
35.739170477266640
 51
84.260829522733033
  0
ARC
  8
0
  6
CONTINUOUS
 62
256
 10
-304.241434977058820
 20
-112.954222497975020
 40
38.999999999999865
 50
35.284732954534789
 51
84.715267045465410
  0
ARC
  8
0
  6
CONTINUOUS
 62
256
 10
-277.124133189126950
 20
-101.339492895343710
 40
0.999999999999730
 50
23.186145655819846
 51
119.999999999997370
  0
LINE
  8
0
  6
CONTINUOUS
 62
256
 10
-277.624133189126950
 20
-100.473467491559180
 11
-280.242808644904470
 21
-101.985360470872370
  0
ARC
  8
0
  6
CONTINUOUS
 62
256
 10
-279.742808644904470
 20
-102.851385874656880
 40
1.000000000000082
 50
119.999999999997300
 51
202.410457608146120
  0
ARC
  8
0
  6
CONTINUOUS
 62
256
 10
-269.722356564628630
 20
-97.066075168708039
 40
1.000000000000249
 50
24.715267045455473
 51
119.999999999996050
  0
LINE
  8
0
  6
CONTINUOUS
 62
256
 10
-270.222356564628630
 20
-96.200049764923506
 11
-272.832481082734380
 21
-97.707005858070261
  0
ARC
  8
0
  6
CONTINUOUS
 62
256
 10
-272.332481082734380
 20
-98.573031261854567
 40
0.999999999999885
 50
120.000000000003810
 51
204.260829522746350
  0
ARC
  8
0
  6
CONTINUOUS
 62
256
 10
-294.842905706669630
 20
-111.569430978056740
 40
1.000000000000082
 50
119.999999999997300
 51
188.381727577833000
  0
LINE
  8
0
  6
CONTINUOUS
 62
256
 10
-292.599130131645320
 20
-109.119286007436130
 11
-295.342905706669630
 21
-110.703405574272210
  0
ARC
  8
0
  6
CONTINUOUS
 62
256
 10
-287.200506293685980
 20
-107.157089619715860
 40
1.000000000000082
 50
119.999999999997300
 51
198.787728582347000
  0
LINE
  8
0
  6
CONTINUOUS
 62
256
 10
-285.059271136629380
 20
-104.766146387011990
 11
-287.700506293685980
 21
-106.291064215931310
  0
ARC
  8
0
  6
CONTINUOUS
 62
256
 10
-284.559271136629380
 20
-105.632171790796290
 40
1.000000000000094
 50
20.405931773138683
 51
120.000000000004160
  0
ARC
  8
0
  6
CONTINUOUS
 62
256
 10
-294.842905706669630
 20
-114.339014017893530
 40
1.000000000000059
 50
171.618272422154460
 51
239.999999999995050
  0
ARC
  8
0
  6
CONTINUOUS
 62
256
 10
-304.241434977058820
 20
-112.954222497975020
 40
8.499999999999972
 50
351.618272422157820
 51
8.381727577842204
  0
ARC
  8
0
  6
CONTINUOUS
 62
256
 10
-292.099130131645320
 20
-109.985311411220440
 40
0.999999999999879
 50
13.739795291686027
 51
120.000000000003810
  0
LINE
  8
0
  6
CONTINUOUS
 62
256
 10
-292.599130131645320
 20
-116.789158988513900
 11
-295.342905706669630
 21
-115.205039421677820
  0
ARC
  8
0
  6
CONTINUOUS
 62
256
 10
-292.099130131645320
 20
-115.923133584729610
 40
0.999999999999885
 50
239.999999999996160
 51
346.260204708314010
  0
ARC
  8
0
  6
CONTINUOUS
 62
256
 10
-304.241434977058820
 20
-112.954222497975020
 40
13.500000000000130
 50
346.260204708311850
 51
13.739795291688171
  0
ARC
  8
0
  6
CONTINUOUS
 62
256
 10
-287.200506293685980
 20
-118.751355376234170
 40
0.999999999999646
 50
161.212271417644640
 51
239.999999999995770
  0
LINE
  8
0
  6
CONTINUOUS
 62
256
 10
-285.059271136629380
 20
-121.142298608938060
 11
-287.700506293685980
 21
-119.617380780018490
  0
ARC
  8
0
  6
CONTINUOUS
 62
256
 10
-304.241434977058820
 20
-112.954222497975020
 40
17.000000000000146
 50
341.212271417650070
 51
18.787728582350436
  0
ARC
  8
0
  6
CONTINUOUS
 62
256
 10
-284.559271136629380
 20
-120.276273205153760
 40
0.999999999999885
 50
239.999999999996160
 51
339.594068226861740
  0
ARC
  8
0
  6
CONTINUOUS
 62
256
 10
-279.742808644904470
 20
-123.057059121293360
 40
0.999999999999701
 50
157.589542391853970
 51
240.000000000001820
  0
ARC
  8
0
  6
CONTINUOUS
 62
256
 10
-272.332481082734380
 20
-127.335413734095250
 40
0.999999999999769
 50
155.739170477266270
 51
240.000000000003040
  0
ARC
  8
0
  6
CONTINUOUS
 62
256
 10
-304.241434977058820
 20
-112.954222497975020
 40
22.000000000000206
 50
339.594068226860770
 51
20.405931773139223
  0
LINE
  8
0
  6
CONTINUOUS
 62
256
 10
-277.624133189126950
 20
-125.434977504390870
 11
-280.242808644904470
 21
-123.923084525077910
  0
ARC
  8
0
  6
CONTINUOUS
 62
256
 10
-277.124133189126950
 20
-124.568952100606320
 40
1.000000000000082
 50
240.000000000002670
 51
336.813854344180360
  0
ARC
  8
0
  6
CONTINUOUS
 62
256
 10
-304.241434977058820
 20
-112.954222497975020
 40
30.499999999999954
 50
336.813854344181150
 51
23.186145655818844
  0
ARC
  8
0
  6
CONTINUOUS
 62
256
 10
-304.241434977058820
 20
-112.954222497975020
 40
25.500000000000085
 50
337.589542391857490
 51
22.410457608142028
  0
ARC
  8
0
  6
CONTINUOUS
 62
256
 10
-304.241434977058820
 20
-112.954222497975020
 40
34.000000000000007
 50
335.739170477266780
 51
24.260829522733218
  0
ARC
  8
0
  6
CONTINUOUS
 62
256
 10
-304.241434977058820
 20
-112.954222497975020
 40
39.000000000000220
 50
335.284732954534830
 51
24.715267045465190
  0
LINE
  8
0
  6
CONTINUOUS
 62
256
 10
-270.222356564628630
 20
-129.708395231026320
 11
-272.832481082734380
 21
-128.201439137879790
  0
ARC
  8
0
  6
CONTINUOUS
 62
256
 10
-269.722356564628630
 20
-128.842369827242010
 40
0.999999999999885
 50
239.999999999996160
 51
335.284732954543760
  0
CIRCLE
  8
0
  6
CONTINUOUS
 62
256
 10
-304.241434977058820
 20
-112.954222497975020
 40
5.000000000000000
  0
ARC
  8
0
  6
CONTINUOUS
 62
256
 10
-273.222356564628630
 20
-134.904547653733290
 40
0.999999999999776
 50
324.715267045465680
 51
60.000000000003851
  0
ARC
  8
0
  6
CONTINUOUS
 62
256
 10
-275.832481082734380
 20
-133.397591560586310
 40
0.999999999999885
 50
59.999999999996206
 51
144.260829522735750
  0
ARC
  8
0
  6
CONTINUOUS
 62
256
 10
-300.741434977058820
 20
-147.778782796706760
 40
0.999999999999973
 50
95.739170477261709
 51
180.000000000000000
  0
ARC
  8
0
  6
CONTINUOUS
 62
256
 10
-300.741434977058820
 20
-150.792694983000050
 40
1.000000000000000
 50
180.000000000000000
 51
275.284732954535800
  0
ARC
  8
0
  6
CONTINUOUS
 62
256
 10
-300.741434977058820
 20
-139.222073571102330
 40
0.999999999999975
 50
97.589542391854238
 51
180.000000000000000
  0
ARC
  8
0
  6
CONTINUOUS
 62
256
 10
-280.624133189126950
 20
-130.631129927097160
 40
0.999999999999911
 50
323.186145655802870
 51
59.999999999997016
  0
ARC
  8
0
  6
CONTINUOUS
 62
256
 10
-283.242808644904020
 20
-129.119236947784200
 40
1.000000000000082
 50
60.000000000002721
 51
142.410457608146830
  0
ARC
  8
0
  6
CONTINUOUS
 62
256
 10
-300.741434977058820
 20
-142.245859529728700
 40
1.000000000000000
 50
180.000000000000000
 51
276.813854344180240
  0
ARC
  8
0
  6
CONTINUOUS
 62
256
 10
-300.741434977058820
 20
-133.660501738823540
 40
1.000000000000000
 50
180.000000000000000
 51
279.594068226874700
  0
ARC
  8
0
  6
CONTINUOUS
 62
256
 10
-300.741434977058820
 20
-130.610666080984630
 40
0.999999999999982
 50
101.212271417644000
 51
180.000000000000000
  0
ARC
  8
0
  6
CONTINUOUS
 62
256
 10
-288.059271136629830
 20
-126.338451031644790
 40
1.000000000000318
 50
320.405931773139570
 51
59.999999999995502
  0
ARC
  8
0
  6
CONTINUOUS
 62
256
 10
-290.700506293685980
 20
-124.813533202725470
 40
1.000000000000082
 50
60.000000000002721
 51
138.787728582338080
  0
ARC
  8
0
  6
CONTINUOUS
 62
256
 10
-295.599130131645320
 20
-121.985311411220440
 40
0.999999999999858
 50
313.739795291671330
 51
59.999999999995389
  0
ARC
  8
0
  6
CONTINUOUS
 62
256
 10
-300.741434977058820
 20
-124.954222497975020
 40
1.000000000000000
 50
180.000000000000000
 51
286.260204708296900
  0
ARC
  8
0
  6
CONTINUOUS
 62
256
 10
-300.741434977058820
 20
-121.785983364302870
 40
1.000000000000090
 50
111.618272422161990
 51
180.000000000000000
  0
ARC
  8
0
  6
CONTINUOUS
 62
256
 10
-298.342905706669630
 20
-120.401191844384360
 40
0.999999999999885
 50
59.999999999996206
 51
128.381727577839710
  0
ARC
  8
0
  6
CONTINUOUS
 62
256
 10
-304.241434977058820
 20
-112.954222497975020
 40
38.999999999999986
 50
275.284732954534600
 51
324.715267045465230
  0
ARC
  8
0
  6
CONTINUOUS
 62
256
 10
-304.241434977058820
 20
-112.954222497975020
 40
30.500000000000135
 50
276.813854344181040
 51
323.186145655818850
  0
ARC
  8
0
  6
CONTINUOUS
 62
256
 10
-304.241434977058820
 20
-112.954222497975020
 40
34.000000000000071
 50
275.739170477266950
 51
324.260829522733050
  0
ARC
  8
0
  6
CONTINUOUS
 62
256
 10
-304.241434977058820
 20
-112.954222497975020
 40
25.499999999999932
 50
277.589542391858170
 51
322.410457608142050
  0
ARC
  8
0
  6
CONTINUOUS
 62
256
 10
-304.241434977058820
 20
-112.954222497975020
 40
22.000000000000131
 50
279.594068226861170
 51
320.405931773139120
  0
ARC
  8
0
  6
CONTINUOUS
 62
256
 10
-304.241434977058820
 20
-112.954222497975020
 40
17.000000000000046
 50
281.212271417650020
 51
318.787728582350210
  0
ARC
  8
0
  6
CONTINUOUS
 62
256
 10
-304.241434977058820
 20
-112.954222497975020
 40
13.499999999999963
 50
286.260204708310820
 51
313.739795291687760
  0
ARC
  8
0
  6
CONTINUOUS
 62
256
 10
-304.241434977058820
 20
-112.954222497975020
 40
8.499999999999904
 50
291.618272422157700
 51
308.381727577842750
  0
LINE
  8
0
  6
CONTINUOUS
 62
256
 10
-280.124133189126950
 20
-129.765104523312860
 11
-282.742808644904020
 21
-128.253211543999670
  0
LINE
  8
0
  6
CONTINUOUS
 62
256
 10
-301.741434977058820
 20
-150.792694983000050
 11
-301.741434977058820
 21
-147.778782796706760
  0
LINE
  8
0
  6
CONTINUOUS
 62
256
 10
-272.722356564628630
 20
-134.038522249948760
 11
-275.332481082734380
 21
-132.531566156802000
  0
LINE
  8
0
  6
CONTINUOUS
 62
256
 10
-287.559271136629830
 20
-125.472425627860500
 11
-290.200506293685980
 21
-123.947507798940930
  0
LINE
  8
0
  6
CONTINUOUS
 62
256
 10
-295.099130131645320
 20
-121.119286007436130
 11
-297.842905706669630
 21
-119.535166440600050
  0
LINE
  8
0
  6
CONTINUOUS
 62
256
 10
-301.741434977058820
 20
-124.954222497975020
 11
-301.741434977058820
 21
-121.785983364302870
  0
LINE
  8
0
  6
CONTINUOUS
 62
256
 10
-301.741434977058820
 20
-133.660501738823540
 11
-301.741434977058820
 21
-130.610666080984630
  0
LINE
  8
0
  6
CONTINUOUS
 62
256
 10
-301.741434977058820
 20
-142.245859529728700
 11
-301.741434977058820
 21
-139.222073571102330
  0
ARC
  8
0
  6
CONTINUOUS
 62
256
 10
-304.241434977058820
 20
-112.954222497975020
 40
39.000000000000220
 50
155.284732954534800
 51
204.715267045465200
  0
ARC
  8
0
  6
CONTINUOUS
 62
256
 10
-304.241434977058820
 20
-112.954222497975020
 40
34.000000000000007
 50
155.739170477266780
 51
204.260829522733220
  0
ARC
  8
0
  6
CONTINUOUS
 62
256
 10
-304.241434977058820
 20
-112.954222497975020
 40
25.500000000000000
 50
157.589542391858000
 51
202.410457608142480
  0
ARC
  8
0
  6
CONTINUOUS
 62
256
 10
-304.241434977058820
 20
-112.954222497975020
 40
30.499999999999954
 50
156.813854344181150
 51
203.186145655818820
  0
ARC
  8
0
  6
CONTINUOUS
 62
256
 10
-304.241434977058820
 20
-112.954222497975020
 40
22.000000000000206
 50
159.594068226860770
 51
200.405931773139230
  0
ARC
  8
0
  6
CONTINUOUS
 62
256
 10
-304.241434977058820
 20
-112.954222497975020
 40
16.999999999999716
 50
161.212271417649590
 51
198.787728582350440
  0
ARC
  8
0
  6
CONTINUOUS
 62
256
 10
-304.241434977058820
 20
-112.954222497975020
 40
13.499999999999687
 50
166.260204708311360
 51
193.739795291688210
  0
ARC
  8
0
  6
CONTINUOUS
 62
256
 10
-316.383739822472310
 20
-109.985311411220440
 40
0.999999999999885
 50
59.999999999996206
 51
166.260204708308440
  0
ARC
  8
0
  6
CONTINUOUS
 62
256
 10
-323.923598817488260
 20
-105.632171790796290
 40
0.999999999999885
 50
59.999999999996206
 51
159.594068226861740
  0
LINE
  8
0
  6
CONTINUOUS
 62
256
 10
-323.423598817488260
 20
-104.766146387011990
 11
-320.782363660431660
 21
-106.291064215931310
  0
ARC
  8
0
  6
CONTINUOUS
 62
256
 10
-321.282363660431660
 20
-107.157089619715860
 40
1.000000000000076
 50
341.212271417653030
 51
60.000000000002721
  0
LINE
  8
0
  6
CONTINUOUS
 62
256
 10
-315.883739822472310
 20
-109.119286007436130
 11
-313.139964247448010
 21
-110.703405574272210
  0
ARC
  8
0
  6
CONTINUOUS
 62
256
 10
-313.639964247448010
 20
-111.569430978056740
 40
1.000000000000026
 50
351.618272422167310
 51
60.000000000001499
  0
ARC
  8
0
  6
CONTINUOUS
 62
256
 10
-336.150388871383260
 20
-98.573031261854567
 40
0.999999999999863
 50
335.739170477254390
 51
59.999999999995801
  0
LINE
  8
0
  6
CONTINUOUS
 62
256
 10
-338.260513389489010
 20
-96.200049764923506
 11
-335.650388871383260
 21
-97.707005858070261
  0
ARC
  8
0
  6
CONTINUOUS
 62
256
 10
-338.760513389489010
 20
-97.066075168708039
 40
1.000000000000082
 50
60.000000000002721
 51
155.284732954544150
  0
ARC
  8
0
  6
CONTINUOUS
 62
256
 10
-328.740061309213160
 20
-102.851385874656880
 40
0.999999999999701
 50
337.589542391853970
 51
60.000000000001812
  0
LINE
  8
0
  6
CONTINUOUS
 62
256
 10
-330.858736764990680
 20
-100.473467491559180
 11
-328.240061309213160
 21
-101.985360470872370
  0
ARC
  8
0
  6
CONTINUOUS
 62
256
 10
-331.358736764990680
 20
-101.339492895343710
 40
1.000000000000082
 50
60.000000000002721
 51
156.813854344180360
  0
ARC
  8
0
  6
CONTINUOUS
 62
256
 10
-304.241434977058820
 20
-112.954222497975020
 40
38.999999999999986
 50
95.284732954534590
 51
144.715267045465230
  0
ARC
  8
0
  6
CONTINUOUS
 62
256
 10
-304.241434977058820
 20
-112.954222497975020
 40
34.000000000000071
 50
95.739170477266939
 51
144.260829522733360
  0
ARC
  8
0
  6
CONTINUOUS
 62
256
 10
-304.241434977058820
 20
-112.954222497975020
 40
25.500000000000160
 50
97.589542391858117
 51
142.410457608142050
  0
ARC
  8
0
  6
CONTINUOUS
 62
256
 10
-304.241434977058820
 20
-112.954222497975020
 40
30.500000000000135
 50
96.813854344181038
 51
143.186145655818930
  0
ARC
  8
0
  6
CONTINUOUS
 62
256
 10
-304.241434977058820
 20
-112.954222497975020
 40
22.000000000000131
 50
99.594068226861211
 51
140.405931773139140
  0
ARC
  8
0
  6
CONTINUOUS
 62
256
 10
-304.241434977058820
 20
-112.954222497975020
 40
17.000000000000046
 50
101.212271417650020
 51
138.787728582350240
  0
ARC
  8
0
  6
CONTINUOUS
 62
256
 10
-304.241434977058820
 20
-112.954222497975020
 40
13.499999999999963
 50
106.260204708310880
 51
133.739795291687780
  0
ARC
  8
0
  6
CONTINUOUS
 62
256
 10
-307.741434977058820
 20
-100.954222497975020
 40
1.000000000000000
 50
0.000000000000000
 51
106.260204708296920
  0
LINE
  8
0
  6
CONTINUOUS
 62
256
 10
-306.741434977058820
 20
-100.954222497975020
 11
-306.741434977058820
 21
-104.122461631647180
  0
ARC
  8
0
  6
CONTINUOUS
 62
256
 10
-312.883739822472310
 20
-103.923133584729610
 40
0.999999999999858
 50
133.739795291671330
 51
239.999999999995340
  0
ARC
  8
0
  6
CONTINUOUS
 62
256
 10
-304.241434977058820
 20
-112.954222497975020
 40
8.499999999999904
 50
111.618272422157720
 51
128.381727577841810
  0
ARC
  8
0
  6
CONTINUOUS
 62
256
 10
-307.741434977058820
 20
-104.122461631647180
 40
1.000000000000090
 50
291.618272422162020
 51
0.000000000000000
  0
ARC
  8
0
  6
CONTINUOUS
 62
256
 10
-320.423598817487800
 20
-99.569993964305013
 40
1.000000000000173
 50
140.405931773149600
 51
240.000000000002330
  0
LINE
  8
0
  6
CONTINUOUS
 62
256
 10
-320.923598817487800
 20
-100.436019368089550
 11
-318.282363660431660
 21
-101.960937197009120
  0
ARC
  8
0
  6
CONTINUOUS
 62
256
 10
-317.782363660431660
 20
-101.094911793224810
 40
0.999999999999885
 50
239.999999999996160
 51
318.787728582349130
  0
LINE
  8
0
  6
CONTINUOUS
 62
256
 10
-313.383739822472310
 20
-104.789158988513900
 11
-310.639964247448010
 21
-106.373278555349980
  0
ARC
  8
0
  6
CONTINUOUS
 62
256
 10
-310.139964247448010
 20
-105.507253151565460
 40
1.000000000000082
 50
240.000000000002670
 51
308.381727577839230
  0
ARC
  8
0
  6
CONTINUOUS
 62
256
 10
-332.650388871383260
 20
-92.510853435363742
 40
0.999999999999885
 50
239.999999999996160
 51
324.260829522725320
  0
LINE
  8
0
  6
CONTINUOUS
 62
256
 10
-335.760513389489010
 20
-91.869922746001293
 11
-333.150388871383260
 21
-93.376878839148048
  0
ARC
  8
0
  6
CONTINUOUS
 62
256
 10
-335.260513389489010
 20
-91.003897342216987
 40
0.999999999999908
 50
144.715267045455050
 51
239.999999999996560
  0
ARC
  8
0
  6
CONTINUOUS
 62
256
 10
-325.240061309213160
 20
-96.789208048165847
 40
1.000000000000082
 50
240.000000000002670
 51
322.410457608131140
  0
LINE
  8
0
  6
CONTINUOUS
 62
256
 10
-328.358736764990680
 20
-96.143340472637192
 11
-325.740061309213160
 21
-97.655233451950380
  0
ARC
  8
0
  6
CONTINUOUS
 62
256
 10
-327.858736764990680
 20
-95.277315068852658
 40
0.999999999999774
 50
143.186145655813330
 51
240.000000000003440
  0
ARC
  8
0
  6
CONTINUOUS
 62
256
 10
-307.741434977058820
 20
-75.115750012950002
 40
1.000000000000000
 50
0.000000000000000
 51
95.284732954535926
  0
LINE
  8
0
  6
CONTINUOUS
 62
256
 10
-306.741434977058820
 20
-75.115750012950002
 11
-306.741434977058820
 21
-78.129662199243285
  0
ARC
  8
0
  6
CONTINUOUS
 62
256
 10
-307.741434977058820
 20
-78.129662199243285
 40
0.999999999999973
 50
275.739170477261670
 51
0.000000000000000
  0
ARC
  8
0
  6
CONTINUOUS
 62
256
 10
-307.741434977058820
 20
-83.662585466221344
 40
1.000000000000000
 50
0.000000000000000
 51
96.813854344180172
  0
LINE
  8
0
  6
CONTINUOUS
 62
256
 10
-306.741434977058820
 20
-83.662585466221344
 11
-306.741434977058820
 21
-86.686371424847493
  0
ARC
  8
0
  6
CONTINUOUS
 62
256
 10
-307.741434977058820
 20
-86.686371424847721
 40
0.999999999999749
 50
277.589542391855960
 51
0.000000000013028
  0
ARC
  8
0
  6
CONTINUOUS
 62
256
 10
-307.741434977058820
 20
-92.247943257126508
 40
1.000000000000000
 50
0.000000000000000
 51
99.594068226874853
  0
LINE
  8
0
  6
CONTINUOUS
 62
256
 10
-306.741434977058820
 20
-92.247943257126508
 11
-306.741434977058820
 21
-95.297778914965420
  0
ARC
  8
0
  6
CONTINUOUS
 62
256
 10
-307.741434977058820
 20
-95.297778914965420
 40
0.999999999999982
 50
281.212271417643990
 51
0.000000000000000
  0
ARC
  8
0
  6
CONTINUOUS
 62
256
 10
-316.383739822472310
 20
-115.923133584729610
 40
0.999999999999879
 50
193.739795291686020
 51
300.000000000003810
  0
LINE
  8
0
  6
CONTINUOUS
 62
256
 10
-315.883739822472310
 20
-116.789158988513900
 11
-313.139964247448010
 21
-115.205039421677820
  0
ARC
  8
0
  6
CONTINUOUS
 62
256
 10
-304.241434977058820
 20
-112.954222497975020
 40
8.499999999999972
 50
171.618272422157790
 51
188.381727577842210
  0
ARC
  8
0
  6
CONTINUOUS
 62
256
 10
-313.639964247448010
 20
-114.339014017893530
 40
0.999999999999885
 50
300.000000000003810
 51
8.381727577845361
  0
LINE
  8
0
  6
CONTINUOUS
 62
256
 10
-306.741434977058820
 20
-142.245859529728700
 11
-306.741434977058820
 21
-139.222073571102330
  0
LINE
  8
0
  6
CONTINUOUS
 62
256
 10
-306.741434977058820
 20
-133.660501738823540
 11
-306.741434977058820
 21
-130.610666080984630
  0
LINE
  8
0
  6
CONTINUOUS
 62
256
 10
-306.741434977058820
 20
-124.954222497975020
 11
-306.741434977058820
 21
-121.785983364302870
  0
LINE
  8
0
  6
CONTINUOUS
 62
256
 10
-313.383739822472310
 20
-121.119286007436130
 11
-310.639964247448010
 21
-119.535166440600050
  0
LINE
  8
0
  6
CONTINUOUS
 62
256
 10
-320.923598817487800
 20
-125.472425627860500
 11
-318.282363660431660
 21
-123.947507798940930
  0
LINE
  8
0
  6
CONTINUOUS
 62
256
 10
-335.760513389489010
 20
-134.038522249948760
 11
-333.150388871383260
 21
-132.531566156802000
  0
LINE
  8
0
  6
CONTINUOUS
 62
256
 10
-328.358736764990680
 20
-129.765104523312860
 11
-325.740061309213620
 21
-128.253211543999670
  0
ARC
  8
0
  6
CONTINUOUS
 62
256
 10
-304.241434977058820
 20
-112.954222497975020
 40
8.499999999999949
 50
231.618272422157330
 51
248.381727577842410
  0
ARC
  8
0
  6
CONTINUOUS
 62
256
 10
-304.241434977058820
 20
-112.954222497975020
 40
13.499999999999927
 50
226.260204708312130
 51
253.739795291689090
  0
ARC
  8
0
  6
CONTINUOUS
 62
256
 10
-304.241434977058820
 20
-112.954222497975020
 40
16.999999999999773
 50
221.212271417650750
 51
258.787728582349980
  0
ARC
  8
0
  6
CONTINUOUS
 62
256
 10
-304.241434977058820
 20
-112.954222497975020
 40
22.000000000000025
 50
219.594068226860800
 51
260.405931773138780
  0
ARC
  8
0
  6
CONTINUOUS
 62
256
 10
-304.241434977058820
 20
-112.954222497975020
 40
25.499999999999890
 50
217.589542391857950
 51
262.410457608141770
  0
ARC
  8
0
  6
CONTINUOUS
 62
256
 10
-304.241434977058820
 20
-112.954222497975020
 40
33.999999999999964
 50
215.739170477266950
 51
264.260829522733050
  0
ARC
  8
0
  6
CONTINUOUS
 62
256
 10
-304.241434977058820
 20
-112.954222497975020
 40
30.499999999999964
 50
216.813854344181040
 51
263.186145655819020
  0
ARC
  8
0
  6
CONTINUOUS
 62
256
 10
-304.241434977058820
 20
-112.954222497975020
 40
38.999999999999865
 50
215.284732954534800
 51
264.715267045465400
  0
ARC
  8
0
  6
CONTINUOUS
 62
256
 10
-310.139964247448010
 20
-120.401191844384360
 40
0.999999999999961
 50
51.618272422159770
 51
120.000000000004590
  0
ARC
  8
0
  6
CONTINUOUS
 62
256
 10
-307.741434977058820
 20
-121.785983364302870
 40
1.000000000000000
 50
0.000000000000000
 51
68.381727577839243
  0
ARC
  8
0
  6
CONTINUOUS
 62
256
 10
-307.741434977058820
 20
-124.954222497975020
 40
0.999999999999964
 50
253.739795291702650
 51
0.000000000000000
  0
ARC
  8
0
  6
CONTINUOUS
 62
256
 10
-312.883739822472310
 20
-121.985311411220440
 40
0.999999999999885
 50
120.000000000003810
 51
226.260204708329240
  0
ARC
  8
0
  6
CONTINUOUS
 62
256
 10
-317.782363660431660
 20
-124.813533202725470
 40
1.000000000000165
 50
41.212271417643834
 51
119.999999999998080
  0
ARC
  8
0
  6
CONTINUOUS
 62
256
 10
-320.423598817487800
 20
-126.338451031644790
 40
0.999999999999885
 50
120.000000000003810
 51
219.594068226860970
  0
ARC
  8
0
  6
CONTINUOUS
 62
256
 10
-307.741434977058820
 20
-130.610666080984630
 40
1.000000000000000
 50
0.000000000000000
 51
78.787728582356308
  0
ARC
  8
0
  6
CONTINUOUS
 62
256
 10
-307.741434977058820
 20
-133.660501738823540
 40
1.000000000000268
 50
260.405931773124510
 51
0.000000000000000
  0
ARC
  8
0
  6
CONTINUOUS
 62
256
 10
-325.240061309213620
 20
-129.119236947784200
 40
1.000000000000194
 50
37.589542391851786
 51
119.999999999997670
  0
ARC
  8
0
  6
CONTINUOUS
 62
256
 10
-327.858736764990680
 20
-130.631129927097160
 40
0.999999999999885
 50
120.000000000003810
 51
216.813854344195820
  0
ARC
  8
0
  6
CONTINUOUS
 62
256
 10
-307.741434977058820
 20
-139.222073571102330
 40
1.000000000000000
 50
0.000000000000000
 51
82.410457608145990
  0
ARC
  8
0
  6
CONTINUOUS
 62
256
 10
-332.650388871383260
 20
-133.397591560586310
 40
0.999999999999807
 50
35.739170477263514
 51
120.000000000002610
  0
ARC
  8
0
  6
CONTINUOUS
 62
256
 10
-335.260513389489010
 20
-134.904547653733290
 40
1.000000000000082
 50
119.999999999997300
 51
215.284732954534750
  0
ARC
  8
0
  6
CONTINUOUS
 62
256
 10
-338.760513389489010
 20
-128.842369827242010
 40
1.000000000000249
 50
204.715267045455480
 51
300.000000000003300
  0
LINE
  8
0
  6
CONTINUOUS
 62
256
 10
-338.260513389489010
 20
-129.708395231026320
 11
-335.650388871383260
 21
-128.201439137879790
  0
ARC
  8
0
  6
CONTINUOUS
 62
256
 10
-331.358736764990680
 20
-124.568952100606320
 40
0.999999999999730
 50
203.186145655819840
 51
299.999999999997390
  0
LINE
  8
0
  6
CONTINUOUS
 62
256
 10
-330.858736764990680
 20
-125.434977504390870
 11
-328.240061309213160
 21
-123.923084525077910
  0
ARC
  8
0
  6
CONTINUOUS
 62
256
 10
-336.150388871383260
 20
-127.335413734095250
 40
1.000000000000082
 50
299.999999999997270
 51
24.260829522733705
  0
ARC
  8
0
  6
CONTINUOUS
 62
256
 10
-328.740061309213160
 20
-123.057059121293360
 40
1.000000000000082
 50
299.999999999997270
 51
22.410457608146118
  0
ARC
  8
0
  6
CONTINUOUS
 62
256
 10
-323.923598817488260
 20
-120.276273205153760
 40
1.000000000000094
 50
200.405931773138660
 51
300.000000000004150
  0
LINE
  8
0
  6
CONTINUOUS
 62
256
 10
-323.423598817488260
 20
-121.142298608938060
 11
-320.782363660431660
 21
-119.617380780018490
  0
ARC
  8
0
  6
CONTINUOUS
 62
256
 10
-321.282363660431660
 20
-118.751355376234170
 40
0.999999999999885
 50
300.000000000003810
 51
18.787728582347054
  0
LINE
  8
0
  6
CONTINUOUS
 62
256
 10
-306.741434977058820
 20
-150.792694983000050
 11
-306.741434977058820
 21
-147.778782796706760
  0
ARC
  8
0
  6
CONTINUOUS
 62
256
 10
-307.741434977058820
 20
-142.245859529728700
 40
1.000000000000077
 50
263.186145655820330
 51
0.000000000000000
  0
ARC
  8
0
  6
CONTINUOUS
 62
256
 10
-307.741434977058820
 20
-150.792694983000050
 40
1.000000000000042
 50
264.715267045464260
 51
0.000000000000000
  0
ARC
  8
0
  6
CONTINUOUS
 62
256
 10
-307.741434977058820
 20
-147.778782796706760
 40
1.000000000000000
 50
0.000000000000000
 51
84.260829522738462
  0
ARC
  8
0
  6
CONTINUOUS
 62
256
 10
-304.241434977058820
 20
-459.554222497975160
 40
400.599999999999910
 50
84.256318189006564
 51
90.000000000000000
  0
ARC
  8
0
  6
CONTINUOUS
 62
256
 10
-264.810567976971470
 20
-67.532275755676665
 40
6.600000000000278
 50
44.999999999997208
 51
84.256318189005128
  0
ARC
  8
0
  6
CONTINUOUS
 62
256
 10
-304.241434977058820
 20
-459.554222497975160
 40
390.797000000000030
 50
84.582036237639471
 51
90.000000000000000
  0
ARC
  8
0
  6
CONTINUOUS
 62
256
 10
-267.625470038040480
 20
-73.489740422008254
 40
3.000000000000346
 50
44.999999999996930
 51
84.582036237634838
  0
ARC
  8
0
  6
CONTINUOUS
 62
256
 10
-267.625470038040480
 20
-152.418704573941800
 40
3.000000000000067
 50
275.417963762365730
 51
315.000000000003470
  0
ARC
  8
0
  6
CONTINUOUS
 62
256
 10
-304.241434977058820
 20
233.645777502025110
 40
390.797000000000030
 50
270.000000000000000
 51
275.417963762360500
  0
ARC
  8
0
  6
CONTINUOUS
 62
256
 10
-276.869544389539440
 20
-136.494020155887030
 40
20.797000000000015
 50
315.000000000000000
 51
354.998349729064610
  0
LINE
  8
0
  6
CONTINUOUS
 62
256
 10
-262.163844661202800
 20
-151.199719884223670
 11
-265.504149694480470
 21
-154.540024917501570
  0
ARC
  8
0
  6
CONTINUOUS
 62
256
 10
-545.841434977059180
 20
-112.954222497975020
 40
290.797000000000140
 50
354.998349729065010
 51
0.000000000000000
  0
ARC
  8
0
  6
CONTINUOUS
 62
256
 10
-340.857399916077160
 20
-152.418704573941800
 40
3.000000000000346
 50
224.999999999996930
 51
264.582036237634780
  0
ARC
  8
0
  6
CONTINUOUS
 62
256
 10
-304.241434977058820
 20
233.645777502025110
 40
390.797000000000030
 50
264.582036237639500
 51
270.000000000000000
  0
ARC
  8
0
  6
CONTINUOUS
 62
256
 10
-331.613325564578190
 20
-136.494020155887030
 40
20.796999999999880
 50
185.001650270935300
 51
225.000000000000060
  0
LINE
  8
0
  6
CONTINUOUS
 62
256
 10
-346.319025292914830
 20
-151.199719884223670
 11
-342.978720259637160
 21
-154.540024917501570
  0
ARC
  8
0
  6
CONTINUOUS
 62
256
 10
-62.641434977058680
 20
-112.954222497975020
 40
290.797000000000250
 50
180.000000000000000
 51
185.001650270934930
  0
ARC
  8
0
  6
CONTINUOUS
 62
256
 10
-340.857399916077160
 20
-73.489740422008254
 40
3.000000000000067
 50
95.417963762365673
 51
135.000000000003470
  0
ARC
  8
0
  6
CONTINUOUS
 62
256
 10
-304.241434977058820
 20
-459.554222497975160
 40
390.797000000000030
 50
90.000000000000000
 51
95.417963762360529
  0
ARC
  8
0
  6
CONTINUOUS
 62
256
 10
-331.613325564578190
 20
-89.414424840063020
 40
20.797000000000015
 50
135.000000000000000
 51
174.998349729064670
  0
LINE
  8
0
  6
CONTINUOUS
 62
256
 10
-346.319025292914830
 20
-74.708725111726380
 11
-342.978720259637160
 21
-71.368420078448480
  0
ARC
  8
0
  6
CONTINUOUS
 62
256
 10
-62.641434977058680
 20
-112.954222497975020
 40
290.796999999999910
 50
174.998349729065040
 51
180.000000000000000
  0
ARC
  8
0
  6
CONTINUOUS
 62
256
 10
-267.251367738912450
 20
-84.890465866959403
 40
20.599999999999916
 50
5.752282731536487
 51
44.999999999997314
  0
LINE
  8
0
  6
CONTINUOUS
 62
256
 10
-252.684968046468840
 20
-70.324066174517156
 11
-260.143663221139830
 21
-62.865370999845481
  0
ARC
  8
0
  6
CONTINUOUS
 62
256
 10
-545.841434977059180
 20
-112.954222497975020
 40
300.600000000000360
 50
0.000000000000000
 51
5.752282731536604
  0
ARC
  8
0
  6
CONTINUOUS
 62
256
 10
-267.251367738912450
 20
-84.890465866959403
 40
10.797000000000011
 50
5.752282731536912
 51
44.999999999998295
  0
LINE
  8
0
  6
CONTINUOUS
 62
256
 10
-259.616735822441110
 20
-77.255833950488523
 11
-265.504149694480470
 21
-71.368420078448480
  0
ARC
  8
0
  6
CONTINUOUS
 62
256
 10
-545.841434977059180
 20
-112.954222497975020
 40
290.797000000000480
 50
0.000000000000000
 51
5.752282731536625
  0
ARC
  8
0
  6
CONTINUOUS
 62
256
 10
-545.841434977059180
 20
-112.954222497975020
 40
300.599999999999910
 50
354.247717268463420
 51
0.000000000000000
  0
LINE
  8
0
  6
CONTINUOUS
 62
256
 10
-252.684968046468840
 20
-155.584378821432890
 11
-260.143663221139830
 21
-163.043073996104570
  0
ARC
  8
0
  6
CONTINUOUS
 62
256
 10
-267.251367738912450
 20
-141.017979128990650
 40
20.600000000000069
 50
315.000000000002670
 51
354.247717268463480
  0
ARC
  8
0
  6
CONTINUOUS
 62
256
 10
-304.241434977058820
 20
233.645777502025110
 40
400.599999999999910
 50
270.000000000000000
 51
275.743681810993510
  0
ARC
  8
0
  6
CONTINUOUS
 62
256
 10
-264.810567976971470
 20
-158.376169240273380
 40
6.600000000000009
 50
275.743681810995100
 51
315.000000000002960
  0
ARC
  8
0
  6
CONTINUOUS
 62
256
 10
-62.641434977058452
 20
-112.954222497975020
 40
300.600000000000360
 50
180.000000000000000
 51
185.752282731536610
  0
LINE
  8
0
  6
CONTINUOUS
 62
256
 10
-355.797901907648790
 20
-155.584378821432890
 11
-348.339206732977800
 21
-163.043073996104570
  0
ARC
  8
0
  6
CONTINUOUS
 62
256
 10
-341.231502215205180
 20
-141.017979128990650
 40
20.599999999999916
 50
185.752282731536470
 51
224.999999999997300
  0
ARC
  8
0
  6
CONTINUOUS
 62
256
 10
-304.241434977058820
 20
233.645777502025110
 40
400.599999999999910
 50
264.256318189006550
 51
270.000000000000000
  0
ARC
  8
0
  6
CONTINUOUS
 62
256
 10
-343.672301977146160
 20
-158.376169240273380
 40
6.600000000000278
 50
224.999999999997190
 51
264.256318189004620
  0
ARC
  8
0
  6
CONTINUOUS
 62
256
 10
-62.641434977058452
 20
-112.954222497975020
 40
300.599999999999910
 50
174.247717268463390
 51
180.000000000000000
  0
LINE
  8
0
  6
CONTINUOUS
 62
256
 10
-355.797901907648790
 20
-70.324066174517156
 11
-348.339206732977800
 21
-62.865370999845481
  0
ARC
  8
0
  6
CONTINUOUS
 62
256
 10
-341.231502215205180
 20
-84.890465866959403
 40
20.600000000000069
 50
135.000000000002700
 51
174.247717268463480
  0
ARC
  8
0
  6
CONTINUOUS
 62
256
 10
-304.241434977058820
 20
-459.554222497975160
 40
400.599999999999910
 50
90.000000000000000
 51
95.743681810993436
  0
ARC
  8
0
  6
CONTINUOUS
 62
256
 10
-343.672301977146160
 20
-67.532275755676665
 40
6.600000000000009
 50
95.743681810995113
 51
135.000000000002930
  0
LINE
  8
0
  6
CONTINUOUS
 62
256
 10
-246.741434977058820
 20
-82.966236643544789
 11
-246.741434977058820
 21
-76.954222497975252
  0
LINE
  8
0
  6
CONTINUOUS
 62
256
 10
-248.241474493861010
 20
-76.954222497975252
 11
-246.741434977058820
 21
-76.954222497975252
  0
LINE
  8
0
  6
CONTINUOUS
 62
256
 10
-248.241474493861010
 20
-148.954222497974800
 11
-246.741434977058820
 21
-148.954222497974800
  0
LINE
  8
0
  6
CONTINUOUS
 62
256
 10
-246.741434977058820
 20
-148.954222497975020
 11
-246.741434977058820
 21
-142.946721560237390
  0
LINE
  8
0
  6
CONTINUOUS
 62
256
 10
-334.491434977058820
 20
-171.954222497975020
 11
-334.491434977058820
 21
-169.454222497975080
  0
ARC
  8
0
  6
CONTINUOUS
 62
256
 10
-333.491434977058820
 20
-171.954222497975020
 40
1.000000000000000
 50
180.000000000000000
 51
270.000000000000000
  0
ARC
  8
0
  6
CONTINUOUS
 62
256
 10
-345.179125276036070
 20
-166.372985049739730
 40
1.000000000000073
 50
211.339195329083590
 51
330.462177926966770
  0
ARC
  8
0
  6
CONTINUOUS
 62
256
 10
-274.991434977058820
 20
-171.954222497975020
 40
1.000000000000000
 50
270.000000000000000
 51
0.000000000000000
  0
ARC
  8
0
  6
CONTINUOUS
 62
256
 10
-263.303744678081560
 20
-166.372985049739730
 40
1.000000000000014
 50
209.537822073033400
 51
328.660804670916090
  0
ARC
  8
0
  6
CONTINUOUS
 62
256
 10
-304.241434977059040
 20
-847.454222497975020
 40
799.999999999999890
 50
88.510141843146044
 51
90.000000000000000
  0
LINE
  8
0
  6
CONTINUOUS
 62
256
 10
-273.991434977058820
 20
-171.954222497975020
 11
-273.991434977058820
 21
-169.454222497975080
  0
ARC
  8
0
  6
CONTINUOUS
 62
256
 10
-372.741434977058820
 20
-116.204222497975020
 40
1.000000000000000
 50
90.000000000000000
 51
180.000000000000000
  0
ARC
  8
0
  6
CONTINUOUS
 62
256
 10
-372.741434977058820
 20
-103.704222497975020
 40
1.000000000000000
 50
180.000000000000000
 51
270.000000000000000
  0
LINE
  8
0
  6
CONTINUOUS
 62
256
 10
-372.741434977058820
 20
-104.704222497975020
 11
-367.741434977059040
 21
-104.704222497975020
  0
LINE
  8
0
  6
CONTINUOUS
 62
256
 10
-372.741434977058820
 20
-115.204222497975020
 11
-367.741434977059040
 21
-115.204222497975020
  0
ARC
  8
0
  6
CONTINUOUS
 62
256
 10
-277.491434977058820
 20
-49.247085416511311
 40
1.000000000000000
 50
0.000000000000000
 51
81.491323261727388
  0
LINE
  8
0
  6
CONTINUOUS
 62
256
 10
-276.491434977058820
 20
-49.247085416511311
 11
-276.491434977058820
 21
-56.954222497975081
  0
LINE
  8
0
  6
CONTINUOUS
 62
256
 10
-265.991434977058820
 20
-52.864287567331360
 11
-265.991434977058820
 21
-56.954222497975081
  0
ARC
  8
0
  6
CONTINUOUS
 62
256
 10
-264.991434977058820
 20
-52.864287567331360
 40
1.000000000000052
 50
66.230309577334467
 51
180.000000000000000
  0
ARC
  8
0
  6
CONTINUOUS
 62
256
 10
-343.491434977058820
 20
-52.864287567331360
 40
1.000000000000000
 50
0.000000000000000
 51
113.769690422666680
  0
ARC
  8
0
  6
CONTINUOUS
 62
256
 10
-330.991434977058820
 20
-49.247085416511311
 40
1.000000000000005
 50
98.508676738272570
 51
180.000000000000000
  0
LINE
  8
0
  6
CONTINUOUS
 62
256
 10
-342.491434977058820
 20
-52.864287567331360
 11
-342.491434977058820
 21
-56.954222497975081
  0
LINE
  8
0
  6
CONTINUOUS
 62
256
 10
-331.991434977058820
 20
-49.247085416511311
 11
-331.991434977058820
 21
-56.954222497975081
  0
ARC
  8
0
  6
CONTINUOUS
 62
256
 10
-264.741434977058820
 20
-171.954222497975020
 40
2.000000000000000
 50
270.000000000000000
 51
0.000000000000000
  0
ARC
  8
0
  6
CONTINUOUS
 62
256
 10
-268.741434977058820
 20
-168.954222497975020
 40
7.000000000000012
 50
214.849904579046410
 51
225.584691402807100
  0
ARC
  8
0
  6
CONTINUOUS
 62
256
 10
-339.741434977058820
 20
-168.954222497975080
 40
6.999999999999971
 50
314.415308597192730
 51
325.150095420953510
  0
ARC
  8
0
  6
CONTINUOUS
 62
256
 10
-343.741434977058820
 20
-171.954222497975080
 40
2.000000000000000
 50
180.000000000000000
 51
270.000000000000000
  0
ARC
  8
0
  6
CONTINUOUS
 62
256
 10
-304.241434977058820
 20
-847.454222497975020
 40
800.000000000000000
 50
90.000000000000000
 51
91.489858156853941
  0
ARC
  8
0
  6
CONTINUOUS
 62
256
 10
-323.741434977058820
 20
-97.707765353961634
 40
49.999999999999957
 50
91.489858156854154
 51
180.000000000000000
  0
ARC
  8
0
  6
CONTINUOUS
 62
256
 10
-368.741434977058820
 20
-125.992822444069300
 40
5.000000000000000
 50
180.000000000000000
 51
209.999999999999890
  0
ARC
  8
0
  6
CONTINUOUS
 62
256
 10
-347.741434977058820
 20
-167.933295594485630
 40
2.000000000000000
 50
0.000000000000000
 51
57.246536473974864
  0
ARC
  8
0
  6
CONTINUOUS
 62
256
 10
-260.741434977058820
 20
-167.933295594485570
 40
1.999999999999969
 50
122.753463526025580
 51
180.000000000000000
  0
LINE
  8
0
  6
CONTINUOUS
 62
256
 10
-373.741434977058820
 20
-125.992822444069300
 11
-373.741434977058820
 21
-97.454222497975081
  0
LINE
  8
0
  6
CONTINUOUS
 62
256
 10
-358.359387690305310
 20
-153.975055831308790
 11
-373.071561995981030
 21
-128.492822444069300
  0
LINE
  8
0
  6
CONTINUOUS
 62
256
 10
-345.741434977058820
 20
-171.954222497975080
 11
-345.741434977058820
 21
-167.933295594485630
  0
LINE
  8
0
  6
CONTINUOUS
 62
256
 10
-304.241434977058820
 20
-172.954222497975020
 11
-333.996872330520770
 21
-172.954222497975080
  0
LINE
  8
0
  6
CONTINUOUS
 62
256
 10
-304.241434977058820
 20
-172.954222497975020
 11
-274.485997623596860
 21
-172.954222497975020
  0
LINE
  8
0
  6
CONTINUOUS
 62
256
 10
-262.741434977058820
 20
-171.954222497975020
 11
-262.741434977058820
 21
-167.933295594485570
  0
LINE
  8
0
  6
DASHDOT
 62
256
 10
-304.241434977058820
 20
-112.954222497975020
 11
-304.241434977058820
 21
-94.954222497975024
  0
ARC
  8
0
  6
CONTINUOUS
 62
256
 10
-343.611190197752880
 20
-49.943797476015845
 40
1.999999999999855
 50
225.000000000004600
 51
292.464484291216250
  0
ARC
  8
0
  6
CONTINUOUS
 62
256
 10
-351.095041242749630
 20
-53.773654930003829
 40
2.000000000000082
 50
301.737668200347680
 51
44.999999999995254
  0
ARC
  8
0
  6
CONTINUOUS
 62
256
 10
-361.553235855095860
 20
-43.315460317657596
 40
2.000000000000177
 50
44.999999999995396
 51
134.999999999995990
  0
ARC
  8
0
  6
CONTINUOUS
 62
256
 10
-355.896381605603440
 20
-37.658606068165227
 40
1.999999999999855
 50
134.999999999995400
 51
225.000000000004600
  0
ARC
  8
0
  6
CONTINUOUS
 62
256
 10
-264.871679756364760
 20
-49.943797476015845
 40
1.999999999999903
 50
247.535515708796510
 51
315.000000000005060
  0
ARC
  8
0
  6
CONTINUOUS
 62
256
 10
-257.387828711368000
 20
-53.773654930003829
 40
1.999999999999855
 50
134.999999999995400
 51
238.262331799657830
  0
ARC
  8
0
  6
CONTINUOUS
 62
256
 10
-246.929634099021770
 20
-43.315460317657653
 40
2.000000000000177
 50
44.999999999995396
 51
134.999999999995400
  0
ARC
  8
0
  6
CONTINUOUS
 62
256
 10
-252.586488348514190
 20
-37.658606068165227
 40
2.000000000000177
 50
315.000000000004600
 51
44.999999999995396
  0
ARC
  8
0
  6
CONTINUOUS
 62
256
 10
-308.241434977058820
 20
-29.462950030439117
 40
2.000000000000000
 50
0.000000000000000
 51
90.000000000000000
  0
ARC
  8
0
  6
CONTINUOUS
 62
256
 10
-300.241434977058820
 20
-29.462950030439117
 40
2.000000000000000
 50
90.000000000000000
 51
180.000000000000000
  0
ARC
  8
0
  6
CONTINUOUS
 62
256
 10
-300.241434977058820
 20
-45.474123488086207
 40
2.000000000000000
 50
180.000000000000000
 51
269.429883333265310
  0
ARC
  8
0
  6
CONTINUOUS
 62
256
 10
-308.241434977058820
 20
-45.474123488086207
 40
2.000000000000030
 50
270.570116666734690
 51
0.000000000000000
  0
ARC
  8
0
  6
CONTINUOUS
 62
256
 10
-348.741434977058820
 20
-170.454222497975000
 40
3.000000000000000
 50
0.000000000000000
 51
90.000000000000000
  0
ARC
  8
0
  6
CONTINUOUS
 62
256
 10
-343.741434977058820
 20
-171.954222497975000
 40
2.000000000000000
 50
180.000000000000000
 51
270.000000000000000
  0
ARC
  8
0
  6
CONTINUOUS
 62
256
 10
-347.741434977058820
 20
-167.933295594485570
 40
2.000000000000000
 50
0.000000000000000
 51
57.246536473968995
  0
ARC
  8
0
  6
CONTINUOUS
 62
256
 10
-343.741434977058820
 20
-171.954222497975020
 40
2.000000000000000
 50
180.000000000000000
 51
270.000000000000000
  0
ARC
  8
0
  6
DASHDOT
 62
256
 10
-304.241434977058820
 20
-94.954222497975024
 40
89.999999999999773
 50
219.906632329724350
 51
230.093367670273240
  0
CIRCLE
  8
0
  6
CONTINUOUS
 62
256
 10
-367.881045283848380
 20
-158.593832804764020
 40
5.000000000000000
  0
ARC
  8
0
  6
CONTINUOUS
 62
256
 10
-368.241434977058820
 20
-158.954222497975020
 40
8.500000000000000
 50
180.000000000000000
 51
270.000000000000000
  0
ARC
  8
0
  6
CONTINUOUS
 62
256
 10
-259.741434977058820
 20
-170.454222497975020
 40
3.000000000000000
 50
90.000000000000000
 51
180.000000000000000
  0
ARC
  8
0
  6
CONTINUOUS
 62
256
 10
-264.741434977058820
 20
-171.954222497975020
 40
2.000000000000000
 50
270.000000000000000
 51
0.000000000000000
  0
ARC
  8
0
  6
CONTINUOUS
 62
256
 10
-264.741434977058820
 20
-171.954222497975020
 40
2.000000000000000
 50
270.000000000000000
 51
0.000000000000000
  0
ARC
  8
0
  6
CONTINUOUS
 62
256
 10
-268.741434977058820
 20
-168.954222497975020
 40
6.999999999999825
 50
214.849904579047490
 51
225.584691402808570
  0
ARC
  8
0
  6
DASHDOT
 62
256
 10
-304.241434977058820
 20
-94.954222497975024
 40
90.000000000000128
 50
309.906632329726900
 51
320.093367670275820
  0
CIRCLE
  8
0
  6
CONTINUOUS
 62
256
 10
-240.601824670269250
 20
-158.593832804764020
 40
5.000000000000000
  0
ARC
  8
0
  6
CONTINUOUS
 62
256
 10
-240.241434977058820
 20
-158.954222497975020
 40
8.500000000000000
 50
270.000000000000000
 51
0.000000000000000
  0
CIRCLE
  8
0
  6
CONTINUOUS
 62
256
 10
-367.881045283848380
 20
-31.314612191186029
 40
5.000000000000000
  0
ARC
  8
0
  6
DASHDOT
 62
256
 10
-304.241434977058820
 20
-94.954222497975024
 40
89.999999999999829
 50
129.906632329726760
 51
140.093367670275650
  0
ARC
  8
0
  6
DASHDOT
 62
256
 10
-304.241434977058820
 20
-94.954222497975024
 40
90.000000000000128
 50
39.906632329724161
 51
50.093367670273018
  0
CIRCLE
  8
0
  6
CONTINUOUS
 62
256
 10
-240.601824670269250
 20
-31.314612191186029
 40
5.000000000000000
  0
ARC
  8
0
  6
CONTINUOUS
 62
256
 10
-368.241434977058820
 20
-30.954222497975024
 40
8.500000000000000
 50
90.000000000000000
 51
180.000000000000000
  0
ARC
  8
0
  6
CONTINUOUS
 62
256
 10
-240.241434977058820
 20
-30.954222497975024
 40
8.500000000000000
 50
0.000000000000000
 51
90.000000000000000
  0
ARC
  8
0
  6
CONTINUOUS
 62
256
 10
-339.741434977058820
 20
-168.954222497975020
 40
7.000000000000130
 50
314.415308597194040
 51
325.150095420954590
  0
LINE
  8
0
  6
CONTINUOUS
 62
256
 10
-349.680827680376300
 20
-52.359441367630723
 11
-360.139022292722530
 21
-41.901246755284490
  0
LINE
  8
0
  6
CONTINUOUS
 62
256
 10
-345.025403760125760
 20
-51.358011038388952
 11
-357.310595167976320
 21
-39.072819630538334
  0
LINE
  8
0
  6
CONTINUOUS
 62
256
 10
-258.802042273740880
 20
-52.359441367630723
 11
-248.343847661394650
 21
-41.901246755284546
  0
LINE
  8
0
  6
CONTINUOUS
 62
256
 10
-263.457466193991420
 20
-51.358011038388952
 11
-251.172274786140860
 21
-39.072819630538334
  0
LINE
  8
0
  6
CONTINUOUS
 62
256
 10
-345.741434977058820
 20
-171.954222497975000
 11
-345.741434977058820
 21
-170.454222497975000
  0
LINE
  8
0
  6
CONTINUOUS
 62
256
 10
-345.741434977058820
 20
-171.954222497975020
 11
-345.741434977058820
 21
-167.933295594485570
  0
LINE
  8
0
  6
DASHDOT
 62
256
 10
-362.224191034355950
 20
-152.936978555271590
 11
-373.537899533340810
 21
-164.250687054256300
  0
LINE
  8
0
  6
CONTINUOUS
 62
256
 10
-348.741434977058820
 20
-167.454222497975000
 11
-368.241434977058820
 21
-167.454222497975000
  0
LINE
  8
0
  6
CONTINUOUS
 62
256
 10
-262.741434977058820
 20
-171.954222497975020
 11
-262.741434977058820
 21
-170.454222497975020
  0
LINE
  8
0
  6
CONTINUOUS
 62
256
 10
-262.741434977058820
 20
-171.954222497975020
 11
-262.741434977058820
 21
-167.933295594485570
  0
LINE
  8
0
  6
DASHDOT
 62
256
 10
-246.258678919761680
 20
-152.936978555271590
 11
-234.944970420776830
 21
-164.250687054256330
  0
LINE
  8
0
  6
CONTINUOUS
 62
256
 10
-334.842455491492270
 20
-173.954222497975000
 11
-273.640414462624900
 21
-173.954222497975020
  0
LINE
  8
0
  6
CONTINUOUS
 62
256
 10
-259.741434977058820
 20
-167.454222497975020
 11
-240.241434977058820
 21
-167.454222497975020
  0
LINE
  8
0
  6
CONTINUOUS
 62
256
 10
-304.241434977058820
 20
-172.954222497975020
 11
-274.485997623596630
 21
-172.954222497975020
  0
LINE
  8
0
  6
DASHDOT
 62
256
 10
-362.224191034355950
 20
-36.971466440678455
 11
-373.537899533340810
 21
-25.657757941693717
  0
LINE
  8
0
  6
DASHDOT
 62
256
 10
-246.258678919761680
 20
-36.971466440678455
 11
-234.944970420776830
 21
-25.657757941693717
  0
LINE
  8
0
  6
CONTINUOUS
 62
256
 10
-376.741434977058820
 20
-158.954222497975020
 11
-376.741434977058820
 21
-30.954222497975024
  0
LINE
  8
0
  6
CONTINUOUS
 62
256
 10
-240.241434977058820
 20
-22.454222497975024
 11
-368.241434977058820
 21
-22.454222497975024
  0
LINE
  8
0
  6
CONTINUOUS
 62
256
 10
-306.241434977058820
 20
-45.474123488086207
 11
-306.241434977058820
 21
-29.462950030439117
  0
LINE
  8
0
  6
CONTINUOUS
 62
256
 10
-302.241434977058820
 20
-45.474123488086207
 11
-302.241434977058820
 21
-29.462950030439117
  0
LINE
  8
0
  6
CONTINUOUS
 62
256
 10
-304.241434977058820
 20
-172.954222497975020
 11
-333.996872330520550
 21
-172.954222497975020
  0
LINE
  8
0
  6
CONTINUOUS
 62
256
 10
66.270849372108202
 20
144.271747894998950
 11
66.270849372108202
 21
152.771745987650320
  0
LINE
  8
0
  6
CONTINUOUS
 62
256
 10
71.270849372108202
 20
152.771745987650320
 11
66.270849372108202
 21
152.771745987650320
  0
LINE
  8
0
  6
CONTINUOUS
 62
256
 10
71.270849372108202
 20
144.271747894998950
 11
66.270849372108202
 21
144.271747894998950
  0
LINE
  8
0
  6
CONTINUOUS
 62
256
 10
66.270849372108202
 20
86.771745987650320
 11
66.270849372108202
 21
78.271747894998953
  0
LINE
  8
0
  6
CONTINUOUS
 62
256
 10
71.270849372108202
 20
78.271747894998953
 11
66.270849372108202
 21
78.271747894998953
  0
LINE
  8
0
  6
CONTINUOUS
 62
256
 10
71.270849372108202
 20
86.771745987650320
 11
66.270849372108202
 21
86.771745987650320
  0
LINE
  8
0
  6
CONTINUOUS
 62
256
 10
71.270849372108202
 20
-114.204221544300690
 11
66.270849372108202
 21
-114.204221544300690
  0
LINE
  8
0
  6
CONTINUOUS
 62
256
 10
71.270849372108202
 20
-105.704223451649340
 11
66.270849372108202
 21
-105.704223451649340
  0
LINE
  8
0
  6
CONTINUOUS
 62
256
 10
66.270849372108202
 20
-114.204221544300690
 11
66.270849372108202
 21
-105.704223451649340
  0
TEXT
  8
0
  6
CONTINUOUS
 62
256
 10
-339.696441650390620
 20
61.057548522949219
 40
7.919999599456787
  1
ＳＣＡＬＥ１／１
 50
0.000002504478167
 41
0.984848598876354
  7
STANDARD1
  0
TEXT
  8
0
  6
CONTINUOUS
 62
256
 10
-339.696441650390620
 20
73.777549743652344
 40
7.919999599456787
  1
１／６０～１／１００
 50
0.000002504478167
 41
0.984848598876354
  7
STANDARD1
  0
TEXT
  8
0
  6
CONTINUOUS
 62
256
 10
-339.696441650390620
 20
86.497550964355469
 40
7.919999599456787
  1
０．１ｋＷ
 50
0.000002504478167
 41
0.984848598876354
  7
STANDARD1
  0
TEXT
  8
0
  6
CONTINUOUS
 62
256
 10
-339.696441650390620
 20
99.217552185058594
 40
7.919999599456787
  1
ＧＭ－ＳＦＳＢ
 50
0.000002504478167
 41
0.984848598876354
  7
STANDARD1
  0
TEXT
  8
0
  6
CONTINUOUS
 62
256
 10
-339.696441650390620
 20
111.937553405761720
 40
7.919999599456787
  1
三菱ギヤードモートル
 50
0.000002504478167
 41
0.984848598876354
  7
STANDARD1
  0
TEXT
  8
0
  6
CONTINUOUS
 62
256
 10
-339.696441650390620
 20
124.657554626464840
 40
7.919999599456787
  1
Ｓ１９０
 50
0.000002504478167
 41
0.984848598876354
  7
STANDARD1
  0
LINE
  8
0
  6
CONTINUOUS
 62
256
 10
-253.824721613328020
 20
-69.184312607657731
 11
-253.337918221622430
 21
-68.697509215952110
  0
LINE
  8
0
  6
CONTINUOUS
 62
256
 10
-260.471525086741740
 20
-62.537509134244019
 11
-259.984721695036110
 21
-62.050705742538398
  0
LINE
  8
0
  6
CONTINUOUS
 62
256
 10
-253.511583004359270
 20
-68.931765656807357
 11
-260.188682306832160
 21
-62.254666354334439
  0
LINE
  8
0
  6
CONTINUOUS
 62
256
 10
-253.824721613328020
 20
-69.184312607657731
 11
-260.471525086741740
 21
-62.537509134244019
  0
POINT
  8
0
  6
CONTINUOUS
 62
256
 10
-257.148123350034890
 20
-65.860910870950875
  0
ARC
  8
0
  6
CONTINUOUS
 62
256
 10
-259.410864914961910
 20
-68.123652435877915
 40
6.099999427795368
 50
354.601910595264880
 51
95.398072101891557
  0
LINE
  8
0
  6
CONTINUOUS
 62
256
 10
-253.824721613328020
 20
-156.724132388292080
 11
-253.337918221622430
 21
-157.210935779997700
  0
LINE
  8
0
  6
CONTINUOUS
 62
256
 10
-260.471525086741740
 20
-163.370935861705820
 11
-259.984721695036110
 21
-163.857739253411410
  0
LINE
  8
0
  6
CONTINUOUS
 62
256
 10
-253.511583004359270
 20
-156.976679339142460
 11
-260.188682306832160
 21
-163.653778641615390
  0
LINE
  8
0
  6
CONTINUOUS
 62
256
 10
-253.824721613328020
 20
-156.724132388292080
 11
-260.471525086741740
 21
-163.370935861705820
  0
POINT
  8
0
  6
CONTINUOUS
 62
256
 10
-257.148123350034890
 20
-160.047534124998950
  0
ARC
  8
0
  6
CONTINUOUS
 62
256
 10
-259.410864914961910
 20
-157.784792560071910
 40
6.099999427795406
 50
264.601927898108500
 51
5.398089404735109
  0
LINE
  8
0
  6
CONTINUOUS
 62
256
 10
-354.658148340789580
 20
-156.724132388292080
 11
-355.144951732495200
 21
-157.210935779997700
  0
LINE
  8
0
  6
CONTINUOUS
 62
256
 10
-348.011344867375900
 20
-163.370935861705820
 11
-348.498148259081520
 21
-163.857739253411410
  0
LINE
  8
0
  6
CONTINUOUS
 62
256
 10
-354.971286949758390
 20
-156.976679339142460
 11
-348.294187647285470
 21
-163.653778641615390
  0
LINE
  8
0
  6
CONTINUOUS
 62
256
 10
-354.658148340789580
 20
-156.724132388292080
 11
-348.011344867375900
 21
-163.370935861705820
  0
POINT
  8
0
  6
CONTINUOUS
 62
256
 10
-351.334746604082740
 20
-160.047534124998950
  0
ARC
  8
0
  6
CONTINUOUS
 62
256
 10
-349.072005039155730
 20
-157.784792560071910
 40
6.099999427795398
 50
174.601910595264910
 51
275.398072101891500
  0
LINE
  8
0
  6
CONTINUOUS
 62
256
 10
-354.658148340789580
 20
-69.184312607657731
 11
-355.144951732495200
 21
-68.697509215952110
  0
LINE
  8
0
  6
CONTINUOUS
 62
256
 10
-348.011344867375900
 20
-62.537509134244019
 11
-348.498148259081520
 21
-62.050705742538398
  0
LINE
  8
0
  6
CONTINUOUS
 62
256
 10
-354.971286949758390
 20
-68.931765656807357
 11
-348.294187647285470
 21
-62.254666354334439
  0
LINE
  8
0
  6
CONTINUOUS
 62
256
 10
-354.658148340789580
 20
-69.184312607657731
 11
-348.011344867375900
 21
-62.537509134244019
  0
POINT
  8
0
  6
CONTINUOUS
 62
256
 10
-351.334746604082740
 20
-65.860910870950875
  0
ARC
  8
0
  6
CONTINUOUS
 62
256
 10
-349.072005039155730
 20
-68.123652435877915
 40
6.099999427795413
 50
84.601927898108485
 51
185.398089404735090
  0
CIRCLE
  8
0
  6
CONTINUOUS
 62
256
 10
299.648449087229890
 20
-94.954222497975039
 40
65.000000000000000
  0
ENDSEC
  0
EOF
