  0
SECTION
  2
HEADER
  9
$FILLMODE
 70
1
  9
$TEXTSTYLE
  7
STANDARD1
  9
$ACADVER
  1
AC1009
  9
$DIMASZ
 40
1.931851648807023
  9
$DIMEXE
 40
2.000000000000000
  9
$DIMEXO
 40
1.000000000000000
  9
$DIMLFAC
 40
1.000000000000000
  9
$DIMSCALE
 40
1.000000000000000
  9
$DIMTAD
 70
1
  9
$DIMTFAC
 40
0.714285731315613
  9
$DIMTXT
 40
2.799999952316284
  9
$LUPREC
 70
3
  9
$TEXTSIZE
 40
2.799999952316284
  9
$REGENMODE
 70
1
  0
ENDSEC
  0
SECTION
  2
TABLES
  0
TABLE
  2
LTYPE
 70
4
  0
LTYPE
  2
CONTINUOUS
 70
64
  3
Solid line
 72
65
 73
0
 40
0.0
  0
LTYPE
  2
DASHED
 70
64
  3
-- -- -- -- -- -- -- -- -- -- -- -- -- -- --
 72
65
 73
2
 40
0.75
 49
0.5
 49
-0.25
  0
LTYPE
  2
DASHDOT
 70
64
  3
__ . __ . __ . __ . __ . __ . __ . __ . __ . __
 72
65
 73
4
 40
1.0
 49
0.5
 49
-0.25
 49
0.0
 49
-0.25
  0
LTYPE
  2
DIVIDE
 70
64
  3
__ . . __ . . __ . . __ . . __ . . __ . . __
 72
65
 73
6
 40
1.25
 49
0.5
 49
-0.25
 49
0.0
 49
-0.25
 49
0.0
 49
-0.25
  0
ENDTAB
  0
TABLE
  2
LAYER
 70
1
  0
LAYER
  2
0
 70
64
 62
2
  6
CONTINUOUS
  0
ENDTAB
  0
TABLE
  2
STYLE
 70
4
  0
STYLE
  2
STANDARD1
 70
64
 40
0.0
 41
1.0
 50
0.0
 71
0
 42
2.799999952316284
  3
MONOTXT
  4
BIGFONT
  0
STYLE
  2
STANDARD2
 70
68
 40
0.0
 41
1.0
 50
0.0
 71
0
 42
2.799999952316284
  3
MONOTXT
  4
BIGFONT
  0
STYLE
  2
STANDARD3
 70
64
 40
0.0
 41
1.0
 50
0.0
 71
0
 42
2.799999952316284
  3
MONOTXT
  4

  0
STYLE
  2
STANDARD4
 70
68
 40
0.0
 41
1.0
 50
0.0
 71
0
 42
2.799999952316284
  3
MONOTXT
  4

  0
ENDTAB
  0
TABLE
  2
VIEW
 70
0
  0
ENDTAB
  0
ENDSEC
  0
SECTION
  2
BLOCKS
  0
ENDSEC
  0
SECTION
  2
ENTITIES
  0
ARC
  8
0
  6
CONTINUOUS
 62
3
 10
-347.680271877749140
 20
-77.676806224144087
 40
6.099999427795419
 50
84.601927898108485
 51
185.398089404735120
  0
POINT
  8
0
  6
CONTINUOUS
 62
3
 10
-349.943013442676150
 20
-75.414064659217047
  0
LINE
  8
0
  6
CONTINUOUS
 62
3
 10
-353.266415179382990
 20
-78.737466395923903
 11
-346.619611705969310
 21
-72.090662922510191
  0
LINE
  8
0
  6
CONTINUOUS
 62
3
 10
-353.579553788351800
 20
-78.484919445073530
 11
-346.902454485878880
 21
-71.807820142600619
  0
LINE
  8
0
  6
CONTINUOUS
 62
3
 10
-346.619611705969310
 20
-72.090662922510191
 11
-347.106415097674930
 21
-71.603859530804570
  0
LINE
  8
0
  6
CONTINUOUS
 62
3
 10
-353.266415179382990
 20
-78.737466395923903
 11
-353.753218571088610
 21
-78.250663004218282
  0
ARC
  8
0
  6
CONTINUOUS
 62
3
 10
-347.680271877749140
 20
-167.337946348338080
 40
6.099999427795398
 50
174.601910595264880
 51
275.398072101891500
  0
POINT
  8
0
  6
CONTINUOUS
 62
3
 10
-349.943013442676150
 20
-169.600687913265120
  0
LINE
  8
0
  6
CONTINUOUS
 62
3
 10
-353.266415179382990
 20
-166.277286176558250
 11
-346.619611705969310
 21
-172.924089649971990
  0
LINE
  8
0
  6
CONTINUOUS
 62
3
 10
-353.579553788351800
 20
-166.529833127408640
 11
-346.902454485878880
 21
-173.206932429881560
  0
LINE
  8
0
  6
CONTINUOUS
 62
3
 10
-346.619611705969310
 20
-172.924089649971990
 11
-347.106415097674930
 21
-173.410893041677580
  0
LINE
  8
0
  6
CONTINUOUS
 62
3
 10
-353.266415179382990
 20
-166.277286176558250
 11
-353.753218571088610
 21
-166.764089568263870
  0
ARC
  8
0
  6
CONTINUOUS
 62
3
 10
-258.019131753555200
 20
-167.337946348338080
 40
6.099999427795406
 50
264.601927898108500
 51
5.398089404735133
  0
POINT
  8
0
  6
CONTINUOUS
 62
3
 10
-255.756390188628190
 20
-169.600687913265120
  0
LINE
  8
0
  6
CONTINUOUS
 62
3
 10
-252.432988451921320
 20
-166.277286176558250
 11
-259.079791925335030
 21
-172.924089649971990
  0
LINE
  8
0
  6
CONTINUOUS
 62
3
 10
-252.119849842952560
 20
-166.529833127408640
 11
-258.796949145425460
 21
-173.206932429881560
  0
LINE
  8
0
  6
CONTINUOUS
 62
3
 10
-259.079791925335030
 20
-172.924089649971990
 11
-258.592988533629410
 21
-173.410893041677580
  0
LINE
  8
0
  6
CONTINUOUS
 62
3
 10
-252.432988451921320
 20
-166.277286176558250
 11
-251.946185060215730
 21
-166.764089568263870
  0
ARC
  8
0
  6
CONTINUOUS
 62
3
 10
-258.019131753555200
 20
-77.676806224144087
 40
6.099999427795368
 50
354.601910595264880
 51
95.398072101891515
  0
POINT
  8
0
  6
CONTINUOUS
 62
3
 10
-255.756390188628190
 20
-75.414064659217047
  0
LINE
  8
0
  6
CONTINUOUS
 62
3
 10
-252.432988451921320
 20
-78.737466395923903
 11
-259.079791925335030
 21
-72.090662922510191
  0
LINE
  8
0
  6
CONTINUOUS
 62
3
 10
-252.119849842952560
 20
-78.484919445073530
 11
-258.796949145425460
 21
-71.807820142600619
  0
LINE
  8
0
  6
CONTINUOUS
 62
3
 10
-259.079791925335030
 20
-72.090662922510191
 11
-258.592988533629410
 21
-71.603859530804570
  0
LINE
  8
0
  6
CONTINUOUS
 62
3
 10
-252.432988451921320
 20
-78.737466395923903
 11
-251.946185060215730
 21
-78.250663004218282
  0
TEXT
  8
0
  6
CONTINUOUS
 62
3
 10
-338.685791015625000
 20
122.454002380371090
 40
7.919999599456787
  1
Ｓ１９１
 50
0.000002504478167
 41
0.984848598876354
  7
STANDARD1
  0
TEXT
  8
0
  6
CONTINUOUS
 62
3
 10
-338.685791015625000
 20
109.734001159667960
 40
7.919999599456787
  1
三菱ギヤードモートル
 50
0.000002504478167
 41
0.984848598876354
  7
STANDARD1
  0
TEXT
  8
0
  6
CONTINUOUS
 62
3
 10
-338.685791015625000
 20
97.013999938964844
 40
7.919999599456787
  1
ＧＭ－ＳＦＳＢ
 50
0.000002504478167
 41
0.984848598876354
  7
STANDARD1
  0
TEXT
  8
0
  6
CONTINUOUS
 62
3
 10
-338.685791015625000
 20
84.293998718261719
 40
7.919999599456787
  1
０．１ｋＷ
 50
0.000002504478167
 41
0.984848598876354
  7
STANDARD1
  0
TEXT
  8
0
  6
CONTINUOUS
 62
3
 10
-338.685791015625000
 20
71.573997497558594
 40
7.919999599456787
  1
１／１２０～１／２００
 50
0.000002504478167
 41
0.984848598876354
  7
STANDARD1
  0
TEXT
  8
0
  6
CONTINUOUS
 62
3
 10
-338.685791015625000
 20
58.854000091552734
 40
7.919999599456787
  1
ＳＣＡＬＥ１／１
 50
0.000002504478167
 41
0.984848598876354
  7
STANDARD1
  0
LINE
  8
0
  6
CONTINUOUS
 62
3
 10
56.761992427422001
 20
-129.507376286241200
 11
56.761992427422001
 21
-119.507376286241190
  0
LINE
  8
0
  6
CONTINUOUS
 62
3
 10
62.761992427422001
 20
-119.507376286241190
 11
56.761992427422001
 21
-119.507376286241190
  0
LINE
  8
0
  6
CONTINUOUS
 62
3
 10
62.761992427422001
 20
-129.507376286241200
 11
56.761992427422001
 21
-129.507376286241200
  0
LINE
  8
0
  6
CONTINUOUS
 62
3
 10
62.761992427422001
 20
73.240273620745938
 11
56.761992427422001
 21
73.240273620745938
  0
LINE
  8
0
  6
CONTINUOUS
 62
3
 10
62.761992427422001
 20
83.240273620745938
 11
56.761992427422001
 21
83.240273620745938
  0
LINE
  8
0
  6
CONTINUOUS
 62
3
 10
56.761992427422001
 20
73.240273620745938
 11
56.761992427422001
 21
83.240273620745938
  0
LINE
  8
0
  6
CONTINUOUS
 62
3
 10
62.761992427422001
 20
151.240273620746850
 11
56.761992427422001
 21
151.240273620746850
  0
LINE
  8
0
  6
CONTINUOUS
 62
3
 10
62.761992427422001
 20
141.240273620746850
 11
56.761992427422001
 21
141.240273620746850
  0
LINE
  8
0
  6
CONTINUOUS
 62
3
 10
56.761992427422001
 20
151.240273620746850
 11
56.761992427422001
 21
141.240273620746850
  0
LINE
  8
0
  6
CONTINUOUS
 62
3
 10
-256.012304650063410
 20
-182.507376286241200
 11
-232.849701815652170
 21
-182.507376286241200
  0
LINE
  8
0
  6
CONTINUOUS
 62
3
 10
-372.849701815652220
 20
-182.507376286241200
 11
-349.557905748151370
 21
-182.507376286241200
  0
LINE
  8
0
  6
CONTINUOUS
 62
3
 10
-372.849701815652220
 20
-22.507376286241197
 11
-232.849701815652170
 21
-22.507376286241197
  0
LINE
  8
0
  6
CONTINUOUS
 62
3
 10
-382.849701815652220
 20
-32.507376286241197
 11
-382.849701815652220
 21
-172.507376286241200
  0
LINE
  8
0
  6
CONTINUOUS
 62
3
 10
-302.849701815652170
 20
-185.507376286241200
 11
-336.235323537990550
 21
-185.507376286241200
  0
LINE
  8
0
  6
CONTINUOUS
 62
3
 10
-302.849701815652170
 20
-185.507376286241200
 11
-269.464080093313840
 21
-185.507376286241200
  0
LINE
  8
0
  6
CONTINUOUS
 62
3
 10
-300.849701815652170
 20
-33.516103818705346
 11
-300.849701815652170
 21
-54.527277276352379
  0
LINE
  8
0
  6
CONTINUOUS
 62
3
 10
-304.849701815652170
 20
-33.516103818705346
 11
-304.849701815652170
 21
-54.527277276352379
  0
LINE
  8
0
  6
CONTINUOUS
 62
3
 10
-361.529719100644800
 20
-46.655786125994723
 11
-347.674479104277910
 21
-60.511026122361784
  0
LINE
  8
0
  6
CONTINUOUS
 62
3
 10
-358.701291975898580
 20
-43.827359001248510
 11
-342.784012174464350
 21
-59.744638802682744
  0
LINE
  8
0
  6
CONTINUOUS
 62
3
 10
-246.998111655405810
 20
-43.827359001248510
 11
-262.915391456840040
 21
-59.744638802682744
  0
LINE
  8
0
  6
CONTINUOUS
 62
3
 10
-244.169684530659590
 20
-46.655786125994723
 11
-258.024924527026490
 21
-60.511026122361784
  0
CIRCLE
  8
0
  6
CONTINUOUS
 62
3
 10
-371.792612981340650
 20
-171.450287451929630
 40
5.000000000000000
  0
CIRCLE
  8
0
  6
CONTINUOUS
 62
3
 10
-371.792612981340650
 20
-33.564465120552768
 40
5.000000000000000
  0
CIRCLE
  8
0
  6
CONTINUOUS
 62
3
 10
-233.906790649963740
 20
-33.564465120552768
 40
5.000000000000000
  0
ARC
  8
0
  6
CONTINUOUS
 62
3
 10
-372.849701815652220
 20
-172.507376286241200
 40
10.000000000000000
 50
180.000000000000000
 51
270.000000000000000
  0
ARC
  8
0
  6
CONTINUOUS
 62
3
 10
-372.849701815652220
 20
-32.507376286241197
 40
10.000000000000000
 50
90.000000000000000
 51
180.000000000000000
  0
ARC
  8
0
  6
CONTINUOUS
 62
3
 10
-232.849701815652170
 20
-32.507376286241197
 40
10.000000000000000
 50
0.000000000000000
 51
90.000000000000000
  0
ARC
  8
0
  6
CONTINUOUS
 62
3
 10
-232.849701815652170
 20
-172.507376286241200
 40
10.000000000000000
 50
270.000000000000000
 51
0.000000000000000
  0
CIRCLE
  8
0
  6
CONTINUOUS
 62
3
 10
-233.906790649963740
 20
-171.450287451929630
 40
5.000000000000000
  0
ARC
  8
0
  6
CONTINUOUS
 62
3
 10
-298.849701815652170
 20
-54.527277276352379
 40
2.000000000000000
 50
180.000000000000000
 51
269.429883333265310
  0
ARC
  8
0
  6
CONTINUOUS
 62
3
 10
-306.849701815652170
 20
-54.527277276352379
 40
2.000000000000030
 50
270.570116666734690
 51
0.000000000000000
  0
ARC
  8
0
  6
CONTINUOUS
 62
3
 10
-357.287078413525480
 20
-42.413145438875404
 40
2.000000000000056
 50
134.999999999998830
 51
225.000000000000000
  0
ARC
  8
0
  6
CONTINUOUS
 62
3
 10
-362.943932663017900
 20
-48.069999688367773
 40
1.999999999999976
 50
44.999999999998856
 51
135.000000000000000
  0
ARC
  8
0
  6
CONTINUOUS
 62
3
 10
-349.088692666651010
 20
-61.925239684734890
 40
1.999999999999991
 50
299.668470645168160
 51
45.000000000000000
  0
ARC
  8
0
  6
CONTINUOUS
 62
3
 10
-341.369798612091470
 20
-58.330425240309694
 40
1.999999999999815
 50
225.000000000003470
 51
290.275851198862480
  0
ARC
  8
0
  6
CONTINUOUS
 62
3
 10
-248.412325217778910
 20
-42.413145438875404
 40
2.000000000000016
 50
315.000000000000000
 51
45.000000000001158
  0
ARC
  8
0
  6
CONTINUOUS
 62
3
 10
-264.329605019212920
 20
-58.330425240309694
 40
2.000000000000064
 50
249.724148801137520
 51
314.999999999996530
  0
ARC
  8
0
  6
CONTINUOUS
 62
3
 10
-256.610710964653380
 20
-61.925239684734890
 40
2.000000000000016
 50
135.000000000000000
 51
240.331529354831820
  0
ARC
  8
0
  6
CONTINUOUS
 62
3
 10
-242.755470968286490
 20
-48.069999688367773
 40
2.000000000000016
 50
45.000000000000000
 51
135.000000000001140
  0
ARC
  8
0
  6
CONTINUOUS
 62
3
 10
-298.849701815652170
 20
-33.516103818705346
 40
2.000000000000000
 50
90.000000000000000
 51
180.000000000000000
  0
ARC
  8
0
  6
CONTINUOUS
 62
3
 10
-306.849701815652170
 20
-33.516103818705346
 40
2.000000000000000
 50
0.000000000000000
 51
90.000000000000000
  0
ARC
  8
0
  6
CONTINUOUS
 62
3
 10
-342.849701815652220
 20
-181.007376286241310
 40
8.000000000000103
 50
316.567463442211480
 51
325.771133672188510
  0
ARC
  8
0
  6
CONTINUOUS
 62
3
 10
-262.849701815652170
 20
-181.007376286241310
 40
8.000000000000130
 50
214.228866327811460
 51
223.432536557788520
  0
ARC
  8
0
  6
CONTINUOUS
 62
3
 10
-262.849701815652170
 20
-181.007376286241310
 40
6.999999999999967
 50
308.213210701738600
 51
8.736046408089175
  0
ARC
  8
0
  6
CONTINUOUS
 62
3
 10
-342.849701815652220
 20
-181.007376286241310
 40
6.999999999999856
 50
171.263953591910850
 51
231.786789298261400
  0
LINE
  8
0
  6
CONTINUOUS
 62
3
 10
-302.849701815651940
 20
-185.507376286241200
 11
-336.500489266052000
 21
-185.507376286241200
  0
ARC
  8
0
  6
CONTINUOUS
 62
3
 10
-336.500489266052000
 20
-184.507376286241200
 40
1.000000000000049
 50
151.134272584994620
 51
270.000000000000000
  0
ARC
  8
0
  6
CONTINUOUS
 62
3
 10
-342.849701815652000
 20
-181.007376286241250
 40
6.249999999999792
 50
331.134272584992350
 51
147.533799814502430
  0
ARC
  8
0
  6
CONTINUOUS
 62
3
 10
-348.966586713557260
 20
-177.115561909144050
 40
0.999999999999817
 50
195.896808563643160
 51
327.533799814499730
  0
LINE
  8
0
  6
CONTINUOUS
 62
3
 10
-302.849701815652390
 20
-185.507376286241200
 11
-269.198914365252390
 21
-185.507376286241200
  0
ARC
  8
0
  6
CONTINUOUS
 62
3
 10
-269.198914365252390
 20
-184.507376286241200
 40
1.000000000000000
 50
270.000000000000000
 51
28.865727415011673
  0
ARC
  8
0
  6
CONTINUOUS
 62
3
 10
-262.849701815652390
 20
-181.007376286241250
 40
6.250000000000016
 50
32.466200185499126
 51
208.865727415006660
  0
ARC
  8
0
  6
CONTINUOUS
 62
3
 10
-256.732816917747130
 20
-177.115561909143990
 40
1.000000000000154
 50
212.466200185493310
 51
344.103191436353650
  0
ARC
  8
0
  6
CONTINUOUS
 62
3
 10
-262.849701815652390
 20
-181.007376286241310
 40
7.000000000000063
 50
308.213210701740310
 51
8.736046408088891
  0
ARC
  8
0
  6
CONTINUOUS
 62
3
 10
-363.349701815652000
 20
-139.865475267061070
 40
10.000000000000000
 50
180.000000000000000
 51
212.293666879645000
  0
ARC
  8
0
  6
CONTINUOUS
 62
3
 10
-282.048348333139930
 20
-144.653594305128540
 40
40.999999999999915
 50
313.090533982667180
 51
327.706333120354880
  0
ARC
  8
0
  6
CONTINUOUS
 62
3
 10
-250.000520942590750
 20
-179.032901446860650
 40
6.000000000000012
 50
132.989840483216540
 51
188.736046408088780
  0
ARC
  8
0
  6
CONTINUOUS
 62
3
 10
-262.849701815652390
 20
-181.007376286241250
 40
7.999999999999941
 50
214.228866327812370
 51
223.432536557789660
  0
ARC
  8
0
  6
CONTINUOUS
 62
3
 10
-342.849701815652000
 20
-181.007376286241250
 40
7.999999999999938
 50
316.567463442210340
 51
325.771133672187600
  0
ARC
  8
0
  6
CONTINUOUS
 62
3
 10
-342.849701815652000
 20
-181.007376286241310
 40
7.000000000000072
 50
171.263953591911560
 51
231.786789298259690
  0
ARC
  8
0
  6
CONTINUOUS
 62
3
 10
-355.698882688713640
 20
-179.032901446860650
 40
5.999999999999944
 50
351.263953591910710
 51
47.010159516783453
  0
ARC
  8
0
  6
CONTINUOUS
 62
3
 10
-323.651055298164240
 20
-144.653594305128540
 40
41.000000000000014
 50
212.293666879645140
 51
227.010159516783570
  0
LINE
  8
0
  6
CONTINUOUS
 62
3
 10
-371.802910736201970
 20
-145.208064428276260
 11
-358.309211872419160
 21
-166.558209866110930
  0
ARC
  8
0
  6
CONTINUOUS
 62
3
 10
-372.349701815652000
 20
-117.257376286241140
 40
1.000000000000000
 50
180.000000000000000
 51
270.000000000000000
  0
ARC
  8
0
  6
CONTINUOUS
 62
3
 10
-372.349701815652000
 20
-131.757376286241140
 40
1.000000000000000
 50
90.000000000000000
 51
180.000000000000000
  0
LINE
  8
0
  6
CONTINUOUS
 62
3
 10
-366.849701815652220
 20
-118.257376286241140
 11
-372.349701815652000
 21
-118.257376286241140
  0
LINE
  8
0
  6
CONTINUOUS
 62
3
 10
-366.849701815652220
 20
-130.757376286241140
 11
-372.349701815652000
 21
-130.757376286241140
  0
LINE
  8
0
  6
CONTINUOUS
 62
3
 10
-330.599701815652000
 20
-66.507376286241197
 11
-330.599701815652000
 21
-58.508480694378761
  0
ARC
  8
0
  6
CONTINUOUS
 62
3
 10
-329.599701815652220
 20
-58.508480694378761
 40
0.999999999999975
 50
97.328097969880389
 51
180.000000000000000
  0
LINE
  8
0
  6
CONTINUOUS
 62
3
 10
-343.099701815652000
 20
-66.507376286241197
 11
-343.099701815652000
 21
-62.718638941472875
  0
ARC
  8
0
  6
CONTINUOUS
 62
3
 10
-344.099701815652000
 20
-62.718638941472875
 40
1.000000000000000
 50
0.000000000000000
 51
115.053819043268190
  0
ARC
  8
0
  6
CONTINUOUS
 62
3
 10
-261.599701815652390
 20
-62.718638941472875
 40
0.999999999999981
 50
64.946180956731823
 51
180.000000000000000
  0
ARC
  8
0
  6
CONTINUOUS
 62
3
 10
-276.099701815652170
 20
-58.508480694378761
 40
0.999999999999773
 50
0.000000000000000
 51
82.671902030119611
  0
LINE
  8
0
  6
CONTINUOUS
 62
3
 10
-275.099701815652390
 20
-66.507376286241197
 11
-275.099701815652390
 21
-58.508480694378761
  0
LINE
  8
0
  6
CONTINUOUS
 62
3
 10
-262.599701815652390
 20
-66.507376286241197
 11
-262.599701815652390
 21
-62.718638941472875
  0
ARC
  8
0
  6
CONTINUOUS
 62
3
 10
-364.849701815652000
 20
-103.507376286241140
 40
8.000000000000000
 50
90.000000000000000
 51
270.000000000000000
  0
ARC
  8
0
  6
CONTINUOUS
 62
3
 10
-323.349701815652000
 20
-107.108249212345980
 40
50.000000000000199
 50
93.357817421570815
 51
180.000000000000000
  0
ARC
  8
0
  6
CONTINUOUS
 62
3
 10
-302.849701815651940
 20
-456.507376286241200
 40
400.000000000000000
 50
90.000000000000000
 51
93.357817421570715
  0
LINE
  8
0
  6
CONTINUOUS
 62
3
 10
-373.349701815652000
 20
-139.865475267061070
 11
-373.349701815652000
 21
-107.108249212345980
  0
ARC
  8
0
  6
CONTINUOUS
 62
3
 10
-302.849701815652390
 20
-456.507376286241200
 40
400.000000000000170
 50
86.642182578429299
 51
90.000000000000000
  0
ARC
  8
0
  6
DASHDOT
 62
4
 10
-302.849701815652170
 20
-102.507376286241190
 40
97.500000000000085
 50
219.194612110882050
 51
230.876812265942480
  0
LINE
  8
0
  6
DASHDOT
 62
4
 10
-364.585483128515310
 20
-164.243157599104280
 11
-379.056661123500130
 21
-178.714335594089110
  0
ARC
  8
0
  6
DASHDOT
 62
4
 10
-302.849701815652170
 20
-102.507376286241190
 40
97.500000000000298
 50
309.123187734056780
 51
320.876812265942530
  0
LINE
  8
0
  6
DASHDOT
 62
4
 10
-241.042397823289490
 20
-164.314680278603870
 11
-226.746158340284810
 21
-178.610919761608530
  0
ARC
  8
0
  6
DASHDOT
 62
4
 10
-302.849701815652170
 20
-102.507376286241190
 40
97.500000000000043
 50
39.233104965978029
 51
50.876812265942476
  0
LINE
  8
0
  6
DASHDOT
 62
4
 10
-241.451872561977500
 20
-41.109547032566525
 11
-226.734813384056170
 21
-26.392487854645196
  0
LINE
  8
0
  6
DASHDOT
 62
4
 10
-363.672985797634510
 20
-41.684092304258911
 11
-379.123972636399460
 21
-26.233105465493963
  0
ARC
  8
0
  6
DASHDOT
 62
4
 10
-302.849701815652170
 20
-102.507376286241190
 40
97.500000000000341
 50
129.123187734056780
 51
140.876812265942500
  0
LINE
  8
0
  6
DASHDOT
 62
4
 10
-302.849701815652170
 20
-13.677125966325548
 11
-302.849701815652170
 21
-196.209656877683300
  0
LINE
  8
0
  6
CONTINUOUS
 62
3
 10
-245.349701815652110
 20
-158.507376286241200
 11
-245.349701815652110
 21
-152.499875348503560
  0
LINE
  8
0
  6
CONTINUOUS
 62
3
 10
-246.849741332454300
 20
-158.507376286240970
 11
-245.349701815652110
 21
-158.507376286240970
  0
LINE
  8
0
  6
CONTINUOUS
 62
3
 10
-246.849741332454300
 20
-86.507376286241424
 11
-245.349701815652110
 21
-86.507376286241424
  0
LINE
  8
0
  6
CONTINUOUS
 62
3
 10
-245.349701815652110
 20
-92.519390431810962
 11
-245.349701815652110
 21
-86.507376286241424
  0
ARC
  8
0
  6
CONTINUOUS
 62
3
 10
-342.280568815739460
 20
-77.085429543942837
 40
6.600000000000009
 50
95.743681810995099
 51
135.000000000003500
  0
ARC
  8
0
  6
CONTINUOUS
 62
3
 10
-302.849701815652110
 20
-469.107376286241330
 40
400.599999999999910
 50
90.000000000000000
 51
95.743681810993436
  0
ARC
  8
0
  6
CONTINUOUS
 62
3
 10
-339.839769053798480
 20
-94.443619655225575
 40
20.600000000000151
 50
135.000000000002900
 51
174.247717268463560
  0
LINE
  8
0
  6
CONTINUOUS
 62
3
 10
-354.406168746242200
 20
-79.877219962783329
 11
-346.947473571571210
 21
-72.418524788111654
  0
ARC
  8
0
  6
CONTINUOUS
 62
3
 10
-61.249701815651804
 20
-122.507376286241190
 40
300.599999999999970
 50
174.247717268463390
 51
180.000000000000000
  0
ARC
  8
0
  6
CONTINUOUS
 62
3
 10
-342.280568815739460
 20
-167.929323028539560
 40
6.600000000000358
 50
224.999999999996500
 51
264.256318189004900
  0
ARC
  8
0
  6
CONTINUOUS
 62
3
 10
-302.849701815652110
 20
224.092623713758940
 40
400.599999999999910
 50
264.256318189006550
 51
270.000000000000000
  0
ARC
  8
0
  6
CONTINUOUS
 62
3
 10
-339.839769053798480
 20
-150.571132917256820
 40
20.600000000000030
 50
185.752282731536440
 51
224.999999999997100
  0
LINE
  8
0
  6
CONTINUOUS
 62
3
 10
-354.406168746242200
 20
-165.137532609699060
 11
-346.947473571571210
 21
-172.596227784370740
  0
ARC
  8
0
  6
CONTINUOUS
 62
3
 10
-61.249701815651804
 20
-122.507376286241190
 40
300.600000000000420
 50
180.000000000000000
 51
185.752282731536610
  0
ARC
  8
0
  6
CONTINUOUS
 62
3
 10
-263.418834815564760
 20
-167.929323028539560
 40
6.600000000000009
 50
275.743681810995100
 51
315.000000000002790
  0
ARC
  8
0
  6
CONTINUOUS
 62
3
 10
-302.849701815652110
 20
224.092623713758940
 40
400.599999999999910
 50
270.000000000000000
 51
275.743681810993450
  0
ARC
  8
0
  6
CONTINUOUS
 62
3
 10
-265.859634577505740
 20
-150.571132917256820
 40
20.600000000000069
 50
315.000000000002670
 51
354.247717268463480
  0
LINE
  8
0
  6
CONTINUOUS
 62
3
 10
-251.293234885062130
 20
-165.137532609699060
 11
-258.751930059733130
 21
-172.596227784370740
  0
ARC
  8
0
  6
CONTINUOUS
 62
3
 10
-544.449701815652590
 20
-122.507376286241190
 40
300.600000000000020
 50
354.247717268463420
 51
0.000000000000000
  0
ARC
  8
0
  6
CONTINUOUS
 62
4
 10
-544.449701815652590
 20
-122.507376286241190
 40
290.797000000000590
 50
0.000000000000000
 51
5.752282731536623
  0
LINE
  8
0
  6
CONTINUOUS
 62
4
 10
-258.225002661034410
 20
-86.808987738754695
 11
-264.112416533073770
 21
-80.921573866714652
  0
ARC
  8
0
  6
CONTINUOUS
 62
4
 10
-265.859634577505740
 20
-94.443619655225575
 40
10.797000000000011
 50
5.752282731536912
 51
44.999999999998295
  0
ARC
  8
0
  6
CONTINUOUS
 62
3
 10
-544.449701815652590
 20
-122.507376286241190
 40
300.600000000000480
 50
0.000000000000000
 51
5.752282731536602
  0
LINE
  8
0
  6
CONTINUOUS
 62
3
 10
-251.293234885062130
 20
-79.877219962783329
 11
-258.751930059733130
 21
-72.418524788111654
  0
ARC
  8
0
  6
CONTINUOUS
 62
3
 10
-265.859634577505740
 20
-94.443619655225575
 40
20.599999999999916
 50
5.752282731536487
 51
44.999999999997321
  0
ARC
  8
0
  6
CONTINUOUS
 62
4
 10
-61.249701815652031
 20
-122.507376286241190
 40
290.796999999999970
 50
174.998349729065040
 51
180.000000000000000
  0
LINE
  8
0
  6
CONTINUOUS
 62
4
 10
-344.927292131508240
 20
-84.261878899992553
 11
-341.586987098230450
 21
-80.921573866714652
  0
ARC
  8
0
  6
CONTINUOUS
 62
4
 10
-330.221592403171480
 20
-98.967578628329193
 40
20.797000000000097
 50
135.000000000000200
 51
174.998349729064700
  0
ARC
  8
0
  6
CONTINUOUS
 62
4
 10
-302.849701815652110
 20
-469.107376286241330
 40
390.797000000000030
 50
90.000000000000000
 51
95.417963762360529
  0
ARC
  8
0
  6
CONTINUOUS
 62
4
 10
-339.465666754670450
 20
-83.042894210274426
 40
3.000000000000067
 50
95.417963762365673
 51
135.000000000003040
  0
ARC
  8
0
  6
CONTINUOUS
 62
4
 10
-61.249701815652031
 20
-122.507376286241190
 40
290.797000000000310
 50
180.000000000000000
 51
185.001650270934930
  0
LINE
  8
0
  6
CONTINUOUS
 62
4
 10
-344.927292131508240
 20
-160.752873672489840
 11
-341.586987098230450
 21
-164.093178705767740
  0
ARC
  8
0
  6
CONTINUOUS
 62
4
 10
-330.221592403171480
 20
-146.047173944153200
 40
20.796999999999990
 50
185.001650270935300
 51
224.999999999999800
  0
ARC
  8
0
  6
CONTINUOUS
 62
4
 10
-302.849701815652110
 20
224.092623713758940
 40
390.797000000000030
 50
264.582036237639500
 51
270.000000000000000
  0
ARC
  8
0
  6
CONTINUOUS
 62
4
 10
-339.465666754670450
 20
-161.971858362207970
 40
3.000000000000346
 50
224.999999999996960
 51
264.582036237634270
  0
ARC
  8
0
  6
CONTINUOUS
 62
4
 10
-544.449701815652590
 20
-122.507376286241190
 40
290.797000000000200
 50
354.998349729065010
 51
0.000000000000000
  0
LINE
  8
0
  6
CONTINUOUS
 62
4
 10
-260.772111499796100
 20
-160.752873672489840
 11
-264.112416533073770
 21
-164.093178705767740
  0
ARC
  8
0
  6
CONTINUOUS
 62
4
 10
-275.477811228132740
 20
-146.047173944153200
 40
20.797000000000015
 50
315.000000000000000
 51
354.998349729064670
  0
ARC
  8
0
  6
CONTINUOUS
 62
4
 10
-302.849701815652110
 20
224.092623713758940
 40
390.797000000000030
 50
270.000000000000000
 51
275.417963762360500
  0
ARC
  8
0
  6
CONTINUOUS
 62
4
 10
-266.233736876633770
 20
-161.971858362207970
 40
3.000000000000067
 50
275.417963762365730
 51
315.000000000003070
  0
ARC
  8
0
  6
CONTINUOUS
 62
4
 10
-266.233736876633770
 20
-83.042894210274426
 40
3.000000000000346
 50
44.999999999996930
 51
84.582036237634313
  0
ARC
  8
0
  6
CONTINUOUS
 62
4
 10
-302.849701815652110
 20
-469.107376286241330
 40
390.797000000000030
 50
84.582036237639471
 51
90.000000000000000
  0
ARC
  8
0
  6
CONTINUOUS
 62
3
 10
-263.418834815564760
 20
-77.085429543942837
 40
6.600000000000278
 50
44.999999999997215
 51
84.256318189004901
  0
ARC
  8
0
  6
CONTINUOUS
 62
3
 10
-302.849701815652110
 20
-469.107376286241330
 40
400.599999999999910
 50
84.256318189006564
 51
90.000000000000000
  0
ARC
  8
0
  6
CONTINUOUS
 62
3
 10
-306.349701815652110
 20
-157.331936584972940
 40
1.000000000000000
 50
0.000000000000000
 51
84.260829522738291
  0
ARC
  8
0
  6
CONTINUOUS
 62
3
 10
-306.349701815652110
 20
-160.345848771266220
 40
1.000000000000042
 50
264.715267045464260
 51
0.000000000000000
  0
ARC
  8
0
  6
CONTINUOUS
 62
3
 10
-306.349701815652110
 20
-151.799013317994880
 40
1.000000000000077
 50
263.186145655820330
 51
0.000000000000000
  0
LINE
  8
0
  6
CONTINUOUS
 62
3
 10
-305.349701815652110
 20
-160.345848771266220
 11
-305.349701815652110
 21
-157.331936584972940
  0
ARC
  8
0
  6
CONTINUOUS
 62
3
 10
-319.890630499024950
 20
-128.304509164500360
 40
0.999999999999885
 50
300.000000000003810
 51
18.787728582346993
  0
LINE
  8
0
  6
CONTINUOUS
 62
3
 10
-322.031865656081550
 20
-130.695452397204240
 11
-319.390630499024950
 21
-129.170534568284670
  0
ARC
  8
0
  6
CONTINUOUS
 62
3
 10
-322.531865656081550
 20
-129.829426993419930
 40
1.000000000000094
 50
200.405931773138690
 51
300.000000000003810
  0
ARC
  8
0
  6
CONTINUOUS
 62
3
 10
-327.348328147806460
 20
-132.610212909559550
 40
1.000000000000082
 50
299.999999999997270
 51
22.410457608146043
  0
ARC
  8
0
  6
CONTINUOUS
 62
3
 10
-334.758655709976550
 20
-136.888567522361430
 40
1.000000000000082
 50
299.999999999997270
 51
24.260829522733715
  0
LINE
  8
0
  6
CONTINUOUS
 62
3
 10
-329.467003603583980
 20
-134.988131292657040
 11
-326.848328147806460
 21
-133.476238313344080
  0
ARC
  8
0
  6
CONTINUOUS
 62
3
 10
-329.967003603583980
 20
-134.122105888872510
 40
0.999999999999730
 50
203.186145655819840
 51
299.999999999997270
  0
LINE
  8
0
  6
CONTINUOUS
 62
3
 10
-336.868780228082300
 20
-139.261549019292490
 11
-334.258655709976550
 21
-137.754592926145960
  0
ARC
  8
0
  6
CONTINUOUS
 62
3
 10
-337.368780228082300
 20
-138.395523615508180
 40
1.000000000000248
 50
204.715267045455480
 51
300.000000000003810
  0
ARC
  8
0
  6
CONTINUOUS
 62
3
 10
-333.868780228082300
 20
-144.457701441999460
 40
1.000000000000082
 50
119.999999999997270
 51
215.284732954534320
  0
ARC
  8
0
  6
CONTINUOUS
 62
3
 10
-331.258655709976550
 20
-142.950745348852480
 40
0.999999999999807
 50
35.739170477263521
 51
120.000000000003780
  0
ARC
  8
0
  6
CONTINUOUS
 62
3
 10
-306.349701815652110
 20
-148.775227359368500
 40
1.000000000000000
 50
0.000000000000000
 51
82.410457608145762
  0
ARC
  8
0
  6
CONTINUOUS
 62
3
 10
-326.467003603583980
 20
-140.184283715363340
 40
0.999999999999885
 50
120.000000000003780
 51
216.813854344197100
  0
ARC
  8
0
  6
CONTINUOUS
 62
3
 10
-323.848328147806910
 20
-138.672390736050370
 40
1.000000000000194
 50
37.589542391851793
 51
119.999999999997270
  0
ARC
  8
0
  6
CONTINUOUS
 62
3
 10
-306.349701815652110
 20
-143.213655527089710
 40
1.000000000000268
 50
260.405931773124510
 51
0.000000000000000
  0
ARC
  8
0
  6
CONTINUOUS
 62
3
 10
-306.349701815652110
 20
-140.163819869250800
 40
1.000000000000000
 50
0.000000000000000
 51
78.787728582355996
  0
ARC
  8
0
  6
CONTINUOUS
 62
3
 10
-319.031865656081100
 20
-135.891604819910980
 40
0.999999999999885
 50
120.000000000003780
 51
219.594068226860460
  0
ARC
  8
0
  6
CONTINUOUS
 62
3
 10
-316.390630499024950
 20
-134.366686990991640
 40
1.000000000000165
 50
41.212271417643841
 51
119.999999999997270
  0
ARC
  8
0
  6
CONTINUOUS
 62
3
 10
-311.492006661065600
 20
-131.538465199486610
 40
0.999999999999885
 50
120.000000000003780
 51
226.260204708328700
  0
ARC
  8
0
  6
CONTINUOUS
 62
3
 10
-306.349701815652110
 20
-134.507376286241200
 40
0.999999999999964
 50
253.739795291702650
 51
0.000000000000000
  0
ARC
  8
0
  6
CONTINUOUS
 62
3
 10
-306.349701815652110
 20
-131.339137152569040
 40
1.000000000000000
 50
0.000000000000000
 51
68.381727577838021
  0
ARC
  8
0
  6
CONTINUOUS
 62
3
 10
-308.748231086041300
 20
-129.954345632650530
 40
0.999999999999961
 50
51.618272422159777
 51
120.000000000003780
  0
ARC
  8
0
  6
CONTINUOUS
 62
3
 10
-302.849701815652110
 20
-122.507376286241190
 40
38.999999999999865
 50
215.284732954534800
 51
264.715267045465400
  0
ARC
  8
0
  6
CONTINUOUS
 62
3
 10
-302.849701815652110
 20
-122.507376286241190
 40
30.499999999999964
 50
216.813854344181070
 51
263.186145655818960
  0
ARC
  8
0
  6
CONTINUOUS
 62
3
 10
-302.849701815652110
 20
-122.507376286241190
 40
33.999999999999964
 50
215.739170477266950
 51
264.260829522733050
  0
ARC
  8
0
  6
CONTINUOUS
 62
3
 10
-302.849701815652110
 20
-122.507376286241190
 40
25.499999999999890
 50
217.589542391857950
 51
262.410457608141830
  0
ARC
  8
0
  6
CONTINUOUS
 62
3
 10
-302.849701815652110
 20
-122.507376286241190
 40
22.000000000000025
 50
219.594068226860800
 51
260.405931773138780
  0
ARC
  8
0
  6
CONTINUOUS
 62
3
 10
-302.849701815652110
 20
-122.507376286241190
 40
16.999999999999773
 50
221.212271417650780
 51
258.787728582349980
  0
ARC
  8
0
  6
CONTINUOUS
 62
3
 10
-302.849701815652110
 20
-122.507376286241190
 40
13.499999999999927
 50
226.260204708312130
 51
253.739795291689150
  0
ARC
  8
0
  6
CONTINUOUS
 62
3
 10
-302.849701815652110
 20
-122.507376286241190
 40
8.499999999999948
 50
231.618272422157330
 51
248.381727577842330
  0
LINE
  8
0
  6
CONTINUOUS
 62
3
 10
-326.967003603583980
 20
-139.318258311579030
 11
-324.348328147806910
 21
-137.806365332265840
  0
LINE
  8
0
  6
CONTINUOUS
 62
3
 10
-334.368780228082300
 20
-143.591676038214930
 11
-331.758655709976550
 21
-142.084719945068170
  0
LINE
  8
0
  6
CONTINUOUS
 62
3
 10
-319.531865656081100
 20
-135.025579416126670
 11
-316.890630499024950
 21
-133.500661587207110
  0
LINE
  8
0
  6
CONTINUOUS
 62
3
 10
-311.992006661065600
 20
-130.672439795702300
 11
-309.248231086041300
 21
-129.088320228866220
  0
LINE
  8
0
  6
CONTINUOUS
 62
3
 10
-305.349701815652110
 20
-134.507376286241200
 11
-305.349701815652110
 21
-131.339137152569040
  0
LINE
  8
0
  6
CONTINUOUS
 62
3
 10
-305.349701815652110
 20
-143.213655527089710
 11
-305.349701815652110
 21
-140.163819869250800
  0
LINE
  8
0
  6
CONTINUOUS
 62
3
 10
-305.349701815652110
 20
-151.799013317994880
 11
-305.349701815652110
 21
-148.775227359368500
  0
ARC
  8
0
  6
CONTINUOUS
 62
3
 10
-312.248231086041300
 20
-123.892167806159700
 40
0.999999999999885
 50
300.000000000003810
 51
8.381727577845549
  0
ARC
  8
0
  6
CONTINUOUS
 62
3
 10
-302.849701815652110
 20
-122.507376286241190
 40
8.499999999999972
 50
171.618272422157790
 51
188.381727577842210
  0
LINE
  8
0
  6
CONTINUOUS
 62
3
 10
-314.492006661065600
 20
-126.342312776780090
 11
-311.748231086041300
 21
-124.758193209944010
  0
ARC
  8
0
  6
CONTINUOUS
 62
3
 10
-314.992006661065600
 20
-125.476287372995780
 40
0.999999999999879
 50
193.739795291686050
 51
300.000000000003810
  0
ARC
  8
0
  6
CONTINUOUS
 62
3
 10
-306.349701815652110
 20
-104.850932703231590
 40
0.999999999999982
 50
281.212271417643990
 51
0.000000000000000
  0
LINE
  8
0
  6
CONTINUOUS
 62
3
 10
-305.349701815652110
 20
-101.801097045392680
 11
-305.349701815652110
 21
-104.850932703231590
  0
ARC
  8
0
  6
CONTINUOUS
 62
3
 10
-306.349701815652110
 20
-101.801097045392680
 40
1.000000000000000
 50
0.000000000000000
 51
99.594068226875478
  0
ARC
  8
0
  6
CONTINUOUS
 62
3
 10
-306.349701815652110
 20
-96.239525213113893
 40
0.999999999999749
 50
277.589542391855960
 51
0.000000000013028
  0
LINE
  8
0
  6
CONTINUOUS
 62
3
 10
-305.349701815652110
 20
-93.215739254487517
 11
-305.349701815652110
 21
-96.239525213113666
  0
ARC
  8
0
  6
CONTINUOUS
 62
3
 10
-306.349701815652110
 20
-93.215739254487517
 40
1.000000000000000
 50
0.000000000000000
 51
96.813854344179688
  0
ARC
  8
0
  6
CONTINUOUS
 62
3
 10
-306.349701815652110
 20
-87.682815987509457
 40
0.999999999999973
 50
275.739170477261670
 51
0.000000000000000
  0
LINE
  8
0
  6
CONTINUOUS
 62
3
 10
-305.349701815652110
 20
-84.668903801216175
 11
-305.349701815652110
 21
-87.682815987509457
  0
ARC
  8
0
  6
CONTINUOUS
 62
3
 10
-306.349701815652110
 20
-84.668903801216175
 40
1.000000000000000
 50
0.000000000000000
 51
95.284732954535698
  0
ARC
  8
0
  6
CONTINUOUS
 62
3
 10
-326.467003603583980
 20
-104.830468857118830
 40
0.999999999999774
 50
143.186145655813330
 51
240.000000000002730
  0
LINE
  8
0
  6
CONTINUOUS
 62
3
 10
-326.967003603583980
 20
-105.696494260903360
 11
-324.348328147806460
 21
-107.208387240216550
  0
ARC
  8
0
  6
CONTINUOUS
 62
3
 10
-323.848328147806460
 20
-106.342361836432010
 40
1.000000000000082
 50
240.000000000002730
 51
322.410457608132330
  0
ARC
  8
0
  6
CONTINUOUS
 62
3
 10
-333.868780228082300
 20
-100.557051130483160
 40
0.999999999999908
 50
144.715267045455050
 51
239.999999999996220
  0
LINE
  8
0
  6
CONTINUOUS
 62
3
 10
-334.368780228082300
 20
-101.423076534267460
 11
-331.758655709976550
 21
-102.930032627414220
  0
ARC
  8
0
  6
CONTINUOUS
 62
3
 10
-331.258655709976550
 20
-102.064007223629910
 40
0.999999999999885
 50
239.999999999996220
 51
324.260829522725940
  0
ARC
  8
0
  6
CONTINUOUS
 62
3
 10
-308.748231086041300
 20
-115.060406939831630
 40
1.000000000000082
 50
240.000000000002730
 51
308.381727577840190
  0
LINE
  8
0
  6
CONTINUOUS
 62
3
 10
-311.992006661065600
 20
-114.342312776780090
 11
-309.248231086041300
 21
-115.926432343616170
  0
ARC
  8
0
  6
CONTINUOUS
 62
3
 10
-316.390630499024950
 20
-110.648065581490980
 40
0.999999999999885
 50
239.999999999996220
 51
318.787728582348790
  0
LINE
  8
0
  6
CONTINUOUS
 62
3
 10
-319.531865656081100
 20
-109.989173156355710
 11
-316.890630499024950
 21
-111.514090985275280
  0
ARC
  8
0
  6
CONTINUOUS
 62
3
 10
-319.031865656081100
 20
-109.123147752571180
 40
1.000000000000173
 50
140.405931773149600
 51
240.000000000002730
  0
ARC
  8
0
  6
CONTINUOUS
 62
3
 10
-306.349701815652110
 20
-113.675615419913350
 40
1.000000000000090
 50
291.618272422161970
 51
0.000000000000000
  0
ARC
  8
0
  6
CONTINUOUS
 62
3
 10
-302.849701815652110
 20
-122.507376286241190
 40
8.499999999999904
 50
111.618272422157710
 51
128.381727577841670
  0
ARC
  8
0
  6
CONTINUOUS
 62
3
 10
-311.492006661065600
 20
-113.476287372995780
 40
0.999999999999858
 50
133.739795291671300
 51
239.999999999996220
  0
LINE
  8
0
  6
CONTINUOUS
 62
3
 10
-305.349701815652110
 20
-110.507376286241190
 11
-305.349701815652110
 21
-113.675615419913350
  0
ARC
  8
0
  6
CONTINUOUS
 62
3
 10
-306.349701815652110
 20
-110.507376286241190
 40
1.000000000000000
 50
0.000000000000000
 51
106.260204708297360
  0
ARC
  8
0
  6
CONTINUOUS
 62
3
 10
-302.849701815652110
 20
-122.507376286241190
 40
13.499999999999963
 50
106.260204708310860
 51
133.739795291687870
  0
ARC
  8
0
  6
CONTINUOUS
 62
3
 10
-302.849701815652110
 20
-122.507376286241190
 40
17.000000000000046
 50
101.212271417650010
 51
138.787728582350240
  0
ARC
  8
0
  6
CONTINUOUS
 62
3
 10
-302.849701815652110
 20
-122.507376286241190
 40
22.000000000000131
 50
99.594068226861211
 51
140.405931773139200
  0
ARC
  8
0
  6
CONTINUOUS
 62
3
 10
-302.849701815652110
 20
-122.507376286241190
 40
30.500000000000135
 50
96.813854344181038
 51
143.186145655818930
  0
ARC
  8
0
  6
CONTINUOUS
 62
3
 10
-302.849701815652110
 20
-122.507376286241190
 40
25.500000000000160
 50
97.589542391858117
 51
142.410457608142050
  0
ARC
  8
0
  6
CONTINUOUS
 62
3
 10
-302.849701815652110
 20
-122.507376286241190
 40
34.000000000000071
 50
95.739170477266924
 51
144.260829522733360
  0
ARC
  8
0
  6
CONTINUOUS
 62
3
 10
-302.849701815652110
 20
-122.507376286241190
 40
38.999999999999986
 50
95.284732954534590
 51
144.715267045465200
  0
ARC
  8
0
  6
CONTINUOUS
 62
3
 10
-329.967003603583980
 20
-110.892646683609880
 40
1.000000000000082
 50
60.000000000002721
 51
156.813854344180160
  0
LINE
  8
0
  6
CONTINUOUS
 62
3
 10
-329.467003603583980
 20
-110.026621279825340
 11
-326.848328147806460
 21
-111.538514259138530
  0
ARC
  8
0
  6
CONTINUOUS
 62
3
 10
-327.348328147806460
 20
-112.404539662923070
 40
0.999999999999701
 50
337.589542391853970
 51
60.000000000002721
  0
ARC
  8
0
  6
CONTINUOUS
 62
3
 10
-337.368780228082300
 20
-106.619228956974210
 40
1.000000000000082
 50
60.000000000002721
 51
155.284732954544520
  0
LINE
  8
0
  6
CONTINUOUS
 62
3
 10
-336.868780228082300
 20
-105.753203553189670
 11
-334.258655709976550
 21
-107.260159646336430
  0
ARC
  8
0
  6
CONTINUOUS
 62
3
 10
-334.758655709976550
 20
-108.126185050120730
 40
0.999999999999863
 50
335.739170477254390
 51
59.999999999996206
  0
ARC
  8
0
  6
CONTINUOUS
 62
3
 10
-312.248231086041300
 20
-121.122584766322910
 40
1.000000000000026
 50
351.618272422167310
 51
60.000000000002721
  0
LINE
  8
0
  6
CONTINUOUS
 62
3
 10
-314.492006661065600
 20
-118.672439795702300
 11
-311.748231086041300
 21
-120.256559362538380
  0
ARC
  8
0
  6
CONTINUOUS
 62
3
 10
-319.890630499024950
 20
-116.710243407982030
 40
1.000000000000076
 50
341.212271417652970
 51
60.000000000002721
  0
LINE
  8
0
  6
CONTINUOUS
 62
3
 10
-322.031865656081550
 20
-114.319300175278150
 11
-319.390630499024950
 21
-115.844218004197500
  0
ARC
  8
0
  6
CONTINUOUS
 62
3
 10
-322.531865656081550
 20
-115.185325579062460
 40
0.999999999999885
 50
59.999999999996206
 51
159.594068226861310
  0
ARC
  8
0
  6
CONTINUOUS
 62
3
 10
-314.992006661065600
 20
-119.538465199486600
 40
0.999999999999885
 50
59.999999999996206
 51
166.260204708307780
  0
ARC
  8
0
  6
CONTINUOUS
 62
3
 10
-302.849701815652110
 20
-122.507376286241190
 40
13.499999999999687
 50
166.260204708311360
 51
193.739795291688180
  0
ARC
  8
0
  6
CONTINUOUS
 62
3
 10
-302.849701815652110
 20
-122.507376286241190
 40
16.999999999999716
 50
161.212271417649560
 51
198.787728582350440
  0
ARC
  8
0
  6
CONTINUOUS
 62
3
 10
-302.849701815652110
 20
-122.507376286241190
 40
22.000000000000206
 50
159.594068226860770
 51
200.405931773139230
  0
ARC
  8
0
  6
CONTINUOUS
 62
3
 10
-302.849701815652110
 20
-122.507376286241190
 40
30.499999999999947
 50
156.813854344181150
 51
203.186145655818850
  0
ARC
  8
0
  6
CONTINUOUS
 62
3
 10
-302.849701815652110
 20
-122.507376286241190
 40
25.500000000000000
 50
157.589542391857980
 51
202.410457608142480
  0
ARC
  8
0
  6
CONTINUOUS
 62
3
 10
-302.849701815652110
 20
-122.507376286241190
 40
34.000000000000007
 50
155.739170477266780
 51
204.260829522733220
  0
ARC
  8
0
  6
CONTINUOUS
 62
3
 10
-302.849701815652110
 20
-122.507376286241190
 40
39.000000000000220
 50
155.284732954534800
 51
204.715267045465200
  0
LINE
  8
0
  6
CONTINUOUS
 62
3
 10
-300.349701815652110
 20
-151.799013317994880
 11
-300.349701815652110
 21
-148.775227359368500
  0
LINE
  8
0
  6
CONTINUOUS
 62
3
 10
-300.349701815652110
 20
-143.213655527089710
 11
-300.349701815652110
 21
-140.163819869250800
  0
LINE
  8
0
  6
CONTINUOUS
 62
3
 10
-300.349701815652110
 20
-134.507376286241200
 11
-300.349701815652110
 21
-131.339137152569040
  0
LINE
  8
0
  6
CONTINUOUS
 62
3
 10
-293.707396970238620
 20
-130.672439795702300
 11
-296.451172545262920
 21
-129.088320228866220
  0
LINE
  8
0
  6
CONTINUOUS
 62
3
 10
-286.167537975223130
 20
-135.025579416126670
 11
-288.808773132279270
 21
-133.500661587207110
  0
LINE
  8
0
  6
CONTINUOUS
 62
3
 10
-271.330623403221920
 20
-143.591676038214930
 11
-273.940747921327670
 21
-142.084719945068170
  0
LINE
  8
0
  6
CONTINUOUS
 62
3
 10
-300.349701815652110
 20
-160.345848771266220
 11
-300.349701815652110
 21
-157.331936584972940
  0
LINE
  8
0
  6
CONTINUOUS
 62
3
 10
-278.732400027720250
 20
-139.318258311579030
 11
-281.351075483497310
 21
-137.806365332265840
  0
ARC
  8
0
  6
CONTINUOUS
 62
3
 10
-302.849701815652110
 20
-122.507376286241190
 40
8.499999999999904
 50
291.618272422157700
 51
308.381727577842640
  0
ARC
  8
0
  6
CONTINUOUS
 62
3
 10
-302.849701815652110
 20
-122.507376286241190
 40
13.499999999999963
 50
286.260204708310820
 51
313.739795291687870
  0
ARC
  8
0
  6
CONTINUOUS
 62
3
 10
-302.849701815652110
 20
-122.507376286241190
 40
17.000000000000046
 50
281.212271417650020
 51
318.787728582350210
  0
ARC
  8
0
  6
CONTINUOUS
 62
3
 10
-302.849701815652110
 20
-122.507376286241190
 40
22.000000000000131
 50
279.594068226861170
 51
320.405931773139170
  0
ARC
  8
0
  6
CONTINUOUS
 62
3
 10
-302.849701815652110
 20
-122.507376286241190
 40
25.499999999999932
 50
277.589542391858170
 51
322.410457608142050
  0
ARC
  8
0
  6
CONTINUOUS
 62
3
 10
-302.849701815652110
 20
-122.507376286241190
 40
34.000000000000071
 50
275.739170477266950
 51
324.260829522733050
  0
ARC
  8
0
  6
CONTINUOUS
 62
3
 10
-302.849701815652110
 20
-122.507376286241190
 40
30.500000000000135
 50
276.813854344181040
 51
323.186145655818900
  0
ARC
  8
0
  6
CONTINUOUS
 62
3
 10
-302.849701815652110
 20
-122.507376286241190
 40
38.999999999999986
 50
275.284732954534600
 51
324.715267045465230
  0
ARC
  8
0
  6
CONTINUOUS
 62
3
 10
-296.951172545262920
 20
-129.954345632650530
 40
0.999999999999885
 50
59.999999999996206
 51
128.381727577840220
  0
ARC
  8
0
  6
CONTINUOUS
 62
3
 10
-299.349701815652110
 20
-131.339137152569040
 40
1.000000000000090
 50
111.618272422161970
 51
180.000000000000000
  0
ARC
  8
0
  6
CONTINUOUS
 62
3
 10
-299.349701815652110
 20
-134.507376286241200
 40
1.000000000000000
 50
180.000000000000000
 51
286.260204708297350
  0
ARC
  8
0
  6
CONTINUOUS
 62
3
 10
-294.207396970238620
 20
-131.538465199486610
 40
0.999999999999858
 50
313.739795291671330
 51
59.999999999996206
  0
ARC
  8
0
  6
CONTINUOUS
 62
3
 10
-289.308773132279270
 20
-134.366686990991640
 40
1.000000000000082
 50
60.000000000002721
 51
138.787728582338990
  0
ARC
  8
0
  6
CONTINUOUS
 62
3
 10
-286.667537975223130
 20
-135.891604819910980
 40
1.000000000000318
 50
320.405931773139570
 51
59.999999999996206
  0
ARC
  8
0
  6
CONTINUOUS
 62
3
 10
-299.349701815652110
 20
-140.163819869250800
 40
0.999999999999982
 50
101.212271417644000
 51
180.000000000000000
  0
ARC
  8
0
  6
CONTINUOUS
 62
3
 10
-299.349701815652110
 20
-143.213655527089710
 40
1.000000000000000
 50
180.000000000000000
 51
279.594068226875490
  0
ARC
  8
0
  6
CONTINUOUS
 62
3
 10
-299.349701815652110
 20
-151.799013317994880
 40
1.000000000000000
 50
180.000000000000000
 51
276.813854344179670
  0
ARC
  8
0
  6
CONTINUOUS
 62
3
 10
-281.851075483497310
 20
-138.672390736050370
 40
1.000000000000082
 50
60.000000000002721
 51
142.410457608148220
  0
ARC
  8
0
  6
CONTINUOUS
 62
3
 10
-279.232400027720250
 20
-140.184283715363340
 40
0.999999999999911
 50
323.186145655802870
 51
59.999999999996206
  0
ARC
  8
0
  6
CONTINUOUS
 62
3
 10
-299.349701815652110
 20
-148.775227359368500
 40
0.999999999999975
 50
97.589542391854238
 51
180.000000000000000
  0
ARC
  8
0
  6
CONTINUOUS
 62
3
 10
-299.349701815652110
 20
-160.345848771266220
 40
1.000000000000000
 50
180.000000000000000
 51
275.284732954535740
  0
ARC
  8
0
  6
CONTINUOUS
 62
3
 10
-299.349701815652110
 20
-157.331936584972940
 40
0.999999999999973
 50
95.739170477261709
 51
180.000000000000000
  0
ARC
  8
0
  6
CONTINUOUS
 62
3
 10
-274.440747921327670
 20
-142.950745348852480
 40
0.999999999999885
 50
59.999999999996206
 51
144.260829522736490
  0
ARC
  8
0
  6
CONTINUOUS
 62
3
 10
-271.830623403221920
 20
-144.457701441999460
 40
0.999999999999776
 50
324.715267045465680
 51
60.000000000002721
  0
CIRCLE
  8
0
  6
CONTINUOUS
 62
3
 10
-302.849701815652110
 20
-122.507376286241190
 40
5.000000000000000
  0
ARC
  8
0
  6
CONTINUOUS
 62
3
 10
-268.330623403221920
 20
-138.395523615508180
 40
0.999999999999885
 50
239.999999999996220
 51
335.284732954544490
  0
LINE
  8
0
  6
CONTINUOUS
 62
3
 10
-268.830623403221920
 20
-139.261549019292490
 11
-271.440747921327670
 21
-137.754592926145960
  0
ARC
  8
0
  6
CONTINUOUS
 62
3
 10
-302.849701815652110
 20
-122.507376286241190
 40
39.000000000000220
 50
335.284732954534830
 51
24.715267045465190
  0
ARC
  8
0
  6
CONTINUOUS
 62
3
 10
-302.849701815652110
 20
-122.507376286241190
 40
34.000000000000007
 50
335.739170477266780
 51
24.260829522733218
  0
ARC
  8
0
  6
CONTINUOUS
 62
3
 10
-302.849701815652110
 20
-122.507376286241190
 40
25.500000000000085
 50
337.589542391857490
 51
22.410457608142021
  0
ARC
  8
0
  6
CONTINUOUS
 62
3
 10
-302.849701815652110
 20
-122.507376286241190
 40
30.499999999999947
 50
336.813854344181150
 51
23.186145655818844
  0
ARC
  8
0
  6
CONTINUOUS
 62
3
 10
-275.732400027720250
 20
-134.122105888872510
 40
1.000000000000082
 50
240.000000000002730
 51
336.813854344180130
  0
LINE
  8
0
  6
CONTINUOUS
 62
3
 10
-276.232400027720250
 20
-134.988131292657040
 11
-278.851075483497770
 21
-133.476238313344080
  0
ARC
  8
0
  6
CONTINUOUS
 62
3
 10
-302.849701815652110
 20
-122.507376286241190
 40
22.000000000000206
 50
339.594068226860770
 51
20.405931773139226
  0
ARC
  8
0
  6
CONTINUOUS
 62
3
 10
-270.940747921327670
 20
-136.888567522361430
 40
0.999999999999769
 50
155.739170477266270
 51
240.000000000002730
  0
ARC
  8
0
  6
CONTINUOUS
 62
3
 10
-278.351075483497770
 20
-132.610212909559550
 40
0.999999999999701
 50
157.589542391853940
 51
240.000000000002730
  0
ARC
  8
0
  6
CONTINUOUS
 62
3
 10
-283.167537975222670
 20
-129.829426993419930
 40
0.999999999999885
 50
239.999999999996220
 51
339.594068226861340
  0
ARC
  8
0
  6
CONTINUOUS
 62
3
 10
-302.849701815652110
 20
-122.507376286241190
 40
17.000000000000146
 50
341.212271417650070
 51
18.787728582350418
  0
LINE
  8
0
  6
CONTINUOUS
 62
3
 10
-283.667537975222670
 20
-130.695452397204240
 11
-286.308773132279270
 21
-129.170534568284670
  0
ARC
  8
0
  6
CONTINUOUS
 62
3
 10
-285.808773132279270
 20
-128.304509164500360
 40
0.999999999999646
 50
161.212271417644620
 51
239.999999999996220
  0
ARC
  8
0
  6
CONTINUOUS
 62
3
 10
-302.849701815652110
 20
-122.507376286241190
 40
13.500000000000130
 50
346.260204708311850
 51
13.739795291688171
  0
ARC
  8
0
  6
CONTINUOUS
 62
3
 10
-290.707396970238620
 20
-125.476287372995780
 40
0.999999999999885
 50
239.999999999996220
 51
346.260204708314010
  0
LINE
  8
0
  6
CONTINUOUS
 62
3
 10
-291.207396970238620
 20
-126.342312776780090
 11
-293.951172545262920
 21
-124.758193209944010
  0
ARC
  8
0
  6
CONTINUOUS
 62
3
 10
-290.707396970238620
 20
-119.538465199486600
 40
0.999999999999879
 50
13.739795291686027
 51
120.000000000003780
  0
ARC
  8
0
  6
CONTINUOUS
 62
3
 10
-302.849701815652110
 20
-122.507376286241190
 40
8.499999999999972
 50
351.618272422157820
 51
8.381727577842204
  0
ARC
  8
0
  6
CONTINUOUS
 62
3
 10
-293.451172545262920
 20
-123.892167806159700
 40
1.000000000000059
 50
171.618272422154460
 51
239.999999999996220
  0
ARC
  8
0
  6
CONTINUOUS
 62
3
 10
-283.167537975222670
 20
-115.185325579062460
 40
1.000000000000094
 50
20.405931773138686
 51
120.000000000003780
  0
LINE
  8
0
  6
CONTINUOUS
 62
3
 10
-283.667537975222670
 20
-114.319300175278150
 11
-286.308773132279270
 21
-115.844218004197500
  0
ARC
  8
0
  6
CONTINUOUS
 62
3
 10
-285.808773132279270
 20
-116.710243407982030
 40
1.000000000000082
 50
119.999999999997270
 51
198.787728582347000
  0
LINE
  8
0
  6
CONTINUOUS
 62
3
 10
-291.207396970238620
 20
-118.672439795702300
 11
-293.951172545262920
 21
-120.256559362538380
  0
ARC
  8
0
  6
CONTINUOUS
 62
3
 10
-293.451172545262920
 20
-121.122584766322910
 40
1.000000000000082
 50
119.999999999997270
 51
188.381727577832660
  0
ARC
  8
0
  6
CONTINUOUS
 62
3
 10
-270.940747921327670
 20
-108.126185050120730
 40
0.999999999999885
 50
120.000000000003780
 51
204.260829522745610
  0
LINE
  8
0
  6
CONTINUOUS
 62
3
 10
-268.830623403221920
 20
-105.753203553189670
 11
-271.440747921327670
 21
-107.260159646336430
  0
ARC
  8
0
  6
CONTINUOUS
 62
3
 10
-268.330623403221920
 20
-106.619228956974210
 40
1.000000000000248
 50
24.715267045455477
 51
119.999999999997270
  0
ARC
  8
0
  6
CONTINUOUS
 62
3
 10
-278.351075483497770
 20
-112.404539662923070
 40
1.000000000000082
 50
119.999999999997270
 51
202.410457608146060
  0
LINE
  8
0
  6
CONTINUOUS
 62
3
 10
-276.232400027720250
 20
-110.026621279825340
 11
-278.851075483497770
 21
-111.538514259138530
  0
ARC
  8
0
  6
CONTINUOUS
 62
3
 10
-275.732400027720250
 20
-110.892646683609880
 40
0.999999999999730
 50
23.186145655819850
 51
119.999999999997270
  0
ARC
  8
0
  6
CONTINUOUS
 62
3
 10
-302.849701815652110
 20
-122.507376286241190
 40
38.999999999999865
 50
35.284732954534789
 51
84.715267045465410
  0
ARC
  8
0
  6
CONTINUOUS
 62
3
 10
-302.849701815652110
 20
-122.507376286241190
 40
33.999999999999829
 50
35.739170477266640
 51
84.260829522733076
  0
ARC
  8
0
  6
CONTINUOUS
 62
3
 10
-302.849701815652110
 20
-122.507376286241190
 40
25.499999999999890
 50
37.589542391857961
 51
82.410457608141883
  0
ARC
  8
0
  6
CONTINUOUS
 62
3
 10
-302.849701815652110
 20
-122.507376286241190
 40
30.499999999999964
 50
36.813854344181067
 51
83.186145655818962
  0
ARC
  8
0
  6
CONTINUOUS
 62
3
 10
-302.849701815652110
 20
-122.507376286241190
 40
22.000000000000025
 50
39.594068226860820
 51
80.405931773138789
  0
ARC
  8
0
  6
CONTINUOUS
 62
3
 10
-302.849701815652110
 20
-122.507376286241190
 40
17.000000000000114
 50
41.212271417649760
 51
78.787728582349985
  0
ARC
  8
0
  6
CONTINUOUS
 62
3
 10
-302.849701815652110
 20
-122.507376286241190
 40
13.499999999999927
 50
46.260204708312145
 51
73.739795291689134
  0
ARC
  8
0
  6
CONTINUOUS
 62
3
 10
-299.349701815652110
 20
-110.507376286241190
 40
0.999999999999964
 50
73.739795291702634
 51
180.000000000000000
  0
LINE
  8
0
  6
CONTINUOUS
 62
3
 10
-300.349701815652110
 20
-110.507376286241190
 11
-300.349701815652110
 21
-113.675615419913350
  0
ARC
  8
0
  6
CONTINUOUS
 62
3
 10
-294.207396970238620
 20
-113.476287372995780
 40
0.999999999999885
 50
300.000000000003810
 51
46.260204708328693
  0
ARC
  8
0
  6
CONTINUOUS
 62
3
 10
-302.849701815652110
 20
-122.507376286241190
 40
8.500000000000128
 50
51.618272422158320
 51
68.381727577842284
  0
ARC
  8
0
  6
CONTINUOUS
 62
3
 10
-299.349701815652110
 20
-113.675615419913350
 40
1.000000000000000
 50
180.000000000000000
 51
248.381727577838030
  0
ARC
  8
0
  6
CONTINUOUS
 62
3
 10
-286.667537975223130
 20
-109.123147752571180
 40
1.000000000000082
 50
299.999999999997270
 51
39.594068226850403
  0
LINE
  8
0
  6
CONTINUOUS
 62
3
 10
-286.167537975223130
 20
-109.989173156355710
 11
-288.808773132279270
 21
-111.514090985275280
  0
ARC
  8
0
  6
CONTINUOUS
 62
3
 10
-289.308773132279270
 20
-110.648065581490980
 40
0.999999999999673
 50
221.212271417651210
 51
300.000000000003810
  0
LINE
  8
0
  6
CONTINUOUS
 62
3
 10
-293.707396970238620
 20
-114.342312776780090
 11
-296.451172545262920
 21
-115.926432343616170
  0
ARC
  8
0
  6
CONTINUOUS
 62
3
 10
-296.951172545262920
 20
-115.060406939831630
 40
0.999999999999961
 50
231.618272422159780
 51
299.999999999997270
  0
ARC
  8
0
  6
CONTINUOUS
 62
3
 10
-274.440747921327670
 20
-102.064007223629910
 40
0.999999999999940
 50
215.739170477274090
 51
300.000000000003810
  0
LINE
  8
0
  6
CONTINUOUS
 62
3
 10
-271.330623403221920
 20
-101.423076534267460
 11
-273.940747921327670
 21
-102.930032627414220
  0
ARC
  8
0
  6
CONTINUOUS
 62
3
 10
-271.830623403221920
 20
-100.557051130483160
 40
0.999999999999885
 50
300.000000000003810
 51
35.284732954544943
  0
ARC
  8
0
  6
CONTINUOUS
 62
3
 10
-281.851075483497770
 20
-106.342361836432010
 40
0.999999999999834
 50
217.589542391867670
 51
299.999999999997270
  0
LINE
  8
0
  6
CONTINUOUS
 62
3
 10
-278.732400027720250
 20
-105.696494260903360
 11
-281.351075483497770
 21
-107.208387240216550
  0
ARC
  8
0
  6
CONTINUOUS
 62
3
 10
-279.232400027720250
 20
-104.830468857118830
 40
1.000000000000082
 50
299.999999999997270
 51
36.813854344186687
  0
ARC
  8
0
  6
CONTINUOUS
 62
3
 10
-299.349701815652110
 20
-84.668903801216175
 40
1.000000000000042
 50
84.715267045464302
 51
180.000000000000000
  0
LINE
  8
0
  6
CONTINUOUS
 62
3
 10
-300.349701815652110
 20
-84.668903801216175
 11
-300.349701815652110
 21
-87.682815987509457
  0
ARC
  8
0
  6
CONTINUOUS
 62
3
 10
-299.349701815652110
 20
-87.682815987509457
 40
1.000000000000000
 50
180.000000000000000
 51
264.260829522738280
  0
ARC
  8
0
  6
CONTINUOUS
 62
3
 10
-299.349701815652110
 20
-93.215739254487517
 40
1.000000000000077
 50
83.186145655820312
 51
180.000000000000000
  0
LINE
  8
0
  6
CONTINUOUS
 62
3
 10
-300.349701815652110
 20
-93.215739254487517
 11
-300.349701815652110
 21
-96.239525213113666
  0
ARC
  8
0
  6
CONTINUOUS
 62
3
 10
-299.349701815652110
 20
-96.239525213113893
 40
1.000000000000000
 50
179.999999999986980
 51
262.410457608144040
  0
ARC
  8
0
  6
CONTINUOUS
 62
3
 10
-299.349701815652110
 20
-101.801097045392680
 40
1.000000000000268
 50
80.405931773124522
 51
180.000000000000000
  0
LINE
  8
0
  6
CONTINUOUS
 62
3
 10
-300.349701815652110
 20
-101.801097045392680
 11
-300.349701815652110
 21
-104.850932703231590
  0
ARC
  8
0
  6
CONTINUOUS
 62
3
 10
-299.349701815652110
 20
-104.850932703231590
 40
1.000000000000000
 50
180.000000000000000
 51
258.787728582356010
  0
ARC
  8
0
  6
CONTINUOUS
 62
3
 10
-511.349701815652220
 20
-122.507376286241190
 40
300.000000000000110
 50
353.967950853630210
 51
6.032049146369771
  0
ARC
  8
0
  6
CONTINUOUS
 62
3
 10
-217.983037042709780
 20
-91.507376286241424
 40
5.000000000000143
 50
6.032049146370342
 51
90.000000000000000
  0
ARC
  8
0
  6
CONTINUOUS
 62
3
 10
-217.983037042709780
 20
-153.507376286241200
 40
5.000000000000000
 50
270.000000000000000
 51
353.967950853629650
  0
LINE
  8
0
  6
CONTINUOUS
 62
3
 10
-210.849701815652170
 20
-125.007376286241190
 11
-211.360118663169890
 21
-125.007376286241190
  0
LINE
  8
0
  6
CONTINUOUS
 62
3
 10
-210.849701815652170
 20
-125.007376286241190
 11
-210.849701815652170
 21
-120.007376286241190
  0
LINE
  8
0
  6
CONTINUOUS
 62
3
 10
-210.849701815652170
 20
-120.007376286240960
 11
-211.360118663169890
 21
-120.007376286240960
  0
LINE
  8
0
  6
CONTINUOUS
 62
3
 10
-245.349701815652110
 20
-158.507376286241200
 11
-217.983037042709780
 21
-158.507376286241200
  0
LINE
  8
0
  6
CONTINUOUS
 62
3
 10
-245.349701815652110
 20
-86.507376286241424
 11
-217.983037042709780
 21
-86.507376286241424
  0
LINE
  8
0
  6
CONTINUOUS
 62
3
 10
-266.349702463708350
 20
-67.950750260917175
 11
-268.849706813214820
 21
-69.394123837613051
  0
LINE
  8
0
  6
CONTINUOUS
 62
3
 10
-268.849697033215700
 20
-63.620628026027816
 11
-271.349701761262570
 21
-65.063999061120967
  0
LINE
  8
0
  6
CONTINUOUS
 62
3
 10
-268.849707327777880
 20
-69.394123223963277
 11
-271.349699632821450
 21
-67.950747877219158
  0
LINE
  8
0
  6
CONTINUOUS
 62
3
 10
-268.849697094445160
 20
-63.620627545885100
 11
-266.349703309653880
 21
-65.064004190432570
  0
LINE
  8
0
  6
CONTINUOUS
 62
3
 10
-266.349704199837560
 20
-65.064004641242150
 11
-266.349703246163240
 21
-67.950750094123009
  0
LINE
  8
0
  6
CONTINUOUS
 62
3
 10
-271.349699431467910
 20
-67.950747931239107
 11
-271.349700385142170
 21
-65.063998663660982
  0
LINE
  8
0
  6
CONTINUOUS
 62
3
 10
-339.349701167595980
 20
-67.950750260917175
 11
-336.849696818089570
 21
-69.394123837613051
  0
LINE
  8
0
  6
CONTINUOUS
 62
3
 10
-336.849706598088690
 20
-63.620628026027816
 11
-334.349701870041830
 21
-65.063999061120967
  0
LINE
  8
0
  6
CONTINUOUS
 62
3
 10
-336.849696303526460
 20
-69.394123223963277
 11
-334.349703998482940
 21
-67.950747877219158
  0
LINE
  8
0
  6
CONTINUOUS
 62
3
 10
-336.849706536859230
 20
-63.620627545885100
 11
-339.349700321650520
 21
-65.064004190432570
  0
LINE
  8
0
  6
CONTINUOUS
 62
3
 10
-339.349699431466770
 20
-65.064004641242150
 11
-339.349700385141090
 21
-67.950750094123009
  0
LINE
  8
0
  6
CONTINUOUS
 62
3
 10
-334.349704199836420
 20
-67.950747931239107
 11
-334.349703246162110
 21
-65.063998663660982
  0
LINE
  8
0
  6
CONTINUOUS
 62
3
 10
-369.349701167596320
 20
-125.950750260917110
 11
-366.849696818089800
 21
-127.394123837612990
  0
LINE
  8
0
  6
CONTINUOUS
 62
3
 10
-366.849706598088910
 20
-121.620628026027750
 11
-364.349701870042050
 21
-123.063999061120910
  0
LINE
  8
0
  6
CONTINUOUS
 62
3
 10
-366.849696303526800
 20
-127.394123223963220
 11
-364.349703998483160
 21
-125.950747877219100
  0
LINE
  8
0
  6
CONTINUOUS
 62
3
 10
-366.849706536859460
 20
-121.620627545885040
 11
-369.349700321650740
 21
-123.064004190432510
  0
LINE
  8
0
  6
CONTINUOUS
 62
3
 10
-369.349699431467120
 20
-123.064004641242090
 11
-369.349700385141430
 21
-125.950750094122950
  0
LINE
  8
0
  6
CONTINUOUS
 62
3
 10
-364.349704199836650
 20
-125.950747931239050
 11
-364.349703246162330
 21
-123.063998663660920
  0
CIRCLE
  8
0
  6
CONTINUOUS
 62
3
 10
-366.849701815652220
 20
-124.507376286241140
 40
5.000000000000000
  0
LINE
  8
0
  6
CONTINUOUS
 62
3
 10
-345.349701167596090
 20
-182.450750260917230
 11
-342.849696818089570
 21
-183.894123837613110
  0
LINE
  8
0
  6
CONTINUOUS
 62
3
 10
-342.849706598088690
 20
-178.120628026027870
 11
-340.349701870041830
 21
-179.563999061121020
  0
LINE
  8
0
  6
CONTINUOUS
 62
3
 10
-342.849696303526460
 20
-183.894123223963330
 11
-340.349703998482940
 21
-182.450747877219210
  0
LINE
  8
0
  6
CONTINUOUS
 62
3
 10
-342.849706536859230
 20
-178.120627545885160
 11
-345.349700321650520
 21
-179.564004190432630
  0
LINE
  8
0
  6
CONTINUOUS
 62
3
 10
-345.349699431466890
 20
-179.564004641242210
 11
-345.349700385141200
 21
-182.450750094123070
  0
LINE
  8
0
  6
CONTINUOUS
 62
3
 10
-340.349704199836420
 20
-182.450747931239160
 11
-340.349703246162110
 21
-179.563998663661040
  0
CIRCLE
  8
0
  6
CONTINUOUS
 62
3
 10
-342.849701815652000
 20
-181.007376286241250
 40
5.000000000000000
  0
LINE
  8
0
  6
CONTINUOUS
 62
3
 10
-260.349702463708350
 20
-182.450750260917230
 11
-262.849706813214820
 21
-183.894123837613110
  0
LINE
  8
0
  6
CONTINUOUS
 62
3
 10
-262.849697033215700
 20
-178.120628026027870
 11
-265.349701761262570
 21
-179.563999061121020
  0
LINE
  8
0
  6
CONTINUOUS
 62
3
 10
-262.849707327777880
 20
-183.894123223963330
 11
-265.349699632821450
 21
-182.450747877219210
  0
LINE
  8
0
  6
CONTINUOUS
 62
3
 10
-262.849697094445160
 20
-178.120627545885160
 11
-260.349703309653880
 21
-179.564004190432630
  0
LINE
  8
0
  6
CONTINUOUS
 62
3
 10
-260.349704199837560
 20
-179.564004641242210
 11
-260.349703246163240
 21
-182.450750094123070
  0
LINE
  8
0
  6
CONTINUOUS
 62
3
 10
-265.349699431467910
 20
-182.450747931239160
 11
-265.349700385142170
 21
-179.563998663661040
  0
CIRCLE
  8
0
  6
CONTINUOUS
 62
3
 10
-262.849701815652390
 20
-181.007376286241250
 40
5.000000000000000
  0
LINE
  8
0
  6
CONTINUOUS
 62
3
 10
-222.849701815652170
 20
-32.507376286241197
 11
-222.849701815652170
 21
-86.507376286241424
  0
LINE
  8
0
  6
CONTINUOUS
 62
3
 10
-222.849701815652170
 20
-158.507376286241200
 11
-222.849701815652170
 21
-172.507376286241200
  0
LINE
  8
0
  6
CONTINUOUS
 62
3
 10
-242.301911482504290
 20
-158.507376286241200
 11
-247.390191758885010
 21
-166.558209866110930
  0
ARC
  8
0
  6
CONTINUOUS
 62
3
 10
-282.349701815652390
 20
-107.108249212345980
 40
49.999999999999993
 50
24.331631548023370
 51
86.642182578429185
  0
LINE
  8
0
  6
DASHDOT
 62
4
 10
-203.004135028033430
 20
-122.507376286241190
 11
-397.097815373079360
 21
-122.507376286241190
  0
ARC
  8
0
  6
CONTINUOUS
 62
3
 10
-268.849701815652390
 20
-66.507376286241197
 40
5.000000000000307
 50
311.551050375543410
 51
218.794478426544910
  0
ARC
  8
0
  6
CONTINUOUS
 62
3
 10
-268.849701815652390
 20
-66.507376286241197
 40
6.250000000000000
 50
180.000000000000000
 51
208.862789398056090
  0
ARC
  8
0
  6
CONTINUOUS
 62
3
 10
-268.849701815652390
 20
-66.507376286241197
 40
6.250000000000258
 50
321.482739404032770
 51
0.000000000000000
  0
ARC
  8
0
  6
CONTINUOUS
 62
3
 10
-336.849701815652000
 20
-66.507376286241197
 40
4.999999999999760
 50
321.205521573449290
 51
228.448949624463470
  0
ARC
  8
0
  6
CONTINUOUS
 62
3
 10
-336.849701815652000
 20
-66.507376286241197
 40
6.250000000000000
 50
180.000000000000000
 51
218.517260595970810
  0
ARC
  8
0
  6
CONTINUOUS
 62
3
 10
-336.849701815652000
 20
-66.507376286241197
 40
6.249999999999787
 50
331.137210601941660
 51
0.000000000000000
  0
LINE
  8
0
  6
CONTINUOUS
 62
3
 10
-364.849701815652000
 20
-95.507376286241140
 11
-360.634671378253640
 21
-95.507376286241140
  0
LINE
  8
0
  6
CONTINUOUS
 62
3
 10
-364.849701815652000
 20
-111.507376286241140
 11
-361.648370254778000
 21
-111.507376286241140
  0
ARC
  8
0
  6
CONTINUOUS
 62
3
 10
-366.849701815652220
 20
-124.507376286241140
 40
6.250000000000000
 50
270.000000000000000
 51
323.957337690087400
  0
ARC
  8
0
  6
CONTINUOUS
 62
3
 10
-366.849701815652220
 20
-124.507376286241140
 40
6.249999999999783
 50
36.792596361372297
 51
90.000000000000000
  0
LINE
  8
0
  6
CONTINUOUS
 62
3
 10
-337.040226796340900
 20
-186.507376286241200
 11
-347.179828834574270
 21
-186.507376286241200
  0
LINE
  8
0
  6
CONTINUOUS
 62
3
 10
-268.659176834963490
 20
-186.507376286241200
 11
-258.519574796730130
 21
-186.507376286241200
  0
LINE
  8
0
  6
DASHDOT
 62
4
 10
-319.912618366022800
 20
-102.507376286241190
 11
-285.393940389873020
 21
-102.507376286241190
  0
LINE
  8
0
  6
CONTINUOUS
 62
3
 10
68.761992427422001
 20
112.240273620745930
 11
68.761992427422001
 21
41.146900627003561
  0
LINE
  8
0
  6
CONTINUOUS
 62
3
 10
59.761992427422001
 20
42.146900627005380
 11
59.761992427422001
 21
73.240273620745029
  0
ARC
  8
0
  6
CONTINUOUS
 62
3
 10
59.761992427422001
 20
43.106299024530017
 40
1.000000000000000
 50
180.000000000000000
 51
246.457436915979320
  0
ARC
  8
0
  6
CONTINUOUS
 62
3
 10
60.761992427422001
 20
42.146900627005380
 40
1.000000000000000
 50
180.000000000000000
 51
253.216766737311250
  0
ARC
  8
0
  6
CONTINUOUS
 62
3
 10
60.761992427422001
 20
42.146900627005380
 40
1.000000000000999
 50
253.216766737311250
 51
270.000000000000000
  0
LINE
  8
0
  6
CONTINUOUS
 62
3
 10
60.761992427422001
 20
41.146900627005380
 11
68.761992427422001
 21
41.146900627003561
  0
ARC
  8
0
  6
CONTINUOUS
 62
3
 10
58.963132004328372
 20
41.272771816001296
 40
0.999999999999802
 50
25.916728130901330
 51
66.457436915958496
  0
ARC
  8
0
  6
CONTINUOUS
 62
3
 10
58.963132004328372
 20
183.207775425490580
 40
0.999999999999640
 50
293.542563084041490
 51
334.083271869098670
  0
ARC
  8
0
  6
CONTINUOUS
 62
3
 10
57.761992427422001
 20
170.228387372599170
 40
1.999999999999851
 50
271.499999999989830
 51
0.000000000000000
  0
ARC
  8
0
  6
CONTINUOUS
 62
3
 10
60.761992427422001
 20
182.333646614486500
 40
1.000000000000999
 50
106.783233262688730
 51
180.000000000000000
  0
ARC
  8
0
  6
CONTINUOUS
 62
3
 10
60.761992427422001
 20
182.333646614486500
 40
1.000000000000000
 50
90.000000000000000
 51
106.783233262688730
  0
LINE
  8
0
  6
CONTINUOUS
 62
3
 10
60.761992427422001
 20
183.333646614486500
 11
68.761992427422001
 21
183.333646614488320
  0
LINE
  8
0
  6
CONTINUOUS
 62
3
 10
57.814346324037388
 20
168.229072722648200
 11
42.261992427422911
 21
167.821820003295220
  0
LINE
  8
0
  6
CONTINUOUS
 62
3
 10
68.761992427422001
 20
112.240273620745930
 11
68.761992427422001
 21
183.333646614488320
  0
LINE
  8
0
  6
CONTINUOUS
 62
3
 10
42.261992427422911
 20
112.240273620745930
 11
42.261992427422911
 21
167.821820003295220
  0
ARC
  8
0
  6
CONTINUOUS
 62
3
 10
59.761992427422001
 20
181.374248216961860
 40
1.000000000000474
 50
113.542563084020690
 51
180.000000000000000
  0
LINE
  8
0
  6
CONTINUOUS
 62
3
 10
58.761992427422001
 20
170.202201451030310
 11
58.761992427422001
 21
181.374248216961860
  0
ARC
  8
0
  6
CONTINUOUS
 62
3
 10
56.761992427422001
 20
170.202201451030310
 40
1.999999999999851
 50
271.499999999989830
 51
0.000000000000000
  0
ARC
  8
0
  6
CONTINUOUS
 62
3
 10
62.661992427422547
 20
152.390273620746480
 40
0.099999999999454
 50
0.000000000000000
 51
90.000000000000000
  0
ARC
  8
0
  6
CONTINUOUS
 62
3
 10
60.761992427422001
 20
153.490273620746850
 40
1.000000000000000
 50
180.000000000000000
 51
270.000000000000000
  0
ARC
  8
0
  6
CONTINUOUS
 62
3
 10
62.661992427422547
 20
140.090273620746300
 40
0.099999999999454
 50
270.000000000000000
 51
0.000000000000000
  0
ARC
  8
0
  6
CONTINUOUS
 62
3
 10
60.761992427422001
 20
138.990273620746850
 40
1.000000000000000
 50
90.000000000000000
 51
180.000000000000000
  0
LINE
  8
0
  6
CONTINUOUS
 62
3
 10
62.761992427422001
 20
152.390273620746480
 11
62.761992427422001
 21
140.090273620746300
  0
LINE
  8
0
  6
CONTINUOUS
 62
3
 10
60.761992427422001
 20
152.490273620746850
 11
62.661992427422547
 21
152.490273620746850
  0
LINE
  8
0
  6
CONTINUOUS
 62
3
 10
60.761992427422001
 20
139.990273620746850
 11
62.661992427422547
 21
139.990273620746850
  0
LINE
  8
0
  6
CONTINUOUS
 62
3
 10
59.761992427422001
 20
182.333646614486500
 11
59.761992427422001
 21
151.240273620746850
  0
LINE
  8
0
  6
CONTINUOUS
 62
3
 10
59.761992427422001
 20
141.240273620746850
 11
59.761992427422001
 21
112.240273620745930
  0
LINE
  8
0
  6
CONTINUOUS
 62
3
 10
56.761992427422001
 20
181.240273620746850
 11
56.761992427422001
 21
171.240273620746850
  0
LINE
  8
0
  6
CONTINUOUS
 62
3
 10
58.761992427422001
 20
181.240273620746850
 11
56.761992427422001
 21
181.240273620746850
  0
LINE
  8
0
  6
CONTINUOUS
 62
3
 10
58.761992427422001
 20
171.240273620746850
 11
56.761992427422001
 21
171.240273620746850
  0
ARC
  8
0
  6
CONTINUOUS
 62
3
 10
57.761992427422001
 20
54.252159868892704
 40
2.000000000000000
 50
0.000000000000000
 51
88.500000000010189
  0
LINE
  8
0
  6
CONTINUOUS
 62
3
 10
57.814346324037388
 20
56.251474518843679
 11
42.261992427422911
 21
56.658727238196661
  0
LINE
  8
0
  6
CONTINUOUS
 62
3
 10
42.261992427422911
 20
112.240273620745930
 11
42.261992427422911
 21
56.658727238196661
  0
LINE
  8
0
  6
CONTINUOUS
 62
3
 10
58.761992427422001
 20
54.278345790461572
 11
58.761992427422001
 21
43.106299024530927
  0
ARC
  8
0
  6
CONTINUOUS
 62
3
 10
56.761992427422001
 20
54.278345790461572
 40
2.000000000000000
 50
0.000000000000000
 51
88.500000000010189
  0
ARC
  8
0
  6
CONTINUOUS
 62
3
 10
62.661992427422547
 20
72.090273620746302
 40
0.100000000000364
 50
270.000000000000000
 51
0.000000000000000
  0
ARC
  8
0
  6
CONTINUOUS
 62
3
 10
60.761992427422001
 20
70.990273620745938
 40
1.000000000000000
 50
90.000000000000000
 51
180.000000000000000
  0
ARC
  8
0
  6
CONTINUOUS
 62
3
 10
62.661992427422547
 20
84.390273620745575
 40
0.099999999999454
 50
0.000000000000000
 51
90.000000000000000
  0
ARC
  8
0
  6
CONTINUOUS
 62
3
 10
60.761992427422001
 20
85.490273620745938
 40
1.000000000000000
 50
180.000000000000000
 51
270.000000000000000
  0
LINE
  8
0
  6
CONTINUOUS
 62
3
 10
62.761992427422001
 20
72.090273620746302
 11
62.761992427422001
 21
84.390273620745575
  0
LINE
  8
0
  6
CONTINUOUS
 62
3
 10
60.761992427422001
 20
71.990273620745938
 11
62.661992427422547
 21
71.990273620745938
  0
LINE
  8
0
  6
CONTINUOUS
 62
3
 10
60.761992427422001
 20
84.490273620745938
 11
62.661992427422547
 21
84.490273620745938
  0
LINE
  8
0
  6
CONTINUOUS
 62
3
 10
59.761992427422001
 20
83.240273620745029
 11
59.761992427422001
 21
112.240273620745930
  0
LINE
  8
0
  6
CONTINUOUS
 62
3
 10
56.761992427422001
 20
43.240273620745938
 11
56.761992427422001
 21
53.240273620745938
  0
LINE
  8
0
  6
CONTINUOUS
 62
3
 10
58.761992427422001
 20
43.240273620745029
 11
56.761992427422001
 21
43.240273620745938
  0
LINE
  8
0
  6
CONTINUOUS
 62
3
 10
58.761992427422001
 20
53.240273620745029
 11
56.761992427422001
 21
53.240273620745938
  0
LINE
  8
0
  6
CONTINUOUS
 62
3
 10
188.861992427421910
 20
101.240273620745930
 11
155.821800048557410
 21
101.240273620745930
  0
LINE
  8
0
  6
CONTINUOUS
 62
3
 10
188.861992427421910
 20
101.240273620745930
 11
155.821800048557410
 21
101.240273620745930
  0
LINE
  8
0
  6
CONTINUOUS
 62
3
 10
189.261994334724700
 20
98.740273620745938
 11
157.261994334724700
 21
98.740273620745938
  0
LINE
  8
0
  6
CONTINUOUS
 62
3
 10
153.261992427422000
 20
112.240273620745930
 11
153.261992427422000
 21
123.840273620745390
  0
LINE
  8
0
  6
CONTINUOUS
 62
3
 10
155.261992427422000
 20
123.090273620745390
 11
154.061992427421730
 21
123.090273620745390
  0
LINE
  8
0
  6
CONTINUOUS
 62
3
 10
155.821800048557410
 20
123.240273620745930
 11
155.261992427422000
 21
123.090273620745390
  0
LINE
  8
0
  6
CONTINUOUS
 62
3
 10
153.261992427422000
 20
123.840273620745390
 11
152.861992427421910
 21
124.240273620745930
  0
ARC
  8
0
  6
CONTINUOUS
 62
3
 10
154.061992427421730
 20
123.890273620745570
 40
0.799999999999783
 50
183.703196634282420
 51
270.000000000000000
  0
LINE
  8
0
  6
CONTINUOUS
 62
3
 10
155.261992427422000
 20
123.090273620745390
 11
154.061992427421730
 21
123.090273620745390
  0
LINE
  8
0
  6
CONTINUOUS
 62
3
 10
155.821800048557410
 20
123.240273620745930
 11
155.261992427422000
 21
123.090273620745390
  0
LINE
  8
0
  6
CONTINUOUS
 62
3
 10
153.261992427422000
 20
123.840273620745390
 11
152.861992427421910
 21
124.240273620745930
  0
LINE
  8
0
  6
CONTINUOUS
 62
3
 10
151.261992427422000
 20
124.240273620745930
 11
152.861992427421910
 21
124.240273620745930
  0
LINE
  8
0
  6
CONTINUOUS
 62
3
 10
157.261992427422000
 20
101.240273620745930
 11
157.261992427422000
 21
98.740273620745938
  0
LINE
  8
0
  6
CONTINUOUS
 62
3
 10
151.261992427422000
 20
100.240273620745020
 11
152.861992427421910
 21
100.240273620745930
  0
LINE
  8
0
  6
CONTINUOUS
 62
3
 10
153.261992427422000
 20
112.240273620745930
 11
153.261992427422000
 21
100.640273620745570
  0
LINE
  8
0
  6
CONTINUOUS
 62
3
 10
155.261992427422000
 20
101.390273620745570
 11
154.061992427421730
 21
101.390273620745570
  0
LINE
  8
0
  6
CONTINUOUS
 62
3
 10
155.821800048557410
 20
101.240273620745930
 11
155.261992427422000
 21
101.390273620745570
  0
LINE
  8
0
  6
CONTINUOUS
 62
3
 10
153.261992427422000
 20
100.640273620745570
 11
152.861992427421910
 21
100.240273620745930
  0
LINE
  8
0
  6
CONTINUOUS
 62
3
 10
188.861992427421910
 20
123.240273620745930
 11
155.821800048557410
 21
123.240273620745930
  0
ARC
  8
0
  6
CONTINUOUS
 62
3
 10
154.061992427421730
 20
100.590273620745390
 40
0.800000000000182
 50
90.000000000000000
 51
176.296803365717580
  0
LINE
  8
0
  6
CONTINUOUS
 62
3
 10
155.261992427422000
 20
101.390273620745570
 11
154.061992427421730
 21
101.390273620745570
  0
LINE
  8
0
  6
CONTINUOUS
 62
3
 10
155.821800048557410
 20
101.240273620745930
 11
155.261992427422000
 21
101.390273620745570
  0
LINE
  8
0
  6
CONTINUOUS
 62
3
 10
153.261992427422000
 20
100.640273620745570
 11
152.861992427421910
 21
100.240273620745930
  0
LINE
  8
0
  6
CONTINUOUS
 62
3
 10
188.861992427421910
 20
123.240273620745930
 11
155.821800048557410
 21
123.240273620745930
  0
LINE
  8
0
  6
CONTINUOUS
 62
3
 10
151.261992427422000
 20
100.240273620745020
 11
152.861992427421910
 21
100.240273620745930
  0
LINE
  8
0
  6
DASHDOT
 62
4
 10
154.484826104431480
 20
43.297362455057737
 11
121.647637392037490
 21
43.297362455057737
  0
LINE
  8
0
  6
DASHDOT
 62
4
 10
154.484826104431480
 20
181.183184786434140
 11
121.647637392037490
 21
181.183184786434140
  0
LINE
  8
0
  6
CONTINUOUS
 62
3
 10
128.761992427422680
 20
73.224336372118159
 11
118.812473377750620
 21
73.224336372118159
  0
ARC
  8
0
  6
CONTINUOUS
 62
3
 10
115.851756304772830
 20
67.567482122626643
 40
1.999999999999685
 50
38.684601234802514
 51
90.000000000000000
  0
LINE
  8
0
  6
CONTINUOUS
 62
3
 10
117.412953142447570
 20
68.817547894509516
 11
130.323189265098340
 21
52.694060425565112
  0
ARC
  8
0
  6
CONTINUOUS
 62
3
 10
128.761992427423140
 20
51.443994653681330
 40
1.999999999999773
 50
0.000000000000000
 51
38.684601234814714
  0
ARC
  8
0
  6
CONTINUOUS
 62
3
 10
115.851756304772600
 20
71.224336372119069
 40
1.999999999999685
 50
38.684601234802514
 51
90.000000000000000
  0
LINE
  8
0
  6
CONTINUOUS
 62
3
 10
117.412953142447350
 20
72.474402144001942
 11
130.323189265098110
 21
56.350914675057538
  0
ARC
  8
0
  6
CONTINUOUS
 62
3
 10
128.761992427422910
 20
55.100848903173755
 40
1.999999999999773
 50
0.000000000000000
 51
38.684601234814714
  0
ARC
  8
0
  6
CONTINUOUS
 62
3
 10
115.851756304772600
 20
153.256210869372810
 40
2.000000000000000
 50
270.000000000000000
 51
321.315398765197470
  0
LINE
  8
0
  6
CONTINUOUS
 62
3
 10
117.412953142447350
 20
152.006145097489930
 11
130.323189265098110
 21
168.129632566434340
  0
ARC
  8
0
  6
CONTINUOUS
 62
3
 10
128.761992427422910
 20
169.379698338318120
 40
2.000000000000608
 50
321.315398765185310
 51
0.000000000000000
  0
ARC
  8
0
  6
CONTINUOUS
 62
3
 10
128.761992427423140
 20
173.036552587810550
 40
2.000000000000608
 50
321.315398765185310
 51
0.000000000000000
  0
ARC
  8
0
  6
CONTINUOUS
 62
3
 10
115.851756304772830
 20
156.913065118865230
 40
2.000000000000000
 50
270.000000000000000
 51
321.315398765197470
  0
ARC
  8
0
  6
CONTINUOUS
 62
3
 10
128.761992427422230
 20
116.240273620745930
 40
2.000000000000000
 50
270.000000000000000
 51
0.000000000000000
  0
ARC
  8
0
  6
CONTINUOUS
 62
3
 10
128.761992427422230
 20
108.240273620745930
 40
2.000000000000000
 50
0.000000000000000
 51
90.000000000000000
  0
ARC
  8
0
  6
CONTINUOUS
 62
3
 10
118.812473377750620
 20
108.240273620745930
 40
2.000000000000000
 50
90.000000000000000
 51
180.000000000000000
  0
ARC
  8
0
  6
CONTINUOUS
 62
3
 10
118.812473377750620
 20
116.240273620745930
 40
2.000000000000000
 50
180.000000000000000
 51
270.000000000000000
  0
LINE
  8
0
  6
CONTINUOUS
 62
3
 10
117.412953142447570
 20
155.662999346982360
 11
130.323189265098340
 21
171.786486815926760
  0
LINE
  8
0
  6
CONTINUOUS
 62
3
 10
128.761992427422680
 20
151.256210869373720
 11
118.812473377750620
 21
151.256210869373720
  0
LINE
  8
0
  6
CONTINUOUS
 62
3
 10
128.761992427422230
 20
110.240273620745930
 11
118.812473377750620
 21
110.240273620745930
  0
LINE
  8
0
  6
CONTINUOUS
 62
3
 10
128.761992427422230
 20
114.240273620745930
 11
118.812473377750620
 21
114.240273620745930
  0
LINE
  8
0
  6
CONTINUOUS
 62
3
 10
69.261992427422001
 20
41.146900627003561
 11
127.814349646734390
 21
40.124865430041609
  0
ARC
  8
0
  6
CONTINUOUS
 62
3
 10
127.761992427422680
 20
37.125322344572851
 40
3.000000000000000
 50
0.000000000000000
 51
89.000000000002430
  0
LINE
  8
0
  6
CONTINUOUS
 62
3
 10
69.261992427422001
 20
183.333646614488320
 11
127.814349646734390
 21
184.355681811450270
  0
LINE
  8
0
  6
CONTINUOUS
 62
3
 10
151.261992427422000
 20
112.240273620745930
 11
151.261992427422000
 21
91.262896210876534
  0
LINE
  8
0
  6
CONTINUOUS
 62
3
 10
151.261992427422000
 20
112.240273620745930
 11
151.261992427422000
 21
133.217651030615340
  0
LINE
  8
0
  6
CONTINUOUS
 62
3
 10
135.261992427422910
 20
192.240273620745940
 11
131.735815479114990
 21
192.147937427738730
  0
LINE
  8
0
  6
CONTINUOUS
 62
3
 10
142.761992427422910
 20
192.043879208977160
 11
135.261992427422910
 21
192.240273620745940
  0
LINE
  8
0
  6
CONTINUOUS
 62
3
 10
144.982666930685580
 20
37.240273620745938
 11
145.761992427422910
 21
38.040273620746120
  0
LINE
  8
0
  6
CONTINUOUS
 62
3
 10
144.982666930685580
 20
187.240273620745940
 11
145.761992427422910
 21
186.440273620745760
  0
ARC
  8
0
  6
CONTINUOUS
 62
3
 10
131.761992427422910
 20
191.148280102763240
 40
0.999999999999931
 50
91.500000000002814
 51
180.000000000000000
  0
ARC
  8
0
  6
CONTINUOUS
 62
3
 10
127.761992427422680
 20
187.355224896919030
 40
2.999999999999582
 50
270.999999999997610
 51
0.000000000000000
  0
ARC
  8
0
  6
CONTINUOUS
 62
3
 10
149.261992427422000
 20
133.217651030615340
 40
2.000000000000000
 50
0.000000000000000
 51
54.162347045717610
  0
ARC
  8
0
  6
CONTINUOUS
 62
3
 10
149.261992427422000
 20
91.262896210876534
 40
1.999999999999779
 50
305.837652954282420
 51
0.000000000000000
  0
LINE
  8
0
  6
CONTINUOUS
 62
3
 10
69.261992427422001
 20
183.333646614488320
 11
69.261992427422001
 21
41.146900627003561
  0
LINE
  8
0
  6
CONTINUOUS
 62
3
 10
144.982666930685580
 20
187.240273620745940
 11
142.761992427422910
 21
187.240273620745940
  0
LINE
  8
0
  6
CONTINUOUS
 62
3
 10
144.982666930685580
 20
37.240273620745938
 11
142.761992427422910
 21
37.240273620745938
  0
LINE
  8
0
  6
CONTINUOUS
 62
3
 10
142.761992427422910
 20
112.240273620745930
 11
142.761992427422910
 21
192.030786248192270
  0
LINE
  8
0
  6
CONTINUOUS
 62
3
 10
145.761992427421770
 20
112.240273620745930
 11
145.761992427422910
 21
186.440273620745760
  0
LINE
  8
0
  6
CONTINUOUS
 62
3
 10
145.761992427422000
 20
112.240273620745930
 11
145.761992427422910
 21
38.040273620746120
  0
LINE
  8
0
  6
CONTINUOUS
 62
3
 10
150.432973535110700
 20
89.641537754077035
 11
145.761992427422460
 21
86.268051398524221
  0
LINE
  8
0
  6
CONTINUOUS
 62
3
 10
150.432973535110700
 20
134.839009487414840
 11
145.761992427422000
 21
138.212495842968560
  0
LINE
  8
0
  6
CONTINUOUS
 62
3
 10
135.261992427422910
 20
32.240273620745938
 11
131.735815479114990
 21
32.332609813753152
  0
ARC
  8
0
  6
CONTINUOUS
 62
3
 10
131.761992427422910
 20
33.332267138728639
 40
1.000000000000000
 50
180.000000000000000
 51
268.499999999997210
  0
LINE
  8
0
  6
CONTINUOUS
 62
3
 10
142.761992427422910
 20
32.436668032514717
 11
135.261992427422910
 21
32.240273620745938
  0
LINE
  8
0
  6
CONTINUOUS
 62
3
 10
142.761992427422910
 20
112.240273620745930
 11
142.761992427422910
 21
32.436668032514717
  0
LINE
  8
0
  6
CONTINUOUS
 62
3
 10
130.761992427421550
 20
33.332267138728639
 11
130.761992427422910
 21
191.148280102763240
  0
ARC
  8
0
  6
CONTINUOUS
 62
3
 10
137.761992427422460
 20
173.269710872268660
 40
2.000000000000000
 50
90.000000000000000
 51
180.000000000000000
  0
LINE
  8
0
  6
CONTINUOUS
 62
3
 10
142.761992427422910
 20
175.269710872268660
 11
137.761992427422460
 21
175.269710872268660
  0
LINE
  8
0
  6
CONTINUOUS
 62
3
 10
137.761992427422460
 20
156.933405760210010
 11
142.761992427422910
 21
156.933405760210010
  0
ARC
  8
0
  6
CONTINUOUS
 62
3
 10
137.761992427422460
 20
154.933405760210010
 40
2.000000000000000
 50
90.000000000000000
 51
180.000000000000000
  0
ARC
  8
0
  6
CONTINUOUS
 62
3
 10
137.761992427422460
 20
51.210836369223216
 40
1.999999999999773
 50
180.000000000000000
 51
270.000000000000000
  0
LINE
  8
0
  6
CONTINUOUS
 62
3
 10
142.761992427422910
 20
49.210836369223216
 11
137.761992427422460
 21
49.210836369223216
  0
LINE
  8
0
  6
CONTINUOUS
 62
3
 10
137.761992427422460
 20
67.547141481281869
 11
142.761992427422910
 21
67.547141481281869
  0
ARC
  8
0
  6
CONTINUOUS
 62
3
 10
137.761992427422460
 20
69.547141481281869
 40
2.000000000000000
 50
180.000000000000000
 51
270.000000000000000
  0
LINE
  8
0
  6
CONTINUOUS
 62
3
 10
135.761992427421770
 20
51.210836369223216
 11
135.761992427422230
 21
112.240273620745930
  0
LINE
  8
0
  6
CONTINUOUS
 62
3
 10
135.761992427422230
 20
112.240273620745930
 11
135.761992427422680
 21
173.269710872268660
  0
LINE
  8
0
  6
CONTINUOUS
 62
3
 10
42.261992427422911
 20
165.740273620745940
 11
-78.238007572598235
 21
165.740273620745940
  0
LINE
  8
0
  6
CONTINUOUS
 62
4
 10
-78.238007572598235
 20
126.240273620745930
 11
59.761992427422001
 21
126.240273620745930
  0
LINE
  8
0
  6
CONTINUOUS
 62
4
 10
-78.238007572598235
 20
131.868308277383790
 11
59.761992427422001
 21
131.868308277383790
  0
LINE
  8
0
  6
CONTINUOUS
 62
4
 10
-78.238007572598235
 20
130.626388412495880
 11
59.761992427422001
 21
130.626388412495880
  0
LINE
  8
0
  6
CONTINUOUS
 62
4
 10
-78.238007572598235
 20
135.078513300742090
 11
59.761992427422001
 21
135.078513300742090
  0
LINE
  8
0
  6
CONTINUOUS
 62
4
 10
-78.238007572598235
 20
136.424915026240680
 11
59.761992427422001
 21
136.424915026240680
  0
LINE
  8
0
  6
CONTINUOUS
 62
4
 10
-78.238007572598235
 20
139.517646017905920
 11
59.761992427422001
 21
139.517646017905920
  0
LINE
  8
0
  6
CONTINUOUS
 62
4
 10
-78.238007572598235
 20
140.996669171383020
 11
59.761992427422001
 21
140.996669171383020
  0
LINE
  8
0
  6
CONTINUOUS
 62
4
 10
-78.238007572598235
 20
143.954664779515950
 11
56.761992427422001
 21
143.954664779515950
  0
LINE
  8
0
  6
CONTINUOUS
 62
4
 10
-78.238007572598235
 20
145.543874572254710
 11
56.761992427422001
 21
145.543874572254710
  0
LINE
  8
0
  6
CONTINUOUS
 62
4
 10
-78.238007572598235
 20
153.282187391085700
 11
59.761992427422001
 21
153.282187391085700
  0
LINE
  8
0
  6
CONTINUOUS
 62
4
 10
-78.238007572598235
 20
158.373356215628630
 11
59.761992427422001
 21
158.373356215628630
  0
LINE
  8
0
  6
CONTINUOUS
 62
4
 10
-78.238007572598235
 20
162.740273620745940
 11
59.761992427422001
 21
162.740273620745940
  0
LINE
  8
0
  6
CONTINUOUS
 62
4
 10
-78.238007572598235
 20
163.240273620745940
 11
59.761992427422001
 21
163.240273620745940
  0
LINE
  8
0
  6
CONTINUOUS
 62
3
 10
42.261992427422911
 20
165.740273620745940
 11
42.261992427422911
 21
112.240273620745930
  0
LINE
  8
0
  6
CONTINUOUS
 62
4
 10
-78.238007572598235
 20
78.936672669237169
 11
56.761992427422001
 21
78.936672669237169
  0
LINE
  8
0
  6
CONTINUOUS
 62
4
 10
-78.238007572598235
 20
80.525882461975925
 11
56.761992427422001
 21
80.525882461975925
  0
LINE
  8
0
  6
CONTINUOUS
 62
4
 10
-78.238007572598235
 20
83.483878070108858
 11
59.761992427422001
 21
83.483878070108858
  0
LINE
  8
0
  6
CONTINUOUS
 62
4
 10
-78.238007572598235
 20
84.962901223585959
 11
59.761992427422001
 21
84.962901223585959
  0
LINE
  8
0
  6
CONTINUOUS
 62
4
 10
-78.238007572598235
 20
88.055632215251194
 11
59.761992427422001
 21
88.055632215251194
  0
LINE
  8
0
  6
CONTINUOUS
 62
4
 10
-78.238007572598008
 20
89.402033940749789
 11
59.761992427422001
 21
89.402033940749789
  0
LINE
  8
0
  6
CONTINUOUS
 62
4
 10
-78.238007572598008
 20
92.612238964108087
 11
59.761992427422001
 21
92.612238964108087
  0
LINE
  8
0
  6
CONTINUOUS
 62
4
 10
-78.238007572598008
 20
93.854158828995992
 11
59.761992427422001
 21
93.854158828995992
  0
LINE
  8
0
  6
CONTINUOUS
 62
4
 10
-78.238007572598235
 20
98.240273620745938
 11
59.761992427422001
 21
98.240273620745938
  0
LINE
  8
0
  6
CONTINUOUS
 62
3
 10
42.261992427422911
 20
58.740273620745938
 11
42.261992427422911
 21
112.240273620745930
  0
LINE
  8
0
  6
CONTINUOUS
 62
3
 10
-78.238007572598235
 20
171.240273620745940
 11
-155.742852521691020
 21
171.240273620745940
  0
LINE
  8
0
  6
CONTINUOUS
 62
3
 10
-167.558527110522390
 20
167.514805733099140
 11
-175.129306307111160
 21
162.213689069526590
  0
LINE
  8
0
  6
CONTINUOUS
 62
3
 10
-176.238007572598240
 20
160.083893754375250
 11
-176.238007572598240
 21
112.240273620745930
  0
ARC
  8
0
  6
CONTINUOUS
 62
3
 10
-173.638007572598330
 20
160.083893754375250
 40
2.600000000000131
 50
125.000000000001180
 51
180.000000000000000
  0
ARC
  8
0
  6
CONTINUOUS
 62
3
 10
-155.742852521691020
 20
150.640273620745920
 40
20.600000000000023
 50
90.000000000000000
 51
124.999999999999600
  0
LINE
  8
0
  6
CONTINUOUS
 62
3
 10
-78.238007572598235
 20
171.240273620745940
 11
-78.238007572598008
 21
112.240273620745930
  0
LINE
  8
0
  6
CONTINUOUS
 62
3
 10
-89.238007572598235
 20
161.384194643471120
 11
-91.238007572598235
 21
159.731553004347690
  0
LINE
  8
0
  6
CONTINUOUS
 62
3
 10
-87.238007572598235
 20
162.559980129093900
 11
-89.238007572598235
 21
161.384194643471120
  0
LINE
  8
0
  6
CONTINUOUS
 62
3
 10
-89.238007572598235
 20
161.384194643471120
 11
-87.238007572598235
 21
159.731553004347690
  0
LINE
  8
0
  6
CONTINUOUS
 62
3
 10
-91.238007572598235
 20
162.559980129093900
 11
-89.238007572598235
 21
161.384194643471120
  0
POLYLINE
  8
0
  6
CONTINUOUS
 62
3
 66
1
 70
1
  0
VERTEX
  8
0
  6
CONTINUOUS
 62
3
 10
-84.538007572598019
 20
159.567604575093470
  0
VERTEX
  8
0
  6
CONTINUOUS
 62
3
 10
-84.628316754702837
 20
160.270561541293830
  0
VERTEX
  8
0
  6
CONTINUOUS
 62
3
 10
-84.895773769794971
 20
160.946504265505920
  0
VERTEX
  8
0
  6
CONTINUOUS
 62
3
 10
-85.330100394776053
 20
161.569456647911320
  0
VERTEX
  8
0
  6
CONTINUOUS
 62
3
 10
-85.914605701021244
 20
162.115478977809910
  0
VERTEX
  8
0
  6
CONTINUOUS
 62
3
 10
-86.626827477405882
 20
162.563587923276540
  0
VERTEX
  8
0
  6
CONTINUOUS
 62
3
 10
-87.439395440482087
 20
162.896562908839290
  0
VERTEX
  8
0
  6
CONTINUOUS
 62
3
 10
-88.321083059122202
 20
163.101607892537540
  0
VERTEX
  8
0
  6
CONTINUOUS
 62
3
 10
-89.238007572598008
 20
163.170843110638320
  0
VERTEX
  8
0
  6
CONTINUOUS
 62
3
 10
-90.154932086073813
 20
163.101607892537540
  0
VERTEX
  8
0
  6
CONTINUOUS
 62
3
 10
-91.036619704713928
 20
162.896562908839290
  0
VERTEX
  8
0
  6
CONTINUOUS
 62
3
 10
-91.849187667790133
 20
162.563587923276540
  0
VERTEX
  8
0
  6
CONTINUOUS
 62
3
 10
-92.561409444174771
 20
162.115478977809910
  0
VERTEX
  8
0
  6
CONTINUOUS
 62
3
 10
-93.145914750419962
 20
161.569456647911320
  0
VERTEX
  8
0
  6
CONTINUOUS
 62
3
 10
-93.580241375401044
 20
160.946504265505920
  0
VERTEX
  8
0
  6
CONTINUOUS
 62
3
 10
-93.847698390493179
 20
160.270561541293830
  0
VERTEX
  8
0
  6
CONTINUOUS
 62
3
 10
-93.938007572597996
 20
159.567604575093470
  0
VERTEX
  8
0
  6
CONTINUOUS
 62
3
 10
-93.847698390493179
 20
158.864647608893110
  0
VERTEX
  8
0
  6
CONTINUOUS
 62
3
 10
-93.580241375401044
 20
158.188704884681020
  0
VERTEX
  8
0
  6
CONTINUOUS
 62
3
 10
-93.145914750419962
 20
157.565752502275610
  0
VERTEX
  8
0
  6
CONTINUOUS
 62
3
 10
-92.561409444174771
 20
157.019730172377020
  0
VERTEX
  8
0
  6
CONTINUOUS
 62
3
 10
-91.849187667790133
 20
156.571621226910390
  0
VERTEX
  8
0
  6
CONTINUOUS
 62
3
 10
-91.036619704713928
 20
156.238646241347650
  0
VERTEX
  8
0
  6
CONTINUOUS
 62
3
 10
-90.154932086073813
 20
156.033601257649390
  0
VERTEX
  8
0
  6
CONTINUOUS
 62
3
 10
-89.238007572598008
 20
155.964366039548620
  0
VERTEX
  8
0
  6
CONTINUOUS
 62
3
 10
-88.321083059122202
 20
156.033601257649390
  0
VERTEX
  8
0
  6
CONTINUOUS
 62
3
 10
-87.439395440482087
 20
156.238646241347650
  0
VERTEX
  8
0
  6
CONTINUOUS
 62
3
 10
-86.626827477405882
 20
156.571621226910390
  0
VERTEX
  8
0
  6
CONTINUOUS
 62
3
 10
-85.914605701021244
 20
157.019730172377020
  0
VERTEX
  8
0
  6
CONTINUOUS
 62
3
 10
-85.330100394776053
 20
157.565752502275610
  0
VERTEX
  8
0
  6
CONTINUOUS
 62
3
 10
-84.895773769794971
 20
158.188704884681020
  0
VERTEX
  8
0
  6
CONTINUOUS
 62
3
 10
-84.628316754702837
 20
158.864647608893110
  0
SEQEND
  8
0
  6
CONTINUOUS
 62
3
  0
LINE
  8
0
  6
CONTINUOUS
 62
3
 10
-86.038007572577044
 20
54.740273620745938
 11
3.961992427422956
 21
54.740273620745938
  0
LINE
  8
0
  6
CONTINUOUS
 62
3
 10
-86.038007572577044
 20
57.791943718902985
 11
-86.038007572577044
 21
21.740273620745938
  0
LINE
  8
0
  6
CONTINUOUS
 62
3
 10
-88.238007572598235
 20
53.240273620745938
 11
-88.238007572598235
 21
54.900577259936995
  0
LINE
  8
0
  6
CONTINUOUS
 62
3
 10
-88.238007572598235
 20
53.240273620745938
 11
-155.742852521691020
 21
53.240273620745938
  0
ARC
  8
0
  6
CONTINUOUS
 62
3
 10
-85.238007572598235
 20
54.900577259936995
 40
3.000000000000000
 50
90.000000000000000
 51
180.000000000000000
  0
LINE
  8
0
  6
CONTINUOUS
 62
3
 10
-85.238007572598235
 20
57.900577259936995
 11
-81.238007572598235
 21
57.900577259936995
  0
ARC
  8
0
  6
CONTINUOUS
 62
3
 10
-81.238007572598235
 20
60.900577259936995
 40
3.000000000000000
 50
270.000000000000000
 51
359.999999999997780
  0
LINE
  8
0
  6
CONTINUOUS
 62
3
 10
-78.238007572598235
 20
60.900577259936881
 11
-78.238007572598008
 21
112.240273620745930
  0
LINE
  8
0
  6
CONTINUOUS
 62
3
 10
-89.238007572598235
 20
63.096352598020871
 11
-91.238007572598235
 21
64.748994237144188
  0
LINE
  8
0
  6
CONTINUOUS
 62
3
 10
-87.238007572598235
 20
61.920567112397976
 11
-89.238007572598235
 21
63.096352598020871
  0
LINE
  8
0
  6
CONTINUOUS
 62
3
 10
-89.238007572598235
 20
63.096352598020871
 11
-87.238007572598235
 21
64.748994237144188
  0
LINE
  8
0
  6
CONTINUOUS
 62
3
 10
-91.238007572598235
 20
61.920567112397976
 11
-89.238007572598235
 21
63.096352598020871
  0
POLYLINE
  8
0
  6
CONTINUOUS
 62
3
 66
1
 70
1
  0
VERTEX
  8
0
  6
CONTINUOUS
 62
3
 10
-84.538007572598019
 20
64.912942666398408
  0
VERTEX
  8
0
  6
CONTINUOUS
 62
3
 10
-84.628316754702837
 20
65.615899632598769
  0
VERTEX
  8
0
  6
CONTINUOUS
 62
3
 10
-84.895773769794971
 20
66.291842356810861
  0
VERTEX
  8
0
  6
CONTINUOUS
 62
3
 10
-85.330100394776053
 20
66.914794739216262
  0
VERTEX
  8
0
  6
CONTINUOUS
 62
3
 10
-85.914605701021244
 20
67.460817069114839
  0
VERTEX
  8
0
  6
CONTINUOUS
 62
3
 10
-86.626827477405882
 20
67.908926014581454
  0
VERTEX
  8
0
  6
CONTINUOUS
 62
3
 10
-87.439395440482087
 20
68.241901000144225
  0
VERTEX
  8
0
  6
CONTINUOUS
 62
3
 10
-88.321083059122202
 20
68.446945983842468
  0
VERTEX
  8
0
  6
CONTINUOUS
 62
3
 10
-89.238007572598008
 20
68.516181201943240
  0
VERTEX
  8
0
  6
CONTINUOUS
 62
3
 10
-90.154932086073813
 20
68.446945983842468
  0
VERTEX
  8
0
  6
CONTINUOUS
 62
3
 10
-91.036619704713928
 20
68.241901000144225
  0
VERTEX
  8
0
  6
CONTINUOUS
 62
3
 10
-91.849187667790133
 20
67.908926014581454
  0
VERTEX
  8
0
  6
CONTINUOUS
 62
3
 10
-92.561409444174771
 20
67.460817069114839
  0
VERTEX
  8
0
  6
CONTINUOUS
 62
3
 10
-93.145914750419962
 20
66.914794739216262
  0
VERTEX
  8
0
  6
CONTINUOUS
 62
3
 10
-93.580241375401044
 20
66.291842356810861
  0
VERTEX
  8
0
  6
CONTINUOUS
 62
3
 10
-93.847698390493179
 20
65.615899632598769
  0
VERTEX
  8
0
  6
CONTINUOUS
 62
3
 10
-93.938007572597996
 20
64.912942666398408
  0
VERTEX
  8
0
  6
CONTINUOUS
 62
3
 10
-93.847698390493179
 20
64.209985700198047
  0
VERTEX
  8
0
  6
CONTINUOUS
 62
3
 10
-93.580241375401044
 20
63.534042975985955
  0
VERTEX
  8
0
  6
CONTINUOUS
 62
3
 10
-93.145914750419962
 20
62.911090593580553
  0
VERTEX
  8
0
  6
CONTINUOUS
 62
3
 10
-92.561409444174771
 20
62.365068263681977
  0
VERTEX
  8
0
  6
CONTINUOUS
 62
3
 10
-91.849187667790133
 20
61.916959318215355
  0
VERTEX
  8
0
  6
CONTINUOUS
 62
3
 10
-91.036619704713928
 20
61.583984332652598
  0
VERTEX
  8
0
  6
CONTINUOUS
 62
3
 10
-90.154932086073813
 20
61.378939348954347
  0
VERTEX
  8
0
  6
CONTINUOUS
 62
3
 10
-89.238007572598008
 20
61.309704130853575
  0
VERTEX
  8
0
  6
CONTINUOUS
 62
3
 10
-88.321083059122202
 20
61.378939348954347
  0
VERTEX
  8
0
  6
CONTINUOUS
 62
3
 10
-87.439395440482087
 20
61.583984332652598
  0
VERTEX
  8
0
  6
CONTINUOUS
 62
3
 10
-86.626827477405882
 20
61.916959318215355
  0
VERTEX
  8
0
  6
CONTINUOUS
 62
3
 10
-85.914605701021244
 20
62.365068263681977
  0
VERTEX
  8
0
  6
CONTINUOUS
 62
3
 10
-85.330100394776053
 20
62.911090593580553
  0
VERTEX
  8
0
  6
CONTINUOUS
 62
3
 10
-84.895773769794971
 20
63.534042975985955
  0
VERTEX
  8
0
  6
CONTINUOUS
 62
3
 10
-84.628316754702837
 20
64.209985700198047
  0
SEQEND
  8
0
  6
CONTINUOUS
 62
3
  0
LINE
  8
0
  6
CONTINUOUS
 62
3
 10
3.961992427422956
 20
59.740273620745938
 11
-78.238007572598235
 21
59.740273620745938
  0
LINE
  8
0
  6
CONTINUOUS
 62
3
 10
-79.038007572577044
 20
20.740273620745938
 11
-79.038007572577044
 21
20.240273620745938
  0
LINE
  8
0
  6
CONTINUOUS
 62
3
 10
-71.038007572577044
 20
20.740273620745938
 11
-71.038007572577044
 21
20.240273620745938
  0
LINE
  8
0
  6
CONTINUOUS
 62
3
 10
-3.038007572577044
 20
20.740273620745938
 11
-3.038007572577044
 21
20.240273620745938
  0
LINE
  8
0
  6
CONTINUOUS
 62
3
 10
-11.038007572577044
 20
20.740273620745938
 11
-11.038007572577044
 21
20.240273620745938
  0
LINE
  8
0
  6
CONTINUOUS
 62
3
 10
-11.038007572577044
 20
20.240273620745938
 11
-3.038007572577044
 21
20.240273620745938
  0
LINE
  8
0
  6
CONTINUOUS
 62
3
 10
-79.038007572577044
 20
20.240273620745938
 11
-71.038007572577044
 21
20.240273620745938
  0
ARC
  8
0
  6
CONTINUOUS
 62
3
 10
-85.038007572577044
 20
21.740273620745938
 40
1.000000000000000
 50
180.000000000000000
 51
270.000000000000000
  0
LINE
  8
0
  6
CONTINUOUS
 62
3
 10
-85.038007572577044
 20
20.740273620745938
 11
2.961992427422956
 21
20.740273620745938
  0
ARC
  8
0
  6
CONTINUOUS
 62
3
 10
2.961992427422956
 20
21.740273620745938
 40
1.000000000000000
 50
270.000000000000000
 51
0.000000000000000
  0
LINE
  8
0
  6
CONTINUOUS
 62
3
 10
3.961992427422956
 20
59.740273620745938
 11
3.961992427422956
 21
21.740273620745938
  0
LINE
  8
0
  6
CONTINUOUS
 62
3
 10
42.261992427422911
 20
58.740273620745938
 11
3.961992427422956
 21
58.740273620745938
  0
LINE
  8
0
  6
CONTINUOUS
 62
4
 10
-78.238007572598235
 20
61.240273620745938
 11
59.761992427422001
 21
61.240273620745938
  0
LINE
  8
0
  6
CONTINUOUS
 62
4
 10
-78.238007572598235
 20
61.740273620745938
 11
59.761992427422001
 21
61.740273620745938
  0
LINE
  8
0
  6
CONTINUOUS
 62
4
 10
-78.238007572598235
 20
66.107191025863244
 11
59.761992427422001
 21
66.107191025863244
  0
LINE
  8
0
  6
CONTINUOUS
 62
4
 10
-78.238007572598235
 20
71.198359850406177
 11
59.761992427422001
 21
71.198359850406177
  0
LINE
  8
0
  6
CONTINUOUS
 62
3
 10
-176.238007572598240
 20
64.396653487116623
 11
-176.238007572598240
 21
112.240273620745930
  0
LINE
  8
0
  6
CONTINUOUS
 62
3
 10
-167.558527110522390
 20
56.965741508392739
 11
-175.129306307111160
 21
62.266858171965282
  0
ARC
  8
0
  6
CONTINUOUS
 62
3
 10
-173.638007572598330
 20
64.396653487116623
 40
2.599999999999909
 50
180.000000000000000
 51
234.999999999998810
  0
ARC
  8
0
  6
CONTINUOUS
 62
3
 10
-155.742852521691020
 20
73.840273620745961
 40
20.599999999999891
 50
235.000000000000400
 51
270.000000000000000
  0
LINE
  8
0
  6
DASHDOT
 62
4
 10
202.548147030556490
 20
112.240273620745930
 11
-199.867714629166810
 21
112.240273620745930
  0
LINE
  8
0
  6
DASHDOT
 62
4
 10
-65.038007572577044
 20
34.740273620745938
 11
-83.038007572577044
 21
34.740273620745938
  0
LINE
  8
0
  6
DASHDOT
 62
4
 10
-74.038007572577044
 20
25.740273620745938
 11
-74.038007572577044
 21
52.741872943295675
  0
LINE
  8
0
  6
DASHED
 62
4
 10
-81.038007572577044
 20
54.740273620745938
 11
-81.038007572577044
 21
34.740273620745938
  0
LINE
  8
0
  6
DASHED
 62
4
 10
-67.038007572577044
 20
54.740273620745938
 11
-67.038007572577044
 21
34.740273620745938
  0
ARC
  8
0
  6
DASHED
 62
4
 10
-74.038007572577044
 20
34.740273620745938
 40
7.000000000000000
 50
180.000000000000000
 51
0.000000000000000
  0
CIRCLE
  8
0
  6
DASHED
 62
4
 10
-74.038007572577044
 20
34.740273620745938
 40
6.000000000000000
  0
ARC
  8
0
  6
CONTINUOUS
 62
3
 10
331.757831051157150
 20
-107.108249212345070
 40
43.283778524804312
 50
26.056903281673080
 51
60.989001274772832
  0
ARC
  8
0
  6
CONTINUOUS
 62
3
 10
188.861992427421910
 20
122.840273620745390
 40
0.400000000000091
 50
0.000000000000000
 51
90.000000000000000
  0
LINE
  8
0
  6
CONTINUOUS
 62
3
 10
189.261992427422000
 20
112.240273620745930
 11
189.261992427422000
 21
122.840273620745390
  0
LINE
  8
0
  6
CONTINUOUS
 62
3
 10
189.261992427422000
 20
101.640273620745570
 11
189.261992427422000
 21
98.740273620745938
  0
ARC
  8
0
  6
CONTINUOUS
 62
3
 10
188.861992427421910
 20
101.640273620745570
 40
0.399999999999636
 50
270.000000000000000
 51
0.000000000000000
  0
LINE
  8
0
  6
CONTINUOUS
 62
3
 10
189.261992427422000
 20
112.240273620745930
 11
189.261992427422000
 21
101.640273620745570
  0
LINE
  8
0
  6
CONTINUOUS
 62
3
 10
42.261992427422911
 20
-175.007376286241200
 11
-78.238007572598235
 21
-175.007376286241200
  0
LINE
  8
0
  6
CONTINUOUS
 62
4
 10
-78.238007572598235
 20
-173.507376286241420
 11
42.261992427422911
 21
-173.507376286241420
  0
LINE
  8
0
  6
CONTINUOUS
 62
4
 10
-78.238007572598235
 20
-173.007376286241200
 11
42.261992427422911
 21
-173.007376286241200
  0
LINE
  8
0
  6
CONTINUOUS
 62
4
 10
-78.238007572598235
 20
-168.640458881124000
 11
59.761992427422001
 21
-168.640458881124000
  0
LINE
  8
0
  6
CONTINUOUS
 62
4
 10
-78.238007572598235
 20
-167.012031813346080
 11
59.761992427422001
 21
-167.012031813346080
  0
LINE
  8
0
  6
DASHDOT
 62
4
 10
80.221858315658892
 20
-122.507376286241190
 11
-191.383427811275620
 21
-122.507376286241190
  0
LINE
  8
0
  6
CONTINUOUS
 62
3
 10
-78.238007572598235
 20
-176.507376286241420
 11
-155.742852521691020
 21
-176.507376286241420
  0
LINE
  8
0
  6
CONTINUOUS
 62
3
 10
-78.238007572598235
 20
-176.507376286241420
 11
-78.238007572598235
 21
-163.507376286241200
  0
LINE
  8
0
  6
CONTINUOUS
 62
3
 10
-78.238007572598235
 20
-68.507376286240969
 11
-78.238007572598235
 21
-81.507376286241197
  0
LINE
  8
0
  6
CONTINUOUS
 62
3
 10
-78.238007572598235
 20
-68.507376286240969
 11
-155.742852521691020
 21
-68.507376286240969
  0
LINE
  8
0
  6
CONTINUOUS
 62
3
 10
-89.238007572598235
 20
-171.651297308966380
 11
-91.238007572598235
 21
-169.998655669842950
  0
LINE
  8
0
  6
CONTINUOUS
 62
3
 10
-87.238007572598235
 20
-172.827082794589160
 11
-89.238007572598235
 21
-171.651297308966380
  0
LINE
  8
0
  6
CONTINUOUS
 62
3
 10
-89.238007572598235
 20
-171.651297308966380
 11
-87.238007572598235
 21
-169.998655669842950
  0
LINE
  8
0
  6
CONTINUOUS
 62
3
 10
-91.238007572598235
 20
-172.827082794589160
 11
-89.238007572598235
 21
-171.651297308966380
  0
POLYLINE
  8
0
  6
CONTINUOUS
 62
3
 66
1
 70
1
  0
VERTEX
  8
0
  6
CONTINUOUS
 62
3
 10
-84.538007572598019
 20
-169.834707240588840
  0
VERTEX
  8
0
  6
CONTINUOUS
 62
3
 10
-84.628316754702837
 20
-169.131750274388480
  0
VERTEX
  8
0
  6
CONTINUOUS
 62
3
 10
-84.895773769794971
 20
-168.455807550176390
  0
VERTEX
  8
0
  6
CONTINUOUS
 62
3
 10
-85.330100394776053
 20
-167.832855167770990
  0
VERTEX
  8
0
  6
CONTINUOUS
 62
3
 10
-85.914605701021244
 20
-167.286832837872400
  0
VERTEX
  8
0
  6
CONTINUOUS
 62
3
 10
-86.626827477405882
 20
-166.838723892405770
  0
VERTEX
  8
0
  6
CONTINUOUS
 62
3
 10
-87.439395440482087
 20
-166.505748906843020
  0
VERTEX
  8
0
  6
CONTINUOUS
 62
3
 10
-88.321083059122202
 20
-166.300703923144770
  0
VERTEX
  8
0
  6
CONTINUOUS
 62
3
 10
-89.238007572598008
 20
-166.231468705043990
  0
VERTEX
  8
0
  6
CONTINUOUS
 62
3
 10
-90.154932086073813
 20
-166.300703923144770
  0
VERTEX
  8
0
  6
CONTINUOUS
 62
3
 10
-91.036619704713928
 20
-166.505748906843020
  0
VERTEX
  8
0
  6
CONTINUOUS
 62
3
 10
-91.849187667790133
 20
-166.838723892405770
  0
VERTEX
  8
0
  6
CONTINUOUS
 62
3
 10
-92.561409444174771
 20
-167.286832837872400
  0
VERTEX
  8
0
  6
CONTINUOUS
 62
3
 10
-93.145914750419962
 20
-167.832855167770990
  0
VERTEX
  8
0
  6
CONTINUOUS
 62
3
 10
-93.580241375401044
 20
-168.455807550176390
  0
VERTEX
  8
0
  6
CONTINUOUS
 62
3
 10
-93.847698390493179
 20
-169.131750274388480
  0
VERTEX
  8
0
  6
CONTINUOUS
 62
3
 10
-93.938007572597996
 20
-169.834707240588840
  0
VERTEX
  8
0
  6
CONTINUOUS
 62
3
 10
-93.847698390493179
 20
-170.537664206789200
  0
VERTEX
  8
0
  6
CONTINUOUS
 62
3
 10
-93.580241375401044
 20
-171.213606931001290
  0
VERTEX
  8
0
  6
CONTINUOUS
 62
3
 10
-93.145914750419962
 20
-171.836559313406700
  0
VERTEX
  8
0
  6
CONTINUOUS
 62
3
 10
-92.561409444174771
 20
-172.382581643305290
  0
VERTEX
  8
0
  6
CONTINUOUS
 62
3
 10
-91.849187667790133
 20
-172.830690588771920
  0
VERTEX
  8
0
  6
CONTINUOUS
 62
3
 10
-91.036619704713928
 20
-173.163665574334660
  0
VERTEX
  8
0
  6
CONTINUOUS
 62
3
 10
-90.154932086073813
 20
-173.368710558032920
  0
VERTEX
  8
0
  6
CONTINUOUS
 62
3
 10
-89.238007572598008
 20
-173.437945776133690
  0
VERTEX
  8
0
  6
CONTINUOUS
 62
3
 10
-88.321083059122202
 20
-173.368710558032920
  0
VERTEX
  8
0
  6
CONTINUOUS
 62
3
 10
-87.439395440482087
 20
-173.163665574334660
  0
VERTEX
  8
0
  6
CONTINUOUS
 62
3
 10
-86.626827477405882
 20
-172.830690588771920
  0
VERTEX
  8
0
  6
CONTINUOUS
 62
3
 10
-85.914605701021244
 20
-172.382581643305290
  0
VERTEX
  8
0
  6
CONTINUOUS
 62
3
 10
-85.330100394776053
 20
-171.836559313406700
  0
VERTEX
  8
0
  6
CONTINUOUS
 62
3
 10
-84.895773769794971
 20
-171.213606931001290
  0
VERTEX
  8
0
  6
CONTINUOUS
 62
3
 10
-84.628316754702837
 20
-170.537664206789200
  0
SEQEND
  8
0
  6
CONTINUOUS
 62
3
  0
LINE
  8
0
  6
CONTINUOUS
 62
3
 10
-89.238007572598235
 20
-73.363455263516016
 11
-91.238007572598235
 21
-75.016096902639447
  0
LINE
  8
0
  6
CONTINUOUS
 62
3
 10
-87.238007572598235
 20
-72.187669777893234
 11
-89.238007572598235
 21
-73.363455263516016
  0
LINE
  8
0
  6
CONTINUOUS
 62
3
 10
-89.238007572598235
 20
-73.363455263516016
 11
-87.238007572598235
 21
-75.016096902639447
  0
LINE
  8
0
  6
CONTINUOUS
 62
3
 10
-91.238007572598235
 20
-72.187669777893234
 11
-89.238007572598235
 21
-73.363455263516016
  0
POLYLINE
  8
0
  6
CONTINUOUS
 62
3
 66
1
 70
1
  0
VERTEX
  8
0
  6
CONTINUOUS
 62
3
 10
-84.538007572598019
 20
-75.180045331893552
  0
VERTEX
  8
0
  6
CONTINUOUS
 62
3
 10
-84.628316754702837
 20
-74.477088365693191
  0
VERTEX
  8
0
  6
CONTINUOUS
 62
3
 10
-84.895773769794971
 20
-73.801145641481099
  0
VERTEX
  8
0
  6
CONTINUOUS
 62
3
 10
-85.330100394776053
 20
-73.178193259075698
  0
VERTEX
  8
0
  6
CONTINUOUS
 62
3
 10
-85.914605701021244
 20
-72.632170929177121
  0
VERTEX
  8
0
  6
CONTINUOUS
 62
3
 10
-86.626827477405882
 20
-72.184061983710507
  0
VERTEX
  8
0
  6
CONTINUOUS
 62
3
 10
-87.439395440482087
 20
-71.851086998147736
  0
VERTEX
  8
0
  6
CONTINUOUS
 62
3
 10
-88.321083059122202
 20
-71.646042014449492
  0
VERTEX
  8
0
  6
CONTINUOUS
 62
3
 10
-89.238007572598008
 20
-71.576806796348720
  0
VERTEX
  8
0
  6
CONTINUOUS
 62
3
 10
-90.154932086073813
 20
-71.646042014449492
  0
VERTEX
  8
0
  6
CONTINUOUS
 62
3
 10
-91.036619704713928
 20
-71.851086998147736
  0
VERTEX
  8
0
  6
CONTINUOUS
 62
3
 10
-91.849187667790133
 20
-72.184061983710507
  0
VERTEX
  8
0
  6
CONTINUOUS
 62
3
 10
-92.561409444174771
 20
-72.632170929177121
  0
VERTEX
  8
0
  6
CONTINUOUS
 62
3
 10
-93.145914750419962
 20
-73.178193259075698
  0
VERTEX
  8
0
  6
CONTINUOUS
 62
3
 10
-93.580241375401044
 20
-73.801145641481099
  0
VERTEX
  8
0
  6
CONTINUOUS
 62
3
 10
-93.847698390493179
 20
-74.477088365693191
  0
VERTEX
  8
0
  6
CONTINUOUS
 62
3
 10
-93.938007572597996
 20
-75.180045331893552
  0
VERTEX
  8
0
  6
CONTINUOUS
 62
3
 10
-93.847698390493179
 20
-75.883002298093913
  0
VERTEX
  8
0
  6
CONTINUOUS
 62
3
 10
-93.580241375401044
 20
-76.558945022306006
  0
VERTEX
  8
0
  6
CONTINUOUS
 62
3
 10
-93.145914750419962
 20
-77.181897404711407
  0
VERTEX
  8
0
  6
CONTINUOUS
 62
3
 10
-92.561409444174771
 20
-77.727919734609983
  0
VERTEX
  8
0
  6
CONTINUOUS
 62
3
 10
-91.849187667790133
 20
-78.176028680076598
  0
VERTEX
  8
0
  6
CONTINUOUS
 62
3
 10
-91.036619704713928
 20
-78.509003665639369
  0
VERTEX
  8
0
  6
CONTINUOUS
 62
3
 10
-90.154932086073813
 20
-78.714048649337613
  0
VERTEX
  8
0
  6
CONTINUOUS
 62
3
 10
-89.238007572598008
 20
-78.783283867438385
  0
VERTEX
  8
0
  6
CONTINUOUS
 62
3
 10
-88.321083059122202
 20
-78.714048649337613
  0
VERTEX
  8
0
  6
CONTINUOUS
 62
3
 10
-87.439395440482087
 20
-78.509003665639369
  0
VERTEX
  8
0
  6
CONTINUOUS
 62
3
 10
-86.626827477405882
 20
-78.176028680076598
  0
VERTEX
  8
0
  6
CONTINUOUS
 62
3
 10
-85.914605701021244
 20
-77.727919734609983
  0
VERTEX
  8
0
  6
CONTINUOUS
 62
3
 10
-85.330100394776053
 20
-77.181897404711407
  0
VERTEX
  8
0
  6
CONTINUOUS
 62
3
 10
-84.895773769794971
 20
-76.558945022306006
  0
VERTEX
  8
0
  6
CONTINUOUS
 62
3
 10
-84.628316754702837
 20
-75.883002298093913
  0
SEQEND
  8
0
  6
CONTINUOUS
 62
3
  0
LINE
  8
0
  6
CONTINUOUS
 62
3
 10
-88.238007572598235
 20
-122.507376286241190
 11
-88.238007572598235
 21
-87.507376286241197
  0
LINE
  8
0
  6
CONTINUOUS
 62
3
 10
42.261992427422911
 20
-70.007376286241197
 11
-78.238007572598235
 21
-70.007376286241197
  0
LINE
  8
0
  6
CONTINUOUS
 62
4
 10
-78.238007572598235
 20
-72.007376286241197
 11
42.261992427422911
 21
-72.007376286241197
  0
LINE
  8
0
  6
CONTINUOUS
 62
4
 10
-78.238007572598235
 20
-71.507376286240969
 11
42.261992427422911
 21
-71.507376286240969
  0
LINE
  8
0
  6
CONTINUOUS
 62
4
 10
-78.238007572598235
 20
-76.374293691358389
 11
42.261992427422911
 21
-76.374293691358389
  0
LINE
  8
0
  6
CONTINUOUS
 62
4
 10
-78.238007572598235
 20
-78.002720759136309
 11
42.261992427422911
 21
-78.002720759136309
  0
LINE
  8
0
  6
CONTINUOUS
 62
4
 10
-78.238007572598235
 20
-81.465462515901436
 11
42.261992427422911
 21
-81.465462515901436
  0
LINE
  8
0
  6
CONTINUOUS
 62
4
 10
-78.395607918969517
 20
-82.466940879716731
 11
42.261992427422911
 21
-82.466940879716731
  0
LINE
  8
0
  6
CONTINUOUS
 62
4
 10
-88.238007572598235
 20
-89.203775334732427
 11
-86.038007572576589
 21
-89.203775334732427
  0
LINE
  8
0
  6
CONTINUOUS
 62
4
 10
-88.238007572598235
 20
-90.792985127471184
 11
-86.038007572576589
 21
-90.792985127471184
  0
LINE
  8
0
  6
CONTINUOUS
 62
4
 10
-88.238007572598235
 20
-93.750980735604116
 11
-86.038007572576589
 21
-93.750980735604116
  0
LINE
  8
0
  6
CONTINUOUS
 62
4
 10
-88.238007572598235
 20
-95.230003889081217
 11
-86.038007572576589
 21
-95.230003889081217
  0
LINE
  8
0
  6
CONTINUOUS
 62
4
 10
-88.238007572598235
 20
-98.322734880746566
 11
-86.038007572576589
 21
-98.322734880746566
  0
LINE
  8
0
  6
CONTINUOUS
 62
4
 10
-88.238007572598235
 20
-99.669136606245047
 11
-86.038007572576589
 21
-99.669136606245047
  0
LINE
  8
0
  6
CONTINUOUS
 62
4
 10
-88.238007572598235
 20
-102.507376286241190
 11
-86.038007572576589
 21
-102.507376286241190
  0
LINE
  8
0
  6
CONTINUOUS
 62
4
 10
3.961992427423411
 20
-93.750980735604116
 11
42.261992427422911
 21
-93.750980735604116
  0
LINE
  8
0
  6
CONTINUOUS
 62
4
 10
3.961992427423411
 20
-95.230003889081217
 11
42.261992427422911
 21
-95.230003889081217
  0
LINE
  8
0
  6
CONTINUOUS
 62
4
 10
3.961992427423411
 20
-98.322734880746566
 11
42.261992427422911
 21
-98.322734880746566
  0
LINE
  8
0
  6
CONTINUOUS
 62
4
 10
3.961992427423411
 20
-99.669136606245047
 11
42.261992427422911
 21
-99.669136606245047
  0
LINE
  8
0
  6
CONTINUOUS
 62
4
 10
3.961992427423411
 20
-102.507376286241190
 11
42.261992427422911
 21
-102.507376286241190
  0
LINE
  8
0
  6
CONTINUOUS
 62
4
 10
3.961992427423411
 20
-90.792985127471184
 11
42.261992427422911
 21
-90.792985127471184
  0
LINE
  8
0
  6
CONTINUOUS
 62
4
 10
3.961992427423411
 20
-89.203775334732427
 11
42.261992427422911
 21
-89.203775334732427
  0
ARC
  8
0
  6
CONTINUOUS
 62
3
 10
2.961992427423411
 20
-87.507376286241197
 40
1.000000000000227
 50
0.000000000000000
 51
90.000000000000000
  0
LINE
  8
0
  6
CONTINUOUS
 62
3
 10
2.961992427423411
 20
-86.507376286241197
 11
-85.038007572576589
 21
-86.507376286241197
  0
LINE
  8
0
  6
CONTINUOUS
 62
3
 10
3.961992427423638
 20
-87.507376286241197
 11
3.961992427422956
 21
-122.507376286242780
  0
ARC
  8
0
  6
CONTINUOUS
 62
3
 10
-85.038007572576589
 20
-87.507376286241197
 40
1.000000000000000
 50
90.000000000000000
 51
180.000000000000000
  0
LINE
  8
0
  6
CONTINUOUS
 62
3
 10
-86.038007572576362
 20
-87.507376286241197
 11
-86.038007572577044
 21
-122.507376286241420
  0
ARC
  8
0
  6
CONTINUOUS
 62
3
 10
-81.238007572598235
 20
-81.507376286241197
 40
3.000000000000000
 50
270.000000000000000
 51
0.000000000000000
  0
LINE
  8
0
  6
CONTINUOUS
 62
3
 10
-81.238007572598235
 20
-84.507376286241197
 11
-85.238007572598235
 21
-84.507376286241197
  0
ARC
  8
0
  6
CONTINUOUS
 62
3
 10
-85.238007572598235
 20
-87.507376286241197
 40
3.000000000000000
 50
90.000000000000000
 51
180.000000000000000
  0
LINE
  8
0
  6
CONTINUOUS
 62
3
 10
-167.558527110522390
 20
-72.232844173887543
 11
-175.129306307111160
 21
-77.533960837460427
  0
LINE
  8
0
  6
CONTINUOUS
 62
3
 10
-176.238007572598240
 20
-79.663756152611541
 11
-176.238007572598240
 21
-122.507376286241190
  0
ARC
  8
0
  6
CONTINUOUS
 62
3
 10
-173.638007572598330
 20
-79.663756152611541
 40
2.600000000000037
 50
125.000000000002600
 51
180.000000000000000
  0
ARC
  8
0
  6
CONTINUOUS
 62
3
 10
-155.742852521691020
 20
-89.107376286240878
 40
20.599999999999909
 50
90.000000000000000
 51
124.999999999999780
  0
LINE
  8
0
  6
CONTINUOUS
 62
3
 10
-88.238007572598235
 20
-122.507376286241190
 11
-88.238007572598235
 21
-157.507376286241200
  0
LINE
  8
0
  6
CONTINUOUS
 62
4
 10
-78.238007572598235
 20
-163.549290056580730
 11
59.761992427422001
 21
-163.549290056580730
  0
LINE
  8
0
  6
CONTINUOUS
 62
4
 10
-78.395607918969517
 20
-162.547811692765440
 11
59.761992427422001
 21
-162.547811692765440
  0
LINE
  8
0
  6
CONTINUOUS
 62
4
 10
-88.238007572598235
 20
-155.810977237749970
 11
-86.038007572576589
 21
-155.810977237749970
  0
LINE
  8
0
  6
CONTINUOUS
 62
4
 10
-88.238007572598235
 20
-154.221767445011210
 11
-86.038007572576589
 21
-154.221767445011210
  0
LINE
  8
0
  6
CONTINUOUS
 62
4
 10
-88.238007572598235
 20
-151.263771836878280
 11
-86.038007572576589
 21
-151.263771836878280
  0
LINE
  8
0
  6
CONTINUOUS
 62
4
 10
-88.238007572598235
 20
-149.784748683401180
 11
-86.038007572576589
 21
-149.784748683401180
  0
LINE
  8
0
  6
CONTINUOUS
 62
4
 10
-88.238007572598235
 20
-146.692017691735830
 11
-86.038007572576589
 21
-146.692017691735830
  0
LINE
  8
0
  6
CONTINUOUS
 62
4
 10
-88.238007572598235
 20
-145.345615966237350
 11
-86.038007572576589
 21
-145.345615966237350
  0
LINE
  8
0
  6
CONTINUOUS
 62
4
 10
-88.238007572598235
 20
-142.507376286241200
 11
-86.038007572576589
 21
-142.507376286241200
  0
LINE
  8
0
  6
CONTINUOUS
 62
4
 10
3.961992427423411
 20
-151.263771836878280
 11
42.261992427422911
 21
-151.263771836878280
  0
LINE
  8
0
  6
CONTINUOUS
 62
4
 10
3.961992427423411
 20
-149.784748683401180
 11
42.261992427422911
 21
-149.784748683401180
  0
LINE
  8
0
  6
CONTINUOUS
 62
4
 10
3.961992427423411
 20
-146.692017691735830
 11
42.261992427422911
 21
-146.692017691735830
  0
LINE
  8
0
  6
CONTINUOUS
 62
4
 10
3.961992427423411
 20
-145.345615966237350
 11
42.261992427422911
 21
-145.345615966237350
  0
LINE
  8
0
  6
CONTINUOUS
 62
4
 10
3.961992427423411
 20
-142.507376286241200
 11
42.261992427422911
 21
-142.507376286241200
  0
LINE
  8
0
  6
CONTINUOUS
 62
4
 10
3.961992427423411
 20
-154.221767445011210
 11
42.261992427422911
 21
-154.221767445011210
  0
LINE
  8
0
  6
CONTINUOUS
 62
4
 10
3.961992427423411
 20
-155.810977237749970
 11
42.261992427422911
 21
-155.810977237749970
  0
ARC
  8
0
  6
CONTINUOUS
 62
3
 10
2.961992427423411
 20
-157.507376286241200
 40
1.000000000000000
 50
270.000000000000000
 51
0.000000000000000
  0
LINE
  8
0
  6
CONTINUOUS
 62
3
 10
2.961992427423411
 20
-158.507376286241200
 11
-85.038007572576589
 21
-158.507376286241200
  0
LINE
  8
0
  6
CONTINUOUS
 62
3
 10
3.961992427423638
 20
-157.507376286241200
 11
3.961992427422956
 21
-122.507376286239600
  0
ARC
  8
0
  6
CONTINUOUS
 62
3
 10
-85.038007572576589
 20
-157.507376286241200
 40
0.999999999999773
 50
180.000000000000000
 51
270.000000000000000
  0
LINE
  8
0
  6
CONTINUOUS
 62
3
 10
-86.038007572576362
 20
-157.507376286241200
 11
-86.038007572577044
 21
-122.507376286240960
  0
ARC
  8
0
  6
CONTINUOUS
 62
3
 10
-81.238007572598235
 20
-163.507376286241200
 40
3.000000000000000
 50
0.000000000000000
 51
90.000000000000000
  0
LINE
  8
0
  6
CONTINUOUS
 62
3
 10
-81.238007572598235
 20
-160.507376286241200
 11
-85.238007572598235
 21
-160.507376286241200
  0
ARC
  8
0
  6
CONTINUOUS
 62
3
 10
-85.238007572598235
 20
-157.507376286241200
 40
3.000000000000000
 50
180.000000000000000
 51
270.000000000000000
  0
LINE
  8
0
  6
CONTINUOUS
 62
3
 10
-167.558527110522390
 20
-172.781908398594620
 11
-175.129306307111160
 21
-167.480791735021970
  0
LINE
  8
0
  6
CONTINUOUS
 62
3
 10
-176.238007572598240
 20
-165.350996419870850
 11
-176.238007572598240
 21
-122.507376286241190
  0
ARC
  8
0
  6
CONTINUOUS
 62
3
 10
-173.638007572598330
 20
-165.350996419870850
 40
2.599999999999909
 50
180.000000000000000
 51
234.999999999994540
  0
ARC
  8
0
  6
CONTINUOUS
 62
3
 10
-155.742852521691020
 20
-155.907376286241520
 40
20.599999999999795
 50
235.000000000000260
 51
270.000000000000000
  0
LINE
  8
0
  6
CONTINUOUS
 62
3
 10
60.761992427422001
 20
-61.174193218997971
 11
62.661992427422547
 21
-61.174193218997971
  0
LINE
  8
0
  6
CONTINUOUS
 62
3
 10
60.761992427422001
 20
-118.257376286241190
 11
62.661992427422092
 21
-118.257376286241190
  0
LINE
  8
0
  6
CONTINUOUS
 62
3
 10
60.761992427422001
 20
-130.757376286241200
 11
62.661992427422092
 21
-130.757376286241200
  0
LINE
  8
0
  6
CONTINUOUS
 62
3
 10
62.761992427422001
 20
-130.657376286240830
 11
62.761992427422001
 21
-118.357376286240650
  0
ARC
  8
0
  6
CONTINUOUS
 62
3
 10
60.761992427422001
 20
-117.257376286241190
 40
1.000000000000000
 50
180.000000000000000
 51
270.000000000000000
  0
ARC
  8
0
  6
CONTINUOUS
 62
3
 10
62.661992427422547
 20
-178.215561909143620
 40
0.099999999999909
 50
0.000000000000000
 51
90.000000000000000
  0
ARC
  8
0
  6
CONTINUOUS
 62
3
 10
62.661992427422092
 20
-118.357376286240650
 40
0.099999999999909
 50
0.000000000000000
 51
90.000000000000000
  0
ARC
  8
0
  6
CONTINUOUS
 62
3
 10
60.761992427422001
 20
-131.757376286241200
 40
1.000000000000000
 50
90.000000000000000
 51
180.000000000000000
  0
ARC
  8
0
  6
CONTINUOUS
 62
3
 10
59.761992427422001
 20
-110.775325478672130
 40
1.000000000000000
 50
180.000000000000000
 51
239.999999999989710
  0
LINE
  8
0
  6
CONTINUOUS
 62
3
 10
58.761992427422001
 20
-96.239427093809354
 11
58.761992427422001
 21
-110.775325478672130
  0
ARC
  8
0
  6
CONTINUOUS
 62
3
 10
58.761992427422001
 20
-112.507376286241190
 40
1.000000000000000
 50
0.000000000000000
 51
60.000000000015746
  0
ARC
  8
0
  6
CONTINUOUS
 62
3
 10
59.761992427422001
 20
-96.239427093809354
 40
0.999999999999688
 50
120.000000000010300
 51
180.000000000000000
  0
ARC
  8
0
  6
CONTINUOUS
 62
3
 10
58.761992427422001
 20
-94.507376286241197
 40
0.999999999999688
 50
300.000000000010290
 51
0.000000000000000
  0
LINE
  8
0
  6
CONTINUOUS
 62
3
 10
62.761992427422001
 20
-61.074193218997607
 11
62.761992427422001
 21
-57.736666460224114
  0
LINE
  8
0
  6
CONTINUOUS
 62
3
 10
60.761992427422456
 20
-178.115561909144160
 11
62.661992427422547
 21
-178.115561909144160
  0
LINE
  8
0
  6
CONTINUOUS
 62
3
 10
62.761992427422456
 20
-186.407376286240830
 11
62.761992427422456
 21
-178.215561909143620
  0
ARC
  8
0
  6
CONTINUOUS
 62
3
 10
60.761992427422001
 20
-62.174193218997971
 40
1.000000000000000
 50
90.000000000000000
 51
180.000000000000000
  0
LINE
  8
0
  6
CONTINUOUS
 62
3
 10
60.761992427422001
 20
-57.636666460224660
 11
62.661992427422547
 21
-57.636666460224660
  0
ARC
  8
0
  6
CONTINUOUS
 62
3
 10
60.761992427422456
 20
-177.115561909144160
 40
1.000000000000000
 50
180.000000000000000
 51
270.000000000000000
  0
ARC
  8
0
  6
CONTINUOUS
 62
3
 10
60.761992427422001
 20
-58.636666460224660
 40
1.000000000000000
 50
90.000000000000000
 51
180.000000000000000
  0
ARC
  8
0
  6
CONTINUOUS
 62
3
 10
62.661992427422092
 20
-130.657376286240830
 40
0.100000000000364
 50
270.000000000000000
 51
0.000000000000000
  0
POINT
  8
0
  6
CONTINUOUS
 62
3
 10
62.761992427422456
 20
-181.007376286241200
  0
ARC
  8
0
  6
CONTINUOUS
 62
3
 10
62.661992427422547
 20
-57.736666460224114
 40
0.099999999999454
 50
0.000000000000000
 51
90.000000000000000
  0
LINE
  8
0
  6
CONTINUOUS
 62
3
 10
62.761992427422456
 20
-186.007376286241200
 11
56.761992427422456
 21
-186.007376286241200
  0
LINE
  8
0
  6
CONTINUOUS
 62
3
 10
59.657272644935311
 20
-176.007376286241200
 11
56.761992427422456
 21
-176.007376286241200
  0
LINE
  8
0
  6
CONTINUOUS
 62
3
 10
56.761992427422456
 20
-186.007376286241200
 11
56.761992427422456
 21
-176.007376286241200
  0
ARC
  8
0
  6
CONTINUOUS
 62
3
 10
62.661992427422547
 20
-61.074193218997607
 40
0.100000000000364
 50
270.000000000000000
 51
0.000000000000000
  0
ARC
  8
0
  6
CONTINUOUS
 62
3
 10
62.861992427422365
 20
-186.407376286240830
 40
0.099999999999909
 50
180.000000000000000
 51
270.000000000000000
  0
LINE
  8
0
  6
CONTINUOUS
 62
3
 10
59.761992427422001
 20
-71.507376286241197
 11
56.761992427422001
 21
-71.507376286241197
  0
LINE
  8
0
  6
CONTINUOUS
 62
3
 10
60.016770864268665
 20
-61.507376286241197
 11
56.761992427422001
 21
-61.507376286241197
  0
LINE
  8
0
  6
CONTINUOUS
 62
3
 10
56.761992427422001
 20
-71.507376286241197
 11
56.761992427422001
 21
-61.507376286241197
  0
LINE
  8
0
  6
CONTINUOUS
 62
3
 10
59.761992427422001
 20
-62.174193218997971
 11
59.761992427421546
 21
-119.507376286241190
  0
LINE
  8
0
  6
CONTINUOUS
 62
3
 10
68.761992427422001
 20
-56.507376286241197
 11
68.761992427422001
 21
-122.507376286241190
  0
LINE
  8
0
  6
CONTINUOUS
 62
3
 10
68.761992427422911
 20
-186.507376286241200
 11
68.761992427422911
 21
-122.507376286241190
  0
LINE
  8
0
  6
CONTINUOUS
 62
3
 10
59.761992427422001
 20
-57.507376286241197
 11
59.761992427422001
 21
-61.507376286241197
  0
LINE
  8
0
  6
CONTINUOUS
 62
3
 10
56.761992427422001
 20
-69.614587462703668
 11
42.261992427422911
 21
-69.994283325456308
  0
LINE
  8
0
  6
CONTINUOUS
 62
3
 10
58.788169375730149
 20
-175.453222420432210
 11
42.261992427422911
 21
-175.020469247026090
  0
LINE
  8
0
  6
CONTINUOUS
 62
3
 10
60.761992427422001
 20
-56.507376286241197
 11
68.761992427422001
 21
-56.507376286241197
  0
ARC
  8
0
  6
CONTINUOUS
 62
3
 10
60.761992427422001
 20
-57.507376286241197
 40
1.000000000000000
 50
90.000000000000000
 51
180.000000000000000
  0
LINE
  8
0
  6
CONTINUOUS
 62
3
 10
61.761992427422001
 20
-186.507376286241200
 11
68.761992427422911
 21
-186.507376286241200
  0
LINE
  8
0
  6
CONTINUOUS
 62
3
 10
59.761992427422001
 20
-129.507376286241200
 11
59.761992427422001
 21
-177.115561909144160
  0
ARC
  8
0
  6
CONTINUOUS
 62
3
 10
61.761992427422001
 20
-184.507376286241200
 40
1.999999999999966
 50
228.590377890730250
 51
270.000000000000000
  0
ARC
  8
0
  6
CONTINUOUS
 62
3
 10
58.761992427422001
 20
-176.452879745407700
 40
1.000000000000000
 50
0.000000000000000
 51
88.499999999984155
  0
LINE
  8
0
  6
CONTINUOUS
 62
3
 10
189.261992427422000
 20
-99.507376286240287
 11
160.261992427422460
 21
-99.507376286240287
  0
LINE
  8
0
  6
CONTINUOUS
 62
3
 10
189.261992427422000
 20
-105.507376286240280
 11
160.261992427422460
 21
-105.507376286240280
  0
ARC
  8
0
  6
CONTINUOUS
 62
3
 10
160.261992427422460
 20
-102.507376286240280
 40
3.000000000000000
 50
90.000000000000000
 51
270.000000000000000
  0
LINE
  8
0
  6
CONTINUOUS
 62
3
 10
189.261992427422000
 20
-102.507376286240280
 11
189.261992427422000
 21
-91.907376286240833
  0
LINE
  8
0
  6
CONTINUOUS
 62
3
 10
188.861992427421910
 20
-91.507376286240287
 11
155.821800048557410
 21
-91.507376286240287
  0
LINE
  8
0
  6
CONTINUOUS
 62
3
 10
188.861992427421910
 20
-91.507376286240287
 11
155.821800048557410
 21
-91.507376286240287
  0
ARC
  8
0
  6
CONTINUOUS
 62
3
 10
188.861992427421910
 20
-91.907376286240833
 40
0.400000000000091
 50
0.000000000000000
 51
90.000000000000000
  0
LINE
  8
0
  6
CONTINUOUS
 62
3
 10
151.261992427422000
 20
-90.507376286240287
 11
152.861992427421910
 21
-90.507376286240287
  0
LINE
  8
0
  6
CONTINUOUS
 62
3
 10
153.261992427422000
 20
-102.507376286240280
 11
153.261992427422000
 21
-90.907376286240833
  0
LINE
  8
0
  6
CONTINUOUS
 62
3
 10
155.261992427422000
 20
-91.657376286240833
 11
154.061992427421730
 21
-91.657376286240833
  0
LINE
  8
0
  6
CONTINUOUS
 62
3
 10
155.821800048557410
 20
-91.507376286240287
 11
155.261992427422000
 21
-91.657376286240833
  0
LINE
  8
0
  6
CONTINUOUS
 62
3
 10
153.261992427422000
 20
-90.907376286240833
 11
152.861992427421910
 21
-90.507376286240287
  0
ARC
  8
0
  6
CONTINUOUS
 62
3
 10
154.061992427421730
 20
-90.857376286240651
 40
0.799999999999783
 50
183.703196634282420
 51
270.000000000000000
  0
LINE
  8
0
  6
CONTINUOUS
 62
3
 10
155.261992427422000
 20
-91.657376286240833
 11
154.061992427421730
 21
-91.657376286240833
  0
LINE
  8
0
  6
CONTINUOUS
 62
3
 10
155.821800048557410
 20
-91.507376286240287
 11
155.261992427422000
 21
-91.657376286240833
  0
LINE
  8
0
  6
CONTINUOUS
 62
3
 10
153.261992427422000
 20
-90.907376286240833
 11
152.861992427421910
 21
-90.507376286240287
  0
LINE
  8
0
  6
CONTINUOUS
 62
3
 10
151.261992427422000
 20
-90.507376286240287
 11
152.861992427421910
 21
-90.507376286240287
  0
LINE
  8
0
  6
CONTINUOUS
 62
3
 10
151.261992427422000
 20
-114.507376286240280
 11
152.861992427421910
 21
-114.507376286240280
  0
LINE
  8
0
  6
CONTINUOUS
 62
3
 10
153.261992427422000
 20
-102.507376286240280
 11
153.261992427422000
 21
-114.107376286240650
  0
LINE
  8
0
  6
CONTINUOUS
 62
3
 10
155.261992427422000
 20
-113.357376286240650
 11
154.061992427421730
 21
-113.357376286240650
  0
LINE
  8
0
  6
CONTINUOUS
 62
3
 10
155.821800048557410
 20
-113.507376286240280
 11
155.261992427422000
 21
-113.357376286240650
  0
LINE
  8
0
  6
CONTINUOUS
 62
3
 10
153.261992427422000
 20
-114.107376286240650
 11
152.861992427421910
 21
-114.507376286240280
  0
LINE
  8
0
  6
CONTINUOUS
 62
3
 10
188.861992427421910
 20
-113.507376286240280
 11
155.821800048557410
 21
-113.507376286240280
  0
ARC
  8
0
  6
CONTINUOUS
 62
3
 10
154.061992427421730
 20
-114.157376286239920
 40
0.799999999999272
 50
90.000000000000000
 51
176.296803365782610
  0
LINE
  8
0
  6
CONTINUOUS
 62
3
 10
155.261992427422000
 20
-113.357376286240650
 11
154.061992427421730
 21
-113.357376286240650
  0
LINE
  8
0
  6
CONTINUOUS
 62
3
 10
155.821800048557410
 20
-113.507376286240280
 11
155.261992427422000
 21
-113.357376286240650
  0
LINE
  8
0
  6
CONTINUOUS
 62
3
 10
153.261992427422000
 20
-114.107376286240650
 11
152.861992427421910
 21
-114.507376286240280
  0
LINE
  8
0
  6
CONTINUOUS
 62
3
 10
188.861992427421910
 20
-113.507376286240280
 11
155.821800048557410
 21
-113.507376286240280
  0
LINE
  8
0
  6
CONTINUOUS
 62
3
 10
151.261992427422000
 20
-114.507376286240280
 11
152.861992427421910
 21
-114.507376286240280
  0
LINE
  8
0
  6
CONTINUOUS
 62
3
 10
189.261992427422000
 20
-102.507376286240280
 11
189.261992427422000
 21
-113.107376286240650
  0
ARC
  8
0
  6
CONTINUOUS
 62
3
 10
188.861992427421910
 20
-113.107376286240650
 40
0.399999999999636
 50
270.000000000000000
 51
0.000000000000000
  0
LINE
  8
0
  6
DASHDOT
 62
4
 10
154.484826104431480
 20
-33.564465120552086
 11
121.647637392037490
 21
-33.564465120552086
  0
LINE
  8
0
  6
DASHDOT
 62
4
 10
154.484826104431480
 20
-171.450287451928490
 11
121.647637392037490
 21
-171.450287451928490
  0
ARC
  8
0
  6
CONTINUOUS
 62
3
 10
115.428709822115020
 20
-55.759478960906563
 40
3.000000000000000
 50
270.000000000000000
 51
319.523454666810440
  0
ARC
  8
0
  6
CONTINUOUS
 62
3
 10
127.761992427422680
 20
-41.307084568674327
 40
3.000000000000073
 50
319.523454666815210
 51
0.000000000000000
  0
LINE
  8
0
  6
CONTINUOUS
 62
3
 10
117.710725104175250
 20
-57.706889100669287
 11
130.044007709482230
 21
-43.254494708436141
  0
ARC
  8
0
  6
CONTINUOUS
 62
3
 10
115.428709822115020
 20
-59.416333210398989
 40
3.000000000000000
 50
270.000000000000000
 51
319.523454666810440
  0
ARC
  8
0
  6
CONTINUOUS
 62
3
 10
127.761992427422680
 20
-44.963938818166753
 40
3.000000000000073
 50
319.523454666815210
 51
0.000000000000000
  0
LINE
  8
0
  6
CONTINUOUS
 62
3
 10
117.710725104175250
 20
-61.363743350161712
 11
130.044007709482230
 21
-46.911348957928567
  0
LINE
  8
0
  6
CONTINUOUS
 62
3
 10
128.910089602228030
 20
-62.416333210398989
 11
118.549719272926950
 21
-62.416333210398989
  0
LINE
  8
0
  6
CONTINUOUS
 62
3
 10
69.261992427422001
 20
-56.507376286240287
 11
119.482424414258950
 21
-55.630775385187917
  0
LINE
  8
0
  6
CONTINUOUS
 62
3
 10
151.261992427422000
 20
-102.507376286240280
 11
151.261992427422000
 21
-123.484753696109690
  0
LINE
  8
0
  6
CONTINUOUS
 62
3
 10
151.261992427422000
 20
-102.507376286240280
 11
151.261992427422000
 21
-81.529998876370882
  0
LINE
  8
0
  6
CONTINUOUS
 62
3
 10
135.261992427422910
 20
-22.507376286240287
 11
131.735815479114990
 21
-22.599712479247501
  0
LINE
  8
0
  6
CONTINUOUS
 62
3
 10
142.761992427422910
 20
-22.703770698009066
 11
135.261992427422910
 21
-22.507376286240287
  0
LINE
  8
0
  6
DASHDOT
 62
4
 10
201.224475835178740
 20
-102.507376286240280
 11
111.406110398165530
 21
-102.507376286240280
  0
LINE
  8
0
  6
CONTINUOUS
 62
3
 10
69.261992427422001
 20
-186.507376286240290
 11
135.254474480396310
 21
-187.499744437413030
  0
LINE
  8
0
  6
CONTINUOUS
 62
3
 10
117.661132545032610
 20
-54.207458757844506
 11
130.360068638776060
 21
-32.212256241410614
  0
LINE
  8
0
  6
CONTINUOUS
 62
3
 10
144.982666930685580
 20
-177.507376286240290
 11
145.761992427422910
 21
-176.707376286240110
  0
LINE
  8
0
  6
CONTINUOUS
 62
3
 10
144.982666930685580
 20
-27.507376286240287
 11
145.761992427422910
 21
-28.307376286240469
  0
ARC
  8
0
  6
CONTINUOUS
 62
3
 10
131.761992427422910
 20
-23.599369804222988
 40
0.999999999999931
 50
91.500000000002814
 51
180.000000000000000
  0
ARC
  8
0
  6
CONTINUOUS
 62
3
 10
135.261992427422910
 20
-186.999800960134960
 40
0.500000000000379
 50
269.138474265448620
 51
0.000000000000000
  0
ARC
  8
0
  6
CONTINUOUS
 62
3
 10
127.761992427422910
 20
-30.712256241410614
 40
2.999999999999853
 50
329.999999999998350
 51
0.000000000000000
  0
ARC
  8
0
  6
CONTINUOUS
 62
3
 10
115.063056333679460
 20
-52.707458757844506
 40
2.999999999999582
 50
270.999999999997610
 51
329.999999999998350
  0
ARC
  8
0
  6
CONTINUOUS
 62
3
 10
149.261992427422000
 20
-81.529998876370882
 40
2.000000000000000
 50
0.000000000000000
 51
54.162347045717610
  0
ARC
  8
0
  6
CONTINUOUS
 62
3
 10
149.261992427422000
 20
-123.484753696109690
 40
1.999999999999779
 50
305.837652954282420
 51
0.000000000000000
  0
LINE
  8
0
  6
CONTINUOUS
 62
3
 10
69.261992427422001
 20
-56.507376286240287
 11
69.261992427422001
 21
-186.507376286240290
  0
LINE
  8
0
  6
CONTINUOUS
 62
3
 10
144.982666930685580
 20
-27.507376286240287
 11
142.761992427422910
 21
-27.507376286240287
  0
LINE
  8
0
  6
CONTINUOUS
 62
3
 10
144.982666930685580
 20
-177.507376286240290
 11
142.761992427422910
 21
-177.507376286240290
  0
LINE
  8
0
  6
CONTINUOUS
 62
3
 10
142.761992427422910
 20
-102.507376286240280
 11
142.761992427422910
 21
-22.716863658793955
  0
LINE
  8
0
  6
CONTINUOUS
 62
3
 10
145.761992427421770
 20
-102.507376286240280
 11
145.761992427422910
 21
-28.307376286240469
  0
LINE
  8
0
  6
CONTINUOUS
 62
3
 10
145.761992427422000
 20
-102.507376286240280
 11
145.761992427422910
 21
-176.707376286240110
  0
LINE
  8
0
  6
CONTINUOUS
 62
3
 10
150.432973535110700
 20
-125.106112152909190
 11
145.761992427422460
 21
-128.479598508462000
  0
LINE
  8
0
  6
CONTINUOUS
 62
3
 10
150.432973535110700
 20
-79.908640419571384
 11
145.761992427422000
 21
-76.535154064017661
  0
LINE
  8
0
  6
CONTINUOUS
 62
3
 10
135.261992427422910
 20
-182.507376286240290
 11
131.735815479114990
 21
-182.415040093233070
  0
ARC
  8
0
  6
CONTINUOUS
 62
3
 10
131.761992427422910
 20
-181.415382768257590
 40
1.000000000000000
 50
180.000000000000000
 51
268.499999999997210
  0
LINE
  8
0
  6
CONTINUOUS
 62
3
 10
142.761992427422910
 20
-182.310981874471510
 11
135.261992427422910
 21
-182.507376286240290
  0
LINE
  8
0
  6
CONTINUOUS
 62
3
 10
142.761992427422910
 20
-102.507376286240280
 11
142.761992427422910
 21
-182.310981874471510
  0
LINE
  8
0
  6
CONTINUOUS
 62
3
 10
130.761992427421550
 20
-181.415382768257590
 11
130.761992427422910
 21
-23.599369804222988
  0
ARC
  8
0
  6
CONTINUOUS
 62
3
 10
137.761992427422460
 20
-41.477939034717565
 40
2.000000000000000
 50
90.000000000000000
 51
180.000000000000000
  0
LINE
  8
0
  6
CONTINUOUS
 62
3
 10
142.761992427422910
 20
-39.477939034717565
 11
137.761992427422460
 21
-39.477939034717565
  0
LINE
  8
0
  6
CONTINUOUS
 62
3
 10
137.761992427422230
 20
-97.507376286240287
 11
142.761992427422910
 21
-97.507376286240287
  0
ARC
  8
0
  6
CONTINUOUS
 62
3
 10
137.761992427422230
 20
-95.507376286240287
 40
2.000000000000000
 50
180.000000000000000
 51
270.000000000000000
  0
LINE
  8
0
  6
CONTINUOUS
 62
3
 10
137.761992427422460
 20
-57.814244146776218
 11
142.761992427422910
 21
-57.814244146776218
  0
ARC
  8
0
  6
CONTINUOUS
 62
3
 10
137.761992427422460
 20
-59.814244146776218
 40
2.000000000000000
 50
90.000000000000000
 51
180.000000000000000
  0
ARC
  8
0
  6
CONTINUOUS
 62
3
 10
137.761992427422460
 20
-163.536813537763010
 40
1.999999999999773
 50
180.000000000000000
 51
270.000000000000000
  0
LINE
  8
0
  6
CONTINUOUS
 62
3
 10
142.761992427422910
 20
-165.536813537763010
 11
137.761992427422460
 21
-165.536813537763010
  0
LINE
  8
0
  6
CONTINUOUS
 62
3
 10
137.761992427422230
 20
-107.507376286240280
 11
142.761992427422910
 21
-107.507376286240280
  0
ARC
  8
0
  6
CONTINUOUS
 62
3
 10
137.761992427422230
 20
-109.507376286240280
 40
2.000000000000000
 50
90.000000000000000
 51
180.000000000000000
  0
LINE
  8
0
  6
CONTINUOUS
 62
3
 10
137.761992427422460
 20
-147.200508425704360
 11
142.761992427422910
 21
-147.200508425704360
  0
ARC
  8
0
  6
CONTINUOUS
 62
3
 10
137.761992427422460
 20
-145.200508425704360
 40
2.000000000000000
 50
180.000000000000000
 51
270.000000000000000
  0
LINE
  8
0
  6
CONTINUOUS
 62
3
 10
135.761992427421770
 20
-163.536813537763010
 11
135.761992427422230
 21
-109.507376286240280
  0
LINE
  8
0
  6
CONTINUOUS
 62
3
 10
135.761992427422230
 20
-95.507376286240287
 11
135.761992427422680
 21
-41.477939034717565
  0
LINE
  8
0
  6
CONTINUOUS
 62
3
 10
135.761992427422680
 20
-182.494283325455400
 11
135.761992427423140
 21
-186.999800960134960
  0
LINE
  8
0
  6
CONTINUOUS
 62
4
 10
42.261992427422911
 20
-72.007376286241197
 11
59.761992427422001
 21
-72.007376286241197
  0
LINE
  8
0
  6
CONTINUOUS
 62
4
 10
42.261992427422911
 20
-71.507376286241197
 11
56.761992427422001
 21
-71.507376286241197
  0
LINE
  8
0
  6
CONTINUOUS
 62
4
 10
42.261992427422911
 20
-76.374293691358616
 11
59.761992427422001
 21
-76.374293691358616
  0
LINE
  8
0
  6
CONTINUOUS
 62
4
 10
42.261992427422911
 20
-78.002720759136309
 11
59.761992427422001
 21
-78.002720759136309
  0
LINE
  8
0
  6
CONTINUOUS
 62
4
 10
42.261992427422911
 20
-81.465462515901436
 11
59.761992427422001
 21
-81.465462515901436
  0
LINE
  8
0
  6
CONTINUOUS
 62
4
 10
42.261992427422911
 20
-82.466940879716731
 11
59.761992427422001
 21
-82.466940879716731
  0
LINE
  8
0
  6
CONTINUOUS
 62
4
 10
42.261992427422911
 20
-89.203775334732427
 11
59.761992427422001
 21
-89.203775334732427
  0
LINE
  8
0
  6
CONTINUOUS
 62
4
 10
42.261992427422911
 20
-90.792985127471184
 11
59.761992427422001
 21
-90.792985127471184
  0
LINE
  8
0
  6
CONTINUOUS
 62
4
 10
42.261992427422911
 20
-95.230003889081217
 11
59.761992427422001
 21
-95.230003889081217
  0
LINE
  8
0
  6
CONTINUOUS
 62
4
 10
42.261992427422911
 20
-93.750980735604116
 11
59.761992427422001
 21
-93.750980735604116
  0
LINE
  8
0
  6
CONTINUOUS
 62
4
 10
42.261992427422911
 20
-98.322734880746339
 11
58.761992427422001
 21
-98.322734880746339
  0
LINE
  8
0
  6
CONTINUOUS
 62
4
 10
42.261992427422911
 20
-99.669136606245047
 11
58.761992427422001
 21
-99.669136606245047
  0
LINE
  8
0
  6
CONTINUOUS
 62
4
 10
42.261992427422911
 20
-102.507376286241190
 11
58.761992427422001
 21
-102.507376286241190
  0
LINE
  8
0
  6
CONTINUOUS
 62
4
 10
42.261992427422911
 20
-142.507376286241200
 11
59.761992427422001
 21
-142.507376286241200
  0
LINE
  8
0
  6
CONTINUOUS
 62
4
 10
42.261992427422911
 20
-145.345615966237350
 11
59.761992427422001
 21
-145.345615966237350
  0
LINE
  8
0
  6
CONTINUOUS
 62
4
 10
42.261992427422911
 20
-146.692017691735830
 11
59.761992427422001
 21
-146.692017691735830
  0
LINE
  8
0
  6
CONTINUOUS
 62
4
 10
42.261992427422911
 20
-149.784748683401180
 11
59.761992427422001
 21
-149.784748683401180
  0
LINE
  8
0
  6
CONTINUOUS
 62
4
 10
42.261992427422911
 20
-151.263771836878280
 11
59.761992427422001
 21
-151.263771836878280
  0
LINE
  8
0
  6
CONTINUOUS
 62
4
 10
42.261992427422911
 20
-154.221767445011210
 11
59.761992427422001
 21
-154.221767445011210
  0
LINE
  8
0
  6
CONTINUOUS
 62
4
 10
42.261992427422911
 20
-155.810977237749970
 11
59.761992427422001
 21
-155.810977237749970
  0
LINE
  8
0
  6
CONTINUOUS
 62
4
 10
42.261992427422911
 20
-162.547811692765660
 11
59.761992427422001
 21
-162.547811692765660
  0
LINE
  8
0
  6
CONTINUOUS
 62
4
 10
42.261992427422911
 20
-163.549290056580960
 11
59.761992427422001
 21
-163.549290056580960
  0
LINE
  8
0
  6
CONTINUOUS
 62
4
 10
42.261992427422911
 20
-167.012031813346080
 11
59.761992427422001
 21
-167.012031813346080
  0
LINE
  8
0
  6
CONTINUOUS
 62
4
 10
42.261992427422911
 20
-168.640458881124000
 11
59.761992427422001
 21
-168.640458881124000
  0
LINE
  8
0
  6
CONTINUOUS
 62
4
 10
42.261992427422911
 20
-173.507376286241420
 11
59.761992427422001
 21
-173.507376286241420
  0
LINE
  8
0
  6
CONTINUOUS
 62
4
 10
42.261992427422911
 20
-173.007376286241200
 11
59.761992427422001
 21
-173.007376286241200
  0
LINE
  8
0
  6
CONTINUOUS
 62
3
 10
42.261992427422911
 20
-95.230003889081217
 11
42.261992427422911
 21
-70.007376286241197
  0
CIRCLE
  8
0
  6
CONTINUOUS
 62
3
 10
311.257831051157150
 20
-102.507376286240280
 40
3.323500000000024
  0
CIRCLE
  8
0
  6
CONTINUOUS
 62
4
 10
311.257831051157150
 20
-102.507376286240280
 40
4.000000000000000
  0
LINE
  8
0
  6
CONTINUOUS
 62
3
 10
297.757831051157150
 20
-99.507376286240287
 11
303.757831051157150
 21
-99.507376286240287
  0
LINE
  8
0
  6
CONTINUOUS
 62
3
 10
297.757831051157150
 20
-99.507376286240287
 11
297.757831051157150
 21
-105.507376286240280
  0
ARC
  8
0
  6
CONTINUOUS
 62
3
 10
311.257831051157150
 20
-102.507376286240280
 40
11.000000000000037
 50
195.826620131872290
 51
164.173379868127710
  0
LINE
  8
0
  6
CONTINUOUS
 62
3
 10
303.757831051157150
 20
-105.507376286240280
 11
303.757831051157150
 21
-99.507376286240287
  0
LINE
  8
0
  6
CONTINUOUS
 62
3
 10
297.757831051157150
 20
-105.507376286240280
 11
303.757831051157150
 21
-105.507376286240280
  0
ARC
  8
0
  6
CONTINUOUS
 62
3
 10
271.257831051157150
 20
-181.007376286240290
 40
9.000000000000044
 50
313.761742692680060
 51
330.000000000000570
  0
ARC
  8
0
  6
CONTINUOUS
 62
3
 10
271.257831051157150
 20
-181.007376286240290
 40
7.999999999999988
 50
190.806922874860360
 51
234.340912303861100
  0
ARC
  8
0
  6
CONTINUOUS
 62
3
 10
351.257831051157150
 20
-181.007376286240290
 40
8.000000000000012
 50
305.659087696138900
 51
349.193077125139670
  0
ARC
  8
0
  6
CONTINUOUS
 62
3
 10
351.257831051157150
 20
-181.007376286240290
 40
8.999999999999950
 50
210.000000000000200
 51
226.238257307319910
  0
ARC
  8
0
  6
CONTINUOUS
 62
3
 10
259.769195055787120
 20
-58.089808102735333
 40
2.999999999999542
 50
44.999999999993868
 51
139.216730478861190
  0
ARC
  8
0
  6
CONTINUOUS
 62
3
 10
266.840262867652650
 20
-51.018740290870483
 40
3.000000000000379
 50
130.783269521145830
 51
224.999999999990790
  0
ARC
  8
0
  6
CONTINUOUS
 62
3
 10
355.675399234661880
 20
-51.018740290870483
 40
2.999999999999542
 50
315.000000000006140
 51
49.216730478857478
  0
ARC
  8
0
  6
CONTINUOUS
 62
3
 10
362.746467046527410
 20
-58.089808102735333
 40
2.999999999999589
 50
40.783269521141641
 51
135.000000000009210
  0
ARC
  8
0
  6
CONTINUOUS
 62
3
 10
306.257831051157150
 20
-34.691448953496547
 40
3.000000000000000
 50
0.000000000000000
 51
94.216730478853037
  0
ARC
  8
0
  6
CONTINUOUS
 62
3
 10
316.257831051157150
 20
-34.691448953496547
 40
2.999999999999889
 50
85.783269521146963
 51
180.000000000000000
  0
ARC
  8
0
  6
CONTINUOUS
 62
3
 10
241.257831051157150
 20
-172.507376286240290
 40
10.000000000000000
 50
180.000000000000000
 51
270.000000000000000
  0
ARC
  8
0
  6
CONTINUOUS
 62
3
 10
381.257831051157150
 20
-172.507376286240290
 40
10.000000000000000
 50
270.000000000000000
 51
0.000000000000000
  0
ARC
  8
0
  6
DASHDOT
 62
4
 10
311.257831051157150
 20
-102.507376286240280
 40
97.500000000000298
 50
309.123187734056780
 51
320.876812265942530
  0
ARC
  8
0
  6
CONTINUOUS
 62
3
 10
389.257831051157150
 20
-166.365240662509680
 40
2.000000000000000
 50
0.000000000026055
 51
45.000000000004619
  0
ARC
  8
0
  6
CONTINUOUS
 62
3
 10
375.115695427426090
 20
-180.507376286240290
 40
2.000000000000016
 50
225.000000000009210
 51
270.000000000000000
  0
ARC
  8
0
  6
CONTINUOUS
 62
3
 10
247.399966674888220
 20
-180.507376286240290
 40
2.000000000000000
 50
270.000000000000000
 51
314.999999999990790
  0
ARC
  8
0
  6
CONTINUOUS
 62
3
 10
233.257831051157150
 20
-166.365240662509680
 40
2.000000000000177
 50
134.999999999995370
 51
180.000000000000000
  0
ARC
  8
0
  6
DASHDOT
 62
4
 10
311.257831051157150
 20
-102.507376286240280
 40
97.500000000000298
 50
129.123187734056760
 51
140.876812265942500
  0
ARC
  8
0
  6
CONTINUOUS
 62
3
 10
233.257831051157150
 20
-38.649511909970897
 40
2.000000000000000
 50
180.000000000000000
 51
225.000000000004630
  0
ARC
  8
0
  6
CONTINUOUS
 62
3
 10
247.399966674888220
 20
-24.507376286240287
 40
2.000000000000016
 50
45.000000000009216
 51
90.000000000000000
  0
ARC
  8
0
  6
CONTINUOUS
 62
3
 10
241.257831051157150
 20
-32.507376286240287
 40
10.000000000000000
 50
90.000000000000000
 51
180.000000000000000
  0
ARC
  8
0
  6
CONTINUOUS
 62
3
 10
375.115695427426090
 20
-24.507376286240287
 40
2.000000000000000
 50
90.000000000000000
 51
134.999999999990790
  0
ARC
  8
0
  6
CONTINUOUS
 62
3
 10
389.257831051157150
 20
-38.649511909970897
 40
2.000000000000177
 50
314.999999999995400
 51
0.000000000000000
  0
ARC
  8
0
  6
CONTINUOUS
 62
3
 10
381.257831051157150
 20
-32.507376286240287
 40
10.000000000000000
 50
0.000000000000000
 51
90.000000000000000
  0
ARC
  8
0
  6
CONTINUOUS
 62
3
 10
311.257831051157150
 20
-102.507376286240280
 40
77.999999999999957
 50
59.477512185929996
 51
120.522487814070010
  0
ARC
  8
0
  6
CONTINUOUS
 62
3
 10
266.564698911693090
 20
-26.701545774568331
 40
9.999999999999758
 50
224.999999999996330
 51
300.522487814070870
  0
ARC
  8
0
  6
CONTINUOUS
 62
3
 10
266.564698911693090
 20
-178.313206797913150
 40
10.000000000000433
 50
59.477512185931793
 51
134.999999999999090
  0
ARC
  8
0
  6
CONTINUOUS
 62
3
 10
311.257831051157150
 20
-102.507376286240280
 40
77.999999999999957
 50
239.477512185929980
 51
300.522487814070020
  0
ARC
  8
0
  6
CONTINUOUS
 62
3
 10
355.950963190621450
 20
-178.313206797913150
 40
10.000000000000242
 50
45.000000000000931
 51
120.522487814069320
  0
ARC
  8
0
  6
CONTINUOUS
 62
3
 10
355.950963190621220
 20
-26.701545774568331
 40
9.999999999999650
 50
239.477512185929130
 51
315.000000000002730
  0
CIRCLE
  8
0
  6
CONTINUOUS
 62
3
 10
242.314919885468730
 20
-33.564465120552086
 40
5.300000000000011
  0
CIRCLE
  8
0
  6
CONTINUOUS
 62
3
 10
242.314919885468950
 20
-171.450287451928490
 40
5.300000000000011
  0
CIRCLE
  8
0
  6
CONTINUOUS
 62
3
 10
380.200742216845580
 20
-171.450287451928490
 40
5.300000000000011
  0
CIRCLE
  8
0
  6
CONTINUOUS
 62
3
 10
380.200742216845580
 20
-33.564465120552086
 40
5.300000000000011
  0
LINE
  8
0
  6
CONTINUOUS
 62
3
 10
390.257831051157150
 20
-107.507376286240280
 11
390.029653424389150
 21
-107.507376286240280
  0
LINE
  8
0
  6
CONTINUOUS
 62
3
 10
390.257831051157150
 20
-97.507376286240287
 11
390.029653424389150
 21
-97.507376286240287
  0
LINE
  8
0
  6
CONTINUOUS
 62
3
 10
232.257831051157150
 20
-107.507376286240280
 11
232.486008677925160
 21
-107.507376286240280
  0
LINE
  8
0
  6
CONTINUOUS
 62
3
 10
232.257831051157150
 20
-97.507376286240287
 11
232.486008677925160
 21
-97.507376286240287
  0
LINE
  8
0
  6
CONTINUOUS
 62
3
 10
379.992593750964030
 20
-50.743176334910459
 11
390.672044613530260
 21
-40.063725472344231
  0
LINE
  8
0
  6
CONTINUOUS
 62
3
 10
363.022031002486760
 20
-33.772613586433181
 11
373.701481865053210
 21
-23.093162723866953
  0
LINE
  8
0
  6
DASHDOT
 62
4
 10
372.655660304831830
 20
-41.109547032565615
 11
387.372719482753150
 21
-26.392487854644287
  0
LINE
  8
0
  6
CONTINUOUS
 62
3
 10
391.257831051157150
 20
-32.507376286240287
 11
391.257831051157150
 21
-172.507376286240290
  0
LINE
  8
0
  6
CONTINUOUS
 62
3
 10
381.257831051157150
 20
-22.507376286240287
 11
241.257831051157150
 21
-22.507376286240287
  0
LINE
  8
0
  6
CONTINUOUS
 62
3
 10
259.493631099827330
 20
-33.772613586433181
 11
248.814180237261100
 21
-23.093162723866953
  0
LINE
  8
0
  6
CONTINUOUS
 62
3
 10
242.523068351350500
 20
-50.743176334910459
 11
231.843617488784050
 21
-40.063725472344231
  0
LINE
  8
0
  6
DASHDOT
 62
4
 10
250.434547069174870
 20
-41.684092304258002
 11
234.983560230409920
 21
-26.233105465493054
  0
LINE
  8
0
  6
CONTINUOUS
 62
3
 10
231.257831051157150
 20
-32.507376286240287
 11
231.257831051157150
 21
-172.507376286240290
  0
LINE
  8
0
  6
CONTINUOUS
 62
3
 10
242.523068351350280
 20
-154.271576237570120
 11
231.843617488784050
 21
-164.951027100136340
  0
LINE
  8
0
  6
CONTINUOUS
 62
3
 10
259.493631099827550
 20
-171.242138986047390
 11
248.814180237261100
 21
-181.921589848613620
  0
LINE
  8
0
  6
DASHDOT
 62
4
 10
249.522049738294070
 20
-164.243157599103370
 11
235.050871743309240
 21
-178.714335594088200
  0
LINE
  8
0
  6
CONTINUOUS
 62
3
 10
379.992593750964030
 20
-154.271576237570120
 11
390.672044613530260
 21
-164.951027100136340
  0
LINE
  8
0
  6
CONTINUOUS
 62
3
 10
363.022031002486980
 20
-171.242138986047390
 11
373.701481865053210
 21
-181.921589848613620
  0
LINE
  8
0
  6
DASHDOT
 62
4
 10
373.065135043519830
 20
-164.314680278602960
 11
387.361374526524510
 21
-178.610919761607620
  0
LINE
  8
0
  6
DASHDOT
 62
4
 10
212.193235521923730
 20
-102.507376286240280
 11
402.964244539223730
 21
-102.507376286240280
  0
LINE
  8
0
  6
DASHDOT
 62
4
 10
295.841222947416100
 20
-122.507376286240280
 11
327.776110863440410
 21
-122.507376286240280
  0
LINE
  8
0
  6
DASHDOT
 62
4
 10
311.257831051157150
 20
-15.157364593502280
 11
311.257831051157150
 21
-198.675228301623970
  0
LINE
  8
0
  6
CONTINUOUS
 62
3
 10
309.257831051157150
 20
-34.691448953496547
 11
309.257831051157150
 21
-60.255142069326212
  0
LINE
  8
0
  6
CONTINUOUS
 62
3
 10
313.257831051157150
 20
-34.691448953496547
 11
313.257831051157150
 21
-60.255142069326212
  0
LINE
  8
0
  6
CONTINUOUS
 62
3
 10
357.796719578221430
 20
-53.140060634429574
 11
346.294683346744480
 21
-64.642096865906751
  0
LINE
  8
0
  6
CONTINUOUS
 62
3
 10
360.625146702967640
 20
-55.968487759176242
 11
352.083102221042960
 21
-64.510532241100918
  0
LINE
  8
0
  6
CONTINUOUS
 62
3
 10
261.890515399346670
 20
-55.968487759176242
 11
270.432559881271350
 21
-64.510532241100918
  0
LINE
  8
0
  6
CONTINUOUS
 62
3
 10
264.718942524092880
 20
-53.140060634429574
 11
276.220978755569830
 21
-64.642096865906751
  0
LINE
  8
0
  6
CONTINUOUS
 62
3
 10
311.257831051157150
 20
-185.507376286240290
 11
343.463602417097260
 21
-185.507376286240290
  0
LINE
  8
0
  6
CONTINUOUS
 62
3
 10
345.032881252162720
 20
-187.507376286240290
 11
355.921520577701590
 21
-187.507376286240290
  0
LINE
  8
0
  6
CONTINUOUS
 62
3
 10
359.115947873908000
 20
-182.507376286240290
 11
381.257831051157150
 21
-182.507376286240290
  0
LINE
  8
0
  6
CONTINUOUS
 62
3
 10
277.482780850151580
 20
-187.507376286240290
 11
266.594141524612720
 21
-187.507376286240290
  0
LINE
  8
0
  6
CONTINUOUS
 62
3
 10
241.257831051157150
 20
-182.507376286240290
 11
263.399714228406310
 21
-182.507376286240290
  0
LINE
  8
0
  6
CONTINUOUS
 62
3
 10
311.257831051157150
 20
-185.507376286240290
 11
279.052059685217050
 21
-185.507376286240290
  0
ARC
  8
0
  6
CONTINUOUS
 62
3
 10
390.029653424389150
 20
-108.507376286240280
 40
1.000000000000000
 50
90.000000000000000
 51
175.644227372976700
  0
ARC
  8
0
  6
CONTINUOUS
 62
3
 10
390.257831051157150
 20
-106.507376286240280
 40
1.000000000000000
 50
270.000000000000000
 51
0.000000000000000
  0
ARC
  8
0
  6
CONTINUOUS
 62
3
 10
390.029653424389150
 20
-96.507376286240287
 40
0.999999999999999
 50
184.355772627023300
 51
270.000000000000000
  0
ARC
  8
0
  6
CONTINUOUS
 62
3
 10
390.257831051157150
 20
-98.507376286240287
 40
1.000000000000000
 50
0.000000000000000
 51
90.000000000000000
  0
ARC
  8
0
  6
CONTINUOUS
 62
3
 10
232.257831051157150
 20
-106.507376286240280
 40
1.000000000000000
 50
180.000000000000000
 51
270.000000000000000
  0
ARC
  8
0
  6
CONTINUOUS
 62
3
 10
232.486008677925160
 20
-108.507376286240280
 40
0.999999999999999
 50
4.355772627023321
 51
90.000000000000000
  0
ARC
  8
0
  6
CONTINUOUS
 62
3
 10
232.257831051157150
 20
-98.507376286240287
 40
1.000000000000000
 50
90.000000000000000
 51
180.000000000000000
  0
ARC
  8
0
  6
CONTINUOUS
 62
3
 10
232.486008677925160
 20
-96.507376286240287
 40
1.000000000000000
 50
270.000000000000000
 51
355.644227372976670
  0
ARC
  8
0
  6
CONTINUOUS
 62
3
 10
311.257831051157150
 20
-102.507376286240280
 40
78.000000000000085
 50
4.355772627031354
 51
30.522487814070015
  0
ARC
  8
0
  6
CONTINUOUS
 62
3
 10
311.257831051157150
 20
-102.507376286240280
 40
78.000000000000085
 50
184.355772627031340
 51
210.522487814070020
  0
ARC
  8
0
  6
CONTINUOUS
 62
3
 10
375.133961104465930
 20
-85.898944409245814
 40
4.999999999999898
 50
206.056903281674380
 51
14.574752288481397
  0
ARC
  8
0
  6
CONTINUOUS
 62
3
 10
311.257831051157150
 20
-456.507376286240290
 40
393.283778524804060
 50
90.722932692684765
 51
93.357817421570687
  0
ARC
  8
0
  6
CONTINUOUS
 62
3
 10
311.257831051157150
 20
-456.507376286240290
 40
393.283778524803950
 50
86.642182578429313
 51
89.277067307315235
  0
ARC
  8
0
  6
CONTINUOUS
 62
3
 10
290.757831051157150
 20
-107.108249212345070
 40
43.283778524803985
 50
93.357817421570644
 51
105.560040400866880
  0
ARC
  8
0
  6
CONTINUOUS
 62
3
 10
247.381700997848380
 20
-85.898944409244905
 40
4.999999999999824
 50
165.425247711517950
 51
333.943096718326790
  0
ARC
  8
0
  6
CONTINUOUS
 62
3
 10
387.063661562829570
 20
-57.814244146776218
 40
10.000000000000242
 50
134.999999999999090
 51
210.522487814069560
  0
ARC
  8
0
  6
CONTINUOUS
 62
3
 10
387.063661562829570
 20
-147.200508425704360
 40
10.000000000000041
 50
149.477512185930440
 51
225.000000000000910
  0
ARC
  8
0
  6
CONTINUOUS
 62
3
 10
311.257831051157150
 20
-102.507376286240280
 40
77.999999999999957
 50
329.477512185929980
 51
355.644227372968660
  0
ARC
  8
0
  6
CONTINUOUS
 62
3
 10
235.452000539484740
 20
-147.200508425704360
 40
10.000000000000242
 50
314.999999999999090
 51
30.522487814069546
  0
ARC
  8
0
  6
CONTINUOUS
 62
3
 10
235.452000539484740
 20
-57.814244146776218
 40
10.000000000000041
 50
329.477512185930440
 51
45.000000000000000
  0
ARC
  8
0
  6
CONTINUOUS
 62
3
 10
311.257831051157150
 20
-102.507376286240280
 40
77.999999999999957
 50
149.477512185929980
 51
175.644227372968660
  0
CIRCLE
  8
0
  6
CONTINUOUS
 62
3
 10
311.257831051157150
 20
-102.507376286240280
 40
71.000000000000000
  0
ARC
  8
0
  6
CONTINUOUS
 62
3
 10
290.757831051157150
 20
-107.108249212345070
 40
43.283778524804646
 50
119.010998725227180
 51
153.943096718326930
  0
ARC
  8
0
  6
CONTINUOUS
 62
3
 10
331.757831051157150
 20
-107.108249212345070
 40
43.283778524804475
 50
74.439959599133118
 51
86.642182578429356
  0
ARC
  8
0
  6
CONTINUOUS
 62
3
 10
306.257831051157150
 20
-60.255142069326212
 40
3.000000000000205
 50
270.722932692684590
 51
0.000000000000000
  0
ARC
  8
0
  6
CONTINUOUS
 62
3
 10
316.257831051157150
 20
-60.255142069326212
 40
3.000000000000000
 50
180.000000000000000
 51
269.277067307315410
  0
ARC
  8
0
  6
CONTINUOUS
 62
3
 10
354.204422564602740
 20
-66.631852584660010
 40
2.999999999999703
 50
135.000000000009210
 51
240.989001274778500
  0
ARC
  8
0
  6
CONTINUOUS
 62
3
 10
344.173363003184930
 20
-62.520776522346750
 40
3.000000000000183
 50
254.439959599132550
 51
314.999999999993860
  0
ARC
  8
0
  6
CONTINUOUS
 62
3
 10
268.311239537711570
 20
-66.631852584660010
 40
2.999999999999936
 50
299.010998725229910
 51
44.999999999990798
  0
ARC
  8
0
  6
CONTINUOUS
 62
3
 10
278.342299099129380
 20
-62.520776522346750
 40
3.000000000000185
 50
225.000000000006170
 51
285.560040400867420
  0
CIRCLE
  8
0
  6
CONTINUOUS
 62
3
 10
311.579662058506980
 20
-102.791858476451120
 40
21.881536638176669
  0
CIRCLE
  8
0
  6
CONTINUOUS
 62
3
 10
311.248275741342700
 20
-102.460472159286830
 40
28.501149875631768
  0
CIRCLE
  8
0
  6
CONTINUOUS
 62
3
 10
311.449775489710190
 20
-102.481851921692390
 40
75.000000000000000
  0
CIRCLE
  8
0
  6
CONTINUOUS
 62
3
 10
311.257831051157150
 20
-102.507376286240280
 40
19.000000000000000
  0
ARC
  8
0
  6
DASHDOT
 62
4
 10
311.257831051157150
 20
-102.507376286240280
 40
97.500000000000000
 50
39.233104965978008
 51
50.876812265942476
  0
ARC
  8
0
  6
DASHDOT
 62
4
 10
311.257831051157150
 20
-102.507376286240280
 40
97.500000000000043
 50
219.194612110882080
 51
230.876812265942480
  0
ARC
  8
0
  6
CONTINUOUS
 62
3
 10
331.757831051157150
 20
-107.108249212345070
 40
43.283778524804298
 50
59.292619216613510
 51
60.989001274772242
  0
LINE
  8
0
  6
CONTINUOUS
 62
3
 10
42.261992427422911
 20
-175.020469247026090
 11
42.261992427422911
 21
-122.507376286241190
  0
LINE
  8
0
  6
CONTINUOUS
 62
3
 10
42.261992427422911
 20
-70.007376286241197
 11
42.261992427422911
 21
-122.507376286241190
  0
LINE
  8
0
  6
CONTINUOUS
 62
3
 10
42.261992427422911
 20
-122.507376286241190
 11
42.261992427422911
 21
-95.230003889081217
  0
LINE
  8
0
  6
CONTINUOUS
 62
3
 10
231.257831051157150
 20
-86.507376286240401
 11
226.391166278214770
 21
-86.507376286240401
  0
LINE
  8
0
  6
CONTINUOUS
 62
3
 10
231.257831051157150
 20
-158.507376286240290
 11
226.391166278214770
 21
-158.507376286240290
  0
LINE
  8
0
  6
CONTINUOUS
 62
3
 10
219.257831051157150
 20
-120.007376286240170
 11
219.768247898674870
 21
-120.007376286240170
  0
LINE
  8
0
  6
CONTINUOUS
 62
3
 10
219.257831051157150
 20
-125.007376286240280
 11
219.257831051157150
 21
-120.007376286240280
  0
LINE
  8
0
  6
CONTINUOUS
 62
3
 10
219.257831051157150
 20
-125.007376286240280
 11
219.768247898674870
 21
-125.007376286240280
  0
ARC
  8
0
  6
CONTINUOUS
 62
3
 10
226.391166278214770
 20
-153.507376286240260
 40
5.000000000000143
 50
186.032049146370330
 51
270.000000000000000
  0
ARC
  8
0
  6
CONTINUOUS
 62
3
 10
226.391166278214770
 20
-91.507376286240401
 40
5.000000000000000
 50
90.000000000000000
 51
173.967950853629670
  0
ARC
  8
0
  6
CONTINUOUS
 62
3
 10
519.757831051157150
 20
-122.507376286240280
 40
300.000000000000060
 50
173.967950853630190
 51
186.032049146369810
  0
ENDSEC
  0
EOF
