  0
SECTION
  2
HEADER
  9
$FILLMODE
 70
1
  9
$TEXTSTYLE
  7
STANDARD1
  9
$ACADVER
  1
AC1009
  9
$DIMASZ
 40
1.931851648807023
  9
$DIMEXE
 40
2.000000000000000
  9
$DIMEXO
 40
1.000000000000000
  9
$DIMLFAC
 40
1.000000000000000
  9
$DIMSCALE
 40
1.000000000000000
  9
$DIMTAD
 70
1
  9
$DIMTFAC
 40
0.714285731315613
  9
$DIMTXT
 40
2.799999952316284
  9
$LUPREC
 70
3
  9
$TEXTSIZE
 40
2.799999952316284
  9
$REGENMODE
 70
1
  0
ENDSEC
  0
SECTION
  2
TABLES
  0
TABLE
  2
LTYPE
 70
4
  0
LTYPE
  2
CONTINUOUS
 70
64
  3
Solid line
 72
65
 73
0
 40
0.0
  0
LTYPE
  2
DASHED
 70
64
  3
-- -- -- -- -- -- -- -- -- -- -- -- -- -- --
 72
65
 73
2
 40
0.75
 49
0.5
 49
-0.25
  0
LTYPE
  2
DASHDOT
 70
64
  3
__ . __ . __ . __ . __ . __ . __ . __ . __ . __
 72
65
 73
4
 40
1.0
 49
0.5
 49
-0.25
 49
0.0
 49
-0.25
  0
LTYPE
  2
DIVIDE
 70
64
  3
__ . . __ . . __ . . __ . . __ . . __ . . __
 72
65
 73
6
 40
1.25
 49
0.5
 49
-0.25
 49
0.0
 49
-0.25
 49
0.0
 49
-0.25
  0
ENDTAB
  0
TABLE
  2
LAYER
 70
1
  0
LAYER
  2
0
 70
64
 62
2
  6
CONTINUOUS
  0
ENDTAB
  0
TABLE
  2
STYLE
 70
4
  0
STYLE
  2
STANDARD1
 70
64
 40
0.0
 41
1.0
 50
0.0
 71
0
 42
2.799999952316284
  3
MONOTXT
  4
BIGFONT
  0
STYLE
  2
STANDARD2
 70
68
 40
0.0
 41
1.0
 50
0.0
 71
0
 42
2.799999952316284
  3
MONOTXT
  4
BIGFONT
  0
STYLE
  2
STANDARD3
 70
64
 40
0.0
 41
1.0
 50
0.0
 71
0
 42
2.799999952316284
  3
MONOTXT
  4

  0
STYLE
  2
STANDARD4
 70
68
 40
0.0
 41
1.0
 50
0.0
 71
0
 42
2.799999952316284
  3
MONOTXT
  4

  0
ENDTAB
  0
TABLE
  2
VIEW
 70
0
  0
ENDTAB
  0
ENDSEC
  0
SECTION
  2
BLOCKS
  0
BLOCK
  8
0
  2
SYM1
 70
64
 10
0.000000000000000
 20
0.000000000000000
  0
CIRCLE
  8
0
  6
CONTINUOUS
 62
3
 10
0.000000000000000
 20
0.000000000000000
 40
4.000000000000000
  0
LINE
  8
0
  6
CONTINUOUS
 62
3
 10
4.000000476834402
 20
2.299992229627764
 11
3.999995708466355
 21
-2.300002429796065
  0
LINE
  8
0
  6
CONTINUOUS
 62
3
 10
0.000007291900715
 20
4.600000131531601
 11
4.000000535118602
 21
2.299995435993480
  0
LINE
  8
0
  6
CONTINUOUS
 62
3
 10
-3.999993333512748
 20
2.300001902428903
 11
0.000004858421221
 21
4.599995671750889
  0
LINE
  8
0
  6
CONTINUOUS
 62
3
 10
-4.000000476834402
 20
-2.299992229627764
 11
-3.999995708466355
 21
2.300002429796065
  0
LINE
  8
0
  6
CONTINUOUS
 62
3
 10
-0.000007291900715
 20
-4.600000131531601
 11
-4.000000535118602
 21
-2.299995435993480
  0
LINE
  8
0
  6
CONTINUOUS
 62
3
 10
3.999993333512748
 20
-2.300001902428903
 11
-0.000004858421221
 21
-4.599995671750889
  0
POINT
  8
0
  6
CONTINUOUS
 62
3
 10
0.000000000000000
 20
0.000000000000000
  0
ENDBLK
  8
0
  0
BLOCK
  8
0
  2
SYM2
 70
64
 10
0.000000000000000
 20
0.000000000000000
  0
LINE
  8
0
  6
CONTINUOUS
 62
3
 10
2.499999351944041
 20
-1.443373974675978
 11
-0.000004997562428
 21
-2.886747551371855
  0
LINE
  8
0
  6
CONTINUOUS
 62
3
 10
0.000004782436690
 20
2.886748260213380
 11
-2.499999945610170
 21
1.443377225120230
  0
LINE
  8
0
  6
CONTINUOUS
 62
3
 10
-0.000005512125483
 20
-2.886746937722080
 11
-2.499997817169060
 21
-1.443371590977961
  0
LINE
  8
0
  6
CONTINUOUS
 62
3
 10
0.000004721207233
 20
2.886748740356097
 11
2.499998505998519
 21
1.443372095808627
  0
LINE
  8
0
  6
CONTINUOUS
 62
3
 10
2.499997615814836
 20
1.443371644999042
 11
2.499998569489158
 21
-1.443373807881817
  0
LINE
  8
0
  6
CONTINUOUS
 62
3
 10
-2.499997615815493
 20
-1.443371644997905
 11
-2.499998569489762
 21
1.443377622580220
  0
POINT
  8
0
  6
CONTINUOUS
 62
3
 10
0.000000000000000
 20
0.000000000000000
  0
CIRCLE
  8
0
  6
CONTINUOUS
 62
3
 10
0.000000000000000
 20
0.000000000000000
 40
5.000000000000000
  0
ENDBLK
  8
0
  0
BLOCK
  8
0
  2
SYM3
 70
64
 10
0.000000000000000
 20
0.000000000000000
  0
LINE
  8
0
  6
CONTINUOUS
 62
3
 10
2.499999351944041
 20
-1.443373974675978
 11
-0.000004997562428
 21
-2.886747551371855
  0
LINE
  8
0
  6
CONTINUOUS
 62
3
 10
0.000004782436690
 20
2.886748260213380
 11
-2.499999945610170
 21
1.443377225120230
  0
LINE
  8
0
  6
CONTINUOUS
 62
3
 10
-0.000005512125483
 20
-2.886746937722080
 11
-2.499997817169060
 21
-1.443371590977961
  0
LINE
  8
0
  6
CONTINUOUS
 62
3
 10
0.000004721207233
 20
2.886748740356097
 11
2.499998505998519
 21
1.443372095808627
  0
LINE
  8
0
  6
CONTINUOUS
 62
3
 10
2.499997615814836
 20
1.443371644999042
 11
2.499998569489158
 21
-1.443373807881817
  0
LINE
  8
0
  6
CONTINUOUS
 62
3
 10
-2.499997615815493
 20
-1.443371644997905
 11
-2.499998569489762
 21
1.443377622580220
  0
POINT
  8
0
  6
CONTINUOUS
 62
3
 10
0.000000000000000
 20
0.000000000000000
  0
CIRCLE
  8
0
  6
CONTINUOUS
 62
3
 10
0.000000000000000
 20
0.000000000000000
 40
5.000000000000000
  0
ENDBLK
  8
0
  0
BLOCK
  8
0
  2
SYM4
 70
64
 10
0.000000000000000
 20
0.000000000000000
  0
ARC
  8
0
  6
CONTINUOUS
 62
3
 10
2.040000915527344
 20
-0.000008403939319
 40
5.539999008178711
 50
155.470186567177590
 51
204.529249714844780
  0
ARC
  8
0
  6
CONTINUOUS
 62
3
 10
-1.929986000061035
 20
3.450007438659668
 40
1.569999694824219
 50
179.999745461767870
 51
227.099746430935310
  0
ARC
  8
0
  6
CONTINUOUS
 62
3
 10
-1.930013656616211
 20
-3.449991226196289
 40
1.569999694824219
 50
132.899744492600430
 51
179.999745461767870
  0
LINE
  8
0
  6
CONTINUOUS
 62
3
 10
-2.999989096318101
 20
2.300010681148706
 11
0.000009475023974
 21
2.300000190729854
  0
LINE
  8
0
  6
CONTINUOUS
 62
3
 10
-3.000007597599688
 20
-2.299985885626180
 11
-0.000008155921205
 21
-2.299998283391806
  0
LINE
  8
0
  6
CONTINUOUS
 62
3
 10
0.000018950048186
 20
4.600000381469727
 11
-0.000018950048186
 21
-4.600000381469727
  0
LINE
  8
0
  6
CONTINUOUS
 62
3
 10
-2.999979146307184
 20
4.600011825551216
 11
0.000019104623546
 21
4.600001335133485
  0
LINE
  8
0
  6
CONTINUOUS
 62
3
 10
-3.499965125831864
 20
3.900000017678906
 11
-2.999963510759926
 21
4.599997551336457
  0
LINE
  8
0
  6
CONTINUOUS
 62
3
 10
-3.500011920918244
 20
-3.899979774771439
 11
-3.499980449679529
 21
3.900009925545944
  0
LINE
  8
0
  6
CONTINUOUS
 62
3
 10
-2.999996095884057
 20
-4.599969847145871
 11
-3.499991138206155
 21
-3.899966512616629
  0
LINE
  8
0
  6
CONTINUOUS
 62
3
 10
-0.000017659877873
 20
-4.599998474126673
 11
-3.000017102555891
 21
-4.599986076361044
  0
POINT
  8
0
  6
CONTINUOUS
 62
3
 10
0.000000000000000
 20
0.000000000000000
  0
ENDBLK
  8
0
  0
BLOCK
  8
0
  2
SYM5
 70
64
 10
0.000000000000000
 20
0.000000000000000
  0
ARC
  8
0
  6
CONTINUOUS
 62
3
 10
2.040000915527344
 20
-0.000008403939319
 40
5.539999008178711
 50
155.470186567177590
 51
204.529249714844780
  0
ARC
  8
0
  6
CONTINUOUS
 62
3
 10
-1.929986000061035
 20
3.450007438659668
 40
1.569999694824219
 50
179.999745461767870
 51
227.099746430935310
  0
ARC
  8
0
  6
CONTINUOUS
 62
3
 10
-1.930013656616211
 20
-3.449991226196289
 40
1.569999694824219
 50
132.899744492600430
 51
179.999745461767870
  0
LINE
  8
0
  6
CONTINUOUS
 62
3
 10
-2.999989096318101
 20
2.300010681148706
 11
0.000009475023974
 21
2.300000190729854
  0
LINE
  8
0
  6
CONTINUOUS
 62
3
 10
-3.000007597599688
 20
-2.299985885626180
 11
-0.000008155921205
 21
-2.299998283391806
  0
LINE
  8
0
  6
CONTINUOUS
 62
3
 10
0.000018950048186
 20
4.600000381469727
 11
-0.000018950048186
 21
-4.600000381469727
  0
LINE
  8
0
  6
CONTINUOUS
 62
3
 10
-2.999979146307184
 20
4.600011825551216
 11
0.000019104623546
 21
4.600001335133485
  0
LINE
  8
0
  6
CONTINUOUS
 62
3
 10
-3.499965125831864
 20
3.900000017678906
 11
-2.999963510759926
 21
4.599997551336457
  0
LINE
  8
0
  6
CONTINUOUS
 62
3
 10
-3.500011920918244
 20
-3.899979774771439
 11
-3.499980449679529
 21
3.900009925545944
  0
LINE
  8
0
  6
CONTINUOUS
 62
3
 10
-2.999996095884057
 20
-4.599969847145871
 11
-3.499991138206155
 21
-3.899966512616629
  0
LINE
  8
0
  6
CONTINUOUS
 62
3
 10
-0.000017659877873
 20
-4.599998474126673
 11
-3.000017102555891
 21
-4.599986076361044
  0
POINT
  8
0
  6
CONTINUOUS
 62
3
 10
0.000000000000000
 20
0.000000000000000
  0
ENDBLK
  8
0
  0
BLOCK
  8
0
  2
SYM6
 70
64
 10
0.000000000000000
 20
0.000000000000000
  0
POINT
  8
0
  6
CONTINUOUS
 62
3
 10
0.000000000000000
 20
0.000000000000000
  0
LINE
  8
0
  6
CONTINUOUS
 62
3
 10
0.000000000000000
 20
5.000000000000000
 11
0.000000000000000
 21
-5.000000000000000
  0
LINE
  8
0
  6
CONTINUOUS
 62
3
 10
-6.000000000000000
 20
-5.000000000000000
 11
-6.000000000000000
 21
5.000000000000000
  0
LINE
  8
0
  6
CONTINUOUS
 62
3
 10
0.000000000000000
 20
5.000000000000000
 11
-6.000000000000000
 21
5.000000000000000
  0
LINE
  8
0
  6
CONTINUOUS
 62
3
 10
-0.000000000000000
 20
-5.000000000000000
 11
-6.000000000000000
 21
-5.000000000000000
  0
ENDBLK
  8
0
  0
BLOCK
  8
0
  2
SYM7
 70
64
 10
0.000000000000000
 20
0.000000000000000
  0
LINE
  8
0
  6
CONTINUOUS
 62
3
 10
-0.000000000000000
 20
-5.000000000000000
 11
-6.000000000000000
 21
-5.000000000000000
  0
LINE
  8
0
  6
CONTINUOUS
 62
3
 10
0.000000000000000
 20
5.000000000000000
 11
-6.000000000000000
 21
5.000000000000000
  0
LINE
  8
0
  6
CONTINUOUS
 62
3
 10
-6.000000000000000
 20
-5.000000000000000
 11
-6.000000000000000
 21
5.000000000000000
  0
LINE
  8
0
  6
CONTINUOUS
 62
3
 10
0.000000000000000
 20
5.000000000000000
 11
0.000000000000000
 21
-5.000000000000000
  0
POINT
  8
0
  6
CONTINUOUS
 62
3
 10
0.000000000000000
 20
0.000000000000000
  0
ENDBLK
  8
0
  0
BLOCK
  8
0
  2
SYM8
 70
64
 10
0.000000000000000
 20
0.000000000000000
  0
LINE
  8
0
  6
CONTINUOUS
 62
3
 10
-0.000000000000000
 20
-5.000000000000000
 11
-6.000000000000000
 21
-5.000000000000000
  0
LINE
  8
0
  6
CONTINUOUS
 62
3
 10
0.000000000000000
 20
5.000000000000000
 11
-6.000000000000000
 21
5.000000000000000
  0
LINE
  8
0
  6
CONTINUOUS
 62
3
 10
-6.000000000000000
 20
-5.000000000000000
 11
-6.000000000000000
 21
5.000000000000000
  0
LINE
  8
0
  6
CONTINUOUS
 62
3
 10
0.000000000000000
 20
5.000000000000000
 11
0.000000000000000
 21
-5.000000000000000
  0
POINT
  8
0
  6
CONTINUOUS
 62
3
 10
0.000000000000000
 20
0.000000000000000
  0
ENDBLK
  8
0
  0
BLOCK
  8
0
  2
SYM9
 70
64
 10
0.000000000000000
 20
0.000000000000000
  0
POINT
  8
0
  6
CONTINUOUS
 62
3
 10
0.000000000000000
 20
0.000000000000000
  0
LINE
  8
0
  6
CONTINUOUS
 62
3
 10
-0.000017659877873
 20
-4.599998474126673
 11
-3.000017102555891
 21
-4.599986076361044
  0
LINE
  8
0
  6
CONTINUOUS
 62
3
 10
-2.999996095884057
 20
-4.599969847145871
 11
-3.499991138206155
 21
-3.899966512616629
  0
LINE
  8
0
  6
CONTINUOUS
 62
3
 10
-3.500011920918244
 20
-3.899979774771439
 11
-3.499980449679529
 21
3.900009925545944
  0
LINE
  8
0
  6
CONTINUOUS
 62
3
 10
-3.499965125831864
 20
3.900000017678906
 11
-2.999963510759926
 21
4.599997551336457
  0
LINE
  8
0
  6
CONTINUOUS
 62
3
 10
-2.999979146307184
 20
4.600011825551216
 11
0.000019104623546
 21
4.600001335133485
  0
LINE
  8
0
  6
CONTINUOUS
 62
3
 10
0.000018950048186
 20
4.600000381469727
 11
-0.000018950048186
 21
-4.600000381469727
  0
LINE
  8
0
  6
CONTINUOUS
 62
3
 10
-3.000007597599688
 20
-2.299985885626180
 11
-0.000008155921205
 21
-2.299998283391806
  0
LINE
  8
0
  6
CONTINUOUS
 62
3
 10
-2.999989096318101
 20
2.300010681148706
 11
0.000009475023974
 21
2.300000190729854
  0
ARC
  8
0
  6
CONTINUOUS
 62
3
 10
-1.930013656616211
 20
-3.449991226196289
 40
1.569999694824219
 50
132.899744492600430
 51
179.999745461767870
  0
ARC
  8
0
  6
CONTINUOUS
 62
3
 10
-1.929986000061035
 20
3.450007438659668
 40
1.569999694824219
 50
179.999745461767870
 51
227.099746430935310
  0
ARC
  8
0
  6
CONTINUOUS
 62
3
 10
2.040000915527344
 20
-0.000008403939319
 40
5.539999008178711
 50
155.470186567177590
 51
204.529249714844780
  0
ENDBLK
  8
0
  0
BLOCK
  8
0
  2
SYM10
 70
64
 10
0.000000000000000
 20
0.000000000000000
  0
POINT
  8
0
  6
CONTINUOUS
 62
3
 10
0.000000000000000
 20
0.000000000000000
  0
LINE
  8
0
  6
CONTINUOUS
 62
3
 10
-0.000017659877873
 20
-4.599998474126673
 11
-3.000017102555891
 21
-4.599986076361044
  0
LINE
  8
0
  6
CONTINUOUS
 62
3
 10
-2.999996095884057
 20
-4.599969847145871
 11
-3.499991138206155
 21
-3.899966512616629
  0
LINE
  8
0
  6
CONTINUOUS
 62
3
 10
-3.500011920918244
 20
-3.899979774771439
 11
-3.499980449679529
 21
3.900009925545944
  0
LINE
  8
0
  6
CONTINUOUS
 62
3
 10
-3.499965125831864
 20
3.900000017678906
 11
-2.999963510759926
 21
4.599997551336457
  0
LINE
  8
0
  6
CONTINUOUS
 62
3
 10
-2.999979146307184
 20
4.600011825551216
 11
0.000019104623546
 21
4.600001335133485
  0
LINE
  8
0
  6
CONTINUOUS
 62
3
 10
0.000018950048186
 20
4.600000381469727
 11
-0.000018950048186
 21
-4.600000381469727
  0
LINE
  8
0
  6
CONTINUOUS
 62
3
 10
-3.000007597599688
 20
-2.299985885626180
 11
-0.000008155921205
 21
-2.299998283391806
  0
LINE
  8
0
  6
CONTINUOUS
 62
3
 10
-2.999989096318101
 20
2.300010681148706
 11
0.000009475023974
 21
2.300000190729854
  0
ARC
  8
0
  6
CONTINUOUS
 62
3
 10
-1.930013656616211
 20
-3.449991226196289
 40
1.569999694824219
 50
132.899744492600430
 51
179.999745461767870
  0
ARC
  8
0
  6
CONTINUOUS
 62
3
 10
-1.929986000061035
 20
3.450007438659668
 40
1.569999694824219
 50
179.999745461767870
 51
227.099746430935310
  0
ARC
  8
0
  6
CONTINUOUS
 62
3
 10
2.040000915527344
 20
-0.000008403939319
 40
5.539999008178711
 50
155.470186567177590
 51
204.529249714844780
  0
ENDBLK
  8
0
  0
BLOCK
  8
0
  2
SYM11
 70
64
 10
0.000000000000000
 20
0.000000000000000
  0
CIRCLE
  8
0
  6
CONTINUOUS
 62
3
 10
0.000000000000000
 20
0.000000000000000
 40
4.000000000000000
  0
LINE
  8
0
  6
CONTINUOUS
 62
3
 10
4.000000476834402
 20
2.299992229627764
 11
3.999995708466355
 21
-2.300002429796065
  0
LINE
  8
0
  6
CONTINUOUS
 62
3
 10
0.000007291900715
 20
4.600000131531601
 11
4.000000535118602
 21
2.299995435993480
  0
LINE
  8
0
  6
CONTINUOUS
 62
3
 10
-3.999993333512748
 20
2.300001902428903
 11
0.000004858421221
 21
4.599995671750889
  0
LINE
  8
0
  6
CONTINUOUS
 62
3
 10
-4.000000476834402
 20
-2.299992229627764
 11
-3.999995708466355
 21
2.300002429796065
  0
LINE
  8
0
  6
CONTINUOUS
 62
3
 10
-0.000007291900715
 20
-4.600000131531601
 11
-4.000000535118602
 21
-2.299995435993480
  0
LINE
  8
0
  6
CONTINUOUS
 62
3
 10
3.999993333512748
 20
-2.300001902428903
 11
-0.000004858421221
 21
-4.599995671750889
  0
POINT
  8
0
  6
CONTINUOUS
 62
3
 10
0.000000000000000
 20
0.000000000000000
  0
ENDBLK
  8
0
  0
BLOCK
  8
0
  2
SYM12
 70
64
 10
0.000000000000000
 20
0.000000000000000
  0
LINE
  8
0
  6
CONTINUOUS
 62
3
 10
2.499999351944041
 20
-1.443373974675978
 11
-0.000004997562428
 21
-2.886747551371855
  0
LINE
  8
0
  6
CONTINUOUS
 62
3
 10
0.000004782436690
 20
2.886748260213380
 11
-2.499999945610170
 21
1.443377225120230
  0
LINE
  8
0
  6
CONTINUOUS
 62
3
 10
-0.000005512125483
 20
-2.886746937722080
 11
-2.499997817169060
 21
-1.443371590977961
  0
LINE
  8
0
  6
CONTINUOUS
 62
3
 10
0.000004721207233
 20
2.886748740356097
 11
2.499998505998519
 21
1.443372095808627
  0
LINE
  8
0
  6
CONTINUOUS
 62
3
 10
2.499997615814836
 20
1.443371644999042
 11
2.499998569489158
 21
-1.443373807881817
  0
LINE
  8
0
  6
CONTINUOUS
 62
3
 10
-2.499997615815493
 20
-1.443371644997905
 11
-2.499998569489762
 21
1.443377622580220
  0
POINT
  8
0
  6
CONTINUOUS
 62
3
 10
0.000000000000000
 20
0.000000000000000
  0
CIRCLE
  8
0
  6
CONTINUOUS
 62
3
 10
0.000000000000000
 20
0.000000000000000
 40
5.000000000000000
  0
ENDBLK
  8
0
  0
ENDSEC
  0
SECTION
  2
ENTITIES
  0
LINE
  8
0
  6
CONTINUOUS
 62
3
 10
389.756895697734710
 20
-210.827662458643230
 11
340.514784343321940
 21
-210.827662458643230
  0
LINE
  8
0
  6
CONTINUOUS
 62
3
 10
291.272672988908710
 20
-210.827662458643230
 11
340.514784343321480
 21
-210.827662458643230
  0
CIRCLE
  8
0
  6
CONTINUOUS
 62
3
 10
340.514784343321480
 20
-106.328016985400620
 40
85.000000000000000
  0
LINE
  8
0
  6
CONTINUOUS
 62
3
 10
-380.190790775515210
 20
-151.597926875715790
 11
-380.677594167220830
 21
-152.084730267421410
  0
LINE
  8
0
  6
CONTINUOUS
 62
3
 10
-373.543987302101530
 20
-158.244730349129530
 11
-374.030790693807150
 21
-158.731533740835120
  0
LINE
  8
0
  6
CONTINUOUS
 62
3
 10
-380.503929384484020
 20
-151.850473826566170
 11
-373.826830082011100
 21
-158.527573129039100
  0
LINE
  8
0
  6
CONTINUOUS
 62
3
 10
-380.190790775515210
 20
-151.597926875715790
 11
-373.543987302101530
 21
-158.244730349129530
  0
POINT
  8
0
  6
CONTINUOUS
 62
3
 10
-376.867389038808370
 20
-154.921328612422660
  0
ARC
  8
0
  6
CONTINUOUS
 62
3
 10
-374.604647473881360
 20
-152.658587047495620
 40
6.099999427795398
 50
174.601910595264880
 51
275.398072101891500
  0
LINE
  8
0
  6
CONTINUOUS
 62
3
 10
-279.357364048053680
 20
-151.597926875715790
 11
-278.870560656348060
 21
-152.084730267421410
  0
LINE
  8
0
  6
CONTINUOUS
 62
3
 10
-286.004167521467370
 20
-158.244730349129530
 11
-285.517364129761750
 21
-158.731533740835120
  0
LINE
  8
0
  6
CONTINUOUS
 62
3
 10
-279.044225439084870
 20
-151.850473826566170
 11
-285.721324741557790
 21
-158.527573129039100
  0
LINE
  8
0
  6
CONTINUOUS
 62
3
 10
-279.357364048053680
 20
-151.597926875715790
 11
-286.004167521467370
 21
-158.244730349129530
  0
POINT
  8
0
  6
CONTINUOUS
 62
3
 10
-282.680765784760520
 20
-154.921328612422660
  0
ARC
  8
0
  6
CONTINUOUS
 62
3
 10
-284.943507349687540
 20
-152.658587047495620
 40
6.099999427795406
 50
264.601927898108500
 51
5.398089404735109
  0
LINE
  8
0
  6
CONTINUOUS
 62
3
 10
-279.357364048053680
 20
-64.058107095081425
 11
-278.870560656348060
 21
-63.571303703375804
  0
LINE
  8
0
  6
CONTINUOUS
 62
3
 10
-286.004167521467370
 20
-57.411303621667713
 11
-285.517364129761750
 21
-56.924500229962092
  0
LINE
  8
0
  6
CONTINUOUS
 62
3
 10
-279.044225439084870
 20
-63.805560144231059
 11
-285.721324741557790
 21
-57.128460841758134
  0
LINE
  8
0
  6
CONTINUOUS
 62
3
 10
-279.357364048053680
 20
-64.058107095081425
 11
-286.004167521467370
 21
-57.411303621667713
  0
POINT
  8
0
  6
CONTINUOUS
 62
3
 10
-282.680765784760520
 20
-60.734705358374569
  0
ARC
  8
0
  6
CONTINUOUS
 62
3
 10
-284.943507349687540
 20
-62.997446923301602
 40
6.099999427795398
 50
354.601910595264830
 51
95.398072101891529
  0
INSERT
  8
0
  2
SYM1
 10
-373.968251235943850
 20
-176.522190809557910
  0
INSERT
  8
0
  2
SYM2
 10
-372.774077411784450
 20
-203.828016985398900
  0
INSERT
  8
0
  2
SYM3
 10
-401.774077411784450
 20
-132.328016985398850
  0
INSERT
  8
0
  2
SYM4
 10
47.305924970899923
 20
-88.133843161241657
  0
INSERT
  8
0
  2
SYM5
 10
47.305924970899923
 20
-176.522190809559560
  0
INSERT
  8
0
  2
SYM6
 10
79.805924970899014
 20
-132.328016985400610
  0
INSERT
  8
0
  2
SYM7
 10
79.805924970882415
 20
74.527884846866982
 41
-1.000000000000000
 50
179.999999999999970
  0
INSERT
  8
0
  2
SYM8
 10
79.805924970882415
 20
158.527884846868800
 50
0.000000000000014
  0
INSERT
  8
0
  2
SYM9
 10
47.305917109580150
 20
160.722058671026390
 41
-1.000000000000000
 50
180.000000000000000
  0
INSERT
  8
0
  2
SYM10
 10
47.305917109580150
 20
72.333711022707575
  0
INSERT
  8
0
  2
SYM11
 10
-285.579903587625040
 20
-176.522190809557860
  0
INSERT
  8
0
  2
SYM12
 10
-286.774077411784450
 20
-203.828016985398900
  0
TEXT
  8
0
  6
CONTINUOUS
 62
3
 10
-371.523040771484380
 20
125.167633056640620
 40
7.919999599456787
  1
Ｓ１９２
 50
0.000002504478167
 41
0.984848598876354
  7
STANDARD1
  0
TEXT
  8
0
  6
CONTINUOUS
 62
3
 10
-371.523040771484380
 20
112.447631835937500
 40
7.919999599456787
  1
三菱ギヤードモートル
 50
0.000002504478167
 41
0.984848598876354
  7
STANDARD1
  0
TEXT
  8
0
  6
CONTINUOUS
 62
3
 10
-371.523040771484380
 20
99.727630615234375
 40
7.919999599456787
  1
ＧＭ－ＳＦＳＢ
 50
0.000002504478167
 41
0.984848598876354
  7
STANDARD1
  0
TEXT
  8
0
  6
CONTINUOUS
 62
3
 10
-371.523040771484380
 20
87.007629394531250
 40
7.919999599456787
  1
０．１ｋＷ
 50
0.000002504478167
 41
0.984848598876354
  7
STANDARD1
  0
TEXT
  8
0
  6
CONTINUOUS
 62
3
 10
-371.523040771484380
 20
74.287628173828125
 40
7.919999599456787
  1
１／２７０～１／４５０
 50
0.000002504478167
 41
0.984848598876354
  7
STANDARD1
  0
TEXT
  8
0
  6
CONTINUOUS
 62
3
 10
-371.523040771484380
 20
61.567626953125000
 40
7.919999599456787
  1
ＳＣＡＬＥ１／１
 50
0.000002504478167
 41
0.984848598876354
  7
STANDARD1
  0
LINE
  8
0
  6
CONTINUOUS
 62
3
 10
-375.589143515052460
 20
-56.977416976198114
 11
-391.292367375014010
 21
-41.274193116236503
  0
ARC
  8
0
  6
CONTINUOUS
 62
3
 10
-396.949221624506440
 20
-46.931047365728816
 40
2.999999999999904
 50
45.000000000000774
 51
135.000000000002300
  0
ARC
  8
0
  6
CONTINUOUS
 62
3
 10
-389.171047031454460
 20
-39.152872772676844
 40
2.999999999999944
 50
134.999999999998470
 51
225.000000000001530
  0
ARC
  8
0
  6
CONTINUOUS
 62
3
 10
-383.103038626642270
 20
-60.777230363593205
 40
2.999999999999977
 50
304.820974823218140
 51
323.585622645427690
  0
LINE
  8
0
  6
CONTINUOUS
 62
3
 10
-380.981718283082730
 20
-58.655910020033488
 11
-394.827901280946890
 21
-44.809727022169156
  0
LINE
  8
0
  6
CONTINUOUS
 62
3
 10
-414.774077411784670
 20
-201.328016985398730
 11
-380.484282998012080
 21
-201.328016985398730
  0
LINE
  8
0
  6
CONTINUOUS
 62
3
 10
-407.274077411784450
 20
-121.328016985398900
 11
-399.774077411784450
 21
-121.328016985398840
  0
ARC
  8
0
  6
CONTINUOUS
 62
3
 10
-399.774077411784450
 20
-113.328016985398830
 40
8.000000000000014
 50
270.000000000000000
 51
90.000000000000000
  0
LINE
  8
0
  6
CONTINUOUS
 62
3
 10
-405.859980991620890
 20
-105.328016985398880
 11
-399.774077411784450
 21
-105.328016985398830
  0
ARC
  8
0
  6
CONTINUOUS
 62
3
 10
-405.859980991620890
 20
-103.328016985398880
 40
1.999999999999977
 50
167.837507721111820
 51
270.000000000000000
  0
ARC
  8
0
  6
CONTINUOUS
 62
3
 10
-360.774077411784450
 20
-204.328016985398790
 40
5.000000000000000
 50
180.000000000000000
 51
270.000000000000000
  0
ARC
  8
0
  6
CONTINUOUS
 62
3
 10
-378.543378722886930
 20
-193.305889710854330
 40
4.999999999999870
 50
223.887028754554480
 51
298.736037863439320
  0
ARC
  8
0
  6
CONTINUOUS
 62
3
 10
-372.774077411784450
 20
-203.828016985398790
 40
7.000000000000000
 50
0.000000000000000
 51
118.736037863438630
  0
ARC
  8
0
  6
CONTINUOUS
 62
3
 10
-382.940663710877970
 20
-70.722030005963845
 40
5.000000000000038
 50
78.357922282207667
 51
130.123934227063560
  0
ARC
  8
0
  6
CONTINUOUS
 62
3
 10
-359.774077411784450
 20
-58.637815340386211
 40
5.000000000000014
 50
104.971190995948700
 51
137.280672960021690
  0
LINE
  8
0
  6
CONTINUOUS
 62
3
 10
-408.274077411784450
 20
-139.328016985398730
 11
-401.774077411784450
 21
-139.328016985398730
  0
ARC
  8
0
  6
CONTINUOUS
 62
3
 10
-401.774077411784450
 20
-132.328016985398730
 40
7.000000000000000
 50
270.000000000000000
 51
90.000000000000000
  0
LINE
  8
0
  6
CONTINUOUS
 62
3
 10
-408.274077411784450
 20
-125.328016985398730
 11
-401.774077411784450
 21
-125.328016985398730
  0
ARC
  8
0
  6
CONTINUOUS
 62
3
 10
-372.774077411784450
 20
-203.828016985398790
 40
8.000000000000096
 50
168.059665094244200
 51
223.432536557789920
  0
ARC
  8
0
  6
CONTINUOUS
 62
3
 10
-386.471167527056420
 20
-200.931515237752650
 40
5.999999999999847
 50
348.059665094243880
 51
50.428105065559635
  0
ARC
  8
0
  6
CONTINUOUS
 62
3
 10
-376.089571579503630
 20
-185.714578964982760
 40
3.000000000000064
 50
44.999999999997698
 51
134.999999999999230
  0
LINE
  8
0
  6
CONTINUOUS
 62
3
 10
-378.210891923063170
 20
-183.593258621423160
 11
-384.574852953742040
 21
-189.957219652102030
  0
ARC
  8
0
  6
CONTINUOUS
 62
3
 10
-382.453532610182490
 20
-192.078539995661690
 40
2.999999999999944
 50
134.999999999998470
 51
224.999999999997700
  0
ARC
  8
0
  6
CONTINUOUS
 62
3
 10
-389.524600422048020
 20
-185.007472183796210
 40
3.000000000000105
 50
224.999999999998470
 51
315.000000000001530
  0
ARC
  8
0
  6
CONTINUOUS
 62
3
 10
-383.160639391369160
 20
-178.643511153117290
 40
3.000000000000105
 50
315.000000000001530
 51
44.999999999997698
  0
LINE
  8
0
  6
CONTINUOUS
 62
3
 10
-381.039319047809390
 20
-180.764831496676950
 11
-387.403280078488250
 21
-187.128792527355870
  0
ARC
  8
0
  6
CONTINUOUS
 62
3
 10
-389.524600422048020
 20
-79.648561787001242
 40
3.000000000000105
 50
44.999999999998472
 51
135.000000000001530
  0
LINE
  8
0
  6
CONTINUOUS
 62
3
 10
-387.257701610001500
 20
-77.672819911928272
 11
-387.403280078488250
 21
-77.527241443441582
  0
ARC
  8
0
  6
CONTINUOUS
 62
3
 10
-344.274077411784450
 20
-116.601165830156880
 40
64.999999999999915
 50
92.158403465040536
 51
109.980621488144120
  0
ARC
  8
0
  6
CONTINUOUS
 62
3
 10
-329.774077411784450
 20
-132.328016985398730
 40
82.999999999999957
 50
197.813976466619180
 51
230.428105065559090
  0
LINE
  8
0
  6
CONTINUOUS
 62
3
 10
-343.106369037757760
 20
-190.828016985398730
 11
-345.421528255542170
 21
-190.828016985398730
  0
ARC
  8
0
  6
CONTINUOUS
 62
3
 10
-345.274077411784450
 20
-186.828016985398730
 40
3.000000000000000
 50
180.000000000000000
 51
270.000000000000000
  0
ARC
  8
0
  6
CONTINUOUS
 62
3
 10
-355.274077411784450
 20
-161.828016985398620
 40
3.000000000000000
 50
0.000000000000000
 51
12.243652867704627
  0
ARC
  8
0
  6
CONTINUOUS
 62
3
 10
-345.274077411784450
 20
-162.155076257480350
 40
3.000000000001188
 50
165.521193763425770
 51
180.000000000000000
  0
ARC
  8
0
  6
CONTINUOUS
 62
3
 10
-357.274077411784450
 20
-187.057465182872820
 40
5.000000000000000
 50
0.000000000000000
 51
63.321765549190943
  0
ARC
  8
0
  6
CONTINUOUS
 62
3
 10
-329.774077411784450
 20
-132.328016985398730
 40
56.250000000000071
 50
220.772804694042890
 51
243.321765549190360
  0
ARC
  8
0
  6
CONTINUOUS
 62
3
 10
-376.159015699983000
 20
-172.328016985398790
 40
4.999999999999867
 50
40.772804694044133
 51
90.000000000000000
  0
LINE
  8
0
  6
CONTINUOUS
 62
3
 10
-380.933674545271060
 20
-167.328016985398790
 11
-376.159015699983000
 21
-167.328016985398790
  0
ARC
  8
0
  6
CONTINUOUS
 62
3
 10
-380.933674545271060
 20
-162.328016985398790
 40
5.000000000000107
 50
190.000000000000280
 51
270.000000000000000
  0
LINE
  8
0
  6
CONTINUOUS
 62
3
 10
-352.274077411784450
 20
-161.828016985398620
 11
-352.274077411784450
 21
-189.828016985398730
  0
LINE
  8
0
  6
CONTINUOUS
 62
3
 10
-348.274077411784450
 20
-162.155076257480350
 11
-348.274077411784450
 21
-186.828016985398730
  0
ARC
  8
0
  6
CONTINUOUS
 62
3
 10
-388.274077411784450
 20
-113.328016985398710
 40
0.999999999999198
 50
117.683035930749780
 51
180.000000000000000
  0
LINE
  8
0
  6
CONTINUOUS
 62
3
 10
-389.274077411784450
 20
-132.328016985398730
 11
-389.274077411784450
 21
-113.328016985398710
  0
ARC
  8
0
  6
CONTINUOUS
 62
3
 10
-388.618443953686210
 20
-153.298146850361600
 40
0.999999999999891
 50
10.000000000002947
 51
80.085216630856877
  0
ARC
  8
0
  6
CONTINUOUS
 62
3
 10
-388.274077411784450
 20
-151.328016985398730
 40
1.000000000000000
 50
180.000000000000000
 51
260.085216630857420
  0
LINE
  8
0
  6
CONTINUOUS
 62
3
 10
-387.633636200674120
 20
-153.124498672694640
 11
-384.857736349345710
 21
-168.867409032612100
  0
LINE
  8
0
  6
CONTINUOUS
 62
3
 10
-387.774077411784450
 20
-152.328016985398730
 11
-388.274077411784450
 21
-152.328016985398730
  0
LINE
  8
0
  6
CONTINUOUS
 62
3
 10
-389.274077411784450
 20
-132.328016985398730
 11
-389.274077411784450
 21
-151.328016985398730
  0
ARC
  8
0
  6
CONTINUOUS
 62
3
 10
-370.085620054162750
 20
-166.262686367608070
 40
14.999999999999863
 50
190.000000000000400
 51
225.000000000000140
  0
LINE
  8
0
  6
CONTINUOUS
 62
3
 10
-380.692221771960930
 20
-176.869288085406310
 11
-374.482171416576880
 21
-183.079338440790250
  0
ARC
  8
0
  6
CONTINUOUS
 62
3
 10
-363.875569698778690
 20
-172.472736722992010
 40
15.000000000000000
 50
225.000000000000140
 51
259.695153531234150
  0
LINE
  8
0
  6
CONTINUOUS
 62
3
 10
-366.558851271778390
 20
-187.230785374490610
 11
-348.104809828542100
 21
-190.586065636897330
  0
ARC
  8
0
  6
CONTINUOUS
 62
3
 10
-345.421528255542170
 20
-175.828016985398730
 40
15.000000000000020
 50
259.695153531233250
 51
270.000000000000000
  0
LINE
  8
0
  6
CONTINUOUS
 62
3
 10
-365.774077411784450
 20
-203.828016985398790
 11
-365.774077411784450
 21
-204.328016985398790
  0
ARC
  8
0
  6
DASHDOT
 62
4
 10
-329.774077411783990
 20
-106.328016985398710
 40
117.499999999999780
 50
129.635821825516160
 51
140.364178174483360
  0
LINE
  8
0
  6
DASHDOT
 62
4
 10
-405.080949608150830
 20
-181.634889181766030
 11
-420.637298794254780
 21
-197.191238367869970
  0
ARC
  8
0
  6
DASHDOT
 62
4
 10
-329.774077411783990
 20
-106.328016985398710
 40
117.499999999999770
 50
219.632292221131000
 51
230.364178174484010
  0
ARC
  8
0
  6
CONTINUOUS
 62
3
 10
-344.274077411784450
 20
-116.601165830156880
 40
64.999999999999972
 50
124.083688588341710
 51
180.000000000000000
  0
ARC
  8
0
  6
CONTINUOUS
 62
3
 10
-383.103038626642270
 20
-60.777230363593205
 40
3.000000000000068
 50
7.131666425293899
 51
45.000000000002316
  0
ARC
  8
0
  6
CONTINUOUS
 62
3
 10
-329.774077411784450
 20
-107.828016985398710
 40
39.000000000000220
 50
155.284732954534800
 51
204.715267045465230
  0
ARC
  8
0
  6
CONTINUOUS
 62
3
 10
-329.774077411784450
 20
-107.828016985398710
 40
34.000000000000007
 50
155.739170477266780
 51
204.260829522733250
  0
ARC
  8
0
  6
CONTINUOUS
 62
3
 10
-329.774077411784450
 20
-107.828016985398710
 40
25.500000000000000
 50
157.589542391857980
 51
202.410457608142480
  0
ARC
  8
0
  6
CONTINUOUS
 62
3
 10
-329.774077411784450
 20
-107.828016985398710
 40
30.499999999999947
 50
156.813854344181150
 51
203.186145655818850
  0
ARC
  8
0
  6
CONTINUOUS
 62
3
 10
-329.774077411784450
 20
-107.828016985398710
 40
22.000000000000206
 50
159.594068226860770
 51
200.405931773139230
  0
ARC
  8
0
  6
CONTINUOUS
 62
3
 10
-329.774077411784450
 20
-107.828016985398710
 40
16.999999999999716
 50
161.212271417649560
 51
198.787728582350440
  0
ARC
  8
0
  6
CONTINUOUS
 62
3
 10
-329.774077411784450
 20
-107.828016985398710
 40
13.499999999999687
 50
166.260204708311360
 51
193.739795291688180
  0
ARC
  8
0
  6
CONTINUOUS
 62
3
 10
-341.916382257197940
 20
-104.859105898644130
 40
0.999999999999885
 50
59.999999999996206
 51
166.260204708307780
  0
ARC
  8
0
  6
CONTINUOUS
 62
3
 10
-349.456241252213890
 20
-100.505966278219980
 40
0.999999999999885
 50
59.999999999996206
 51
159.594068226861310
  0
LINE
  8
0
  6
CONTINUOUS
 62
3
 10
-348.956241252213890
 20
-99.639940874435680
 11
-346.315006095157290
 21
-101.164858703355020
  0
ARC
  8
0
  6
CONTINUOUS
 62
3
 10
-346.815006095157290
 20
-102.030884107139550
 40
1.000000000000076
 50
341.212271417652970
 51
60.000000000002721
  0
ARC
  8
0
  6
CONTINUOUS
 62
3
 10
-361.683031306108890
 20
-93.446825749278261
 40
0.999999999999863
 50
335.739170477254390
 51
59.999999999996206
  0
LINE
  8
0
  6
CONTINUOUS
 62
3
 10
-363.793155824214640
 20
-91.073844252347200
 11
-361.183031306108890
 21
-92.580800345493955
  0
ARC
  8
0
  6
CONTINUOUS
 62
3
 10
-364.293155824214640
 20
-91.939869656131734
 40
1.000000000000082
 50
60.000000000002721
 51
155.284732954544520
  0
ARC
  8
0
  6
CONTINUOUS
 62
3
 10
-354.272703743938790
 20
-97.725180362080593
 40
0.999999999999701
 50
337.589542391853970
 51
60.000000000002721
  0
LINE
  8
0
  6
CONTINUOUS
 62
3
 10
-356.391379199716310
 20
-95.347261978982871
 11
-353.772703743938790
 21
-96.859154958296060
  0
ARC
  8
0
  6
CONTINUOUS
 62
3
 10
-356.891379199716310
 20
-96.213287382767405
 40
1.000000000000082
 50
60.000000000002721
 51
156.813854344180160
  0
ARC
  8
0
  6
CONTINUOUS
 62
3
 10
-345.956241252213430
 20
-94.443788451728707
 40
1.000000000000173
 50
140.405931773149600
 51
240.000000000002730
  0
LINE
  8
0
  6
CONTINUOUS
 62
3
 10
-346.456241252213430
 20
-95.309813855513241
 11
-343.815006095157290
 21
-96.834731684432811
  0
ARC
  8
0
  6
CONTINUOUS
 62
3
 10
-343.315006095157290
 20
-95.968706280648505
 40
0.999999999999885
 50
239.999999999996220
 51
318.787728582348790
  0
ARC
  8
0
  6
CONTINUOUS
 62
3
 10
-358.183031306108890
 20
-87.384647922787437
 40
0.999999999999885
 50
239.999999999996220
 51
324.260829522725940
  0
LINE
  8
0
  6
CONTINUOUS
 62
3
 10
-361.293155824214640
 20
-86.743717233424988
 11
-358.683031306108890
 21
-88.250673326571743
  0
ARC
  8
0
  6
CONTINUOUS
 62
3
 10
-360.793155824214640
 20
-85.877691829640682
 40
0.999999999999908
 50
144.715267045455050
 51
239.999999999996220
  0
ARC
  8
0
  6
CONTINUOUS
 62
3
 10
-350.772703743938790
 20
-91.663002535589541
 40
1.000000000000082
 50
240.000000000002730
 51
322.410457608132330
  0
LINE
  8
0
  6
CONTINUOUS
 62
3
 10
-353.891379199716310
 20
-91.017134960060886
 11
-351.272703743938790
 21
-92.529027939374075
  0
ARC
  8
0
  6
CONTINUOUS
 62
3
 10
-353.391379199716310
 20
-90.151109556276353
 40
0.999999999999774
 50
143.186145655813330
 51
240.000000000002730
  0
ARC
  8
0
  6
CONTINUOUS
 62
3
 10
-341.916382257197940
 20
-110.796928072153300
 40
0.999999999999879
 50
193.739795291686050
 51
300.000000000003810
  0
LINE
  8
0
  6
CONTINUOUS
 62
3
 10
-346.456241252213430
 20
-120.346220115284190
 11
-343.815006095157290
 21
-118.821302286364620
  0
LINE
  8
0
  6
CONTINUOUS
 62
3
 10
-361.293155824214640
 20
-128.912316737372460
 11
-358.683031306108890
 21
-127.405360644225700
  0
LINE
  8
0
  6
CONTINUOUS
 62
3
 10
-353.891379199716310
 20
-124.638899010736560
 11
-351.272703743939250
 21
-123.127006031423370
  0
ARC
  8
0
  6
CONTINUOUS
 62
3
 10
-343.315006095157290
 20
-119.687327690149160
 40
1.000000000000165
 50
41.212271417643841
 51
119.999999999997270
  0
ARC
  8
0
  6
CONTINUOUS
 62
3
 10
-345.956241252213430
 20
-121.212245519068510
 40
0.999999999999897
 50
120.000000000003380
 51
219.594068226860460
  0
ARC
  8
0
  6
CONTINUOUS
 62
3
 10
-350.772703743939250
 20
-123.993031435207910
 40
1.000000000000194
 50
37.589542391851793
 51
119.999999999997270
  0
ARC
  8
0
  6
CONTINUOUS
 62
3
 10
-353.391379199716310
 20
-125.504924414520870
 40
0.999999999999885
 50
120.000000000003780
 51
216.813854344197100
  0
ARC
  8
0
  6
CONTINUOUS
 62
3
 10
-358.183031306108890
 20
-128.271386048010020
 40
0.999999999999807
 50
35.739170477263521
 51
120.000000000003780
  0
ARC
  8
0
  6
CONTINUOUS
 62
3
 10
-360.793155824214640
 20
-129.778342141157000
 40
1.000000000000082
 50
119.999999999997270
 51
215.284732954534320
  0
ARC
  8
0
  6
CONTINUOUS
 62
3
 10
-364.293155824214640
 20
-123.716164314665710
 40
1.000000000000248
 50
204.715267045455480
 51
300.000000000003810
  0
LINE
  8
0
  6
CONTINUOUS
 62
3
 10
-363.793155824214640
 20
-124.582189718450020
 11
-361.183031306108890
 21
-123.075233625303490
  0
ARC
  8
0
  6
CONTINUOUS
 62
3
 10
-356.891379199716310
 20
-119.442746588030030
 40
0.999999999999730
 50
203.186145655819840
 51
299.999999999997270
  0
LINE
  8
0
  6
CONTINUOUS
 62
3
 10
-356.391379199716310
 20
-120.308771991814560
 11
-353.772703743938790
 21
-118.796879012501600
  0
ARC
  8
0
  6
CONTINUOUS
 62
3
 10
-361.683031306108890
 20
-122.209208221518960
 40
1.000000000000082
 50
299.999999999997270
 51
24.260829522733715
  0
ARC
  8
0
  6
CONTINUOUS
 62
3
 10
-354.272703743938790
 20
-117.930853608717070
 40
1.000000000000082
 50
299.999999999997270
 51
22.410457608146043
  0
ARC
  8
0
  6
CONTINUOUS
 62
3
 10
-349.456241252213890
 20
-115.150067692577450
 40
1.000000000000094
 50
200.405931773138690
 51
300.000000000003810
  0
LINE
  8
0
  6
CONTINUOUS
 62
3
 10
-348.956241252213890
 20
-116.016093096361750
 11
-346.315006095157290
 21
-114.491175267442180
  0
ARC
  8
0
  6
CONTINUOUS
 62
3
 10
-346.815006095157290
 20
-113.625149863657880
 40
0.999999999999885
 50
300.000000000003810
 51
18.787728582346993
  0
ARC
  8
0
  6
CONTINUOUS
 62
4
 10
-366.390042350802790
 20
-147.292499061365500
 40
3.000000000000346
 50
224.999999999996960
 51
264.582036237634270
  0
ARC
  8
0
  6
CONTINUOUS
 62
4
 10
-357.145967999303820
 20
-131.367814643310740
 40
20.796999999999880
 50
185.001650270935330
 51
225.000000000000000
  0
LINE
  8
0
  6
CONTINUOUS
 62
4
 10
-371.851667727640460
 20
-146.073514371647380
 11
-368.511362694362790
 21
-149.413819404925280
  0
ARC
  8
0
  6
CONTINUOUS
 62
4
 10
-88.174077411784310
 20
-107.828016985398710
 40
290.797000000000250
 50
180.000000000000000
 51
185.001650270934930
  0
ARC
  8
0
  6
CONTINUOUS
 62
4
 10
-366.390042350802790
 20
-68.363534909431948
 40
3.000000000000067
 50
95.417963762365673
 51
135.000000000003040
  0
ARC
  8
0
  6
CONTINUOUS
 62
4
 10
-357.145967999303820
 20
-84.288219327486715
 40
20.797000000000015
 50
135.000000000000000
 51
174.998349729064670
  0
LINE
  8
0
  6
CONTINUOUS
 62
4
 10
-371.851667727640460
 20
-69.582519599150075
 11
-368.511362694362790
 21
-66.242214565872175
  0
ARC
  8
0
  6
CONTINUOUS
 62
4
 10
-88.174077411784310
 20
-107.828016985398710
 40
290.796999999999910
 50
174.998349729065040
 51
180.000000000000000
  0
ARC
  8
0
  6
CONTINUOUS
 62
3
 10
-88.174077411784083
 20
-107.828016985398710
 40
300.600000000000360
 50
180.000000000000000
 51
185.752282731536610
  0
LINE
  8
0
  6
CONTINUOUS
 62
3
 10
-381.330544342374420
 20
-150.458173308856600
 11
-373.871849167703430
 21
-157.916868483528280
  0
ARC
  8
0
  6
CONTINUOUS
 62
3
 10
-366.764144649930810
 20
-135.891773616414350
 40
20.599999999999916
 50
185.752282731536500
 51
224.999999999997330
  0
ARC
  8
0
  6
CONTINUOUS
 62
3
 10
-369.204944411871790
 20
-153.249963727697090
 40
6.600000000000278
 50
224.999999999997190
 51
264.256318189004900
  0
ARC
  8
0
  6
CONTINUOUS
 62
3
 10
-88.174077411784083
 20
-107.828016985398710
 40
300.599999999999910
 50
174.247717268463390
 51
180.000000000000000
  0
LINE
  8
0
  6
CONTINUOUS
 62
3
 10
-381.330544342374420
 20
-65.197860661940851
 11
-373.871849167703430
 21
-57.739165487269176
  0
ARC
  8
0
  6
CONTINUOUS
 62
3
 10
-366.764144649930810
 20
-79.764260354383097
 40
20.600000000000069
 50
135.000000000002670
 51
174.247717268463500
  0
ARC
  8
0
  6
CONTINUOUS
 62
3
 10
-369.204944411871790
 20
-62.406070243100359
 40
6.600000000000009
 50
95.743681810995099
 51
135.000000000002790
  0
LINE
  8
0
  6
CONTINUOUS
 62
3
 10
-380.190790775515100
 20
-64.058107095081468
 11
-380.677594167220830
 21
-63.571303703375847
  0
LINE
  8
0
  6
CONTINUOUS
 62
3
 10
-373.543987302101640
 20
-57.411303621667727
 11
-374.030790693807150
 21
-56.924500229962106
  0
LINE
  8
0
  6
CONTINUOUS
 62
3
 10
-380.503929384484080
 20
-63.805560144231080
 11
-373.826830082011160
 21
-57.128460841758155
  0
LINE
  8
0
  6
CONTINUOUS
 62
3
 10
-380.190790775515100
 20
-64.058107095081468
 11
-373.543987302101640
 21
-57.411303621667727
  0
POINT
  8
0
  6
CONTINUOUS
 62
3
 10
-376.867389038808370
 20
-60.734705358374569
  0
ARC
  8
0
  6
CONTINUOUS
 62
3
 10
-374.604647473881190
 20
-62.997446923301638
 40
6.099999427795384
 50
84.601927898110588
 51
185.398089404734830
  0
LINE
  8
0
  6
DASHDOT
 62
4
 10
-405.811434997484640
 20
-30.290659399697674
 11
-421.021624706691230
 21
-15.080469690491029
  0
LINE
  8
0
  6
CONTINUOUS
 62
3
 10
-409.274077411784450
 20
-116.601165830156880
 11
-409.274077411784450
 21
-154.660728419526090
  0
ARC
  8
0
  6
CONTINUOUS
 62
3
 10
-399.274077411784450
 20
-154.660728419526090
 40
10.000000000000000
 50
180.000000000000000
 51
197.813976466619290
  0
ARC
  8
0
  6
CONTINUOUS
 62
3
 10
-408.274077411784450
 20
-124.328016985398730
 40
1.000000000000000
 50
180.000000000000000
 51
270.000000000000000
  0
ARC
  8
0
  6
CONTINUOUS
 62
3
 10
-408.274077411784450
 20
-140.328016985398730
 40
1.000000000000000
 50
90.000000000000000
 51
180.000000000000000
  0
ARC
  8
0
  6
CONTINUOUS
 62
3
 10
-407.274077411784450
 20
-123.328016985398900
 40
2.000000000000000
 50
90.000000000000000
 51
180.000000000000000
  0
LINE
  8
0
  6
CONTINUOUS
 62
3
 10
-424.774077411784670
 20
-21.328016985398719
 11
-424.774077411784670
 21
-191.328016985398730
  0
ARC
  8
0
  6
CONTINUOUS
 62
3
 10
-414.774077411784670
 20
-21.328016985398719
 40
10.000000000000000
 50
90.000000000000000
 51
180.000000000000000
  0
CIRCLE
  8
0
  6
CONTINUOUS
 62
3
 10
-412.859124201203940
 20
-23.242970195979453
 40
6.000000000000000
  0
ARC
  8
0
  6
CONTINUOUS
 62
3
 10
-414.774077411784670
 20
-191.328016985398730
 40
10.000000000000000
 50
180.000000000000000
 51
270.000000000000000
  0
CIRCLE
  8
0
  6
CONTINUOUS
 62
3
 10
-412.859124201203490
 20
-189.413063774818340
 40
6.000000000000000
  0
ARC
  8
0
  6
CONTINUOUS
 62
3
 10
268.443494391292920
 20
-100.828016985400600
 40
3.000000000000146
 50
164.678311543429370
 51
270.000000000000000
  0
LINE
  8
0
  6
CONTINUOUS
 62
3
 10
263.711464102592340
 20
-108.828016985400600
 11
302.914917322279960
 21
-108.828016985400600
  0
LINE
  8
0
  6
CONTINUOUS
 62
3
 10
263.711464102592340
 20
-103.828016985400600
 11
302.914917322279960
 21
-103.828016985400600
  0
LINE
  8
0
  6
DASHDOT
 62
4
 10
235.238374878372720
 20
-106.328016985400600
 11
440.451839727981680
 21
-106.328016985400600
  0
LINE
  8
0
  6
CONTINUOUS
 62
3
 10
245.514784343321480
 20
-21.328016985400609
 11
245.514784343321480
 21
-191.328016985400610
  0
LINE
  8
0
  6
CONTINUOUS
 62
3
 10
263.321856360021680
 20
-126.929216884068410
 11
263.321856360021680
 21
-116.601165830158600
  0
ARC
  8
0
  6
CONTINUOUS
 62
3
 10
316.628161973487750
 20
-159.180919192951480
 40
27.000000000000064
 50
101.549996895618320
 51
184.263738012298550
  0
ARC
  8
0
  6
CONTINUOUS
 62
3
 10
247.514784343321480
 20
-109.328016985400600
 40
2.000000000000000
 50
180.000000000000000
 51
270.000000000000000
  0
ARC
  8
0
  6
CONTINUOUS
 62
3
 10
249.867114764892900
 20
-114.328016985400600
 40
2.999999999999722
 50
5.043502368944078
 51
90.000000000000000
  0
ARC
  8
0
  6
CONTINUOUS
 62
3
 10
247.514784343321480
 20
-103.328016985400600
 40
2.000000000000000
 50
90.000000000000000
 51
180.000000000000000
  0
ARC
  8
0
  6
CONTINUOUS
 62
3
 10
249.867114764892450
 20
-98.328016985400609
 40
3.000000000000000
 50
270.000000000000000
 51
354.956497631056660
  0
ARC
  8
0
  6
CONTINUOUS
 62
3
 10
340.514784343321480
 20
-106.328016985400600
 40
88.000000000000014
 50
149.175803515866790
 51
174.956497631052430
  0
ARC
  8
0
  6
CONTINUOUS
 62
3
 10
263.711464102592340
 20
-111.828016985400600
 40
3.000000000000000
 50
90.000000000000000
 51
184.096043758144700
  0
ARC
  8
0
  6
CONTINUOUS
 62
3
 10
263.711464102592340
 20
-100.828016985400600
 40
3.000000000000195
 50
175.903956241837960
 51
270.000000000000000
  0
ARC
  8
0
  6
CONTINUOUS
 62
3
 10
326.014784343321480
 20
-116.601165830158600
 40
62.692927983299811
 50
175.413634931334290
 51
180.000000000000000
  0
ARC
  8
0
  6
CONTINUOUS
 62
3
 10
326.014784343321480
 20
-116.601165830158600
 40
62.692927983299832
 50
123.385956680340820
 51
164.678311543432900
  0
ARC
  8
0
  6
CONTINUOUS
 62
3
 10
266.512996964073410
 20
-111.828016985400600
 40
3.000000000000000
 50
90.000000000000000
 51
175.413634931326700
  0
ARC
  8
0
  6
CONTINUOUS
 62
3
 10
266.321856360021680
 20
-126.929216884068410
 40
3.000000000000000
 50
180.000000000000000
 51
195.518413527624970
  0
CIRCLE
  8
0
  6
CONTINUOUS
 62
3
 10
340.514784343321480
 20
-106.328016985400600
 40
80.000000000000000
  0
ARC
  8
0
  6
CONTINUOUS
 62
3
 10
340.514784343321480
 20
-106.328016985400600
 40
88.000000000000085
 50
185.043502368947570
 51
205.222612744695400
  0
ARC
  8
0
  6
CONTINUOUS
 62
3
 10
340.514784343321480
 20
-106.328016985400600
 40
88.000000000000014
 50
205.222612744695400
 51
210.824196484133210
  0
LINE
  8
0
  6
CONTINUOUS
 62
3
 10
249.867114764892450
 20
-111.328016985400600
 11
249.035201704769240
 21
-111.328016985400600
  0
LINE
  8
0
  6
CONTINUOUS
 62
3
 10
249.035201704769240
 20
-111.328016985400600
 11
247.514784343321480
 21
-111.328016985400600
  0
LINE
  8
0
  6
CONTINUOUS
 62
3
 10
249.867114764892450
 20
-101.328016985400600
 11
249.085209276106700
 21
-101.328016985400600
  0
LINE
  8
0
  6
CONTINUOUS
 62
3
 10
249.085209276106700
 20
-101.328016985400600
 11
247.514784343321480
 21
-101.328016985400600
  0
ARC
  8
0
  6
CONTINUOUS
 62
3
 10
355.014784343321480
 20
-116.601165830158600
 40
62.692927983299967
 50
49.155556897266770
 51
56.614043319658833
  0
ARC
  8
0
  6
CONTINUOUS
 62
3
 10
340.514784343321480
 20
-106.328016985400600
 40
41.999999999999943
 50
318.412480210151950
 51
356.587519789847310
  0
ARC
  8
0
  6
CONTINUOUS
 62
3
 10
370.990992582138010
 20
-129.026050631165160
 40
2.999999999999426
 50
143.322040599176740
 51
225.000000000012280
  0
ARC
  8
0
  6
CONTINUOUS
 62
3
 10
340.514784343321480
 20
-106.328016985400600
 40
41.999999999999979
 50
48.412480210152864
 51
86.587519789847292
  0
ARC
  8
0
  6
CONTINUOUS
 62
3
 10
387.862375983334910
 20
-66.758599938439147
 40
2.999999999999778
 50
56.614043319654456
 51
135.000000000012250
  0
ARC
  8
0
  6
CONTINUOUS
 62
3
 10
377.684284855706660
 20
-61.380341879963453
 40
2.999999999999864
 50
314.999999999987720
 51
67.680649198207121
  0
ARC
  8
0
  6
CONTINUOUS
 62
3
 10
363.212817989086490
 20
-75.851808746583629
 40
3.000000000000427
 50
233.322040599180130
 51
314.999999999993860
  0
ARC
  8
0
  6
CONTINUOUS
 62
3
 10
370.990992582138460
 20
-83.629983339636055
 40
3.000000000000185
 50
134.999999999993830
 51
216.677959400818080
  0
ARC
  8
0
  6
CONTINUOUS
 62
3
 10
303.345283830936750
 20
-61.380341879963453
 40
2.999999999999910
 50
112.319350801792870
 51
225.000000000006170
  0
ARC
  8
0
  6
CONTINUOUS
 62
3
 10
293.167192703308050
 20
-66.758599938439147
 40
2.999999999999864
 50
44.999999999987722
 51
123.385956680338290
  0
ARC
  8
0
  6
CONTINUOUS
 62
3
 10
340.514784343321480
 20
-106.328016985400600
 40
41.999999999999943
 50
138.412480210151980
 51
176.587519789847280
  0
ARC
  8
0
  6
CONTINUOUS
 62
3
 10
310.038576104504950
 20
-83.629983339636055
 40
2.999999999999426
 50
323.322040599176720
 51
45.000000000012292
  0
ARC
  8
0
  6
CONTINUOUS
 62
3
 10
317.816750697556470
 20
-75.851808746583629
 40
2.999999999999864
 50
225.000000000012280
 51
306.677959400826810
  0
ARC
  8
0
  6
CONTINUOUS
 62
3
 10
414.707712326621280
 20
-126.929216884068410
 40
3.000000000000288
 50
344.481586472375000
 51
0.000000000000000
  0
ARC
  8
0
  6
CONTINUOUS
 62
3
 10
412.586074295350040
 20
-100.828016985400600
 40
3.000000000000000
 50
270.000000000000000
 51
15.321688456570628
  0
ARC
  8
0
  6
CONTINUOUS
 62
3
 10
414.516571722569550
 20
-111.828016985400600
 40
2.999999999999651
 50
4.586365068673312
 51
90.000000000000000
  0
ARC
  8
0
  6
CONTINUOUS
 62
3
 10
335.014784343321480
 20
-56.669102537302024
 40
3.000000000000000
 50
0.000000000000000
 51
90.708657147838480
  0
ARC
  8
0
  6
CONTINUOUS
 62
3
 10
346.014784343321480
 20
-56.669102537302024
 40
2.999999999999795
 50
89.291342852161520
 51
180.000000000000000
  0
ARC
  8
0
  6
CONTINUOUS
 62
3
 10
310.621473445397440
 20
-129.788408362359410
 40
2.999999999999337
 50
281.549996895632720
 51
38.124966414610668
  0
ARC
  8
0
  6
CONTINUOUS
 62
3
 10
340.514784343321480
 20
-106.328016985400600
 40
41.999999999999993
 50
183.412480210152720
 51
220.223497577760530
  0
ARC
  8
0
  6
CONTINUOUS
 62
3
 10
340.514784343321480
 20
-106.328016985400600
 40
41.999999999999993
 50
3.412480210152714
 51
41.587519789847612
  0
ARC
  8
0
  6
CONTINUOUS
 62
3
 10
340.514784343321480
 20
-106.328016985400600
 40
41.999999999999993
 50
93.412480210152708
 51
131.587519789847140
  0
ARC
  8
0
  6
CONTINUOUS
 62
3
 10
346.014784343321480
 20
-68.728149964358636
 40
3.000000000000000
 50
180.000000000000000
 51
261.677959400831010
  0
ARC
  8
0
  6
CONTINUOUS
 62
3
 10
335.014784343321480
 20
-68.728149964358636
 40
3.000000000000119
 50
278.322040599177570
 51
0.000000000000000
  0
ARC
  8
0
  6
CONTINUOUS
 62
3
 10
378.114651364363000
 20
-111.828016985400600
 40
3.000000000000000
 50
90.000000000000000
 51
171.677959400822400
  0
ARC
  8
0
  6
CONTINUOUS
 62
3
 10
378.114651364363000
 20
-100.828016985400600
 40
3.000000000000119
 50
188.322040599177600
 51
270.000000000000000
  0
ARC
  8
0
  6
CONTINUOUS
 62
3
 10
302.914917322279960
 20
-111.828016985400600
 40
3.000000000000119
 50
8.322040599177583
 51
90.000000000000000
  0
ARC
  8
0
  6
CONTINUOUS
 62
3
 10
302.914917322279960
 20
-100.828016985400600
 40
3.000000000000000
 50
270.000000000000000
 51
351.677959400822430
  0
ARC
  8
0
  6
CONTINUOUS
 62
3
 10
398.712020199709060
 20
-156.747078248736220
 40
3.000000000000507
 50
225.000000000000000
 51
319.096043758148540
  0
ARC
  8
0
  6
CONTINUOUS
 62
3
 10
355.014784343321480
 20
-116.601165830158600
 40
62.692927983300230
 50
67.680649198203270
 51
87.841596534959393
  0
ARC
  8
0
  6
CONTINUOUS
 62
3
 10
390.933845606657090
 20
-48.130781129012576
 40
3.000000000000185
 50
314.999999999993860
 51
49.096043758149435
  0
ARC
  8
0
  6
CONTINUOUS
 62
3
 10
398.712020199709060
 20
-55.908955722065002
 40
3.000000000000403
 50
40.903956241845769
 51
134.999999999993830
  0
ARC
  8
0
  6
CONTINUOUS
 62
3
 10
282.317548486933900
 20
-55.908955722065002
 40
3.000000000000185
 50
45.000000000006146
 51
139.096043758148540
  0
ARC
  8
0
  6
CONTINUOUS
 62
3
 10
290.095723079985870
 20
-48.130781129012576
 40
2.999999999999418
 50
130.903956241850580
 51
225.000000000006170
  0
ARC
  8
0
  6
CONTINUOUS
 62
3
 10
355.014784343321480
 20
-116.601165830158600
 40
62.692927983300109
 50
15.321688456567088
 51
21.597799831152859
  0
ARC
  8
0
  6
CONTINUOUS
 62
3
 10
340.514784343321480
 20
-501.328016985624340
 40
447.692927983299680
 50
87.841596534959422
 51
89.291342852163240
  0
ARC
  8
0
  6
CONTINUOUS
 62
3
 10
355.014784343321480
 20
-116.601165830158600
 40
62.692927983299796
 50
0.000000000000000
 51
4.586365068665701
  0
ARC
  8
0
  6
CONTINUOUS
 62
3
 10
340.514784343321940
 20
-501.328016985624340
 40
447.692927983299800
 50
90.708657147836817
 51
92.158403465040649
  0
ARC
  8
0
  6
CONTINUOUS
 62
3
 10
326.014784343321480
 20
-116.601165830158600
 40
62.692927983299825
 50
92.158403465040607
 51
112.319350801796330
  0
ARC
  8
0
  6
CONTINUOUS
 62
3
 10
395.883327658974390
 20
-204.328016985400610
 40
3.000000000000000
 50
90.000000000000000
 51
177.685070995693200
  0
ARC
  8
0
  6
CONTINUOUS
 62
3
 10
383.514784343321940
 20
-203.828016985400610
 40
9.378645473199995
 50
311.725793146349250
 51
357.685070995696950
  0
ARC
  8
0
  6
CONTINUOUS
 62
3
 10
297.514784343321480
 20
-203.828016985400610
 40
9.378645473200079
 50
182.314929004302910
 51
228.274206853650720
  0
ARC
  8
0
  6
CONTINUOUS
 62
3
 10
285.146241027668570
 20
-204.328016985400610
 40
3.000000000000225
 50
2.314929004306812
 51
90.000000000000000
  0
ARC
  8
0
  6
CONTINUOUS
 62
3
 10
340.514784343321480
 20
-106.328016985400600
 40
88.000000000000085
 50
5.043502368947569
 51
30.824196484133207
  0
ARC
  8
0
  6
CONTINUOUS
 62
3
 10
417.318104584050620
 20
-111.828016985400600
 40
3.000000000000130
 50
355.903956241855330
 51
90.000000000000000
  0
ARC
  8
0
  6
CONTINUOUS
 62
3
 10
417.318104584050620
 20
-100.828016985400600
 40
3.000000000000000
 50
270.000000000000000
 51
4.096043758162018
  0
ARC
  8
0
  6
CONTINUOUS
 62
3
 10
335.014784343321480
 20
-29.524696744671019
 40
3.000000000000000
 50
0.000000000000000
 51
94.096043758154593
  0
ARC
  8
0
  6
CONTINUOUS
 62
3
 10
346.014784343321480
 20
-29.524696744671019
 40
2.999999999999255
 50
85.903956241845407
 51
180.000000000000000
  0
ARC
  8
0
  6
CONTINUOUS
 62
3
 10
416.544221594844200
 20
-199.328016985400610
 40
2.000000000000338
 50
225.000000000000000
 51
270.000000000000000
  0
CIRCLE
  8
0
  6
CONTINUOUS
 62
3
 10
423.599831132740750
 20
-23.242970195980888
 40
6.000000000000000
  0
ARC
  8
0
  6
CONTINUOUS
 62
3
 10
425.514784343321480
 20
-21.328016985400609
 40
10.000000000000000
 50
0.000000000000000
 51
90.000000000000000
  0
ARC
  8
0
  6
CONTINUOUS
 62
3
 10
424.671655220761750
 20
-56.112271604913985
 40
9.999999999999437
 50
135.000000000001820
 51
210.824196484133950
  0
ARC
  8
0
  6
CONTINUOUS
 62
3
 10
416.544221594844200
 20
-13.328016985400609
 40
2.000000000000000
 50
90.000000000000000
 51
135.000000000000000
  0
ARC
  8
0
  6
CONTINUOUS
 62
3
 10
433.514784343321480
 20
-30.298579733877887
 40
1.999999999999373
 50
315.000000000009210
 51
0.000000000000000
  0
ARC
  8
0
  6
CONTINUOUS
 62
3
 10
340.514784343321480
 20
-106.328016985400600
 40
88.000000000000014
 50
329.175803515866790
 51
354.956497631052460
  0
ARC
  8
0
  6
CONTINUOUS
 62
3
 10
424.671655220761750
 20
-156.543762365886320
 40
9.999999999999602
 50
149.175803515870540
 51
225.000000000001850
  0
CIRCLE
  8
0
  6
CONTINUOUS
 62
3
 10
423.599831132740750
 20
-189.413063774820330
 40
6.000000000000000
  0
ARC
  8
0
  6
DASHDOT
 62
4
 10
340.514784343321480
 20
-106.328016985400600
 40
117.499999999999500
 50
309.635821825515960
 51
320.364178174483360
  0
ARC
  8
0
  6
CONTINUOUS
 62
3
 10
425.514784343321480
 20
-191.328016985400610
 40
10.000000000000000
 50
270.000000000000000
 51
0.000000000000000
  0
ARC
  8
0
  6
CONTINUOUS
 62
3
 10
433.514784343321480
 20
-182.357454236923330
 40
2.000000000000000
 50
0.000000000000000
 51
44.999999999990798
  0
CIRCLE
  8
0
  6
CONTINUOUS
 62
3
 10
257.429737553902210
 20
-23.242970195980888
 40
6.000000000000000
  0
CIRCLE
  8
0
  6
CONTINUOUS
 62
3
 10
257.429737553902670
 20
-189.413063774820330
 40
6.000000000000000
  0
ARC
  8
0
  6
CONTINUOUS
 62
3
 10
255.514784343321480
 20
-191.328016985400610
 40
10.000000000000000
 50
180.000000000000000
 51
270.000000000000000
  0
ARC
  8
0
  6
CONTINUOUS
 62
3
 10
255.514784343321480
 20
-21.328016985400609
 40
10.000000000000000
 50
90.000000000000000
 51
180.000000000000000
  0
ARC
  8
0
  6
DASHDOT
 62
4
 10
340.514784343321480
 20
-106.328016985400600
 40
117.499999999999780
 50
129.635821825516160
 51
140.364178174483360
  0
ARC
  8
0
  6
CONTINUOUS
 62
3
 10
390.730529723807650
 20
-22.171146107960340
 40
9.999999999999677
 50
239.175803515864690
 51
315.000000000001820
  0
ARC
  8
0
  6
CONTINUOUS
 62
3
 10
247.514784343321480
 20
-30.298579733877887
 40
2.000000000000000
 50
180.000000000000000
 51
224.999999999990790
  0
ARC
  8
0
  6
CONTINUOUS
 62
3
 10
264.485347091798760
 20
-13.328016985400609
 40
2.000000000000338
 50
45.000000000000000
 51
90.000000000000000
  0
ARC
  8
0
  6
CONTINUOUS
 62
3
 10
290.299038962835310
 20
-22.171146107960340
 40
9.999999999999437
 50
224.999999999998180
 51
300.824196484135310
  0
ARC
  8
0
  6
CONTINUOUS
 62
3
 10
256.357913465881210
 20
-56.112271604913985
 40
10.000000000000068
 50
329.175803515866050
 51
44.999999999998167
  0
ARC
  8
0
  6
CONTINUOUS
 62
3
 10
340.514784343321480
 20
-106.328016985400600
 40
88.000000000000185
 50
59.175803515867223
 51
120.824196484132780
  0
ARC
  8
0
  6
CONTINUOUS
 62
3
 10
340.514784343321480
 20
-106.328016985400600
 40
88.000000000000185
 50
239.175803515867240
 51
300.824196484132760
  0
ARC
  8
0
  6
CONTINUOUS
 62
3
 10
247.514784343321480
 20
-182.357454236923330
 40
2.000000000000016
 50
134.999999999990790
 51
180.000000000000000
  0
ARC
  8
0
  6
CONTINUOUS
 62
3
 10
264.485347091798300
 20
-199.328016985400610
 40
2.000000000000000
 50
270.000000000000000
 51
315.000000000000000
  0
ARC
  8
0
  6
CONTINUOUS
 62
3
 10
290.299038962835310
 20
-190.484887862840880
 40
9.999999999999677
 50
59.175803515864729
 51
135.000000000000000
  0
ARC
  8
0
  6
CONTINUOUS
 62
3
 10
256.357913465880760
 20
-156.543762365886320
 40
10.000000000000401
 50
315.000000000000000
 51
30.824196484128137
  0
ARC
  8
0
  6
CONTINUOUS
 62
3
 10
390.730529723807650
 20
-190.484887862840880
 40
10.000000000000082
 50
45.000000000001855
 51
120.824196484135270
  0
ARC
  8
0
  6
CONTINUOUS
 62
3
 10
286.711190358164460
 20
-161.411347261268930
 40
2.999999999999571
 50
225.673360121564310
 51
4.263738012311674
  0
ARC
  8
0
  6
CONTINUOUS
 62
3
 10
431.162453921750510
 20
-114.328016985400600
 40
3.000000000000000
 50
90.000000000000000
 51
174.956497631056660
  0
ARC
  8
0
  6
CONTINUOUS
 62
3
 10
433.514784343321480
 20
-109.328016985400600
 40
2.000000000000000
 50
270.000000000000000
 51
0.000000000000000
  0
ARC
  8
0
  6
CONTINUOUS
 62
3
 10
431.162453921750510
 20
-98.328016985400609
 40
3.000000000000175
 50
185.043502368943310
 51
270.000000000000000
  0
ARC
  8
0
  6
CONTINUOUS
 62
3
 10
433.514784343321480
 20
-103.328016985400600
 40
2.000000000000000
 50
0.000000000000000
 51
90.000000000000000
  0
CIRCLE
  8
0
  6
CONTINUOUS
 62
3
 10
340.514784343321480
 20
-106.328016985400600
 40
27.500000000000000
  0
LINE
  8
0
  6
CONTINUOUS
 62
3
 10
396.590699856149060
 20
-158.868398592296220
 11
368.869672238578910
 21
-131.147370974725160
  0
LINE
  8
0
  6
CONTINUOUS
 62
3
 10
396.590699856149510
 20
-53.787635378505001
 11
368.869672238578910
 21
-81.508662996076055
  0
LINE
  8
0
  6
CONTINUOUS
 62
3
 10
393.055165950216630
 20
-50.252101472572576
 11
365.334138332646030
 21
-77.973129090143630
  0
LINE
  8
0
  6
CONTINUOUS
 62
3
 10
287.974402736426330
 20
-50.252101472572576
 11
315.695430353997380
 21
-77.973129090143630
  0
LINE
  8
0
  6
CONTINUOUS
 62
3
 10
417.707712326621280
 20
-116.601165830158600
 11
417.707712326621280
 21
-126.929216884068410
  0
LINE
  8
0
  6
CONTINUOUS
 62
3
 10
340.514784343321480
 20
-201.328016985400610
 11
425.514784343321480
 21
-201.328016985400610
  0
LINE
  8
0
  6
CONTINUOUS
 62
3
 10
255.514784343321480
 20
-201.328016985400610
 11
340.514784343321480
 21
-201.328016985400610
  0
LINE
  8
0
  6
DASHED
 62
4
 10
285.146241027668570
 20
-201.328016985400610
 11
286.526153855403660
 21
-201.328016985400610
  0
LINE
  8
0
  6
DASHDOT
 62
4
 10
415.849401391711810
 20
-30.993399937010224
 11
431.378005725792720
 21
-15.464795602929371
  0
LINE
  8
0
  6
CONTINUOUS
 62
3
 10
417.600587408896440
 20
-49.041203793049135
 11
434.928997905694360
 21
-31.712793296250311
  0
LINE
  8
0
  6
CONTINUOUS
 62
3
 10
435.514784343321480
 20
-21.328016985400609
 11
435.514784343321480
 21
-191.328016985400610
  0
LINE
  8
0
  6
CONTINUOUS
 62
3
 10
417.600587408896440
 20
-163.614830177752080
 11
434.928997905694360
 21
-180.943240674550910
  0
LINE
  8
0
  6
CONTINUOUS
 62
3
 10
255.514784343321480
 20
-11.328016985400609
 11
425.514784343321480
 21
-11.328016985400609
  0
LINE
  8
0
  6
DASHDOT
 62
4
 10
265.207912146954640
 20
-181.634889181767900
 11
249.651562960850700
 21
-197.191238367871850
  0
LINE
  8
0
  6
CONTINUOUS
 62
3
 10
397.801597535672950
 20
-29.242213919825190
 11
415.130008032470870
 21
-11.913803423027275
  0
LINE
  8
0
  6
CONTINUOUS
 62
3
 10
283.227971150970010
 20
-29.242213919825190
 11
265.899560654172090
 21
-11.913803423027275
  0
LINE
  8
0
  6
CONTINUOUS
 62
3
 10
263.428981277746520
 20
-49.041203793049135
 11
246.100570780948600
 21
-31.712793296250311
  0
LINE
  8
0
  6
CONTINUOUS
 62
3
 10
283.227971150969550
 20
-183.413820050975120
 11
265.899560654171640
 21
-200.742230547773940
  0
LINE
  8
0
  6
CONTINUOUS
 62
3
 10
263.428981277746520
 20
-163.614830177752080
 11
246.100570780948600
 21
-180.943240674550000
  0
LINE
  8
0
  6
CONTINUOUS
 62
3
 10
397.801597535672950
 20
-183.413820050975120
 11
415.130008032470870
 21
-200.742230547773940
  0
LINE
  8
0
  6
CONTINUOUS
 62
3
 10
431.162453921750510
 20
-111.328016985400600
 11
433.514784343321480
 21
-111.328016985400600
  0
LINE
  8
0
  6
CONTINUOUS
 62
3
 10
431.162453921750510
 20
-101.328016985400600
 11
433.514784343321480
 21
-101.328016985400600
  0
LINE
  8
0
  6
CONTINUOUS
 62
3
 10
338.014784343321480
 20
-29.524696744671019
 11
338.014784343321480
 21
-68.728149964358636
  0
LINE
  8
0
  6
CONTINUOUS
 62
3
 10
343.014784343321480
 20
-29.524696744671019
 11
343.014784343321480
 21
-68.728149964358636
  0
LINE
  8
0
  6
CONTINUOUS
 62
3
 10
417.318104584050620
 20
-103.828016985400600
 11
378.114651364363000
 21
-103.828016985400600
  0
LINE
  8
0
  6
CONTINUOUS
 62
3
 10
417.318104584050620
 20
-108.828016985400600
 11
378.114651364363000
 21
-108.828016985400600
  0
CIRCLE
  8
0
  6
CONTINUOUS
 62
3
 10
340.514784343321480
 20
-106.328016985400600
 40
35.000000000000000
  0
CIRCLE
  8
0
  6
CONTINUOUS
 62
3
 10
340.514784343321480
 20
-106.328016985400600
 40
22.499999999999545
  0
LINE
  8
0
  6
DASHDOT
 62
4
 10
340.514784343321480
 20
1.096377239304275
 11
340.514784343321480
 21
-228.307758173086770
  0
CIRCLE
  8
0
  6
CONTINUOUS
 62
4
 10
340.514784343321480
 20
-106.328016985400600
 40
4.000000000000000
  0
CIRCLE
  8
0
  6
CONTINUOUS
 62
3
 10
340.514784343321480
 20
-106.328016985400600
 40
3.323500000000024
  0
ARC
  8
0
  6
CONTINUOUS
 62
3
 10
340.514784343321480
 20
-106.328016985401510
 40
13.999999999999572
 50
196.601549599020760
 51
163.398450400979240
  0
LINE
  8
0
  6
CONTINUOUS
 62
3
 10
323.514784343321480
 20
-102.328016985401510
 11
330.514784343321480
 21
-102.328016985401510
  0
LINE
  8
0
  6
CONTINUOUS
 62
3
 10
330.514784343321480
 20
-110.328016985401510
 11
330.514784343321480
 21
-102.328016985401510
  0
LINE
  8
0
  6
CONTINUOUS
 62
3
 10
323.514784343321480
 20
-110.328016985401510
 11
330.514784343321480
 21
-110.328016985401510
  0
LINE
  8
0
  6
CONTINUOUS
 62
3
 10
323.514784343321480
 20
-110.328016985401510
 11
323.514784343321480
 21
-102.328016985401510
  0
LINE
  8
0
  6
CONTINUOUS
 62
3
 10
284.438868830493900
 20
-53.787635378505001
 11
312.159896448064050
 21
-81.508662996076055
  0
ARC
  8
0
  6
CONTINUOUS
 62
3
 10
355.014784343321480
 20
-116.601165830158600
 40
62.692927983300109
 50
15.321688456567101
 51
56.614043319659181
  0
LINE
  8
0
  6
DASHED
 62
3
 10
283.014784343321480
 20
-77.840031130968896
 11
283.014784343321480
 21
-71.828016985399358
  0
ARC
  8
0
  6
DASHED
 62
3
 10
582.114784343321840
 20
-107.828016985399150
 40
300.599999999999910
 50
174.247717268463390
 51
180.000000000000000
  0
LINE
  8
0
  6
DASHED
 62
3
 10
283.014784343321480
 20
-71.828016985399358
 11
259.559549799779350
 21
-71.828016985399344
  0
ARC
  8
0
  6
DASHED
 62
3
 10
255.648119570379090
 20
-76.828016985399344
 40
5.000000000000000
 50
90.000000000000000
 51
173.967950853629670
  0
LINE
  8
0
  6
DASHED
 62
3
 10
259.559549799779350
 20
-71.828016985399344
 11
255.648119570379090
 21
-71.828016985399344
  0
ARC
  8
0
  6
DASHED
 62
3
 10
549.014784343321480
 20
-107.828016985399130
 40
300.000000000000060
 50
173.967950853630210
 51
178.738802584932130
  0
ARC
  8
0
  6
DASHED
 62
3
 10
549.014784343321480
 20
-107.828016985399130
 40
300.000000000000000
 50
178.738802584932130
 51
180.690861083299890
  0
LINE
  8
0
  6
DASHED
 62
3
 10
248.514784343321480
 20
-110.328016985399100
 11
249.025201190839200
 21
-110.328016985399100
  0
LINE
  8
0
  6
DASHED
 62
3
 10
248.514784343321480
 20
-110.328016985399100
 11
248.514784343321480
 21
-105.328016985399130
  0
LINE
  8
0
  6
DASHED
 62
3
 10
248.514784343321480
 20
-105.328016985398900
 11
249.025201190839200
 21
-105.328016985398900
  0
ARC
  8
0
  6
DASHED
 62
3
 10
549.014784343321480
 20
-107.828016985399130
 40
300.000000000000000
 50
180.690861083299890
 51
186.032049146369810
  0
ARC
  8
0
  6
DASHED
 62
3
 10
255.648119570379090
 20
-138.828016985399100
 40
5.000000000000143
 50
186.032049146370330
 51
270.000000000000000
  0
LINE
  8
0
  6
DASHED
 62
3
 10
260.904797532619680
 20
-143.828016985399100
 11
255.648119570379090
 21
-143.828016985399100
  0
LINE
  8
0
  6
DASHED
 62
3
 10
283.014784343321480
 20
-143.828016985399100
 11
260.904797532619680
 21
-143.828016985399100
  0
LINE
  8
0
  6
DASHED
 62
3
 10
283.014784343321480
 20
-143.828016985399100
 11
283.014784343321480
 21
-137.820516047661470
  0
ARC
  8
0
  6
DASHED
 62
3
 10
582.114784343321840
 20
-107.828016985399150
 40
300.600000000000360
 50
180.000000000000000
 51
185.752282731536610
  0
ARC
  8
0
  6
DASHDOT
 62
4
 10
340.514784343321480
 20
-106.328016985400600
 40
117.499999999999850
 50
39.531806749658898
 51
50.364178174483833
  0
LINE
  8
0
  6
DASHDOT
 62
4
 10
415.697205646064280
 20
-181.510438288144340
 11
430.947219177320960
 21
-196.760451819401340
  0
ARC
  8
0
  6
DASHDOT
 62
4
 10
340.514784343321480
 20
-106.328016985400600
 40
117.499999999999840
 50
219.141048373840700
 51
230.364178174484010
  0
LINE
  8
0
  6
DASHDOT
 62
4
 10
264.477426757620830
 20
-30.290659399699564
 11
249.565868467168680
 21
-15.379101109247358
  0
LINE
  8
0
  6
DASHDOT
 62
4
 10
369.540284988954230
 20
-107.828016985399130
 11
310.976422766107130
 21
-107.828016985399130
  0
LINE
  8
0
  6
CONTINUOUS
 62
3
 10
179.805924970886280
 20
-106.328016985400600
 11
179.805924970886280
 21
-117.928016985400970
  0
LINE
  8
0
  6
CONTINUOUS
 62
3
 10
179.805924970886280
 20
-106.328016985400600
 11
179.805924970886280
 21
-94.728016985401155
  0
LINE
  8
0
  6
CONTINUOUS
 62
3
 10
221.805924970886280
 20
-102.328016985400600
 11
189.805924970886280
 21
-102.328016985400600
  0
LINE
  8
0
  6
CONTINUOUS
 62
3
 10
221.805924970886280
 20
-110.328016985400600
 11
189.805924970886280
 21
-110.328016985400600
  0
ARC
  8
0
  6
CONTINUOUS
 62
3
 10
189.805924970886280
 20
-106.328016985400600
 40
4.000000000000000
 50
90.000000000000000
 51
270.000000000000000
  0
ARC
  8
0
  6
CONTINUOUS
 62
3
 10
221.405924970885740
 20
-119.928016985400970
 40
0.399999999999636
 50
270.000000000000000
 51
0.000000000000000
  0
LINE
  8
0
  6
CONTINUOUS
 62
3
 10
221.405924970885740
 20
-120.328016985400600
 11
182.365732592020780
 21
-120.328016985400600
  0
LINE
  8
0
  6
CONTINUOUS
 62
3
 10
221.805924970886280
 20
-119.928016985400970
 11
221.805924970886280
 21
-106.328016985400600
  0
ARC
  8
0
  6
CONTINUOUS
 62
3
 10
221.405924970885740
 20
-92.728016985400245
 40
0.400000000000546
 50
0.000000000000000
 51
90.000000000000000
  0
LINE
  8
0
  6
CONTINUOUS
 62
3
 10
221.405924970885740
 20
-92.328016985400609
 11
182.365732592020780
 21
-92.328016985400609
  0
LINE
  8
0
  6
CONTINUOUS
 62
3
 10
221.805924970886280
 20
-92.728016985400245
 11
221.805924970886280
 21
-106.328016985400600
  0
LINE
  8
0
  6
CONTINUOUS
 62
3
 10
181.805924970886280
 20
-92.478016985400245
 11
180.205924970885920
 21
-92.478016985400245
  0
LINE
  8
0
  6
CONTINUOUS
 62
3
 10
182.365732592020780
 20
-92.328016985400609
 11
181.805924970886280
 21
-92.478016985400245
  0
ARC
  8
0
  6
CONTINUOUS
 62
3
 10
180.205924970885920
 20
-92.078016985400609
 40
0.399999999999636
 50
180.000000000000000
 51
270.000000000000000
  0
LINE
  8
0
  6
CONTINUOUS
 62
3
 10
179.805924970886280
 20
-92.028016985400427
 11
179.605924970885550
 21
-91.828016985400609
  0
LINE
  8
0
  6
CONTINUOUS
 62
3
 10
179.805924970886280
 20
-106.328016985400600
 11
179.805924970886280
 21
-92.028016985400427
  0
LINE
  8
0
  6
CONTINUOUS
 62
3
 10
179.605924970885550
 20
-91.828016985400609
 11
177.805924970885370
 21
-91.828016985400609
  0
LINE
  8
0
  6
CONTINUOUS
 62
3
 10
181.805924970886280
 20
-120.178016985400970
 11
180.205924970885920
 21
-120.178016985400970
  0
LINE
  8
0
  6
CONTINUOUS
 62
3
 10
182.365732592020780
 20
-120.328016985400600
 11
181.805924970886280
 21
-120.178016985400970
  0
ARC
  8
0
  6
CONTINUOUS
 62
3
 10
180.205924970885920
 20
-120.578016985400600
 40
0.399999999999636
 50
90.000000000000000
 51
180.000000000000000
  0
LINE
  8
0
  6
CONTINUOUS
 62
3
 10
179.805924970886280
 20
-120.628016985400790
 11
179.605924970885550
 21
-120.828016985400600
  0
LINE
  8
0
  6
CONTINUOUS
 62
3
 10
179.805924970886280
 20
-106.328016985400600
 11
179.805924970886280
 21
-120.628016985400790
  0
LINE
  8
0
  6
CONTINUOUS
 62
3
 10
179.605924970885550
 20
-120.828016985400600
 11
177.805924970885370
 21
-120.828016985400600
  0
ARC
  8
0
  6
CONTINUOUS
 62
3
 10
165.805924970886050
 20
-210.233073548100950
 40
0.500000000000234
 50
268.999999999998690
 51
0.000000000000000
  0
ARC
  8
0
  6
CONTINUOUS
 62
3
 10
176.805924970886280
 20
-132.828016985400610
 40
1.000000000000000
 50
270.000000000000000
 51
0.000000000000000
  0
ARC
  8
0
  6
CONTINUOUS
 62
3
 10
176.805924970886280
 20
-79.828016985400609
 40
1.000000000000000
 50
0.000000000000000
 51
90.000000000000000
  0
LINE
  8
0
  6
CONTINUOUS
 62
3
 10
176.805924970886280
 20
-133.828016985400610
 11
176.753589014643240
 21
-133.883167575927470
  0
LINE
  8
0
  6
CONTINUOUS
 62
3
 10
176.805924970886280
 20
-78.828016985400609
 11
176.753589014643240
 21
-78.772866394874654
  0
LINE
  8
0
  6
CONTINUOUS
 62
3
 10
165.797198767667400
 20
-210.732997395678470
 11
86.305924970886053
 21
-209.345472050328680
  0
LINE
  8
0
  6
CONTINUOUS
 62
3
 10
172.755644712511180
 20
-201.419745286865690
 11
173.305924970886050
 21
-200.839870887255530
  0
LINE
  8
0
  6
CONTINUOUS
 62
3
 10
172.755644712511180
 20
-11.236288683936436
 11
173.305924970886050
 21
-11.816163083546599
  0
LINE
  8
0
  6
CONTINUOUS
 62
3
 10
172.755644712511180
 20
-11.236288683936436
 11
163.410596883371910
 21
-10.746535479917839
  0
LINE
  8
0
  6
CONTINUOUS
 62
3
 10
177.805924970886280
 20
-106.328016985400600
 11
177.805924970886280
 21
-132.828016985400610
  0
LINE
  8
0
  6
CONTINUOUS
 62
3
 10
177.805924970886280
 20
-106.328016985400600
 11
177.805924970886280
 21
-79.828016985400609
  0
ARC
  8
0
  6
CONTINUOUS
 62
3
 10
137.829247931880220
 20
-44.490814409844461
 40
5.000000000000146
 50
272.000000000000970
 51
330.000000000000110
  0
LINE
  8
0
  6
CONTINUOUS
 62
3
 10
160.641038075336840
 20
-14.979634869778238
 11
142.159374950802430
 21
-46.990814409844461
  0
ARC
  8
0
  6
CONTINUOUS
 62
3
 10
163.305924970886050
 20
-12.743794549426639
 40
2.000000000000025
 50
177.837310087963030
 51
180.000000000000000
  0
LINE
  8
0
  6
CONTINUOUS
 62
3
 10
86.305924970886053
 20
-209.345472050328680
 11
86.305924970886053
 21
-51.293096215908918
  0
LINE
  8
0
  6
CONTINUOUS
 62
3
 10
176.305924970886050
 20
-21.328016985400609
 11
173.305924970886050
 21
-21.328016985400609
  0
LINE
  8
0
  6
CONTINUOUS
 62
3
 10
176.305924970886050
 20
-191.328016985400610
 11
173.305924970886050
 21
-191.328016985400610
  0
ARC
  8
0
  6
CONTINUOUS
 62
3
 10
156.310911056414620
 20
-12.479634869778238
 40
5.000000000000016
 50
330.000000000000110
 51
357.837310087936940
  0
ARC
  8
0
  6
CONTINUOUS
 62
3
 10
176.805924970886280
 20
-77.774236860120254
 40
0.999999999999802
 50
239.999999999978400
 51
266.999999999993860
  0
ARC
  8
0
  6
CONTINUOUS
 62
3
 10
176.805924970886280
 20
-134.881797110681870
 40
0.999999999999832
 50
93.000000000006111
 51
120.000000000021580
  0
LINE
  8
0
  6
CONTINUOUS
 62
3
 10
176.305924970886050
 20
-21.328016985400609
 11
176.305924970886050
 21
-106.328016985400600
  0
LINE
  8
0
  6
CONTINUOUS
 62
3
 10
176.305924970886050
 20
-191.328016985400610
 11
176.305924970886050
 21
-106.328016985400600
  0
LINE
  8
0
  6
CONTINUOUS
 62
3
 10
172.755644712511180
 20
-201.419745286865690
 11
163.410596883371910
 21
-201.909498490884290
  0
LINE
  8
0
  6
CONTINUOUS
 62
3
 10
166.305924970886050
 20
-201.757760775522000
 11
166.305924970886050
 21
-210.233073548100950
  0
LINE
  8
0
  6
CONTINUOUS
 62
3
 10
161.305924970886050
 20
-12.743794549426639
 11
161.305924970886050
 21
-199.912239421374580
  0
ARC
  8
0
  6
CONTINUOUS
 62
3
 10
163.305924970886050
 20
-199.912239421374580
 40
2.000000000000000
 50
180.000000000000000
 51
272.999999999999600
  0
ARC
  8
0
  6
CONTINUOUS
 62
3
 10
163.305924970886050
 20
-12.743794549426639
 40
1.999999999999651
 50
87.000000000000398
 51
180.000000000000000
  0
LINE
  8
0
  6
CONTINUOUS
 62
3
 10
173.305924970886050
 20
-11.816163083546599
 11
173.305924970886050
 21
-106.328016985400600
  0
LINE
  8
0
  6
CONTINUOUS
 62
3
 10
173.305924970886050
 20
-200.839870887255530
 11
173.305924970886050
 21
-106.328016985400600
  0
LINE
  8
0
  6
DASHDOT
 62
4
 10
183.924377381500110
 20
-23.242970195980888
 11
151.448916681136550
 21
-23.242970195980888
  0
LINE
  8
0
  6
DASHDOT
 62
4
 10
183.924377381500110
 20
-189.413063774820330
 11
151.448916681136550
 21
-189.413063774820330
  0
ARC
  8
0
  6
CONTINUOUS
 62
3
 10
168.305924970886050
 20
-99.328016985400609
 40
2.000000000000000
 50
180.000000000000000
 51
270.000000000000000
  0
ARC
  8
0
  6
CONTINUOUS
 62
3
 10
168.305924970886050
 20
-56.794621708381783
 40
2.000000000000000
 50
90.000000000000000
 51
180.000000000000000
  0
LINE
  8
0
  6
CONTINUOUS
 62
3
 10
166.305924970886050
 20
-33.127006858623645
 11
166.305924970886050
 21
-99.328016985400609
  0
ARC
  8
0
  6
CONTINUOUS
 62
3
 10
168.305924970886050
 20
-33.127006858623645
 40
2.000000000000000
 50
90.000000000000000
 51
180.000000000000000
  0
LINE
  8
0
  6
CONTINUOUS
 62
3
 10
173.305924970886050
 20
-31.127006858623645
 11
168.305924970886050
 21
-31.127006858623645
  0
LINE
  8
0
  6
CONTINUOUS
 62
3
 10
173.305924970886050
 20
-54.794621708381783
 11
168.305924970886050
 21
-54.794621708381783
  0
LINE
  8
0
  6
CONTINUOUS
 62
3
 10
173.305924970886050
 20
-101.328016985400600
 11
168.305924970886050
 21
-101.328016985400600
  0
ARC
  8
0
  6
CONTINUOUS
 62
3
 10
168.305924970886050
 20
-113.328016985400600
 40
2.000000000000000
 50
90.000000000000000
 51
180.000000000000000
  0
ARC
  8
0
  6
CONTINUOUS
 62
3
 10
168.305924970886050
 20
-155.861412262419440
 40
2.000000000000000
 50
180.000000000000000
 51
270.000000000000000
  0
LINE
  8
0
  6
CONTINUOUS
 62
3
 10
166.305924970886050
 20
-179.529027112177570
 11
166.305924970886050
 21
-113.328016985400600
  0
ARC
  8
0
  6
CONTINUOUS
 62
3
 10
168.305924970886050
 20
-179.529027112177570
 40
2.000000000000000
 50
180.000000000000000
 51
270.000000000000000
  0
LINE
  8
0
  6
CONTINUOUS
 62
3
 10
173.305924970886050
 20
-181.529027112177570
 11
168.305924970886050
 21
-181.529027112177570
  0
LINE
  8
0
  6
CONTINUOUS
 62
3
 10
173.305924970886050
 20
-157.861412262419440
 11
168.305924970886050
 21
-157.861412262419440
  0
LINE
  8
0
  6
CONTINUOUS
 62
3
 10
173.305924970886050
 20
-111.328016985400600
 11
168.305924970886050
 21
-111.328016985400600
  0
ARC
  8
0
  6
CONTINUOUS
 62
3
 10
138.945337430313660
 20
-56.263895418382162
 40
5.000000000000000
 50
270.000000000000000
 51
310.170179485510800
  0
LINE
  8
0
  6
CONTINUOUS
 62
3
 10
142.170637781971440
 20
-60.084554738656152
 11
159.531225322543830
 21
-45.429202244265070
  0
ARC
  8
0
  6
CONTINUOUS
 62
3
 10
156.305924970886050
 20
-41.608542923991081
 40
5.000000000000030
 50
310.170179485510800
 51
0.000000000000000
  0
ARC
  8
0
  6
CONTINUOUS
 62
3
 10
138.945337430313660
 20
-51.485720825330645
 40
5.000000000000000
 50
270.000000000000000
 51
310.170179485510800
  0
LINE
  8
0
  6
CONTINUOUS
 62
3
 10
142.170637781971440
 20
-55.306380145604635
 11
159.531225322543830
 21
-40.651027651213553
  0
ARC
  8
0
  6
CONTINUOUS
 62
3
 10
156.305924970886050
 20
-36.830368330939564
 40
5.000000000000030
 50
310.170179485510800
 51
0.000000000000000
  0
LINE
  8
0
  6
CONTINUOUS
 62
3
 10
86.305924970886053
 20
-51.293096215908918
 11
149.540548976394120
 21
-49.084894487114070
  0
LINE
  8
0
  6
CONTINUOUS
 62
3
 10
143.236183307457620
 20
-61.263895418382162
 11
159.066732939754960
 21
-61.263895418382162
  0
LINE
  8
0
  6
CONTINUOUS
 62
3
 10
75.805924970892193
 20
-139.328016985399700
 11
78.805924970892193
 21
-139.328016985399700
  0
ARC
  8
0
  6
CONTINUOUS
 62
3
 10
75.805924970892193
 20
-140.328016985399700
 40
1.000000000000000
 50
90.000000000000000
 51
180.000000000000000
  0
ARC
  8
0
  6
CONTINUOUS
 62
3
 10
78.805924970892193
 20
-138.328016985399700
 40
1.000000000000000
 50
270.000000000000000
 51
0.000000000000000
  0
ARC
  8
0
  6
CONTINUOUS
 62
3
 10
73.805924970893102
 20
-107.328016985401510
 40
2.000000000000290
 50
104.477512185954690
 51
180.000000000000000
  0
ARC
  8
0
  6
CONTINUOUS
 62
3
 10
72.805924970892193
 20
-103.455033639193970
 40
2.000000000000063
 50
284.477512185929470
 51
359.999999999973970
  0
ARC
  8
0
  6
CONTINUOUS
 62
3
 10
73.805924970893102
 20
-119.328016985401510
 40
2.000000000000000
 50
180.000000000000000
 51
255.522487814045290
  0
LINE
  8
0
  6
CONTINUOUS
 62
3
 10
71.805924970893102
 20
-119.328016985401510
 11
71.805924970893102
 21
-107.328016985401510
  0
ARC
  8
0
  6
CONTINUOUS
 62
3
 10
72.805924970892193
 20
-123.201000331609060
 40
2.000000000000000
 50
0.000000000000000
 51
75.522487814070544
  0
LINE
  8
0
  6
CONTINUOUS
 62
3
 10
75.805924970892193
 20
-125.328016985400600
 11
78.805924970892193
 21
-125.328016985400600
  0
LINE
  8
0
  6
CONTINUOUS
 62
3
 10
79.805924970892193
 20
-138.328016985399700
 11
79.805924970892193
 21
-126.328016985400600
  0
ARC
  8
0
  6
CONTINUOUS
 62
3
 10
75.805924970892193
 20
-124.328016985400600
 40
1.000000000000000
 50
180.000000000000000
 51
270.000000000000000
  0
ARC
  8
0
  6
CONTINUOUS
 62
3
 10
78.805924970892193
 20
-126.328016985400600
 40
1.000000000000000
 50
0.000000000000000
 51
90.000000000000000
  0
LINE
  8
0
  6
CONTINUOUS
 62
3
 10
79.805924970892193
 20
-208.828016985400610
 11
79.805924970892193
 21
-199.305889710855810
  0
LINE
  8
0
  6
CONTINUOUS
 62
3
 10
75.805924970892193
 20
-198.305889710855810
 11
78.805924970892193
 21
-198.305889710855810
  0
ARC
  8
0
  6
CONTINUOUS
 62
3
 10
75.805924970892193
 20
-197.305889710855810
 40
1.000000000000000
 50
180.000000000000000
 51
270.000000000000000
  0
ARC
  8
0
  6
CONTINUOUS
 62
3
 10
78.805924970892193
 20
-199.305889710855810
 40
1.000000000000000
 50
0.000000000000000
 51
90.000000000000000
  0
ARC
  8
0
  6
CONTINUOUS
 62
3
 10
80.805924970892193
 20
-207.828016985400610
 40
1.000000000000000
 50
180.000000000000000
 51
270.000000000000000
  0
LINE
  8
0
  6
CONTINUOUS
 62
3
 10
74.805924970892193
 20
-137.328016985400610
 11
74.805924970892193
 21
-198.828016985400610
  0
POINT
  8
0
  6
CONTINUOUS
 62
3
 10
79.805924970892193
 20
-203.828016985400610
  0
LINE
  8
0
  6
CONTINUOUS
 62
3
 10
74.805924970894011
 20
-61.328016985400609
 11
74.805924970894011
 21
-53.328016985400609
  0
LINE
  8
0
  6
CONTINUOUS
 62
3
 10
85.805924970882188
 20
-132.328016985400610
 11
85.805924970894011
 21
-51.328016985400609
  0
LINE
  8
0
  6
CONTINUOUS
 62
3
 10
85.805924970892193
 20
-132.328016985400610
 11
85.805924970892193
 21
-208.828016985400610
  0
ARC
  8
0
  6
CONTINUOUS
 62
3
 10
76.805924970894011
 20
-53.328016985400609
 40
2.000000000000000
 50
90.000000000000000
 51
180.000000000000000
  0
LINE
  8
0
  6
CONTINUOUS
 62
3
 10
74.805924970892193
 20
-123.201000331609060
 11
74.805924970892193
 21
-127.328016985400600
  0
LINE
  8
0
  6
CONTINUOUS
 62
3
 10
74.805924970891283
 20
-103.455033639193970
 11
74.805924970893102
 21
-66.722030005965280
  0
LINE
  8
0
  6
CONTINUOUS
 62
3
 10
86.305924970886053
 20
-208.828016985400610
 11
80.805924970892193
 21
-208.828016985400610
  0
LINE
  8
0
  6
CONTINUOUS
 62
3
 10
86.305924970886053
 20
-51.328016985400609
 11
76.805926323634594
 21
-51.328016985400609
  0
ARC
  8
0
  6
CONTINUOUS
 62
3
 10
69.805924970893102
 20
-67.904019117957432
 40
5.000000000000066
 50
273.000000000005570
 51
316.780153221360990
  0
ARC
  8
0
  6
CONTINUOUS
 62
3
 10
69.805924970892193
 20
-196.752014852843790
 40
5.000000000000000
 50
0.000000000000000
 51
87.000000000004846
  0
LINE
  8
0
  6
CONTINUOUS
 62
3
 10
53.305924970892193
 20
-190.880424764683990
 11
53.305924970891965
 21
-73.828016985400495
  0
LINE
  8
0
  6
CONTINUOUS
 62
3
 10
70.067604752106490
 20
-191.758867179070880
 11
53.305924970892193
 21
-190.880424764683990
  0
LINE
  8
0
  6
CONTINUOUS
 62
3
 10
70.067604752108309
 20
-72.897166791730342
 11
53.305924970893102
 21
-73.775609206117224
  0
LINE
  8
0
  6
CONTINUOUS
 62
3
 10
53.305924970893102
 20
-112.328016985400600
 11
71.805924970893102
 21
-112.328016985400600
  0
LINE
  8
0
  6
CONTINUOUS
 62
3
 10
74.805924970892193
 20
-152.328016985400610
 11
53.305924970892193
 21
-152.328016985400610
  0
LINE
  8
0
  6
CONTINUOUS
 62
3
 10
53.305924970892079
 20
-188.628016985398400
 11
53.305924970892079
 21
-73.828016985400495
  0
LINE
  8
0
  6
CONTINUOUS
 62
3
 10
53.305924970892079
 20
-188.628016985398400
 11
53.305924970892079
 21
-190.828016985400610
  0
LINE
  8
0
  6
CONTINUOUS
 62
3
 10
-109.194075029134060
 20
-161.828016985398900
 11
-186.698919978226850
 21
-161.828016985398900
  0
LINE
  8
0
  6
CONTINUOUS
 62
3
 10
-109.194075029134060
 20
-161.828016985398900
 11
-109.194075029134060
 21
-148.828016985398680
  0
LINE
  8
0
  6
CONTINUOUS
 62
3
 10
-109.194075029134060
 20
-53.828016985398449
 11
-109.194075029134060
 21
-66.828016985398676
  0
LINE
  8
0
  6
CONTINUOUS
 62
3
 10
-109.194075029134060
 20
-53.828016985398449
 11
-186.698919978226850
 21
-53.828016985398449
  0
LINE
  8
0
  6
CONTINUOUS
 62
3
 10
-120.194075029134060
 20
-156.971938008123860
 11
-122.194075029134060
 21
-155.319296369000430
  0
LINE
  8
0
  6
CONTINUOUS
 62
3
 10
-118.194075029134060
 20
-158.147723493746640
 11
-120.194075029134060
 21
-156.971938008123860
  0
LINE
  8
0
  6
CONTINUOUS
 62
3
 10
-120.194075029134060
 20
-156.971938008123860
 11
-118.194075029134060
 21
-155.319296369000430
  0
LINE
  8
0
  6
CONTINUOUS
 62
3
 10
-122.194075029134060
 20
-158.147723493746640
 11
-120.194075029134060
 21
-156.971938008123860
  0
POLYLINE
  8
0
  6
CONTINUOUS
 62
3
 66
1
 70
1
  0
VERTEX
  8
0
  6
CONTINUOUS
 62
3
 10
-115.494075029133850
 20
-155.155347939746320
  0
VERTEX
  8
0
  6
CONTINUOUS
 62
3
 10
-115.584384211238670
 20
-154.452390973545960
  0
VERTEX
  8
0
  6
CONTINUOUS
 62
3
 10
-115.851841226330800
 20
-153.776448249333870
  0
VERTEX
  8
0
  6
CONTINUOUS
 62
3
 10
-116.286167851311880
 20
-153.153495866928470
  0
VERTEX
  8
0
  6
CONTINUOUS
 62
3
 10
-116.870673157557070
 20
-152.607473537029880
  0
VERTEX
  8
0
  6
CONTINUOUS
 62
3
 10
-117.582894933941710
 20
-152.159364591563250
  0
VERTEX
  8
0
  6
CONTINUOUS
 62
3
 10
-118.395462897017920
 20
-151.826389606000500
  0
VERTEX
  8
0
  6
CONTINUOUS
 62
3
 10
-119.277150515658030
 20
-151.621344622302250
  0
VERTEX
  8
0
  6
CONTINUOUS
 62
3
 10
-120.194075029133840
 20
-151.552109404201470
  0
VERTEX
  8
0
  6
CONTINUOUS
 62
3
 10
-121.110999542609640
 20
-151.621344622302250
  0
VERTEX
  8
0
  6
CONTINUOUS
 62
3
 10
-121.992687161249760
 20
-151.826389606000500
  0
VERTEX
  8
0
  6
CONTINUOUS
 62
3
 10
-122.805255124325960
 20
-152.159364591563250
  0
VERTEX
  8
0
  6
CONTINUOUS
 62
3
 10
-123.517476900710600
 20
-152.607473537029880
  0
VERTEX
  8
0
  6
CONTINUOUS
 62
3
 10
-124.101982206955790
 20
-153.153495866928470
  0
VERTEX
  8
0
  6
CONTINUOUS
 62
3
 10
-124.536308831936870
 20
-153.776448249333870
  0
VERTEX
  8
0
  6
CONTINUOUS
 62
3
 10
-124.803765847029010
 20
-154.452390973545960
  0
VERTEX
  8
0
  6
CONTINUOUS
 62
3
 10
-124.894075029133830
 20
-155.155347939746320
  0
VERTEX
  8
0
  6
CONTINUOUS
 62
3
 10
-124.803765847029010
 20
-155.858304905946680
  0
VERTEX
  8
0
  6
CONTINUOUS
 62
3
 10
-124.536308831936870
 20
-156.534247630158770
  0
VERTEX
  8
0
  6
CONTINUOUS
 62
3
 10
-124.101982206955790
 20
-157.157200012564180
  0
VERTEX
  8
0
  6
CONTINUOUS
 62
3
 10
-123.517476900710600
 20
-157.703222342462770
  0
VERTEX
  8
0
  6
CONTINUOUS
 62
3
 10
-122.805255124325960
 20
-158.151331287929390
  0
VERTEX
  8
0
  6
CONTINUOUS
 62
3
 10
-121.992687161249760
 20
-158.484306273492140
  0
VERTEX
  8
0
  6
CONTINUOUS
 62
3
 10
-121.110999542609640
 20
-158.689351257190400
  0
VERTEX
  8
0
  6
CONTINUOUS
 62
3
 10
-120.194075029133840
 20
-158.758586475291170
  0
VERTEX
  8
0
  6
CONTINUOUS
 62
3
 10
-119.277150515658030
 20
-158.689351257190400
  0
VERTEX
  8
0
  6
CONTINUOUS
 62
3
 10
-118.395462897017920
 20
-158.484306273492140
  0
VERTEX
  8
0
  6
CONTINUOUS
 62
3
 10
-117.582894933941710
 20
-158.151331287929390
  0
VERTEX
  8
0
  6
CONTINUOUS
 62
3
 10
-116.870673157557070
 20
-157.703222342462770
  0
VERTEX
  8
0
  6
CONTINUOUS
 62
3
 10
-116.286167851311880
 20
-157.157200012564180
  0
VERTEX
  8
0
  6
CONTINUOUS
 62
3
 10
-115.851841226330800
 20
-156.534247630158770
  0
VERTEX
  8
0
  6
CONTINUOUS
 62
3
 10
-115.584384211238670
 20
-155.858304905946680
  0
SEQEND
  8
0
  6
CONTINUOUS
 62
3
  0
LINE
  8
0
  6
CONTINUOUS
 62
3
 10
-120.194075029134060
 20
-58.684095962673496
 11
-122.194075029134060
 21
-60.336737601796926
  0
LINE
  8
0
  6
CONTINUOUS
 62
3
 10
-118.194075029134060
 20
-57.508310477050713
 11
-120.194075029134060
 21
-58.684095962673496
  0
LINE
  8
0
  6
CONTINUOUS
 62
3
 10
-120.194075029134060
 20
-58.684095962673496
 11
-118.194075029134060
 21
-60.336737601796926
  0
LINE
  8
0
  6
CONTINUOUS
 62
3
 10
-122.194075029134060
 20
-57.508310477050713
 11
-120.194075029134060
 21
-58.684095962673496
  0
POLYLINE
  8
0
  6
CONTINUOUS
 62
3
 66
1
 70
1
  0
VERTEX
  8
0
  6
CONTINUOUS
 62
3
 10
-115.494075029133850
 20
-60.500686031051032
  0
VERTEX
  8
0
  6
CONTINUOUS
 62
3
 10
-115.584384211238670
 20
-59.797729064850671
  0
VERTEX
  8
0
  6
CONTINUOUS
 62
3
 10
-115.851841226330800
 20
-59.121786340638579
  0
VERTEX
  8
0
  6
CONTINUOUS
 62
3
 10
-116.286167851311880
 20
-58.498833958233178
  0
VERTEX
  8
0
  6
CONTINUOUS
 62
3
 10
-116.870673157557070
 20
-57.952811628334594
  0
VERTEX
  8
0
  6
CONTINUOUS
 62
3
 10
-117.582894933941710
 20
-57.504702682867979
  0
VERTEX
  8
0
  6
CONTINUOUS
 62
3
 10
-118.395462897017920
 20
-57.171727697305222
  0
VERTEX
  8
0
  6
CONTINUOUS
 62
3
 10
-119.277150515658030
 20
-56.966682713606971
  0
VERTEX
  8
0
  6
CONTINUOUS
 62
3
 10
-120.194075029133840
 20
-56.897447495506199
  0
VERTEX
  8
0
  6
CONTINUOUS
 62
3
 10
-121.110999542609640
 20
-56.966682713606971
  0
VERTEX
  8
0
  6
CONTINUOUS
 62
3
 10
-121.992687161249760
 20
-57.171727697305222
  0
VERTEX
  8
0
  6
CONTINUOUS
 62
3
 10
-122.805255124325960
 20
-57.504702682867979
  0
VERTEX
  8
0
  6
CONTINUOUS
 62
3
 10
-123.517476900710600
 20
-57.952811628334594
  0
VERTEX
  8
0
  6
CONTINUOUS
 62
3
 10
-124.101982206955790
 20
-58.498833958233178
  0
VERTEX
  8
0
  6
CONTINUOUS
 62
3
 10
-124.536308831936870
 20
-59.121786340638579
  0
VERTEX
  8
0
  6
CONTINUOUS
 62
3
 10
-124.803765847029010
 20
-59.797729064850671
  0
VERTEX
  8
0
  6
CONTINUOUS
 62
3
 10
-124.894075029133830
 20
-60.500686031051032
  0
VERTEX
  8
0
  6
CONTINUOUS
 62
3
 10
-124.803765847029010
 20
-61.203642997251393
  0
VERTEX
  8
0
  6
CONTINUOUS
 62
3
 10
-124.536308831936870
 20
-61.879585721463485
  0
VERTEX
  8
0
  6
CONTINUOUS
 62
3
 10
-124.101982206955790
 20
-62.502538103868886
  0
VERTEX
  8
0
  6
CONTINUOUS
 62
3
 10
-123.517476900710600
 20
-63.048560433767463
  0
VERTEX
  8
0
  6
CONTINUOUS
 62
3
 10
-122.805255124325960
 20
-63.496669379234085
  0
VERTEX
  8
0
  6
CONTINUOUS
 62
3
 10
-121.992687161249760
 20
-63.829644364796842
  0
VERTEX
  8
0
  6
CONTINUOUS
 62
3
 10
-121.110999542609640
 20
-64.034689348495093
  0
VERTEX
  8
0
  6
CONTINUOUS
 62
3
 10
-120.194075029133840
 20
-64.103924566595865
  0
VERTEX
  8
0
  6
CONTINUOUS
 62
3
 10
-119.277150515658030
 20
-64.034689348495093
  0
VERTEX
  8
0
  6
CONTINUOUS
 62
3
 10
-118.395462897017920
 20
-63.829644364796842
  0
VERTEX
  8
0
  6
CONTINUOUS
 62
3
 10
-117.582894933941710
 20
-63.496669379234085
  0
VERTEX
  8
0
  6
CONTINUOUS
 62
3
 10
-116.870673157557070
 20
-63.048560433767463
  0
VERTEX
  8
0
  6
CONTINUOUS
 62
3
 10
-116.286167851311880
 20
-62.502538103868886
  0
VERTEX
  8
0
  6
CONTINUOUS
 62
3
 10
-115.851841226330800
 20
-61.879585721463485
  0
VERTEX
  8
0
  6
CONTINUOUS
 62
3
 10
-115.584384211238670
 20
-61.203642997251393
  0
SEQEND
  8
0
  6
CONTINUOUS
 62
3
  0
LINE
  8
0
  6
CONTINUOUS
 62
3
 10
-119.194075029134060
 20
-107.828016985398670
 11
-119.194075029134060
 21
-72.828016985398676
  0
LINE
  8
0
  6
CONTINUOUS
 62
3
 10
11.305924970887077
 20
-55.328016985398676
 11
-109.194075029134060
 21
-55.328016985398676
  0
LINE
  8
0
  6
CONTINUOUS
 62
4
 10
-109.194075029134060
 20
-57.328016985398676
 11
11.305924970887077
 21
-57.328016985398676
  0
LINE
  8
0
  6
CONTINUOUS
 62
4
 10
-109.194075029134060
 20
-56.828016985398449
 11
11.305924970887077
 21
-56.828016985398449
  0
LINE
  8
0
  6
CONTINUOUS
 62
4
 10
-109.194075029134060
 20
-61.694934390515868
 11
11.305924970887077
 21
-61.694934390515868
  0
LINE
  8
0
  6
CONTINUOUS
 62
4
 10
-109.194075029134060
 20
-63.323361458293789
 11
11.305924970887077
 21
-63.323361458293789
  0
LINE
  8
0
  6
CONTINUOUS
 62
4
 10
-109.194075029134060
 20
-66.786103215058915
 11
11.305924970887077
 21
-66.786103215058915
  0
LINE
  8
0
  6
CONTINUOUS
 62
4
 10
-109.351675375505350
 20
-67.787581578874210
 11
11.305924970887077
 21
-67.787581578874210
  0
LINE
  8
0
  6
CONTINUOUS
 62
4
 10
-119.194075029134060
 20
-74.524416033889906
 11
-116.994075029112420
 21
-74.524416033889906
  0
LINE
  8
0
  6
CONTINUOUS
 62
4
 10
-119.194075029134060
 20
-76.113625826628663
 11
-116.994075029112420
 21
-76.113625826628663
  0
LINE
  8
0
  6
CONTINUOUS
 62
4
 10
-119.194075029134060
 20
-79.071621434761596
 11
-116.994075029112420
 21
-79.071621434761596
  0
LINE
  8
0
  6
CONTINUOUS
 62
4
 10
-119.194075029134060
 20
-80.550644588238697
 11
-116.994075029112420
 21
-80.550644588238697
  0
LINE
  8
0
  6
CONTINUOUS
 62
4
 10
-119.194075029134060
 20
-83.643375579904045
 11
-116.994075029112420
 21
-83.643375579904045
  0
LINE
  8
0
  6
CONTINUOUS
 62
4
 10
-119.194075029134060
 20
-84.989777305402527
 11
-116.994075029112420
 21
-84.989777305402527
  0
LINE
  8
0
  6
CONTINUOUS
 62
4
 10
-119.194075029134060
 20
-87.828016985398676
 11
-116.994075029112420
 21
-87.828016985398676
  0
LINE
  8
0
  6
CONTINUOUS
 62
4
 10
-26.994075029112423
 20
-79.071621434761596
 11
11.305924970887077
 21
-79.071621434761596
  0
LINE
  8
0
  6
CONTINUOUS
 62
4
 10
-26.994075029112423
 20
-80.550644588238697
 11
11.305924970887077
 21
-80.550644588238697
  0
LINE
  8
0
  6
CONTINUOUS
 62
4
 10
-26.994075029112423
 20
-83.643375579904045
 11
11.305924970887077
 21
-83.643375579904045
  0
LINE
  8
0
  6
CONTINUOUS
 62
4
 10
-26.994075029112423
 20
-84.989777305402527
 11
11.305924970887077
 21
-84.989777305402527
  0
LINE
  8
0
  6
CONTINUOUS
 62
4
 10
-26.994075029112423
 20
-87.828016985398676
 11
11.305924970887077
 21
-87.828016985398676
  0
LINE
  8
0
  6
CONTINUOUS
 62
4
 10
-26.994075029112423
 20
-76.113625826628663
 11
11.305924970887077
 21
-76.113625826628663
  0
LINE
  8
0
  6
CONTINUOUS
 62
4
 10
-26.994075029112423
 20
-74.524416033889906
 11
11.305924970887077
 21
-74.524416033889906
  0
ARC
  8
0
  6
CONTINUOUS
 62
3
 10
-112.194075029134060
 20
-66.828016985398676
 40
3.000000000000000
 50
270.000000000000000
 51
0.000000000000000
  0
LINE
  8
0
  6
CONTINUOUS
 62
3
 10
-112.194075029134060
 20
-69.828016985398676
 11
-116.194075029134060
 21
-69.828016985398676
  0
ARC
  8
0
  6
CONTINUOUS
 62
3
 10
-116.194075029134060
 20
-72.828016985398676
 40
3.000000000000000
 50
90.000000000000000
 51
180.000000000000000
  0
LINE
  8
0
  6
CONTINUOUS
 62
3
 10
-198.514594567058230
 20
-57.553484873045022
 11
-206.085373763647000
 21
-62.854601536617906
  0
LINE
  8
0
  6
CONTINUOUS
 62
3
 10
-207.194075029134070
 20
-64.984396851769020
 11
-207.194075029134070
 21
-107.828016985398670
  0
ARC
  8
0
  6
CONTINUOUS
 62
3
 10
-204.594075029134160
 20
-64.984396851769020
 40
2.600000000000037
 50
125.000000000002600
 51
180.000000000000000
  0
ARC
  8
0
  6
CONTINUOUS
 62
3
 10
-186.698919978226850
 20
-74.428016985398358
 40
20.599999999999909
 50
90.000000000000000
 51
124.999999999999780
  0
LINE
  8
0
  6
CONTINUOUS
 62
3
 10
-119.194075029134060
 20
-107.828016985398670
 11
-119.194075029134060
 21
-142.828016985398680
  0
LINE
  8
0
  6
CONTINUOUS
 62
3
 10
11.305924970887077
 20
-160.328016985398680
 11
-109.194075029134060
 21
-160.328016985398680
  0
LINE
  8
0
  6
CONTINUOUS
 62
4
 10
-109.194075029134060
 20
-158.328016985398680
 11
11.305924970887077
 21
-158.328016985398680
  0
LINE
  8
0
  6
CONTINUOUS
 62
4
 10
-109.194075029134060
 20
-158.828016985398900
 11
11.305924970887077
 21
-158.828016985398900
  0
LINE
  8
0
  6
CONTINUOUS
 62
4
 10
-109.194075029134060
 20
-153.961099580281480
 11
11.305924970887077
 21
-153.961099580281480
  0
LINE
  8
0
  6
CONTINUOUS
 62
4
 10
-109.194075029134060
 20
-152.332672512503560
 11
11.305924970887077
 21
-152.332672512503560
  0
LINE
  8
0
  6
CONTINUOUS
 62
4
 10
-109.194075029134060
 20
-148.869930755738210
 11
11.305924970887077
 21
-148.869930755738210
  0
LINE
  8
0
  6
CONTINUOUS
 62
4
 10
-109.351675375505350
 20
-147.868452391922920
 11
11.305924970887077
 21
-147.868452391922920
  0
LINE
  8
0
  6
CONTINUOUS
 62
4
 10
-119.194075029134060
 20
-141.131617936907450
 11
-116.994075029112420
 21
-141.131617936907450
  0
LINE
  8
0
  6
CONTINUOUS
 62
4
 10
-119.194075029134060
 20
-139.542408144168690
 11
-116.994075029112420
 21
-139.542408144168690
  0
LINE
  8
0
  6
CONTINUOUS
 62
4
 10
-119.194075029134060
 20
-136.584412536035760
 11
-116.994075029112420
 21
-136.584412536035760
  0
LINE
  8
0
  6
CONTINUOUS
 62
4
 10
-119.194075029134060
 20
-135.105389382558660
 11
-116.994075029112420
 21
-135.105389382558660
  0
LINE
  8
0
  6
CONTINUOUS
 62
4
 10
-119.194075029134060
 20
-132.012658390893310
 11
-116.994075029112420
 21
-132.012658390893310
  0
LINE
  8
0
  6
CONTINUOUS
 62
4
 10
-119.194075029134060
 20
-130.666256665394830
 11
-116.994075029112420
 21
-130.666256665394830
  0
LINE
  8
0
  6
CONTINUOUS
 62
4
 10
-119.194075029134060
 20
-127.828016985398670
 11
-116.994075029112420
 21
-127.828016985398670
  0
LINE
  8
0
  6
CONTINUOUS
 62
4
 10
-26.994075029112423
 20
-136.584412536035760
 11
11.305924970887077
 21
-136.584412536035760
  0
LINE
  8
0
  6
CONTINUOUS
 62
4
 10
-26.994075029112423
 20
-135.105389382558660
 11
11.305924970887077
 21
-135.105389382558660
  0
LINE
  8
0
  6
CONTINUOUS
 62
4
 10
-26.994075029112423
 20
-132.012658390893310
 11
11.305924970887077
 21
-132.012658390893310
  0
LINE
  8
0
  6
CONTINUOUS
 62
4
 10
-26.994075029112423
 20
-130.666256665394830
 11
11.305924970887077
 21
-130.666256665394830
  0
LINE
  8
0
  6
CONTINUOUS
 62
4
 10
-26.994075029112423
 20
-127.828016985398670
 11
11.305924970887077
 21
-127.828016985398670
  0
LINE
  8
0
  6
CONTINUOUS
 62
4
 10
-26.994075029112423
 20
-139.542408144168690
 11
11.305924970887077
 21
-139.542408144168690
  0
LINE
  8
0
  6
CONTINUOUS
 62
4
 10
-26.994075029112423
 20
-141.131617936907450
 11
11.305924970887077
 21
-141.131617936907450
  0
ARC
  8
0
  6
CONTINUOUS
 62
3
 10
-112.194075029134060
 20
-148.828016985398680
 40
3.000000000000000
 50
0.000000000000000
 51
90.000000000000000
  0
LINE
  8
0
  6
CONTINUOUS
 62
3
 10
-112.194075029134060
 20
-145.828016985398680
 11
-116.194075029134060
 21
-145.828016985398680
  0
ARC
  8
0
  6
CONTINUOUS
 62
3
 10
-116.194075029134060
 20
-142.828016985398680
 40
3.000000000000000
 50
180.000000000000000
 51
270.000000000000000
  0
LINE
  8
0
  6
CONTINUOUS
 62
3
 10
-198.514594567058230
 20
-158.102549097752100
 11
-206.085373763647000
 21
-152.801432434179450
  0
LINE
  8
0
  6
CONTINUOUS
 62
3
 10
-207.194075029134070
 20
-150.671637119028330
 11
-207.194075029134070
 21
-107.828016985398670
  0
ARC
  8
0
  6
CONTINUOUS
 62
3
 10
-204.594075029134160
 20
-150.671637119028330
 40
2.599999999999909
 50
180.000000000000000
 51
234.999999999994540
  0
ARC
  8
0
  6
CONTINUOUS
 62
3
 10
-186.698919978226850
 20
-141.228016985398990
 40
20.599999999999795
 50
235.000000000000260
 51
270.000000000000000
  0
LINE
  8
0
  6
CONTINUOUS
 62
3
 10
79.805924970900833
 20
-64.722030005965735
 11
79.805924970900833
 21
-55.918510245302059
  0
LINE
  8
0
  6
CONTINUOUS
 62
3
 10
75.805924970900833
 20
-65.722030005965735
 11
78.805924970900833
 21
-65.722030005965735
  0
ARC
  8
0
  6
CONTINUOUS
 62
3
 10
75.805924970900833
 20
-66.722030005965735
 40
1.000000000000000
 50
90.000000000000000
 51
180.000000000000000
  0
ARC
  8
0
  6
CONTINUOUS
 62
3
 10
78.805924970900833
 20
-64.722030005965735
 40
1.000000000000000
 50
270.000000000000000
 51
0.000000000000000
  0
LINE
  8
0
  6
CONTINUOUS
 62
3
 10
75.805924970900833
 20
-54.918510245302059
 11
78.805924970900833
 21
-54.918510245302059
  0
ARC
  8
0
  6
CONTINUOUS
 62
3
 10
75.805924970900833
 20
-53.918510245302059
 40
1.000000000000000
 50
180.000000000000000
 51
270.000000000000000
  0
ARC
  8
0
  6
CONTINUOUS
 62
3
 10
78.805924970900833
 20
-55.918510245302059
 40
1.000000000000000
 50
0.000000000000000
 51
90.000000000000000
  0
LINE
  8
0
  6
CONTINUOUS
 62
3
 10
79.805924970900833
 20
-61.328016985400609
 11
73.805924970900833
 21
-61.328016985400609
  0
LINE
  8
0
  6
CONTINUOUS
 62
3
 10
79.805924970900833
 20
-60.228017557605199
 11
79.805924970900833
 21
-64.722030005965735
  0
LINE
  8
0
  6
CONTINUOUS
 62
3
 10
73.805924970900833
 20
-71.328016985400609
 11
73.805924970900833
 21
-61.328016985400609
  0
LINE
  8
0
  6
CONTINUOUS
 62
3
 10
74.805924970899923
 20
-71.328016985400609
 11
73.805924970900833
 21
-71.328016985400609
  0
LINE
  8
0
  6
CONTINUOUS
 62
3
 10
73.805924970892193
 20
-208.828016985400610
 11
73.805924970892193
 21
-198.828016985400610
  0
LINE
  8
0
  6
CONTINUOUS
 62
3
 10
79.805924970892193
 20
-208.828016985400610
 11
73.805924970892193
 21
-208.828016985400610
  0
LINE
  8
0
  6
CONTINUOUS
 62
3
 10
79.684354056399968
 20
-198.828016985400610
 11
73.805924970892193
 21
-198.828016985400610
  0
LINE
  8
0
  6
CONTINUOUS
 62
3
 10
-116.994075029112190
 20
-72.828016985398676
 11
-116.994075029112870
 21
-107.828016985398900
  0
ARC
  8
0
  6
CONTINUOUS
 62
3
 10
-115.994075029112420
 20
-72.828016985398676
 40
1.000000000000000
 50
90.000000000000000
 51
180.000000000000000
  0
LINE
  8
0
  6
CONTINUOUS
 62
3
 10
-27.994075029112423
 20
-71.828016985398676
 11
-115.994075029112420
 21
-71.828016985398676
  0
LINE
  8
0
  6
CONTINUOUS
 62
3
 10
-26.994075029112196
 20
-72.828016985398676
 11
-26.994075029112878
 21
-107.828016985400260
  0
ARC
  8
0
  6
CONTINUOUS
 62
3
 10
-27.994075029112423
 20
-72.828016985398676
 40
1.000000000000227
 50
0.000000000000000
 51
90.000000000000000
  0
LINE
  8
0
  6
CONTINUOUS
 62
3
 10
-116.994075029112190
 20
-142.828016985398680
 11
-116.994075029112870
 21
-107.828016985398440
  0
ARC
  8
0
  6
CONTINUOUS
 62
3
 10
-115.994075029112420
 20
-142.828016985398680
 40
0.999999999999773
 50
180.000000000000000
 51
270.000000000000000
  0
LINE
  8
0
  6
CONTINUOUS
 62
3
 10
-27.994075029112423
 20
-143.828016985398680
 11
-115.994075029112420
 21
-143.828016985398680
  0
LINE
  8
0
  6
CONTINUOUS
 62
3
 10
-26.994075029112196
 20
-142.828016985398680
 11
-26.994075029112878
 21
-107.828016985397080
  0
ARC
  8
0
  6
CONTINUOUS
 62
3
 10
-27.994075029112423
 20
-142.828016985398680
 40
1.000000000000000
 50
270.000000000000000
 51
0.000000000000000
  0
ARC
  8
0
  6
CONTINUOUS
 62
3
 10
49.305924970889578
 20
-190.115640640094400
 40
2.000000000000000
 50
180.000000000000000
 51
267.000000000000910
  0
LINE
  8
0
  6
CONTINUOUS
 62
3
 10
53.305924970889578
 20
-192.328016449222450
 11
46.148917102161136
 21
-191.952933560511160
  0
ARC
  8
0
  6
CONTINUOUS
 62
3
 10
46.305924970889919
 20
-188.957044956247390
 40
3.000000000000000
 50
180.000000000000000
 51
267.000000000000970
  0
ARC
  8
0
  6
CONTINUOUS
 62
3
 10
38.319188218326531
 20
-189.417518674556620
 40
5.000000000000025
 50
3.299723825005552
 51
45.102043218056203
  0
LINE
  8
0
  6
CONTINUOUS
 62
3
 10
47.305924970889578
 20
-190.115640640094400
 11
47.305924970889578
 21
-169.328016449222450
  0
ARC
  8
0
  6
CONTINUOUS
 62
3
 10
45.305924970889578
 20
-169.328016449222450
 40
2.000000000000000
 50
0.000000000000000
 51
90.000000000000000
  0
ARC
  8
0
  6
CONTINUOUS
 62
3
 10
45.305924970889919
 20
-165.328016449222450
 40
2.000000000000000
 50
180.000000000000000
 51
270.000000000000000
  0
ARC
  8
0
  6
CONTINUOUS
 62
3
 10
40.305924970889919
 20
-163.843397848734640
 40
3.000000000000000
 50
0.000000000000000
 51
89.000000000000369
  0
LINE
  8
0
  6
CONTINUOUS
 62
3
 10
53.305924970889578
 20
-152.313081381703910
 11
43.305924970889919
 21
-152.313081381703910
  0
ARC
  8
0
  6
CONTINUOUS
 62
3
 10
45.305924970889578
 20
-95.328016449222446
 40
2.000000000000000
 50
270.000000000000000
 51
0.000000000000000
  0
ARC
  8
0
  6
CONTINUOUS
 62
3
 10
45.305924970889919
 20
-99.328016449222446
 40
2.000000000000000
 50
90.000000000000000
 51
180.000000000000000
  0
ARC
  8
0
  6
CONTINUOUS
 62
3
 10
49.305924970889578
 20
-74.121130024086142
 40
2.000000000000048
 50
87.000000000000995
 51
180.000000000000000
  0
LINE
  8
0
  6
CONTINUOUS
 62
3
 10
47.305924970889578
 20
-95.328016449222446
 11
47.305924970889578
 21
-74.121130024086142
  0
ARC
  8
0
  6
CONTINUOUS
 62
3
 10
53.305924970889578
 20
-70.328016449222446
 40
2.000000000000000
 50
180.000000000000000
 51
270.000000000000000
  0
LINE
  8
0
  6
CONTINUOUS
 62
3
 10
43.305924970889919
 20
-188.957044956247390
 11
43.305924970889919
 21
-75.828016449222503
  0
LINE
  8
0
  6
CONTINUOUS
 62
3
 10
53.305924970889578
 20
-112.342951516740980
 11
43.305924970889919
 21
-112.342951516740980
  0
LINE
  8
0
  6
CONTINUOUS
 62
3
 10
53.305924970889578
 20
-192.328016449222450
 11
53.305924970889578
 21
-72.328016449222446
  0
LINE
  8
0
  6
CONTINUOUS
 62
3
 10
40.358297544333368
 20
-160.843854763265540
 11
11.305940325021652
 21
-160.336743981684780
  0
LINE
  8
0
  6
CONTINUOUS
 62
3
 10
41.848419769357520
 20
-185.875693628170550
 11
17.733247671285994
 21
-161.846266676690900
  0
ARC
  8
0
  6
CONTINUOUS
 62
3
 10
14.204016120255005
 20
-165.388091723076970
 40
5.000000000000026
 50
45.102043218056203
 51
89.000000000000824
  0
LINE
  8
0
  6
CONTINUOUS
 62
3
 10
26.305924970853880
 20
-127.828016449222380
 11
11.305924970883439
 21
-127.828016449222380
  0
LINE
  8
0
  6
CONTINUOUS
 62
3
 10
29.340606307871781
 20
-140.328016449222390
 11
40.740366992223130
 21
-140.328016449222390
  0
LINE
  8
0
  6
CONTINUOUS
 62
3
 10
29.431804393347988
 20
-143.374074396482340
 11
40.922763163171908
 21
-143.374074396482340
  0
LINE
  8
0
  6
CONTINUOUS
 62
3
 10
29.902991959311180
 20
-97.328016449222446
 11
40.623947532471789
 21
-97.328016449222446
  0
ARC
  8
0
  6
CONTINUOUS
 62
3
 10
25.305924970854448
 20
-93.865893432632333
 40
1.000000000000000
 50
0.000000000000000
 51
59.999999999999460
  0
LINE
  8
0
  6
CONTINUOUS
 62
3
 10
25.305924970854562
 20
-92.133842625063437
 11
25.305924970854790
 21
-75.646203769969247
  0
ARC
  8
0
  6
CONTINUOUS
 62
3
 10
26.305924970854790
 20
-75.646203769969247
 40
0.999999999999984
 50
120.000000000000520
 51
180.000000000000000
  0
ARC
  8
0
  6
CONTINUOUS
 62
3
 10
25.305924970854790
 20
-73.914152962400351
 40
1.000000000000033
 50
299.999999999998920
 51
0.000000000000000
  0
ARC
  8
0
  6
CONTINUOUS
 62
3
 10
26.305924970854562
 20
-92.133842625063437
 40
1.000000000000000
 50
180.000000000000000
 51
239.999999999995450
  0
LINE
  8
0
  6
CONTINUOUS
 62
3
 10
30.115351712752158
 20
-83.542132220277722
 11
40.791936473166857
 21
-83.542132220277722
  0
LINE
  8
0
  6
CONTINUOUS
 62
3
 10
26.805896673138250
 20
-70.828016449221025
 11
26.805895216287809
 21
-70.828016449221025
  0
LINE
  8
0
  6
CONTINUOUS
 62
3
 10
26.305924970853425
 20
-160.598569687599930
 11
26.305924970854448
 21
-93.865893432632333
  0
LINE
  8
0
  6
CONTINUOUS
 62
3
 10
53.305924970889578
 20
-72.328016449222446
 11
31.044245189640151
 21
-71.161331248776946
  0
ARC
  8
0
  6
CONTINUOUS
 62
3
 10
31.305924970854790
 20
-66.168183575004093
 40
5.000000000000000
 50
179.999999999999350
 51
267.000000000000910
  0
LINE
  8
0
  6
CONTINUOUS
 62
3
 10
25.305924970854562
 20
-87.828016449222389
 11
11.305924970885485
 21
-87.828016449222389
  0
LINE
  8
0
  6
CONTINUOUS
 62
3
 10
11.305924970887077
 20
-55.328016449220570
 11
11.305924970881847
 21
-160.336743713677270
  0
LINE
  8
0
  6
CONTINUOUS
 62
3
 10
26.305924970854790
 20
-73.914152962400351
 11
26.305924970855017
 21
-60.732653019869872
  0
LINE
  8
0
  6
CONTINUOUS
 62
3
 10
48.410623460997044
 20
-56.623741608432624
 11
11.305909616755457
 21
-55.328016449220570
  0
LINE
  8
0
  6
DASHDOT
 62
4
 10
37.305924970889578
 20
-77.395367178227218
 11
37.305924970889578
 21
-52.932226180124246
  0
LINE
  8
0
  6
CONTINUOUS
 62
3
 10
51.305924970889578
 20
-70.328016449222446
 11
51.305924970889578
 21
-59.621914089489906
  0
ARC
  8
0
  6
CONTINUOUS
 62
3
 10
21.305940324986636
 20
-60.732653019869758
 40
5.000000000000000
 50
359.999999999998690
 51
88.000000000000256
  0
ARC
  8
0
  6
CONTINUOUS
 62
3
 10
48.305924970889578
 20
-59.621914089489906
 40
3.000000000000000
 50
0.000000000000000
 51
88.000000000000682
  0
LINE
  8
0
  6
DASHDOT
 62
4
 10
230.235725970800560
 20
-106.328016985400600
 11
144.312079302442950
 21
-106.328016985400600
  0
LINE
  8
0
  6
DASHDOT
 62
4
 10
-95.994075029104124
 20
39.027884846866982
 11
-113.994075029104120
 21
39.027884846866982
  0
LINE
  8
0
  6
DASHDOT
 62
4
 10
-104.994075029104120
 20
30.027884846866982
 11
-104.994075029104120
 21
57.029484169416719
  0
LINE
  8
0
  6
DASHED
 62
4
 10
-111.994075029104120
 20
59.027884846866982
 11
-111.994075029104120
 21
39.027884846866982
  0
LINE
  8
0
  6
DASHED
 62
4
 10
-97.994075029104124
 20
59.027884846866982
 11
-97.994075029104124
 21
39.027884846866982
  0
ARC
  8
0
  6
DASHED
 62
4
 10
-104.994075029104120
 20
39.027884846866982
 40
7.000000000000000
 50
180.000000000000000
 51
0.000000000000000
  0
CIRCLE
  8
0
  6
DASHED
 62
4
 10
-104.994075029104120
 20
39.027884846866982
 40
6.000000000000000
  0
LINE
  8
0
  6
CONTINUOUS
 62
3
 10
11.305924970895830
 20
170.027884846866980
 11
-109.194075029125310
 21
170.027884846866980
  0
LINE
  8
0
  6
CONTINUOUS
 62
4
 10
-109.194075029125310
 20
130.527884846866980
 11
11.305924970895830
 21
130.527884846866980
  0
LINE
  8
0
  6
CONTINUOUS
 62
4
 10
-109.194075029125310
 20
136.155919503504830
 11
11.305924970895830
 21
136.155919503504830
  0
LINE
  8
0
  6
CONTINUOUS
 62
4
 10
-109.194075029125310
 20
134.913999638616930
 11
11.305924970895830
 21
134.913999638616930
  0
LINE
  8
0
  6
CONTINUOUS
 62
4
 10
-109.194075029125310
 20
139.366124526863130
 11
11.305924970895830
 21
139.366124526863130
  0
LINE
  8
0
  6
CONTINUOUS
 62
4
 10
-109.194075029125310
 20
140.712526252361730
 11
11.305924970895830
 21
140.712526252361730
  0
LINE
  8
0
  6
CONTINUOUS
 62
4
 10
-109.194075029125310
 20
143.805257244026960
 11
11.305924970895830
 21
143.805257244026960
  0
LINE
  8
0
  6
CONTINUOUS
 62
4
 10
-109.194075029125310
 20
145.284280397504060
 11
11.305924970895830
 21
145.284280397504060
  0
LINE
  8
0
  6
CONTINUOUS
 62
4
 10
-109.194075029125310
 20
148.242276005637000
 11
11.305924970895830
 21
148.242276005637000
  0
LINE
  8
0
  6
CONTINUOUS
 62
4
 10
-109.194075029125310
 20
149.831485798375750
 11
11.305924970895830
 21
149.831485798375750
  0
LINE
  8
0
  6
CONTINUOUS
 62
4
 10
-109.194075029125310
 20
157.569798617206740
 11
11.305924970895830
 21
157.569798617206740
  0
LINE
  8
0
  6
CONTINUOUS
 62
4
 10
-109.194075029125310
 20
162.660967441749680
 11
11.305924970895830
 21
162.660967441749680
  0
LINE
  8
0
  6
CONTINUOUS
 62
4
 10
-109.194075029125310
 20
167.027884846866980
 11
11.305924970895830
 21
167.027884846866980
  0
LINE
  8
0
  6
CONTINUOUS
 62
4
 10
-109.194075029125310
 20
167.527884846866980
 11
11.305924970895830
 21
167.527884846866980
  0
LINE
  8
0
  6
CONTINUOUS
 62
4
 10
-109.194075029125310
 20
83.224283895358212
 11
11.305924970895830
 21
83.224283895358212
  0
LINE
  8
0
  6
CONTINUOUS
 62
4
 10
-109.194075029125310
 20
84.813493688096969
 11
11.305924970895830
 21
84.813493688096969
  0
LINE
  8
0
  6
CONTINUOUS
 62
4
 10
-109.194075029125310
 20
87.771489296229902
 11
11.305924970895830
 21
87.771489296229902
  0
LINE
  8
0
  6
CONTINUOUS
 62
4
 10
-109.194075029125310
 20
89.250512449707003
 11
11.305924970895830
 21
89.250512449707003
  0
LINE
  8
0
  6
CONTINUOUS
 62
4
 10
-109.194075029125310
 20
92.343243441372238
 11
11.305924970895830
 21
92.343243441372238
  0
LINE
  8
0
  6
CONTINUOUS
 62
4
 10
-109.194075029125080
 20
93.689645166870832
 11
11.305924970895830
 21
93.689645166870832
  0
LINE
  8
0
  6
CONTINUOUS
 62
4
 10
-109.194075029125080
 20
96.899850190229131
 11
11.305924970895830
 21
96.899850190229131
  0
LINE
  8
0
  6
CONTINUOUS
 62
4
 10
-109.194075029125080
 20
98.141770055117036
 11
11.305924970895830
 21
98.141770055117036
  0
LINE
  8
0
  6
CONTINUOUS
 62
4
 10
-109.194075029125310
 20
102.527884846866980
 11
11.305924970895830
 21
102.527884846866980
  0
LINE
  8
0
  6
CONTINUOUS
 62
3
 10
11.305924970895830
 20
63.027884846866982
 11
11.305924970895830
 21
116.527884846866980
  0
LINE
  8
0
  6
CONTINUOUS
 62
3
 10
-109.194075029125310
 20
175.527884846866980
 11
-186.698919978218100
 21
175.527884846866980
  0
LINE
  8
0
  6
CONTINUOUS
 62
3
 10
-198.514594567049470
 20
171.802416959220180
 11
-206.085373763638240
 21
166.501300295647640
  0
LINE
  8
0
  6
CONTINUOUS
 62
3
 10
-207.194075029125320
 20
164.371504980496300
 11
-207.194075029125320
 21
116.527884846866980
  0
ARC
  8
0
  6
CONTINUOUS
 62
3
 10
-204.594075029125410
 20
164.371504980496300
 40
2.600000000000131
 50
125.000000000001180
 51
180.000000000000000
  0
ARC
  8
0
  6
CONTINUOUS
 62
3
 10
-186.698919978218100
 20
154.927884846866960
 40
20.600000000000023
 50
90.000000000000000
 51
124.999999999999600
  0
LINE
  8
0
  6
CONTINUOUS
 62
3
 10
-109.194075029125310
 20
175.527884846866980
 11
-109.194075029125080
 21
116.527884846866980
  0
LINE
  8
0
  6
CONTINUOUS
 62
3
 10
-120.194075029125310
 20
165.671805869592160
 11
-122.194075029125310
 21
164.019164230468730
  0
LINE
  8
0
  6
CONTINUOUS
 62
3
 10
-118.194075029125310
 20
166.847591355214940
 11
-120.194075029125310
 21
165.671805869592160
  0
LINE
  8
0
  6
CONTINUOUS
 62
3
 10
-120.194075029125310
 20
165.671805869592160
 11
-118.194075029125310
 21
164.019164230468730
  0
LINE
  8
0
  6
CONTINUOUS
 62
3
 10
-122.194075029125310
 20
166.847591355214940
 11
-120.194075029125310
 21
165.671805869592160
  0
POLYLINE
  8
0
  6
CONTINUOUS
 62
3
 66
1
 70
1
  0
VERTEX
  8
0
  6
CONTINUOUS
 62
3
 10
-115.494075029125090
 20
163.855215801214510
  0
VERTEX
  8
0
  6
CONTINUOUS
 62
3
 10
-115.584384211229910
 20
164.558172767414870
  0
VERTEX
  8
0
  6
CONTINUOUS
 62
3
 10
-115.851841226322050
 20
165.234115491626970
  0
VERTEX
  8
0
  6
CONTINUOUS
 62
3
 10
-116.286167851303130
 20
165.857067874032370
  0
VERTEX
  8
0
  6
CONTINUOUS
 62
3
 10
-116.870673157548320
 20
166.403090203930960
  0
VERTEX
  8
0
  6
CONTINUOUS
 62
3
 10
-117.582894933932960
 20
166.851199149397590
  0
VERTEX
  8
0
  6
CONTINUOUS
 62
3
 10
-118.395462897009160
 20
167.184174134960330
  0
VERTEX
  8
0
  6
CONTINUOUS
 62
3
 10
-119.277150515649280
 20
167.389219118658590
  0
VERTEX
  8
0
  6
CONTINUOUS
 62
3
 10
-120.194075029125080
 20
167.458454336759360
  0
VERTEX
  8
0
  6
CONTINUOUS
 62
3
 10
-121.110999542600890
 20
167.389219118658590
  0
VERTEX
  8
0
  6
CONTINUOUS
 62
3
 10
-121.992687161241000
 20
167.184174134960330
  0
VERTEX
  8
0
  6
CONTINUOUS
 62
3
 10
-122.805255124317210
 20
166.851199149397590
  0
VERTEX
  8
0
  6
CONTINUOUS
 62
3
 10
-123.517476900701850
 20
166.403090203930960
  0
VERTEX
  8
0
  6
CONTINUOUS
 62
3
 10
-124.101982206947040
 20
165.857067874032370
  0
VERTEX
  8
0
  6
CONTINUOUS
 62
3
 10
-124.536308831928120
 20
165.234115491626970
  0
VERTEX
  8
0
  6
CONTINUOUS
 62
3
 10
-124.803765847020250
 20
164.558172767414870
  0
VERTEX
  8
0
  6
CONTINUOUS
 62
3
 10
-124.894075029125070
 20
163.855215801214510
  0
VERTEX
  8
0
  6
CONTINUOUS
 62
3
 10
-124.803765847020250
 20
163.152258835014150
  0
VERTEX
  8
0
  6
CONTINUOUS
 62
3
 10
-124.536308831928120
 20
162.476316110802060
  0
VERTEX
  8
0
  6
CONTINUOUS
 62
3
 10
-124.101982206947040
 20
161.853363728396660
  0
VERTEX
  8
0
  6
CONTINUOUS
 62
3
 10
-123.517476900701850
 20
161.307341398498070
  0
VERTEX
  8
0
  6
CONTINUOUS
 62
3
 10
-122.805255124317210
 20
160.859232453031440
  0
VERTEX
  8
0
  6
CONTINUOUS
 62
3
 10
-121.992687161241000
 20
160.526257467468700
  0
VERTEX
  8
0
  6
CONTINUOUS
 62
3
 10
-121.110999542600890
 20
160.321212483770440
  0
VERTEX
  8
0
  6
CONTINUOUS
 62
3
 10
-120.194075029125080
 20
160.251977265669670
  0
VERTEX
  8
0
  6
CONTINUOUS
 62
3
 10
-119.277150515649280
 20
160.321212483770440
  0
VERTEX
  8
0
  6
CONTINUOUS
 62
3
 10
-118.395462897009160
 20
160.526257467468700
  0
VERTEX
  8
0
  6
CONTINUOUS
 62
3
 10
-117.582894933932960
 20
160.859232453031440
  0
VERTEX
  8
0
  6
CONTINUOUS
 62
3
 10
-116.870673157548320
 20
161.307341398498070
  0
VERTEX
  8
0
  6
CONTINUOUS
 62
3
 10
-116.286167851303130
 20
161.853363728396660
  0
VERTEX
  8
0
  6
CONTINUOUS
 62
3
 10
-115.851841226322050
 20
162.476316110802060
  0
VERTEX
  8
0
  6
CONTINUOUS
 62
3
 10
-115.584384211229910
 20
163.152258835014150
  0
SEQEND
  8
0
  6
CONTINUOUS
 62
3
  0
LINE
  8
0
  6
CONTINUOUS
 62
3
 10
-116.994075029104120
 20
59.027884846866982
 11
-26.994075029104124
 21
59.027884846866982
  0
LINE
  8
0
  6
CONTINUOUS
 62
3
 10
-116.994075029104120
 20
62.079554945024029
 11
-116.994075029104120
 21
26.027884846866982
  0
LINE
  8
0
  6
CONTINUOUS
 62
3
 10
-119.194075029125310
 20
57.527884846866982
 11
-119.194075029125310
 21
59.188188486058039
  0
LINE
  8
0
  6
CONTINUOUS
 62
3
 10
-119.194075029125310
 20
57.527884846866982
 11
-186.698919978218100
 21
57.527884846866982
  0
ARC
  8
0
  6
CONTINUOUS
 62
3
 10
-116.194075029125310
 20
59.188188486058039
 40
3.000000000000000
 50
90.000000000000000
 51
180.000000000000000
  0
LINE
  8
0
  6
CONTINUOUS
 62
3
 10
-116.194075029125310
 20
62.188188486058039
 11
-112.194075029125310
 21
62.188188486058039
  0
ARC
  8
0
  6
CONTINUOUS
 62
3
 10
-112.194075029125310
 20
65.188188486058039
 40
3.000000000000000
 50
270.000000000000000
 51
359.999999999997780
  0
LINE
  8
0
  6
CONTINUOUS
 62
3
 10
-109.194075029125310
 20
65.188188486057925
 11
-109.194075029125080
 21
116.527884846866980
  0
LINE
  8
0
  6
CONTINUOUS
 62
3
 10
-120.194075029125310
 20
67.383963824141915
 11
-122.194075029125310
 21
69.036605463265232
  0
LINE
  8
0
  6
CONTINUOUS
 62
3
 10
-118.194075029125310
 20
66.208178338519019
 11
-120.194075029125310
 21
67.383963824141915
  0
LINE
  8
0
  6
CONTINUOUS
 62
3
 10
-120.194075029125310
 20
67.383963824141915
 11
-118.194075029125310
 21
69.036605463265232
  0
LINE
  8
0
  6
CONTINUOUS
 62
3
 10
-122.194075029125310
 20
66.208178338519019
 11
-120.194075029125310
 21
67.383963824141915
  0
POLYLINE
  8
0
  6
CONTINUOUS
 62
3
 66
1
 70
1
  0
VERTEX
  8
0
  6
CONTINUOUS
 62
3
 10
-115.494075029125090
 20
69.200553892519451
  0
VERTEX
  8
0
  6
CONTINUOUS
 62
3
 10
-115.584384211229910
 20
69.903510858719812
  0
VERTEX
  8
0
  6
CONTINUOUS
 62
3
 10
-115.851841226322050
 20
70.579453582931905
  0
VERTEX
  8
0
  6
CONTINUOUS
 62
3
 10
-116.286167851303130
 20
71.202405965337306
  0
VERTEX
  8
0
  6
CONTINUOUS
 62
3
 10
-116.870673157548320
 20
71.748428295235883
  0
VERTEX
  8
0
  6
CONTINUOUS
 62
3
 10
-117.582894933932960
 20
72.196537240702497
  0
VERTEX
  8
0
  6
CONTINUOUS
 62
3
 10
-118.395462897009160
 20
72.529512226265268
  0
VERTEX
  8
0
  6
CONTINUOUS
 62
3
 10
-119.277150515649280
 20
72.734557209963512
  0
VERTEX
  8
0
  6
CONTINUOUS
 62
3
 10
-120.194075029125080
 20
72.803792428064284
  0
VERTEX
  8
0
  6
CONTINUOUS
 62
3
 10
-121.110999542600890
 20
72.734557209963512
  0
VERTEX
  8
0
  6
CONTINUOUS
 62
3
 10
-121.992687161241000
 20
72.529512226265268
  0
VERTEX
  8
0
  6
CONTINUOUS
 62
3
 10
-122.805255124317210
 20
72.196537240702497
  0
VERTEX
  8
0
  6
CONTINUOUS
 62
3
 10
-123.517476900701850
 20
71.748428295235883
  0
VERTEX
  8
0
  6
CONTINUOUS
 62
3
 10
-124.101982206947040
 20
71.202405965337306
  0
VERTEX
  8
0
  6
CONTINUOUS
 62
3
 10
-124.536308831928120
 20
70.579453582931905
  0
VERTEX
  8
0
  6
CONTINUOUS
 62
3
 10
-124.803765847020250
 20
69.903510858719812
  0
VERTEX
  8
0
  6
CONTINUOUS
 62
3
 10
-124.894075029125070
 20
69.200553892519451
  0
VERTEX
  8
0
  6
CONTINUOUS
 62
3
 10
-124.803765847020250
 20
68.497596926319090
  0
VERTEX
  8
0
  6
CONTINUOUS
 62
3
 10
-124.536308831928120
 20
67.821654202106998
  0
VERTEX
  8
0
  6
CONTINUOUS
 62
3
 10
-124.101982206947040
 20
67.198701819701597
  0
VERTEX
  8
0
  6
CONTINUOUS
 62
3
 10
-123.517476900701850
 20
66.652679489803020
  0
VERTEX
  8
0
  6
CONTINUOUS
 62
3
 10
-122.805255124317210
 20
66.204570544336406
  0
VERTEX
  8
0
  6
CONTINUOUS
 62
3
 10
-121.992687161241000
 20
65.871595558773635
  0
VERTEX
  8
0
  6
CONTINUOUS
 62
3
 10
-121.110999542600890
 20
65.666550575075391
  0
VERTEX
  8
0
  6
CONTINUOUS
 62
3
 10
-120.194075029125080
 20
65.597315356974619
  0
VERTEX
  8
0
  6
CONTINUOUS
 62
3
 10
-119.277150515649280
 20
65.666550575075391
  0
VERTEX
  8
0
  6
CONTINUOUS
 62
3
 10
-118.395462897009160
 20
65.871595558773635
  0
VERTEX
  8
0
  6
CONTINUOUS
 62
3
 10
-117.582894933932960
 20
66.204570544336406
  0
VERTEX
  8
0
  6
CONTINUOUS
 62
3
 10
-116.870673157548320
 20
66.652679489803020
  0
VERTEX
  8
0
  6
CONTINUOUS
 62
3
 10
-116.286167851303130
 20
67.198701819701597
  0
VERTEX
  8
0
  6
CONTINUOUS
 62
3
 10
-115.851841226322050
 20
67.821654202106998
  0
VERTEX
  8
0
  6
CONTINUOUS
 62
3
 10
-115.584384211229910
 20
68.497596926319090
  0
SEQEND
  8
0
  6
CONTINUOUS
 62
3
  0
LINE
  8
0
  6
CONTINUOUS
 62
3
 10
-26.994075029104124
 20
64.027884846866982
 11
-109.194075029125310
 21
64.027884846866982
  0
ARC
  8
0
  6
CONTINUOUS
 62
3
 10
-115.994075029104120
 20
26.027884846866982
 40
1.000000000000000
 50
180.000000000000000
 51
270.000000000000000
  0
ARC
  8
0
  6
CONTINUOUS
 62
3
 10
-27.994075029104124
 20
26.027884846866982
 40
1.000000000000000
 50
270.000000000000000
 51
0.000000000000000
  0
LINE
  8
0
  6
CONTINUOUS
 62
3
 10
-26.994075029104124
 20
64.027884846866982
 11
-26.994075029104124
 21
26.027884846866982
  0
LINE
  8
0
  6
CONTINUOUS
 62
3
 10
11.305924970895830
 20
63.027884846866982
 11
-26.994075029104124
 21
63.027884846866982
  0
LINE
  8
0
  6
CONTINUOUS
 62
4
 10
-109.194075029125310
 20
65.527884846866982
 11
11.305924970895830
 21
65.527884846866982
  0
LINE
  8
0
  6
CONTINUOUS
 62
4
 10
-109.194075029125310
 20
66.027884846866982
 11
11.305924970895830
 21
66.027884846866982
  0
LINE
  8
0
  6
CONTINUOUS
 62
4
 10
-109.194075029125310
 20
70.394802251984288
 11
11.305924970895830
 21
70.394802251984288
  0
LINE
  8
0
  6
CONTINUOUS
 62
4
 10
-109.194075029125310
 20
75.485971076527221
 11
11.305924970895830
 21
75.485971076527221
  0
LINE
  8
0
  6
CONTINUOUS
 62
3
 10
-207.194075029125320
 20
68.684264713237667
 11
-207.194075029125320
 21
116.527884846866980
  0
LINE
  8
0
  6
CONTINUOUS
 62
3
 10
-198.514594567049470
 20
61.253352734513783
 11
-206.085373763638240
 21
66.554469398086326
  0
ARC
  8
0
  6
CONTINUOUS
 62
3
 10
-204.594075029125410
 20
68.684264713237667
 40
2.599999999999909
 50
180.000000000000000
 51
234.999999999998810
  0
ARC
  8
0
  6
CONTINUOUS
 62
3
 10
-186.698919978218100
 20
78.127884846867005
 40
20.599999999999891
 50
235.000000000000400
 51
270.000000000000000
  0
LINE
  8
0
  6
CONTINUOUS
 62
3
 10
-109.994075029104120
 20
25.027884846866982
 11
-109.994075029104120
 21
24.527884846866982
  0
LINE
  8
0
  6
CONTINUOUS
 62
3
 10
-101.994075029104120
 20
25.027884846866982
 11
-101.994075029104120
 21
24.527884846866982
  0
LINE
  8
0
  6
CONTINUOUS
 62
3
 10
-33.994075029104124
 20
25.027884846866982
 11
-33.994075029104124
 21
24.527884846866982
  0
LINE
  8
0
  6
CONTINUOUS
 62
3
 10
-41.994075029104124
 20
25.027884846866982
 11
-41.994075029104124
 21
24.527884846866982
  0
LINE
  8
0
  6
CONTINUOUS
 62
3
 10
-41.994075029104124
 20
24.527884846866982
 11
-33.994075029104124
 21
24.527884846866982
  0
LINE
  8
0
  6
CONTINUOUS
 62
3
 10
-109.994075029104120
 20
24.527884846866982
 11
-101.994075029104120
 21
24.527884846866982
  0
LINE
  8
0
  6
CONTINUOUS
 62
3
 10
-115.994075029104120
 20
25.027884846866982
 11
-27.994075029104124
 21
25.027884846866982
  0
LINE
  8
0
  6
CONTINUOUS
 62
3
 10
86.305924970886053
 20
37.027884846867892
 11
73.805924970882415
 21
37.027884846867892
  0
LINE
  8
0
  6
CONTINUOUS
 62
3
 10
75.805912027264867
 20
79.527884846868801
 11
75.805910570414426
 21
79.527884846868801
  0
ARC
  8
0
  6
CONTINUOUS
 62
3
 10
69.805924970881506
 20
52.103886979425624
 40
5.000000000000000
 50
0.000000000000000
 51
86.999999999993889
  0
ARC
  8
0
  6
CONTINUOUS
 62
3
 10
75.805924970882415
 20
66.527884846867892
 40
1.000000000000000
 50
90.000000000000000
 51
180.000000000000000
  0
LINE
  8
0
  6
CONTINUOUS
 62
3
 10
75.805912027265776
 20
79.527884846867892
 11
75.805910570415335
 21
79.527884846867892
  0
ARC
  8
0
  6
CONTINUOUS
 62
3
 10
75.805924970882415
 20
82.527884846866073
 40
1.000000000000000
 50
180.000000000000000
 51
270.000000000000000
  0
LINE
  8
0
  6
CONTINUOUS
 62
3
 10
75.805924970882415
 20
81.527884846866073
 11
78.805924970882415
 21
81.527884846866073
  0
ARC
  8
0
  6
CONTINUOUS
 62
3
 10
78.805924970882415
 20
80.527884846866073
 40
1.000000000000000
 50
0.000000000000000
 51
90.000000000000000
  0
LINE
  8
0
  6
CONTINUOUS
 62
3
 10
75.805924970882415
 20
67.527884846867892
 11
78.805924970882415
 21
67.527884846867892
  0
LINE
  8
0
  6
CONTINUOUS
 62
3
 10
79.805924970882415
 20
80.527884846866073
 11
79.805924970882415
 21
68.527884846867892
  0
ARC
  8
0
  6
CONTINUOUS
 62
3
 10
78.805924970882415
 20
68.527884846867892
 40
1.000000000000000
 50
270.000000000000000
 51
0.000000000000000
  0
LINE
  8
0
  6
CONTINUOUS
 62
3
 10
74.805924970880596
 20
116.527884846867890
 11
74.805924970880596
 21
79.527884846866982
  0
LINE
  8
0
  6
CONTINUOUS
 62
3
 10
74.805924970882415
 20
69.527884846866982
 11
74.805924970883325
 21
39.027884846867892
  0
ARC
  8
0
  6
CONTINUOUS
 62
3
 10
73.805924970882415
 20
39.027884846867892
 40
2.000000000000000
 50
180.000000000000000
 51
270.000000000000000
  0
ARC
  8
0
  6
CONTINUOUS
 62
3
 10
76.805924970883325
 20
39.027884846867892
 40
2.000000000000000
 50
180.000000000000000
 51
270.000000000000000
  0
LINE
  8
0
  6
CONTINUOUS
 62
3
 10
71.805924970882415
 20
52.261110317274870
 11
71.805924970882415
 21
39.027884846867892
  0
ARC
  8
0
  6
CONTINUOUS
 62
3
 10
66.805924970882415
 20
52.261110317274870
 40
5.000000000000000
 50
0.000000000000000
 51
86.999999999993889
  0
LINE
  8
0
  6
CONTINUOUS
 62
3
 10
75.805912027264867
 20
153.527884846866980
 11
75.805910570414426
 21
153.527884846866980
  0
ARC
  8
0
  6
CONTINUOUS
 62
3
 10
69.805924970881506
 20
180.951882714310160
 40
4.999999999999158
 50
273.000000000006140
 51
0.000000000000000
  0
ARC
  8
0
  6
CONTINUOUS
 62
3
 10
75.805924970882415
 20
166.527884846867890
 40
1.000000000000000
 50
180.000000000000000
 51
270.000000000000000
  0
LINE
  8
0
  6
CONTINUOUS
 62
3
 10
75.805912027265776
 20
153.527884846867890
 11
75.805910570415335
 21
153.527884846867890
  0
ARC
  8
0
  6
CONTINUOUS
 62
3
 10
75.805924970882415
 20
150.527884846869710
 40
1.000000000000000
 50
90.000000000000000
 51
180.000000000000000
  0
LINE
  8
0
  6
CONTINUOUS
 62
3
 10
75.805924970882415
 20
151.527884846869710
 11
78.805924970882415
 21
151.527884846869710
  0
ARC
  8
0
  6
CONTINUOUS
 62
3
 10
78.805924970882415
 20
152.527884846869710
 40
1.000000000000000
 50
270.000000000000000
 51
0.000000000000000
  0
LINE
  8
0
  6
CONTINUOUS
 62
3
 10
75.805924970882415
 20
165.527884846867890
 11
78.805924970882415
 21
165.527884846867890
  0
LINE
  8
0
  6
CONTINUOUS
 62
3
 10
79.805924970882415
 20
152.527884846869710
 11
79.805924970882415
 21
164.527884846867890
  0
ARC
  8
0
  6
CONTINUOUS
 62
3
 10
78.805924970882415
 20
164.527884846867890
 40
1.000000000000000
 50
0.000000000000000
 51
90.000000000000000
  0
LINE
  8
0
  6
CONTINUOUS
 62
3
 10
74.805924970880596
 20
116.527884846867890
 11
74.805924970880596
 21
153.527884846868800
  0
ARC
  8
0
  6
CONTINUOUS
 62
3
 10
66.805924970882415
 20
180.794659376460910
 40
4.999999999999158
 50
273.000000000006140
 51
0.000000000000000
  0
LINE
  8
0
  6
CONTINUOUS
 62
3
 10
74.805924970882415
 20
163.527884846868800
 11
74.805924970883325
 21
194.027884846867890
  0
ARC
  8
0
  6
CONTINUOUS
 62
3
 10
73.805924970882415
 20
194.027884846867890
 40
2.000000000000000
 50
90.000000000000000
 51
180.000000000000000
  0
LINE
  8
0
  6
CONTINUOUS
 62
3
 10
86.305924970886053
 20
196.027884846867890
 11
73.805924970882415
 21
196.027884846867890
  0
ARC
  8
0
  6
CONTINUOUS
 62
3
 10
76.805924970883325
 20
194.027884846867890
 40
2.000000000000000
 50
90.000000000000000
 51
180.000000000000000
  0
LINE
  8
0
  6
CONTINUOUS
 62
3
 10
71.805924970882415
 20
180.794659376460910
 11
71.805924970882415
 21
194.027884846867890
  0
LINE
  8
0
  6
CONTINUOUS
 62
3
 10
53.305924970896967
 20
133.527884846871530
 11
74.805924970880596
 21
133.527884846871530
  0
LINE
  8
0
  6
CONTINUOUS
 62
3
 10
70.067604752095804
 20
175.958735040538160
 11
53.305924970896967
 21
175.080292626151280
  0
LINE
  8
0
  6
CONTINUOUS
 62
3
 10
53.305924970896967
 20
99.527884846864254
 11
74.805924970880596
 21
99.527884846864254
  0
LINE
  8
0
  6
CONTINUOUS
 62
3
 10
70.067604752095804
 20
57.097034653197625
 11
53.305924970896967
 21
57.975477067584507
  0
LINE
  8
0
  6
CONTINUOUS
 62
3
 10
53.305924970896967
 20
57.027884846866982
 11
53.305924970896967
 21
176.027884846866980
  0
LINE
  8
0
  6
CONTINUOUS
 62
3
 10
43.305924970897195
 20
146.958461770149710
 11
29.305924970862179
 21
146.958461770149710
  0
ARC
  8
0
  6
CONTINUOUS
 62
3
 10
29.305924970862179
 20
149.958461770149710
 40
3.000000000000000
 50
180.000000000000000
 51
270.000000000000000
  0
ARC
  8
0
  6
CONTINUOUS
 62
3
 10
21.305924970862179
 20
162.527884846866980
 40
5.000000000000000
 50
0.000000000000000
 51
90.000000000000000
  0
LINE
  8
0
  6
CONTINUOUS
 62
3
 10
11.305924970893329
 20
167.527884846866980
 11
21.305924970862179
 21
167.527884846866980
  0
ARC
  8
0
  6
CONTINUOUS
 62
3
 10
21.305924970862179
 20
165.027884846866980
 40
5.000000000000000
 50
0.000000000000000
 51
90.000000000000000
  0
LINE
  8
0
  6
CONTINUOUS
 62
3
 10
11.305924970893329
 20
170.027884846866980
 11
40.305924970897195
 21
170.027884846866980
  0
LINE
  8
0
  6
CONTINUOUS
 62
3
 10
26.305924970862179
 20
165.027884846866980
 11
26.305924970862179
 21
132.527884846866980
  0
LINE
  8
0
  6
CONTINUOUS
 62
3
 10
11.305924970895830
 20
170.027884846866980
 11
11.305924970895830
 21
116.527884846866980
  0
LINE
  8
0
  6
CONTINUOUS
 62
3
 10
43.305924970897195
 20
86.097307923584253
 11
29.305924970862179
 21
86.097307923584253
  0
ARC
  8
0
  6
CONTINUOUS
 62
3
 10
29.305924970862179
 20
83.097307923584253
 40
3.000000000000000
 50
90.000000000000000
 51
180.000000000000000
  0
ARC
  8
0
  6
CONTINUOUS
 62
3
 10
29.305924970862179
 20
100.527884846866980
 40
3.000000000000000
 50
90.000000000000000
 51
180.000000000000000
  0
LINE
  8
0
  6
CONTINUOUS
 62
3
 10
11.305924970895148
 20
103.527884846866980
 11
48.305924970896967
 21
103.527884846866980
  0
LINE
  8
0
  6
CONTINUOUS
 62
3
 10
26.305924970862179
 20
68.027884846866982
 11
26.305924970862179
 21
100.527884846866980
  0
ARC
  8
0
  6
CONTINUOUS
 62
3
 10
21.305924970862179
 20
70.527884846866982
 40
5.000000000000000
 50
270.000000000000000
 51
0.000000000000000
  0
LINE
  8
0
  6
CONTINUOUS
 62
3
 10
11.305924970893329
 20
65.527884846866982
 11
21.305924970862179
 21
65.527884846866982
  0
ARC
  8
0
  6
CONTINUOUS
 62
3
 10
21.305924970862179
 20
68.027884846866982
 40
5.000000000000000
 50
270.000000000000000
 51
0.000000000000000
  0
LINE
  8
0
  6
CONTINUOUS
 62
3
 10
11.305924970893329
 20
63.027884846866982
 11
40.305924970897195
 21
63.027884846866982
  0
ARC
  8
0
  6
CONTINUOUS
 62
3
 10
29.305924970862179
 20
132.527884846866980
 40
3.000000000000000
 50
180.000000000000000
 51
270.000000000000000
  0
LINE
  8
0
  6
CONTINUOUS
 62
3
 10
11.305924970895148
 20
129.527884846866980
 11
48.305924970896967
 21
129.527884846866980
  0
CIRCLE
  8
0
  6
CONTINUOUS
 62
3
 10
37.305924970896967
 20
116.527884846866980
 40
8.349999999999909
  0
LINE
  8
0
  6
DASHDOT
 62
4
 10
37.305924970896967
 20
106.827105487939200
 11
37.305924970896967
 21
127.687374790645200
  0
LINE
  8
0
  6
CONTINUOUS
 62
3
 10
43.305924970897195
 20
172.656913353892040
 11
43.305924970897195
 21
129.527884846866980
  0
ARC
  8
0
  6
CONTINUOUS
 62
3
 10
45.305924970897195
 20
144.958461770149710
 40
2.000000000000000
 50
90.000000000000000
 51
180.000000000000000
  0
ARC
  8
0
  6
CONTINUOUS
 62
3
 10
45.305924970896967
 20
148.958461770149710
 40
2.000000000000000
 50
270.000000000000000
 51
0.000000000000000
  0
LINE
  8
0
  6
CONTINUOUS
 62
3
 10
47.305924970896967
 20
173.815509037739050
 11
47.305924970896967
 21
148.958461770149710
  0
ARC
  8
0
  6
CONTINUOUS
 62
3
 10
40.305924970897195
 20
173.027884846866980
 40
3.000000000000000
 50
270.000000000000000
 51
0.000000000000000
  0
ARC
  8
0
  6
CONTINUOUS
 62
3
 10
46.305924970897195
 20
172.656913353892040
 40
2.999999999999925
 50
92.999999999996973
 51
180.000000000000000
  0
LINE
  8
0
  6
CONTINUOUS
 62
3
 10
53.305924970896967
 20
176.027884846866980
 11
46.148917102168525
 21
175.652801958155810
  0
ARC
  8
0
  6
CONTINUOUS
 62
3
 10
49.305924970896967
 20
173.815509037739050
 40
1.999999999999992
 50
92.999999999999091
 51
180.000000000000000
  0
LINE
  8
0
  6
CONTINUOUS
 62
3
 10
43.305924970897195
 20
60.027884846866982
 11
43.305924970897195
 21
103.527884846866980
  0
ARC
  8
0
  6
CONTINUOUS
 62
3
 10
45.305924970897195
 20
88.097307923584253
 40
2.000000000000000
 50
180.000000000000000
 51
270.000000000000000
  0
ARC
  8
0
  6
CONTINUOUS
 62
3
 10
45.305924970896967
 20
84.097307923584253
 40
2.000000000000000
 50
0.000000000000000
 51
90.000000000000000
  0
LINE
  8
0
  6
CONTINUOUS
 62
3
 10
47.305924970896967
 20
59.240260655994916
 11
47.305924970896967
 21
84.097307923584253
  0
ARC
  8
0
  6
CONTINUOUS
 62
3
 10
40.305924970897195
 20
60.027884846866982
 40
3.000000000000000
 50
0.000000000000000
 51
90.000000000000000
  0
ARC
  8
0
  6
CONTINUOUS
 62
3
 10
46.305924970897195
 20
60.398856339841927
 40
3.000000000000000
 50
180.000000000000000
 51
267.000000000003010
  0
LINE
  8
0
  6
CONTINUOUS
 62
3
 10
53.305924970896967
 20
57.027884846866982
 11
46.148917102168525
 21
57.402967735578159
  0
ARC
  8
0
  6
CONTINUOUS
 62
3
 10
49.305924970896967
 20
59.240260655994916
 40
2.000000000000000
 50
180.000000000000000
 51
267.000000000000910
  0
LINE
  8
0
  6
CONTINUOUS
 62
3
 10
53.305924970896967
 20
59.227884846869188
 11
53.305924970896967
 21
116.527884846866980
  0
ARC
  8
0
  6
CONTINUOUS
 62
3
 10
48.305924970896967
 20
126.527884846866980
 40
3.000000000000000
 50
0.000000000000000
 51
90.000000000000000
  0
LINE
  8
0
  6
CONTINUOUS
 62
3
 10
51.305924970896967
 20
126.527884846866980
 11
51.305924970896967
 21
116.527884846866980
  0
ARC
  8
0
  6
CONTINUOUS
 62
3
 10
48.305924970896967
 20
106.527884846866980
 40
3.000000000000000
 50
270.000000000000000
 51
0.000000000000000
  0
LINE
  8
0
  6
CONTINUOUS
 62
3
 10
51.305924970896967
 20
106.527884846866980
 11
51.305924970896967
 21
116.527884846866980
  0
LINE
  8
0
  6
CONTINUOUS
 62
3
 10
53.305924970896967
 20
173.827884846864780
 11
53.305924970896967
 21
116.527884846866980
  0
LINE
  8
0
  6
CONTINUOUS
 62
3
 10
53.305924970896967
 20
173.827884846864780
 11
53.305924970896967
 21
176.027884846866980
  0
LINE
  8
0
  6
CONTINUOUS
 62
3
 10
53.305924970896967
 20
59.227884846869188
 11
53.305924970896967
 21
57.027884846866982
  0
LINE
  8
0
  6
DASHDOT
 62
4
 10
237.806706597380980
 20
116.527884846866980
 11
-228.886733689901800
 21
116.527884846866980
  0
LINE
  8
0
  6
CONTINUOUS
 62
3
 10
158.785732245476770
 20
72.454035998625841
 11
143.708038210425230
 21
72.454035998625841
  0
ARC
  8
0
  6
CONTINUOUS
 62
3
 10
158.305924970886050
 20
48.009073814281692
 40
3.000000000000000
 50
0.000000000000000
 51
48.254159514985268
  0
LINE
  8
0
  6
CONTINUOUS
 62
3
 10
141.627120583357960
 20
66.914178548357086
 11
160.303407478524600
 21
50.247390957066273
  0
ARC
  8
0
  6
CONTINUOUS
 62
3
 10
139.629638075719640
 20
64.675861405573414
 40
3.000000000000058
 50
48.254159514976941
 51
90.000000000000000
  0
ARC
  8
0
  6
CONTINUOUS
 62
3
 10
158.305924970886050
 20
52.787248407334118
 40
3.000000000000000
 50
0.000000000000000
 51
48.254159514985268
  0
LINE
  8
0
  6
CONTINUOUS
 62
3
 10
141.627120583357960
 20
71.692353141409512
 11
160.303407478524600
 21
55.025565550118699
  0
ARC
  8
0
  6
CONTINUOUS
 62
3
 10
139.629638075719640
 20
69.454035998625841
 40
3.000000000000058
 50
48.254159514976941
 51
90.000000000000000
  0
LINE
  8
0
  6
CONTINUOUS
 62
3
 10
158.785732245476770
 20
160.601733695108120
 11
143.708038210425230
 21
160.601733695108120
  0
ARC
  8
0
  6
CONTINUOUS
 62
3
 10
158.305924970886050
 20
185.046695879452270
 40
3.000000000000888
 50
311.745840485014750
 51
0.000000000000000
  0
LINE
  8
0
  6
CONTINUOUS
 62
3
 10
141.627120583357960
 20
166.141591145376880
 11
160.303407478524600
 21
182.808378736667690
  0
ARC
  8
0
  6
CONTINUOUS
 62
3
 10
139.629638075719640
 20
168.379908288160550
 40
3.000000000000000
 50
270.000000000000000
 51
311.745840485023050
  0
ARC
  8
0
  6
CONTINUOUS
 62
3
 10
158.305924970886050
 20
180.268521286399850
 40
3.000000000000888
 50
311.745840485014750
 51
0.000000000000000
  0
LINE
  8
0
  6
CONTINUOUS
 62
3
 10
141.627120583357960
 20
161.363416552324450
 11
160.303407478524600
 21
178.030204143615260
  0
ARC
  8
0
  6
CONTINUOUS
 62
3
 10
139.629638075719640
 20
163.601733695108120
 40
3.000000000000000
 50
270.000000000000000
 51
311.745840485023050
  0
ARC
  8
0
  6
CONTINUOUS
 62
3
 10
143.773602322170750
 20
111.027884846867890
 40
3.000000000000000
 50
90.000000000000000
 51
180.000000000000000
  0
LINE
  8
0
  6
CONTINUOUS
 62
3
 10
143.773602322170750
 20
114.027884846867890
 11
158.305924970886050
 21
114.027884846867890
  0
ARC
  8
0
  6
CONTINUOUS
 62
3
 10
158.305924970886050
 20
111.027884846867890
 40
3.000000000000000
 50
0.000000000000000
 51
90.000000000000000
  0
ARC
  8
0
  6
CONTINUOUS
 62
3
 10
143.773602322170750
 20
122.027884846867890
 40
3.000000000000000
 50
180.000000000000000
 51
270.000000000000000
  0
LINE
  8
0
  6
CONTINUOUS
 62
3
 10
143.773602322170750
 20
119.027884846867890
 11
158.305924970886050
 21
119.027884846867890
  0
ARC
  8
0
  6
CONTINUOUS
 62
3
 10
158.305924970886050
 20
122.027884846867890
 40
3.000000000000000
 50
270.000000000000000
 51
0.000000000000000
  0
LINE
  8
0
  6
CONTINUOUS
 62
3
 10
166.305924970886050
 20
43.326874720090018
 11
166.305924970886050
 21
116.527884846866980
  0
LINE
  8
0
  6
CONTINUOUS
 62
3
 10
166.305924970886050
 20
189.728894973643950
 11
166.305924970886050
 21
116.527884846866980
  0
LINE
  8
0
  6
CONTINUOUS
 62
3
 10
86.305924970886053
 20
37.027884846866073
 11
86.305924970886053
 21
196.027884846866980
  0
ARC
  8
0
  6
CONTINUOUS
 62
3
 10
158.305924970886050
 20
31.511760810563828
 40
3.000000000000000
 50
0.000000000000000
 51
88.000000000000995
  0
LINE
  8
0
  6
CONTINUOUS
 62
3
 10
86.305924970886053
 20
37.027884846866982
 11
158.410623460993520
 21
34.509933291621564
  0
ARC
  8
0
  6
CONTINUOUS
 62
3
 10
158.305924970886050
 20
201.544008883170140
 40
3.000000000000447
 50
271.999999999999030
 51
0.000000000000000
  0
LINE
  8
0
  6
CONTINUOUS
 62
3
 10
86.305924970886053
 20
196.027884846866980
 11
158.410623460993520
 21
198.545836402112400
  0
LINE
  8
0
  6
CONTINUOUS
 62
3
 10
173.305924970886050
 20
64.994489569848156
 11
168.305924970886050
 21
64.994489569848156
  0
LINE
  8
0
  6
CONTINUOUS
 62
3
 10
173.305924970886050
 20
41.326874720090018
 11
168.305924970886050
 21
41.326874720090018
  0
ARC
  8
0
  6
CONTINUOUS
 62
3
 10
168.305924970886050
 20
43.326874720090018
 40
2.000000000000000
 50
180.000000000000000
 51
270.000000000000000
  0
ARC
  8
0
  6
CONTINUOUS
 62
3
 10
168.305924970886050
 20
66.994489569848156
 40
2.000000000000000
 50
180.000000000000000
 51
270.000000000000000
  0
LINE
  8
0
  6
CONTINUOUS
 62
3
 10
173.305924970886050
 20
168.061280123885810
 11
168.305924970886050
 21
168.061280123885810
  0
LINE
  8
0
  6
CONTINUOUS
 62
3
 10
173.305924970886050
 20
191.728894973643950
 11
168.305924970886050
 21
191.728894973643950
  0
ARC
  8
0
  6
CONTINUOUS
 62
3
 10
168.305924970886050
 20
189.728894973643950
 40
2.000000000000000
 50
90.000000000000000
 51
180.000000000000000
  0
ARC
  8
0
  6
CONTINUOUS
 62
3
 10
168.305924970886050
 20
166.061280123885810
 40
2.000000000000000
 50
90.000000000000000
 51
180.000000000000000
  0
LINE
  8
0
  6
DASHDOT
 62
4
 10
183.924377381500110
 20
33.442838057447261
 11
151.448916681136550
 21
33.442838057447261
  0
LINE
  8
0
  6
DASHDOT
 62
4
 10
183.924377381500110
 20
199.612931636286700
 11
151.448916681136550
 21
199.612931636286700
  0
LINE
  8
0
  6
CONTINUOUS
 62
3
 10
173.305924970886050
 20
22.016030945012062
 11
173.305924970886050
 21
116.527884846866980
  0
LINE
  8
0
  6
CONTINUOUS
 62
3
 10
173.305924970886050
 20
211.039738748720990
 11
173.305924970886050
 21
116.527884846866980
  0
ARC
  8
0
  6
CONTINUOUS
 62
3
 10
163.305924970886050
 20
210.112107282840950
 40
1.999999999999651
 50
87.000000000000398
 51
180.000000000000000
  0
ARC
  8
0
  6
CONTINUOUS
 62
3
 10
163.305924970886050
 20
22.943662410893012
 40
2.000000000000000
 50
180.000000000000000
 51
272.999999999999600
  0
LINE
  8
0
  6
CONTINUOUS
 62
3
 10
161.305924970886050
 20
210.112107282840950
 11
161.305924970886050
 21
22.943662410893012
  0
LINE
  8
0
  6
CONTINUOUS
 62
3
 10
172.755644712511180
 20
21.436156545401900
 11
163.410596883371910
 21
20.946403341383302
  0
LINE
  8
0
  6
CONTINUOUS
 62
3
 10
176.305924970886050
 20
31.527884846866982
 11
176.305924970886050
 21
116.527884846866980
  0
LINE
  8
0
  6
CONTINUOUS
 62
3
 10
176.305924970886050
 20
201.527884846866980
 11
176.305924970886050
 21
116.527884846866980
  0
ARC
  8
0
  6
CONTINUOUS
 62
3
 10
176.805924970886280
 20
87.974104721585718
 40
0.999999999999832
 50
93.000000000006111
 51
120.000000000021580
  0
ARC
  8
0
  6
CONTINUOUS
 62
3
 10
176.805924970886280
 20
145.081664972147340
 40
0.999999999999802
 50
239.999999999978400
 51
266.999999999993860
  0
LINE
  8
0
  6
CONTINUOUS
 62
3
 10
176.305924970886050
 20
31.527884846866982
 11
173.305924970886050
 21
31.527884846866982
  0
LINE
  8
0
  6
CONTINUOUS
 62
3
 10
176.305924970886050
 20
201.527884846866980
 11
173.305924970886050
 21
201.527884846866980
  0
ARC
  8
0
  6
CONTINUOUS
 62
3
 10
163.305924970886050
 20
210.112107282840950
 40
2.000000000000025
 50
177.837310087963030
 51
180.000000000000000
  0
LINE
  8
0
  6
CONTINUOUS
 62
3
 10
177.805924970886280
 20
116.527884846866980
 11
177.805924970886280
 21
143.027884846866980
  0
LINE
  8
0
  6
CONTINUOUS
 62
3
 10
177.805924970886280
 20
116.527884846866980
 11
177.805924970886280
 21
90.027884846866982
  0
LINE
  8
0
  6
CONTINUOUS
 62
3
 10
172.755644712511180
 20
211.619613148331150
 11
163.410596883371910
 21
212.109366352349750
  0
LINE
  8
0
  6
CONTINUOUS
 62
3
 10
172.755644712511180
 20
211.619613148331150
 11
173.305924970886050
 21
211.039738748720990
  0
LINE
  8
0
  6
CONTINUOUS
 62
3
 10
172.755644712511180
 20
21.436156545401900
 11
173.305924970886050
 21
22.016030945012062
  0
LINE
  8
0
  6
CONTINUOUS
 62
3
 10
176.805924970886280
 20
144.027884846866980
 11
176.753589014643240
 21
144.083035437392940
  0
LINE
  8
0
  6
CONTINUOUS
 62
3
 10
176.805924970886280
 20
89.027884846866982
 11
176.753589014643240
 21
88.972734256340118
  0
ARC
  8
0
  6
CONTINUOUS
 62
3
 10
176.805924970886280
 20
143.027884846866980
 40
1.000000000000000
 50
0.000000000000000
 51
90.000000000000000
  0
ARC
  8
0
  6
CONTINUOUS
 62
3
 10
176.805924970886280
 20
90.027884846866982
 40
1.000000000000000
 50
270.000000000000000
 51
0.000000000000000
  0
LINE
  8
0
  6
CONTINUOUS
 62
3
 10
85.805924970886053
 20
196.027884846867890
 11
85.805924970886053
 21
116.527884846868800
  0
LINE
  8
0
  6
CONTINUOUS
 62
3
 10
85.805924970886053
 20
37.027884846867892
 11
85.805924970886053
 21
116.527884846866980
  0
LINE
  8
0
  6
CONTINUOUS
 62
3
 10
179.605924970885550
 20
102.027884846866980
 11
177.805924970886280
 21
102.027884846866980
  0
LINE
  8
0
  6
CONTINUOUS
 62
3
 10
179.805924970886280
 20
116.527884846866980
 11
179.805924970886280
 21
102.227884846866800
  0
LINE
  8
0
  6
CONTINUOUS
 62
3
 10
179.805924970886280
 20
102.227884846866800
 11
179.605924970885550
 21
102.027884846866980
  0
ARC
  8
0
  6
CONTINUOUS
 62
3
 10
180.205924970885920
 20
102.277884846866980
 40
0.399999999999636
 50
90.000000000000000
 51
180.000000000000000
  0
LINE
  8
0
  6
CONTINUOUS
 62
3
 10
182.365732592020780
 20
102.527884846866980
 11
181.805924970886280
 21
102.677884846866610
  0
LINE
  8
0
  6
CONTINUOUS
 62
3
 10
181.805924970886280
 20
102.677884846866610
 11
180.205924970885920
 21
102.677884846866610
  0
LINE
  8
0
  6
CONTINUOUS
 62
3
 10
179.605924970885550
 20
131.027884846866980
 11
177.805924970886280
 21
131.027884846866980
  0
LINE
  8
0
  6
CONTINUOUS
 62
3
 10
179.805924970886280
 20
116.527884846866980
 11
179.805924970886280
 21
130.827884846867160
  0
LINE
  8
0
  6
CONTINUOUS
 62
3
 10
179.805924970886280
 20
130.827884846867160
 11
179.605924970885550
 21
131.027884846866980
  0
ARC
  8
0
  6
CONTINUOUS
 62
3
 10
180.205924970885920
 20
130.777884846866980
 40
0.399999999999636
 50
180.000000000000000
 51
270.000000000000000
  0
LINE
  8
0
  6
CONTINUOUS
 62
3
 10
182.365732592020780
 20
130.527884846866980
 11
181.805924970886280
 21
130.377884846867350
  0
LINE
  8
0
  6
CONTINUOUS
 62
3
 10
181.805924970886280
 20
130.377884846867350
 11
180.205924970885920
 21
130.377884846867350
  0
LINE
  8
0
  6
CONTINUOUS
 62
3
 10
185.805924970886280
 20
99.527884846866982
 11
185.805924970886280
 21
102.527884846866980
  0
LINE
  8
0
  6
CONTINUOUS
 62
3
 10
221.805924970886280
 20
130.127884846867350
 11
221.805924970886280
 21
116.527884846866980
  0
LINE
  8
0
  6
CONTINUOUS
 62
3
 10
221.405924970885740
 20
130.527884846866980
 11
182.365732592020780
 21
130.527884846866980
  0
ARC
  8
0
  6
CONTINUOUS
 62
3
 10
221.405924970885740
 20
130.127884846867350
 40
0.400000000000546
 50
0.000000000000000
 51
90.000000000000000
  0
LINE
  8
0
  6
CONTINUOUS
 62
3
 10
221.805924970886280
 20
99.527884846866982
 11
221.805924970886280
 21
102.927884846866610
  0
LINE
  8
0
  6
CONTINUOUS
 62
3
 10
221.805924970886280
 20
99.527884846866982
 11
185.805924970886280
 21
99.527884846866982
  0
LINE
  8
0
  6
CONTINUOUS
 62
3
 10
221.805924970886280
 20
102.927884846866610
 11
221.805924970886280
 21
116.527884846866980
  0
LINE
  8
0
  6
CONTINUOUS
 62
3
 10
221.405924970885740
 20
102.527884846866980
 11
182.365732592020780
 21
102.527884846866980
  0
ARC
  8
0
  6
CONTINUOUS
 62
3
 10
221.405924970885740
 20
102.927884846866610
 40
0.399999999999636
 50
270.000000000000000
 51
0.000000000000000
  0
ARC
  8
0
  6
CONTINUOUS
 62
3
 10
-335.274077411784670
 20
-16.828016985398833
 40
3.000000000000000
 50
0.000000000000000
 51
90.000000000000000
  0
LINE
  8
0
  6
CONTINUOUS
 62
3
 10
-327.274077411784670
 20
-16.828016985398833
 11
-327.274077411784670
 21
-48.361406737140882
  0
ARC
  8
0
  6
CONTINUOUS
 62
3
 10
-324.274077411784670
 20
-16.828016985398833
 40
3.000000000000000
 50
90.000000000000000
 51
180.000000000000000
  0
LINE
  8
0
  6
CONTINUOUS
 62
3
 10
-278.566436540486620
 20
-58.655910020033431
 11
-264.720253542622230
 21
-44.809727022169099
  0
ARC
  8
0
  6
CONTINUOUS
 62
3
 10
-262.598933199062460
 20
-46.931047365728816
 40
2.999999999999904
 50
45.000000000000774
 51
135.000000000002300
  0
ARC
  8
0
  6
CONTINUOUS
 62
3
 10
-270.377107792114660
 20
-39.152872772676844
 40
3.000000000000105
 50
315.000000000001530
 51
44.999999999998472
  0
ARC
  8
0
  6
CONTINUOUS
 62
3
 10
-324.274077411784670
 20
-48.361406737140882
 40
3.000000000000000
 50
180.000000000000000
 51
269.304338785846990
  0
ARC
  8
0
  6
CONTINUOUS
 62
3
 10
-335.274077411784450
 20
-48.361406737140882
 40
2.999999999999993
 50
270.695661214153010
 51
0.000000000000000
  0
CIRCLE
  8
0
  6
CONTINUOUS
 62
3
 10
-246.689030622365640
 20
-189.413063774818340
 40
6.000000000000000
  0
ARC
  8
0
  6
CONTINUOUS
 62
3
 10
-244.774077411784670
 20
-191.328016985398960
 40
10.000000000000000
 50
270.000000000000000
 51
0.000000000000000
  0
CIRCLE
  8
0
  6
CONTINUOUS
 62
3
 10
-246.689030622365410
 20
-23.242970195979453
 40
6.000000000000000
  0
ARC
  8
0
  6
CONTINUOUS
 62
3
 10
-244.774077411784670
 20
-21.328016985398946
 40
10.000000000000000
 50
0.000000000000000
 51
90.000000000000000
  0
ARC
  8
0
  6
CONTINUOUS
 62
3
 10
-276.445116196927070
 20
-60.777230363592977
 40
2.999999999999864
 50
135.000000000000000
 51
172.868333574693740
  0
LINE
  8
0
  6
CONTINUOUS
 62
3
 10
-283.959011308516890
 20
-56.977416976198114
 11
-268.255787448555110
 21
-41.274193116236447
  0
LINE
  8
0
  6
CONTINUOUS
 62
3
 10
-332.274077411784670
 20
-16.828016985398833
 11
-332.274077411784670
 21
-48.361406737140882
  0
LINE
  8
0
  6
CONTINUOUS
 62
3
 10
-279.063871825557040
 20
-201.328016985398850
 11
-244.774077411784670
 21
-201.328016985398960
  0
LINE
  8
0
  6
CONTINUOUS
 62
3
 10
-234.774077411784670
 20
-21.328016985398946
 11
-234.774077411784670
 21
-191.328016985398960
  0
LINE
  8
0
  6
CONTINUOUS
 62
3
 10
-414.774077411784670
 20
-11.328016985398719
 11
-244.774077411784670
 21
-11.328016985398946
  0
ARC
  8
0
  6
CONTINUOUS
 62
3
 10
-298.774077411784450
 20
-204.328016985398790
 40
5.000000000000000
 50
270.000000000000000
 51
0.000000000000000
  0
ARC
  8
0
  6
CONTINUOUS
 62
3
 10
-286.774077411784450
 20
-203.828016985398790
 40
7.000000000000020
 50
61.263962136561375
 51
180.000000000000000
  0
ARC
  8
0
  6
CONTINUOUS
 62
3
 10
-281.004776100681970
 20
-193.305889710854330
 40
5.000000000000031
 50
241.263962136560650
 51
316.112971245445520
  0
ARC
  8
0
  6
CONTINUOUS
 62
3
 10
-276.607491112690920
 20
-70.722030005963845
 40
4.999999999999965
 50
49.876065772937274
 51
101.642077717792330
  0
ARC
  8
0
  6
CONTINUOUS
 62
3
 10
-299.774077411784450
 20
-58.637815340386211
 40
4.999999999999281
 50
42.719327039978303
 51
75.028809004051297
  0
ARC
  8
0
  6
CONTINUOUS
 62
3
 10
-273.076987296512470
 20
-200.931515237752650
 40
5.999999999999943
 50
129.571894934440370
 51
191.940334905755690
  0
ARC
  8
0
  6
CONTINUOUS
 62
3
 10
-286.774077411784450
 20
-203.828016985398790
 40
7.999999999999977
 50
316.567463442210060
 51
11.940334905756142
  0
LINE
  8
0
  6
CONTINUOUS
 62
3
 10
-280.964602392473350
 20
-209.328016985398790
 11
-329.774077411784450
 21
-209.328016985398790
  0
LINE
  8
0
  6
CONTINUOUS
 62
3
 10
-378.583552431095540
 20
-209.328016985398790
 11
-329.774077411784450
 21
-209.328016985398790
  0
ARC
  8
0
  6
CONTINUOUS
 62
3
 10
-283.458583244065270
 20
-185.714578964982760
 40
2.999999999999944
 50
45.000000000001542
 51
135.000000000002300
  0
LINE
  8
0
  6
CONTINUOUS
 62
3
 10
-281.337262900505720
 20
-183.593258621423100
 11
-274.973301869826860
 21
-189.957219652102030
  0
ARC
  8
0
  6
CONTINUOUS
 62
3
 10
-277.094622213386400
 20
-192.078539995661690
 40
3.000000000000064
 50
315.000000000002270
 51
45.000000000001542
  0
ARC
  8
0
  6
CONTINUOUS
 62
3
 10
-270.023554401520870
 20
-185.007472183796210
 40
3.000000000000105
 50
224.999999999998470
 51
315.000000000001530
  0
ARC
  8
0
  6
CONTINUOUS
 62
3
 10
-276.387515432199730
 20
-178.643511153117290
 40
3.000000000000064
 50
135.000000000002300
 51
224.999999999998470
  0
LINE
  8
0
  6
CONTINUOUS
 62
3
 10
-278.508835775759510
 20
-180.764831496676950
 11
-272.144874745080640
 21
-187.128792527355870
  0
LINE
  8
0
  6
CONTINUOUS
 62
3
 10
-272.274077411784450
 20
-77.656444110145614
 11
-272.144874745080410
 21
-77.527241443441582
  0
ARC
  8
0
  6
CONTINUOUS
 62
3
 10
-329.774077411784450
 20
-501.328016985622700
 40
449.999999999999830
 50
87.841596534959436
 51
90.000000000000000
  0
ARC
  8
0
  6
CONTINUOUS
 62
3
 10
-329.774077411784450
 20
-501.328016985622700
 40
450.000000000000000
 50
90.000000000000000
 51
92.158403465040564
  0
LINE
  8
0
  6
CONTINUOUS
 62
3
 10
-250.274077411784450
 20
-143.828016985398730
 11
-250.274077411784450
 21
-154.660728419526090
  0
ARC
  8
0
  6
CONTINUOUS
 62
3
 10
-315.274077411784450
 20
-116.601165830156880
 40
65.000000000000014
 50
43.536590282826317
 51
55.916311411658285
  0
ARC
  8
0
  6
CONTINUOUS
 62
3
 10
-260.274077411784450
 20
-154.660728419526090
 40
10.000000000000151
 50
342.186023533381100
 51
0.000000000000000
  0
ARC
  8
0
  6
CONTINUOUS
 62
3
 10
-329.774077411784450
 20
-132.328016985398730
 40
83.000000000000043
 50
309.571894934440880
 51
342.186023533380880
  0
LINE
  8
0
  6
CONTINUOUS
 62
3
 10
-316.441785785811130
 20
-190.828016985398730
 11
-314.126626568026720
 21
-190.828016985398730
  0
ARC
  8
0
  6
CONTINUOUS
 62
3
 10
-329.774077411784450
 20
-132.328016985398730
 40
59.999999999999986
 50
257.161431859015980
 51
282.838568140984020
  0
ARC
  8
0
  6
CONTINUOUS
 62
3
 10
-314.274077411784450
 20
-186.828016985398730
 40
3.000000000000000
 50
270.000000000000000
 51
0.000000000000000
  0
ARC
  8
0
  6
CONTINUOUS
 62
3
 10
-304.274077411784450
 20
-161.828016985398620
 40
3.000000000000688
 50
167.756347132295390
 51
180.000000000000000
  0
ARC
  8
0
  6
CONTINUOUS
 62
3
 10
-314.274077411784450
 20
-162.155076257480350
 40
3.000000000000000
 50
0.000000000000000
 51
14.478806236574245
  0
ARC
  8
0
  6
CONTINUOUS
 62
3
 10
-302.274077411784450
 20
-187.057465182872820
 40
4.999999999999968
 50
116.678234450809050
 51
180.000000000000000
  0
ARC
  8
0
  6
CONTINUOUS
 62
3
 10
-329.774077411784450
 20
-132.328016985398730
 40
56.250000000000021
 50
296.678234450809610
 51
319.227195305957140
  0
ARC
  8
0
  6
CONTINUOUS
 62
3
 10
-283.389139123585890
 20
-172.328016985398730
 40
5.000000000000000
 50
90.000000000000000
 51
139.227195305956340
  0
LINE
  8
0
  6
CONTINUOUS
 62
3
 10
-278.614480278297830
 20
-167.328016985398730
 11
-283.389139123585890
 21
-167.328016985398730
  0
ARC
  8
0
  6
CONTINUOUS
 62
3
 10
-278.614480278297830
 20
-162.328016985398730
 40
5.000000000000000
 50
270.000000000000000
 51
349.999999999999030
  0
LINE
  8
0
  6
CONTINUOUS
 62
3
 10
-307.274077411784450
 20
-161.828016985398620
 11
-307.274077411784450
 21
-189.828016985398730
  0
LINE
  8
0
  6
CONTINUOUS
 62
3
 10
-311.274077411784450
 20
-162.155076257480350
 11
-311.274077411784450
 21
-186.828016985398730
  0
ARC
  8
0
  6
CONTINUOUS
 62
3
 10
-270.929710869882680
 20
-153.298146850361600
 40
0.999999999999972
 50
99.914783369143109
 51
169.999999999997070
  0
ARC
  8
0
  6
CONTINUOUS
 62
3
 10
-271.274077411784450
 20
-151.328016985398730
 40
1.000000000000028
 50
279.914783369142580
 51
0.000000000000000
  0
LINE
  8
0
  6
CONTINUOUS
 62
3
 10
-271.914518622894780
 20
-153.124498672694640
 11
-274.690418474223180
 21
-168.867409032612100
  0
LINE
  8
0
  6
CONTINUOUS
 62
3
 10
-270.274077411784450
 20
-143.828016985398730
 11
-270.274077411784450
 21
-151.328016985398730
  0
ARC
  8
0
  6
CONTINUOUS
 62
3
 10
-289.462534769406150
 20
-166.262686367608070
 40
15.000000000000000
 50
314.999999999999830
 51
349.999999999999600
  0
LINE
  8
0
  6
CONTINUOUS
 62
3
 10
-278.855933051607960
 20
-176.869288085406310
 11
-285.065983406992020
 21
-183.079338440790250
  0
ARC
  8
0
  6
CONTINUOUS
 62
3
 10
-295.672585124790200
 20
-172.472736722992010
 40
14.999999999999979
 50
280.304846468765850
 51
314.999999999999830
  0
LINE
  8
0
  6
CONTINUOUS
 62
3
 10
-292.989303551790500
 20
-187.230785374490610
 11
-311.443344995026790
 21
-190.586065636897330
  0
ARC
  8
0
  6
CONTINUOUS
 62
3
 10
-314.126626568026720
 20
-175.828016985398730
 40
15.000000000000000
 50
270.000000000000000
 51
280.304846468766750
  0
LINE
  8
0
  6
CONTINUOUS
 62
3
 10
-293.774077411784450
 20
-203.828016985398790
 11
-293.774077411784450
 21
-204.328016985398790
  0
LINE
  8
0
  6
DASHDOT
 62
4
 10
-254.439460363393660
 20
-30.993399937008334
 11
-238.910856029312750
 21
-15.464795602927481
  0
ARC
  8
0
  6
DASHDOT
 62
4
 10
-329.774077411783990
 20
-106.328016985398710
 40
117.499999999999920
 50
40.283229257203729
 51
50.364178174483833
  0
ARC
  8
0
  6
DASHDOT
 62
4
 10
-329.774077411783990
 20
-106.328016985398710
 40
117.499999999999510
 50
309.635821825515960
 51
320.364178174483360
  0
ARC
  8
0
  6
CONTINUOUS
 62
3
 10
-315.274077411784450
 20
-116.601165830156880
 40
65.000000000000000
 50
70.019378511855876
 51
87.841596534959464
  0
ARC
  8
0
  6
CONTINUOUS
 62
3
 10
-326.274077411784450
 20
-90.171573402389114
 40
1.000000000000000
 50
180.000000000000000
 51
258.787728582356010
  0
LINE
  8
0
  6
CONTINUOUS
 62
3
 10
-327.274077411784450
 20
-87.121737744550202
 11
-327.274077411784450
 21
-90.171573402389114
  0
ARC
  8
0
  6
CONTINUOUS
 62
3
 10
-326.274077411784450
 20
-87.121737744550202
 40
1.000000000000268
 50
80.405931773124522
 51
180.000000000000000
  0
ARC
  8
0
  6
CONTINUOUS
 62
3
 10
-326.274077411784450
 20
-81.560165912271415
 40
1.000000000000000
 50
179.999999999986980
 51
262.410457608144040
  0
LINE
  8
0
  6
CONTINUOUS
 62
3
 10
-327.274077411784450
 20
-78.536379953645039
 11
-327.274077411784450
 21
-81.560165912271188
  0
ARC
  8
0
  6
CONTINUOUS
 62
3
 10
-326.274077411784450
 20
-78.536379953645039
 40
1.000000000000077
 50
83.186145655820312
 51
180.000000000000000
  0
ARC
  8
0
  6
CONTINUOUS
 62
3
 10
-326.274077411784450
 20
-73.003456686666979
 40
1.000000000000000
 50
180.000000000000000
 51
264.260829522738280
  0
LINE
  8
0
  6
CONTINUOUS
 62
3
 10
-327.274077411784450
 20
-69.989544500373697
 11
-327.274077411784450
 21
-73.003456686666979
  0
ARC
  8
0
  6
CONTINUOUS
 62
3
 10
-326.274077411784450
 20
-69.989544500373697
 40
1.000000000000042
 50
84.715267045464302
 51
180.000000000000000
  0
ARC
  8
0
  6
CONTINUOUS
 62
3
 10
-306.156775623852580
 20
-90.151109556276353
 40
1.000000000000082
 50
299.999999999997270
 51
36.813854344186687
  0
LINE
  8
0
  6
CONTINUOUS
 62
3
 10
-305.656775623852580
 20
-91.017134960060886
 11
-308.275451079630100
 21
-92.529027939374075
  0
ARC
  8
0
  6
CONTINUOUS
 62
3
 10
-308.775451079630100
 20
-91.663002535589541
 40
0.999999999999834
 50
217.589542391867670
 51
299.999999999997270
  0
ARC
  8
0
  6
CONTINUOUS
 62
3
 10
-298.754998999354260
 20
-85.877691829640682
 40
0.999999999999885
 50
300.000000000003810
 51
35.284732954544943
  0
LINE
  8
0
  6
CONTINUOUS
 62
3
 10
-298.254998999354260
 20
-86.743717233424988
 11
-300.865123517460010
 21
-88.250673326571743
  0
ARC
  8
0
  6
CONTINUOUS
 62
3
 10
-301.365123517460010
 20
-87.384647922787437
 40
0.999999999999940
 50
215.739170477274090
 51
300.000000000003810
  0
ARC
  8
0
  6
CONTINUOUS
 62
3
 10
-323.875548141395260
 20
-100.381047638989150
 40
0.999999999999961
 50
231.618272422159780
 51
299.999999999997270
  0
LINE
  8
0
  6
CONTINUOUS
 62
3
 10
-320.631772566370960
 20
-99.662953475937613
 11
-323.375548141395260
 21
-101.247073042773690
  0
ARC
  8
0
  6
CONTINUOUS
 62
3
 10
-316.233148728411610
 20
-95.968706280648505
 40
0.999999999999673
 50
221.212271417651210
 51
300.000000000003810
  0
LINE
  8
0
  6
CONTINUOUS
 62
3
 10
-313.091913571355460
 20
-95.309813855513241
 11
-315.733148728411610
 21
-96.834731684432811
  0
ARC
  8
0
  6
CONTINUOUS
 62
3
 10
-313.591913571355460
 20
-94.443788451728707
 40
1.000000000000082
 50
299.999999999997270
 51
39.594068226850403
  0
ARC
  8
0
  6
CONTINUOUS
 62
3
 10
-326.274077411784450
 20
-98.996256119070878
 40
1.000000000000000
 50
180.000000000000000
 51
248.381727577838030
  0
ARC
  8
0
  6
CONTINUOUS
 62
3
 10
-329.774077411784450
 20
-107.828016985398710
 40
8.500000000000128
 50
51.618272422158320
 51
68.381727577842284
  0
ARC
  8
0
  6
CONTINUOUS
 62
3
 10
-321.131772566370960
 20
-98.796928072153307
 40
0.999999999999885
 50
300.000000000003810
 51
46.260204708328693
  0
LINE
  8
0
  6
CONTINUOUS
 62
3
 10
-327.274077411784450
 20
-95.828016985398719
 11
-327.274077411784450
 21
-98.996256119070878
  0
ARC
  8
0
  6
CONTINUOUS
 62
3
 10
-326.274077411784450
 20
-95.828016985398719
 40
0.999999999999964
 50
73.739795291702634
 51
180.000000000000000
  0
ARC
  8
0
  6
CONTINUOUS
 62
3
 10
-329.774077411784450
 20
-107.828016985398710
 40
13.499999999999927
 50
46.260204708312145
 51
73.739795291689134
  0
ARC
  8
0
  6
CONTINUOUS
 62
3
 10
-329.774077411784450
 20
-107.828016985398710
 40
17.000000000000114
 50
41.212271417649760
 51
78.787728582349985
  0
ARC
  8
0
  6
CONTINUOUS
 62
3
 10
-329.774077411784450
 20
-107.828016985398710
 40
22.000000000000025
 50
39.594068226860820
 51
80.405931773138789
  0
ARC
  8
0
  6
CONTINUOUS
 62
3
 10
-329.774077411784450
 20
-107.828016985398710
 40
30.499999999999964
 50
36.813854344181067
 51
83.186145655818962
  0
ARC
  8
0
  6
CONTINUOUS
 62
3
 10
-329.774077411784450
 20
-107.828016985398710
 40
25.499999999999890
 50
37.589542391857961
 51
82.410457608141883
  0
ARC
  8
0
  6
CONTINUOUS
 62
3
 10
-329.774077411784450
 20
-107.828016985398710
 40
33.999999999999829
 50
35.739170477266640
 51
84.260829522733076
  0
ARC
  8
0
  6
CONTINUOUS
 62
3
 10
-329.774077411784450
 20
-107.828016985398710
 40
38.999999999999865
 50
35.284732954534789
 51
84.715267045465410
  0
ARC
  8
0
  6
CONTINUOUS
 62
3
 10
-302.656775623852580
 20
-96.213287382767405
 40
0.999999999999730
 50
23.186145655819850
 51
119.999999999997270
  0
LINE
  8
0
  6
CONTINUOUS
 62
3
 10
-303.156775623852580
 20
-95.347261978982871
 11
-305.775451079630100
 21
-96.859154958296060
  0
ARC
  8
0
  6
CONTINUOUS
 62
3
 10
-305.275451079630100
 20
-97.725180362080593
 40
1.000000000000082
 50
119.999999999997270
 51
202.410457608146060
  0
ARC
  8
0
  6
CONTINUOUS
 62
3
 10
-295.254998999354260
 20
-91.939869656131734
 40
1.000000000000248
 50
24.715267045455477
 51
119.999999999997270
  0
LINE
  8
0
  6
CONTINUOUS
 62
3
 10
-295.754998999354260
 20
-91.073844252347200
 11
-298.365123517460010
 21
-92.580800345493955
  0
ARC
  8
0
  6
CONTINUOUS
 62
3
 10
-297.865123517460010
 20
-93.446825749278261
 40
0.999999999999885
 50
120.000000000003780
 51
204.260829522745610
  0
ARC
  8
0
  6
CONTINUOUS
 62
3
 10
-320.375548141395260
 20
-106.443225465480430
 40
1.000000000000082
 50
119.999999999997270
 51
188.381727577832660
  0
LINE
  8
0
  6
CONTINUOUS
 62
3
 10
-318.131772566370960
 20
-103.993080494859820
 11
-320.875548141395260
 21
-105.577200061695900
  0
ARC
  8
0
  6
CONTINUOUS
 62
3
 10
-312.733148728411610
 20
-102.030884107139550
 40
1.000000000000082
 50
119.999999999997270
 51
198.787728582347000
  0
LINE
  8
0
  6
CONTINUOUS
 62
3
 10
-310.591913571355010
 20
-99.639940874435680
 11
-313.233148728411610
 21
-101.164858703355020
  0
ARC
  8
0
  6
CONTINUOUS
 62
3
 10
-310.091913571355010
 20
-100.505966278219980
 40
1.000000000000094
 50
20.405931773138686
 51
120.000000000003780
  0
ARC
  8
0
  6
CONTINUOUS
 62
3
 10
-320.375548141395260
 20
-109.212808505317220
 40
1.000000000000059
 50
171.618272422154460
 51
239.999999999996220
  0
ARC
  8
0
  6
CONTINUOUS
 62
3
 10
-329.774077411784450
 20
-107.828016985398710
 40
8.499999999999972
 50
351.618272422157820
 51
8.381727577842204
  0
ARC
  8
0
  6
CONTINUOUS
 62
3
 10
-317.631772566370960
 20
-104.859105898644130
 40
0.999999999999879
 50
13.739795291686027
 51
120.000000000003780
  0
LINE
  8
0
  6
CONTINUOUS
 62
3
 10
-318.131772566370960
 20
-111.662953475937610
 11
-320.875548141395260
 21
-110.078833909101530
  0
ARC
  8
0
  6
CONTINUOUS
 62
3
 10
-317.631772566370960
 20
-110.796928072153300
 40
0.999999999999885
 50
239.999999999996220
 51
346.260204708314010
  0
ARC
  8
0
  6
CONTINUOUS
 62
3
 10
-329.774077411784450
 20
-107.828016985398710
 40
13.500000000000130
 50
346.260204708311850
 51
13.739795291688171
  0
ARC
  8
0
  6
CONTINUOUS
 62
3
 10
-312.733148728411610
 20
-113.625149863657880
 40
0.999999999999646
 50
161.212271417644620
 51
239.999999999996220
  0
LINE
  8
0
  6
CONTINUOUS
 62
3
 10
-310.591913571355010
 20
-116.016093096361750
 11
-313.233148728411610
 21
-114.491175267442180
  0
ARC
  8
0
  6
CONTINUOUS
 62
3
 10
-329.774077411784450
 20
-107.828016985398710
 40
17.000000000000146
 50
341.212271417650070
 51
18.787728582350418
  0
ARC
  8
0
  6
CONTINUOUS
 62
3
 10
-310.091913571355010
 20
-115.150067692577450
 40
0.999999999999885
 50
239.999999999996220
 51
339.594068226861340
  0
ARC
  8
0
  6
CONTINUOUS
 62
3
 10
-305.275451079630100
 20
-117.930853608717070
 40
0.999999999999701
 50
157.589542391853940
 51
240.000000000002730
  0
ARC
  8
0
  6
CONTINUOUS
 62
3
 10
-297.865123517460010
 20
-122.209208221518960
 40
0.999999999999769
 50
155.739170477266270
 51
240.000000000002730
  0
ARC
  8
0
  6
CONTINUOUS
 62
3
 10
-329.774077411784450
 20
-107.828016985398710
 40
22.000000000000206
 50
339.594068226860770
 51
20.405931773139226
  0
LINE
  8
0
  6
CONTINUOUS
 62
3
 10
-303.156775623852580
 20
-120.308771991814560
 11
-305.775451079630100
 21
-118.796879012501600
  0
ARC
  8
0
  6
CONTINUOUS
 62
3
 10
-302.656775623852580
 20
-119.442746588030030
 40
1.000000000000082
 50
240.000000000002730
 51
336.813854344180130
  0
ARC
  8
0
  6
CONTINUOUS
 62
3
 10
-329.774077411784450
 20
-107.828016985398710
 40
30.499999999999947
 50
336.813854344181150
 51
23.186145655818844
  0
ARC
  8
0
  6
CONTINUOUS
 62
3
 10
-329.774077411784450
 20
-107.828016985398710
 40
25.500000000000085
 50
337.589542391857490
 51
22.410457608142021
  0
ARC
  8
0
  6
CONTINUOUS
 62
3
 10
-329.774077411784450
 20
-107.828016985398710
 40
34.000000000000007
 50
335.739170477266780
 51
24.260829522733218
  0
ARC
  8
0
  6
CONTINUOUS
 62
3
 10
-329.774077411784450
 20
-107.828016985398710
 40
39.000000000000227
 50
335.284732954534770
 51
24.715267045465190
  0
LINE
  8
0
  6
CONTINUOUS
 62
3
 10
-295.754998999354260
 20
-124.582189718450020
 11
-298.365123517460010
 21
-123.075233625303490
  0
ARC
  8
0
  6
CONTINUOUS
 62
3
 10
-295.254998999354260
 20
-123.716164314665710
 40
0.999999999999885
 50
239.999999999996220
 51
335.284732954544490
  0
CIRCLE
  8
0
  6
CONTINUOUS
 62
3
 10
-329.774077411784450
 20
-107.828016985398710
 40
5.000000000000000
  0
ARC
  8
0
  6
CONTINUOUS
 62
3
 10
-298.754998999354260
 20
-129.778342141157000
 40
0.999999999999776
 50
324.715267045465680
 51
60.000000000002721
  0
ARC
  8
0
  6
CONTINUOUS
 62
3
 10
-301.365123517460010
 20
-128.271386048010020
 40
0.999999999999885
 50
59.999999999996206
 51
144.260829522736490
  0
ARC
  8
0
  6
CONTINUOUS
 62
3
 10
-326.274077411784450
 20
-142.652577284130470
 40
0.999999999999973
 50
95.739170477261709
 51
180.000000000000000
  0
ARC
  8
0
  6
CONTINUOUS
 62
3
 10
-326.274077411784450
 20
-145.666489470423760
 40
1.000000000000000
 50
180.000000000000000
 51
275.284732954535740
  0
ARC
  8
0
  6
CONTINUOUS
 62
3
 10
-326.274077411784450
 20
-134.095868058526040
 40
0.999999999999975
 50
97.589542391854238
 51
180.000000000000000
  0
ARC
  8
0
  6
CONTINUOUS
 62
3
 10
-306.156775623852580
 20
-125.504924414520870
 40
0.999999999999911
 50
323.186145655802870
 51
59.999999999996206
  0
ARC
  8
0
  6
CONTINUOUS
 62
3
 10
-308.775451079629650
 20
-123.993031435207910
 40
1.000000000000082
 50
60.000000000002721
 51
142.410457608148220
  0
ARC
  8
0
  6
CONTINUOUS
 62
3
 10
-326.274077411784450
 20
-137.119654017152410
 40
1.000000000000000
 50
180.000000000000000
 51
276.813854344179670
  0
ARC
  8
0
  6
CONTINUOUS
 62
3
 10
-326.274077411784450
 20
-128.534296226247250
 40
1.000000000000000
 50
180.000000000000000
 51
279.594068226875490
  0
ARC
  8
0
  6
CONTINUOUS
 62
3
 10
-326.274077411784450
 20
-125.484460568408330
 40
0.999999999999982
 50
101.212271417644000
 51
180.000000000000000
  0
ARC
  8
0
  6
CONTINUOUS
 62
3
 10
-313.591913571355460
 20
-121.212245519068510
 40
1.000000000000318
 50
320.405931773139570
 51
59.999999999996611
  0
ARC
  8
0
  6
CONTINUOUS
 62
3
 10
-316.233148728411610
 20
-119.687327690149160
 40
1.000000000000082
 50
60.000000000002721
 51
138.787728582338990
  0
ARC
  8
0
  6
CONTINUOUS
 62
3
 10
-321.131772566370960
 20
-116.859105898644130
 40
0.999999999999858
 50
313.739795291671330
 51
59.999999999996206
  0
ARC
  8
0
  6
CONTINUOUS
 62
3
 10
-326.274077411784450
 20
-119.828016985398710
 40
1.000000000000000
 50
180.000000000000000
 51
286.260204708297350
  0
ARC
  8
0
  6
CONTINUOUS
 62
3
 10
-326.274077411784450
 20
-116.659777851726560
 40
1.000000000000090
 50
111.618272422161970
 51
180.000000000000000
  0
ARC
  8
0
  6
CONTINUOUS
 62
3
 10
-323.875548141395260
 20
-115.274986331808050
 40
0.999999999999885
 50
59.999999999996206
 51
128.381727577840220
  0
ARC
  8
0
  6
CONTINUOUS
 62
3
 10
-329.774077411784450
 20
-107.828016985398710
 40
39.000000000000000
 50
275.284732954534600
 51
324.715267045465170
  0
ARC
  8
0
  6
CONTINUOUS
 62
3
 10
-329.774077411784450
 20
-107.828016985398710
 40
30.500000000000149
 50
276.813854344181040
 51
323.186145655818900
  0
ARC
  8
0
  6
CONTINUOUS
 62
3
 10
-329.774077411784450
 20
-107.828016985398710
 40
34.000000000000085
 50
275.739170477266950
 51
324.260829522733050
  0
ARC
  8
0
  6
CONTINUOUS
 62
3
 10
-329.774077411784450
 20
-107.828016985398710
 40
25.499999999999950
 50
277.589542391858170
 51
322.410457608142000
  0
ARC
  8
0
  6
CONTINUOUS
 62
3
 10
-329.774077411784450
 20
-107.828016985398710
 40
22.000000000000146
 50
279.594068226861170
 51
320.405931773139120
  0
ARC
  8
0
  6
CONTINUOUS
 62
3
 10
-329.774077411784450
 20
-107.828016985398710
 40
17.000000000000060
 50
281.212271417650020
 51
318.787728582350210
  0
ARC
  8
0
  6
CONTINUOUS
 62
3
 10
-329.774077411784450
 20
-107.828016985398710
 40
13.499999999999963
 50
286.260204708310820
 51
313.739795291687870
  0
ARC
  8
0
  6
CONTINUOUS
 62
3
 10
-329.774077411784450
 20
-107.828016985398710
 40
8.499999999999904
 50
291.618272422157700
 51
308.381727577842640
  0
LINE
  8
0
  6
CONTINUOUS
 62
3
 10
-305.656775623852580
 20
-124.638899010736560
 11
-308.275451079629650
 21
-123.127006031423370
  0
LINE
  8
0
  6
CONTINUOUS
 62
3
 10
-327.274077411784450
 20
-145.666489470423760
 11
-327.274077411784450
 21
-142.652577284130470
  0
LINE
  8
0
  6
CONTINUOUS
 62
3
 10
-298.254998999354260
 20
-128.912316737372460
 11
-300.865123517460010
 21
-127.405360644225700
  0
LINE
  8
0
  6
CONTINUOUS
 62
3
 10
-313.091913571355460
 20
-120.346220115284190
 11
-315.733148728411610
 21
-118.821302286364620
  0
LINE
  8
0
  6
CONTINUOUS
 62
3
 10
-320.631772566370960
 20
-115.993080494859820
 11
-323.375548141395260
 21
-114.408960928023740
  0
LINE
  8
0
  6
CONTINUOUS
 62
3
 10
-327.274077411784450
 20
-119.828016985398710
 11
-327.274077411784450
 21
-116.659777851726560
  0
LINE
  8
0
  6
CONTINUOUS
 62
3
 10
-327.274077411784450
 20
-128.534296226247250
 11
-327.274077411784450
 21
-125.484460568408330
  0
LINE
  8
0
  6
CONTINUOUS
 62
3
 10
-327.274077411784450
 20
-137.119654017152410
 11
-327.274077411784450
 21
-134.095868058526040
  0
LINE
  8
0
  6
CONTINUOUS
 62
3
 10
-341.416382257197940
 20
-103.993080494859820
 11
-338.672606682173640
 21
-105.577200061695900
  0
ARC
  8
0
  6
CONTINUOUS
 62
3
 10
-339.172606682173640
 20
-106.443225465480430
 40
1.000000000000026
 50
351.618272422167310
 51
60.000000000002721
  0
ARC
  8
0
  6
CONTINUOUS
 62
3
 10
-329.774077411784450
 20
-107.828016985398710
 40
38.999999999999986
 50
95.284732954534590
 51
144.715267045465200
  0
ARC
  8
0
  6
CONTINUOUS
 62
3
 10
-329.774077411784450
 20
-107.828016985398710
 40
34.000000000000071
 50
95.739170477266924
 51
144.260829522733360
  0
ARC
  8
0
  6
CONTINUOUS
 62
3
 10
-329.774077411784450
 20
-107.828016985398710
 40
25.500000000000160
 50
97.589542391858117
 51
142.410457608142050
  0
ARC
  8
0
  6
CONTINUOUS
 62
3
 10
-329.774077411784450
 20
-107.828016985398710
 40
30.500000000000135
 50
96.813854344181038
 51
143.186145655818930
  0
ARC
  8
0
  6
CONTINUOUS
 62
3
 10
-329.774077411784450
 20
-107.828016985398710
 40
22.000000000000131
 50
99.594068226861211
 51
140.405931773139200
  0
ARC
  8
0
  6
CONTINUOUS
 62
3
 10
-329.774077411784450
 20
-107.828016985398710
 40
17.000000000000046
 50
101.212271417650010
 51
138.787728582350240
  0
ARC
  8
0
  6
CONTINUOUS
 62
3
 10
-329.774077411784450
 20
-107.828016985398710
 40
13.499999999999963
 50
106.260204708310860
 51
133.739795291687870
  0
ARC
  8
0
  6
CONTINUOUS
 62
3
 10
-333.274077411784450
 20
-95.828016985398719
 40
1.000000000000000
 50
0.000000000000000
 51
106.260204708297360
  0
LINE
  8
0
  6
CONTINUOUS
 62
3
 10
-332.274077411784450
 20
-95.828016985398719
 11
-332.274077411784450
 21
-98.996256119070878
  0
ARC
  8
0
  6
CONTINUOUS
 62
3
 10
-338.416382257197940
 20
-98.796928072153307
 40
0.999999999999858
 50
133.739795291671300
 51
239.999999999996220
  0
ARC
  8
0
  6
CONTINUOUS
 62
3
 10
-329.774077411784450
 20
-107.828016985398710
 40
8.499999999999904
 50
111.618272422157710
 51
128.381727577841670
  0
ARC
  8
0
  6
CONTINUOUS
 62
3
 10
-333.274077411784450
 20
-98.996256119070878
 40
1.000000000000090
 50
291.618272422161970
 51
0.000000000000000
  0
LINE
  8
0
  6
CONTINUOUS
 62
3
 10
-338.916382257197940
 20
-99.662953475937613
 11
-336.172606682173640
 21
-101.247073042773690
  0
ARC
  8
0
  6
CONTINUOUS
 62
3
 10
-335.672606682173640
 20
-100.381047638989150
 40
1.000000000000082
 50
240.000000000002730
 51
308.381727577840190
  0
ARC
  8
0
  6
CONTINUOUS
 62
3
 10
-333.274077411784450
 20
-69.989544500373697
 40
1.000000000000000
 50
0.000000000000000
 51
95.284732954535698
  0
LINE
  8
0
  6
CONTINUOUS
 62
3
 10
-332.274077411784450
 20
-69.989544500373697
 11
-332.274077411784450
 21
-73.003456686666979
  0
ARC
  8
0
  6
CONTINUOUS
 62
3
 10
-333.274077411784450
 20
-73.003456686666979
 40
0.999999999999973
 50
275.739170477261670
 51
0.000000000000000
  0
ARC
  8
0
  6
CONTINUOUS
 62
3
 10
-333.274077411784450
 20
-78.536379953645039
 40
1.000000000000000
 50
0.000000000000000
 51
96.813854344179688
  0
LINE
  8
0
  6
CONTINUOUS
 62
3
 10
-332.274077411784450
 20
-78.536379953645039
 11
-332.274077411784450
 21
-81.560165912271188
  0
ARC
  8
0
  6
CONTINUOUS
 62
3
 10
-333.274077411784450
 20
-81.560165912271415
 40
0.999999999999749
 50
277.589542391855960
 51
0.000000000013028
  0
ARC
  8
0
  6
CONTINUOUS
 62
3
 10
-333.274077411784450
 20
-87.121737744550202
 40
1.000000000000000
 50
0.000000000000000
 51
99.594068226875478
  0
LINE
  8
0
  6
CONTINUOUS
 62
3
 10
-332.274077411784450
 20
-87.121737744550202
 11
-332.274077411784450
 21
-90.171573402389114
  0
ARC
  8
0
  6
CONTINUOUS
 62
3
 10
-333.274077411784450
 20
-90.171573402389114
 40
0.999999999999982
 50
281.212271417643990
 51
0.000000000000000
  0
LINE
  8
0
  6
CONTINUOUS
 62
3
 10
-341.416382257197940
 20
-111.662953475937610
 11
-338.672606682173640
 21
-110.078833909101530
  0
ARC
  8
0
  6
CONTINUOUS
 62
3
 10
-329.774077411784450
 20
-107.828016985398710
 40
8.499999999999972
 50
171.618272422157790
 51
188.381727577842210
  0
ARC
  8
0
  6
CONTINUOUS
 62
3
 10
-339.172606682173640
 20
-109.212808505317220
 40
0.999999999999885
 50
300.000000000003810
 51
8.381727577845549
  0
LINE
  8
0
  6
CONTINUOUS
 62
3
 10
-332.274077411784450
 20
-137.119654017152410
 11
-332.274077411784450
 21
-134.095868058526040
  0
LINE
  8
0
  6
CONTINUOUS
 62
3
 10
-332.274077411784450
 20
-128.534296226247250
 11
-332.274077411784450
 21
-125.484460568408330
  0
LINE
  8
0
  6
CONTINUOUS
 62
3
 10
-332.274077411784450
 20
-119.828016985398710
 11
-332.274077411784450
 21
-116.659777851726560
  0
LINE
  8
0
  6
CONTINUOUS
 62
3
 10
-338.916382257197940
 20
-115.993080494859820
 11
-336.172606682173640
 21
-114.408960928023740
  0
ARC
  8
0
  6
CONTINUOUS
 62
3
 10
-329.774077411784450
 20
-107.828016985398710
 40
8.499999999999948
 50
231.618272422157330
 51
248.381727577842330
  0
ARC
  8
0
  6
CONTINUOUS
 62
3
 10
-329.774077411784450
 20
-107.828016985398710
 40
13.499999999999927
 50
226.260204708312130
 51
253.739795291689150
  0
ARC
  8
0
  6
CONTINUOUS
 62
3
 10
-329.774077411784450
 20
-107.828016985398710
 40
16.999999999999773
 50
221.212271417650780
 51
258.787728582349980
  0
ARC
  8
0
  6
CONTINUOUS
 62
3
 10
-329.774077411784450
 20
-107.828016985398710
 40
22.000000000000036
 50
219.594068226860860
 51
260.405931773138780
  0
ARC
  8
0
  6
CONTINUOUS
 62
3
 10
-329.774077411784450
 20
-107.828016985398710
 40
25.499999999999897
 50
217.589542391858000
 51
262.410457608141830
  0
ARC
  8
0
  6
CONTINUOUS
 62
3
 10
-329.774077411784450
 20
-107.828016985398710
 40
33.999999999999972
 50
215.739170477266980
 51
264.260829522733050
  0
ARC
  8
0
  6
CONTINUOUS
 62
3
 10
-329.774077411784450
 20
-107.828016985398710
 40
30.499999999999972
 50
216.813854344181070
 51
263.186145655818960
  0
ARC
  8
0
  6
CONTINUOUS
 62
3
 10
-329.774077411784450
 20
-107.828016985398710
 40
38.999999999999872
 50
215.284732954534800
 51
264.715267045465400
  0
ARC
  8
0
  6
CONTINUOUS
 62
3
 10
-335.672606682173640
 20
-115.274986331808050
 40
0.999999999999961
 50
51.618272422159777
 51
120.000000000003780
  0
ARC
  8
0
  6
CONTINUOUS
 62
3
 10
-333.274077411784450
 20
-116.659777851726560
 40
1.000000000000000
 50
0.000000000000000
 51
68.381727577838021
  0
ARC
  8
0
  6
CONTINUOUS
 62
3
 10
-333.274077411784450
 20
-119.828016985398710
 40
0.999999999999964
 50
253.739795291702650
 51
0.000000000000000
  0
ARC
  8
0
  6
CONTINUOUS
 62
3
 10
-338.416382257197940
 20
-116.859105898644130
 40
0.999999999999885
 50
120.000000000003780
 51
226.260204708328700
  0
ARC
  8
0
  6
CONTINUOUS
 62
3
 10
-333.274077411784450
 20
-125.484460568408330
 40
1.000000000000000
 50
0.000000000000000
 51
78.787728582355996
  0
ARC
  8
0
  6
CONTINUOUS
 62
3
 10
-333.274077411784450
 20
-128.534296226247250
 40
1.000000000000268
 50
260.405931773124510
 51
0.000000000000000
  0
ARC
  8
0
  6
CONTINUOUS
 62
3
 10
-333.274077411784450
 20
-134.095868058526040
 40
1.000000000000000
 50
0.000000000000000
 51
82.410457608145762
  0
LINE
  8
0
  6
CONTINUOUS
 62
3
 10
-332.274077411784450
 20
-145.666489470423760
 11
-332.274077411784450
 21
-142.652577284130470
  0
ARC
  8
0
  6
CONTINUOUS
 62
3
 10
-333.274077411784450
 20
-137.119654017152410
 40
1.000000000000077
 50
263.186145655820330
 51
0.000000000000000
  0
ARC
  8
0
  6
CONTINUOUS
 62
3
 10
-333.274077411784450
 20
-145.666489470423760
 40
1.000000000000042
 50
264.715267045464260
 51
0.000000000000000
  0
ARC
  8
0
  6
CONTINUOUS
 62
3
 10
-333.274077411784450
 20
-142.652577284130470
 40
1.000000000000000
 50
0.000000000000000
 51
84.260829522738291
  0
ARC
  8
0
  6
CONTINUOUS
 62
3
 10
-329.774077411784450
 20
-454.428016985398930
 40
400.599999999999970
 50
84.256318189006564
 51
90.000000000000000
  0
ARC
  8
0
  6
CONTINUOUS
 62
3
 10
-290.343210411697100
 20
-62.406070243100359
 40
6.600000000000278
 50
44.999999999997215
 51
84.256318189004901
  0
ARC
  8
0
  6
CONTINUOUS
 62
4
 10
-329.774077411784450
 20
-454.428016985398930
 40
390.797000000000140
 50
84.582036237639471
 51
90.000000000000000
  0
ARC
  8
0
  6
CONTINUOUS
 62
4
 10
-293.158112472766110
 20
-68.363534909431948
 40
3.000000000000346
 50
44.999999999996930
 51
84.582036237634313
  0
ARC
  8
0
  6
CONTINUOUS
 62
4
 10
-293.158112472766110
 20
-147.292499061365500
 40
3.000000000000067
 50
275.417963762365730
 51
315.000000000003070
  0
ARC
  8
0
  6
CONTINUOUS
 62
4
 10
-329.774077411784450
 20
238.771983014601400
 40
390.797000000000030
 50
270.000000000000000
 51
275.417963762360500
  0
ARC
  8
0
  6
CONTINUOUS
 62
4
 10
-302.402186824265070
 20
-131.367814643310740
 40
20.797000000000015
 50
315.000000000000000
 51
354.998349729064670
  0
LINE
  8
0
  6
CONTINUOUS
 62
4
 10
-287.696487095928430
 20
-146.073514371647380
 11
-291.036792129206110
 21
-149.413819404925280
  0
ARC
  8
0
  6
CONTINUOUS
 62
4
 10
-571.374077411784810
 20
-107.828016985398710
 40
290.797000000000140
 50
354.998349729065010
 51
0.000000000000000
  0
ARC
  8
0
  6
CONTINUOUS
 62
4
 10
-329.774077411784450
 20
238.771983014601400
 40
390.797000000000030
 50
264.582036237639500
 51
270.000000000000000
  0
ARC
  8
0
  6
CONTINUOUS
 62
4
 10
-329.774077411784450
 20
-454.428016985398930
 40
390.797000000000080
 50
90.000000000000000
 51
95.417963762360529
  0
ARC
  8
0
  6
CONTINUOUS
 62
3
 10
-292.784010173638080
 20
-79.764260354383097
 40
20.599999999999916
 50
5.752282731536487
 51
44.999999999997321
  0
LINE
  8
0
  6
CONTINUOUS
 62
3
 10
-278.217610481194470
 20
-65.197860661940851
 11
-285.676305655865460
 21
-57.739165487269176
  0
ARC
  8
0
  6
CONTINUOUS
 62
3
 10
-571.374077411784810
 20
-107.828016985398710
 40
300.600000000000360
 50
0.000000000000000
 51
5.752282731536604
  0
LINE
  8
0
  6
CONTINUOUS
 62
3
 10
-272.472628351883260
 20
-76.328016985398719
 11
-272.274077411784450
 21
-76.328016985398719
  0
LINE
  8
0
  6
CONTINUOUS
 62
3
 10
-272.274077411784450
 20
-77.835517923136578
 11
-272.274077411784450
 21
-76.328016985398719
  0
ARC
  8
0
  6
CONTINUOUS
 62
4
 10
-292.784010173638080
 20
-79.764260354383097
 40
10.797000000000011
 50
5.752282731536912
 51
44.999999999998295
  0
LINE
  8
0
  6
CONTINUOUS
 62
4
 10
-285.149378257166750
 20
-72.129628437912217
 11
-291.036792129206110
 21
-66.242214565872175
  0
ARC
  8
0
  6
CONTINUOUS
 62
4
 10
-571.374077411784810
 20
-107.828016985398710
 40
290.797000000000480
 50
0.000000000000000
 51
5.752282731536624
  0
ARC
  8
0
  6
CONTINUOUS
 62
3
 10
-571.374077411784810
 20
-107.828016985398710
 40
300.599999999999910
 50
354.247717268463420
 51
0.000000000000000
  0
LINE
  8
0
  6
CONTINUOUS
 62
3
 10
-278.217610481194470
 20
-150.458173308856600
 11
-285.676305655865460
 21
-157.916868483528280
  0
ARC
  8
0
  6
CONTINUOUS
 62
3
 10
-292.784010173638080
 20
-135.891773616414350
 40
20.600000000000069
 50
315.000000000002670
 51
354.247717268463480
  0
ARC
  8
0
  6
CONTINUOUS
 62
3
 10
-329.774077411784450
 20
238.771983014601400
 40
400.599999999999910
 50
270.000000000000000
 51
275.743681810993450
  0
ARC
  8
0
  6
CONTINUOUS
 62
3
 10
-290.343210411697100
 20
-153.249963727697090
 40
6.600000000000009
 50
275.743681810995100
 51
315.000000000002790
  0
ARC
  8
0
  6
CONTINUOUS
 62
3
 10
-329.774077411784450
 20
238.771983014601400
 40
400.599999999999910
 50
264.256318189006550
 51
270.000000000000000
  0
ARC
  8
0
  6
CONTINUOUS
 62
3
 10
-329.774077411784450
 20
-454.428016985398930
 40
400.599999999999970
 50
90.000000000000000
 51
95.743681810993436
  0
LINE
  8
0
  6
CONTINUOUS
 62
3
 10
-272.274077411784450
 20
-139.328016985398730
 11
-272.274077411784450
 21
-137.816002839828970
  0
LINE
  8
0
  6
CONTINUOUS
 62
3
 10
-272.472628351883260
 20
-139.328016985398730
 11
-272.274077411784450
 21
-139.328016985398730
  0
LINE
  8
0
  6
DASHDOT
 62
4
 10
-254.591656109041200
 20
-181.510438288142440
 11
-239.306673209231800
 21
-196.795421187952170
  0
LINE
  8
0
  6
DASHDOT
 62
4
 10
-224.492821248779140
 20
-107.828016985398660
 11
-440.490428170250880
 21
-107.828016985398830
  0
LINE
  8
0
  6
DASHDOT
 62
4
 10
-351.983142263357650
 20
-106.328016985398710
 11
-307.287903342606800
 21
-106.328016985398710
  0
LINE
  8
0
  6
DASHDOT
 62
4
 10
-329.774077411784450
 20
-4.215159584466150
 11
-329.774077411784450
 21
-215.401949602208330
  0
LINE
  8
0
  6
CONTINUOUS
 62
3
 10
-272.274077411784450
 20
-71.828016985398946
 11
-244.907412638842060
 21
-71.828016985398946
  0
LINE
  8
0
  6
CONTINUOUS
 62
3
 10
-272.274077411784450
 20
-143.828016985398730
 11
-244.907412638842060
 21
-143.828016985398730
  0
LINE
  8
0
  6
CONTINUOUS
 62
3
 10
-237.774077411784450
 20
-105.328016985398490
 11
-238.284494259302160
 21
-105.328016985398490
  0
LINE
  8
0
  6
CONTINUOUS
 62
3
 10
-237.774077411784450
 20
-110.328016985398710
 11
-237.774077411784450
 21
-105.328016985398710
  0
LINE
  8
0
  6
CONTINUOUS
 62
3
 10
-237.774077411784450
 20
-110.328016985398710
 11
-238.284494259302160
 21
-110.328016985398710
  0
ARC
  8
0
  6
CONTINUOUS
 62
3
 10
-244.907412638842060
 20
-138.828016985398730
 40
5.000000000000000
 50
270.000000000000000
 51
353.967950853629650
  0
ARC
  8
0
  6
CONTINUOUS
 62
3
 10
-244.907412638842060
 20
-76.828016985398946
 40
5.000000000000143
 50
6.032049146370342
 51
90.000000000000000
  0
ARC
  8
0
  6
CONTINUOUS
 62
3
 10
-538.274077411784450
 20
-107.828016985398710
 40
300.000000000000060
 50
353.967950853630210
 51
6.032049146369772
  0
LINE
  8
0
  6
CONTINUOUS
 62
3
 10
-272.274077411784450
 20
-77.840031130968484
 11
-272.274077411784450
 21
-71.828016985398946
  0
LINE
  8
0
  6
CONTINUOUS
 62
3
 10
-273.774116928586640
 20
-71.828016985398946
 11
-272.274077411784450
 21
-71.828016985398946
  0
LINE
  8
0
  6
CONTINUOUS
 62
3
 10
-273.774116928586640
 20
-143.828016985398510
 11
-272.274077411784450
 21
-143.828016985398510
  0
LINE
  8
0
  6
CONTINUOUS
 62
3
 10
-272.274077411784450
 20
-143.828016985398730
 11
-272.274077411784450
 21
-137.820516047661100
  0
LINE
  8
0
  6
DASHDOT
 62
4
 10
36.414387998593156
 20
-107.828016985398670
 11
-221.050648829281270
 21
-107.828016985398670
  0
ENDSEC
  0
EOF
