  0
SECTION
  2
HEADER
  9
$FILLMODE
 70
1
  9
$TEXTSTYLE
  7
STANDARD1
  9
$ACADVER
  1
AC1009
  9
$DIMASZ
 40
1.931851648807023
  9
$DIMEXE
 40
2.000000000000000
  9
$DIMEXO
 40
1.000000000000000
  9
$DIMLFAC
 40
1.000000000000000
  9
$DIMSCALE
 40
1.000000000000000
  9
$DIMTAD
 70
1
  9
$DIMTFAC
 40
0.714285731315613
  9
$DIMTXT
 40
2.799999952316284
  9
$LUPREC
 70
3
  9
$TEXTSIZE
 40
2.799999952316284
  9
$REGENMODE
 70
1
  0
ENDSEC
  0
SECTION
  2
TABLES
  0
TABLE
  2
LTYPE
 70
4
  0
LTYPE
  2
CONTINUOUS
 70
64
  3
Solid line
 72
65
 73
0
 40
0.0
  0
LTYPE
  2
DASHED
 70
64
  3
-- -- -- -- -- -- -- -- -- -- -- -- -- -- --
 72
65
 73
2
 40
0.75
 49
0.5
 49
-0.25
  0
LTYPE
  2
DASHDOT
 70
64
  3
__ . __ . __ . __ . __ . __ . __ . __ . __ . __
 72
65
 73
4
 40
1.0
 49
0.5
 49
-0.25
 49
0.0
 49
-0.25
  0
LTYPE
  2
DIVIDE
 70
64
  3
__ . . __ . . __ . . __ . . __ . . __ . . __
 72
65
 73
6
 40
1.25
 49
0.5
 49
-0.25
 49
0.0
 49
-0.25
 49
0.0
 49
-0.25
  0
ENDTAB
  0
TABLE
  2
LAYER
 70
1
  0
LAYER
  2
0
 70
64
 62
2
  6
CONTINUOUS
  0
ENDTAB
  0
TABLE
  2
STYLE
 70
4
  0
STYLE
  2
STANDARD1
 70
64
 40
0.0
 41
1.0
 50
0.0
 71
0
 42
2.799999952316284
  3
MONOTXT
  4
BIGFONT
  0
STYLE
  2
STANDARD2
 70
68
 40
0.0
 41
1.0
 50
0.0
 71
0
 42
2.799999952316284
  3
MONOTXT
  4
BIGFONT
  0
STYLE
  2
STANDARD3
 70
64
 40
0.0
 41
1.0
 50
0.0
 71
0
 42
2.799999952316284
  3
MONOTXT
  4

  0
STYLE
  2
STANDARD4
 70
68
 40
0.0
 41
1.0
 50
0.0
 71
0
 42
2.799999952316284
  3
MONOTXT
  4

  0
ENDTAB
  0
TABLE
  2
VIEW
 70
0
  0
ENDTAB
  0
ENDSEC
  0
SECTION
  2
BLOCKS
  0
BLOCK
  8
0
  2
SYM1
 70
64
 10
0.000000000000000
 20
0.000000000000000
  0
POINT
  8
0
  6
CONTINUOUS
 62
3
 10
0.000000000000000
 20
0.000000000000000
  0
LINE
  8
0
  6
CONTINUOUS
 62
3
 10
0.000000000000000
 20
-6.500000000000000
 11
-0.000000000000000
 21
6.500000000000000
  0
LINE
  8
0
  6
CONTINUOUS
 62
3
 10
-7.999999046325684
 20
5.633875846862793
 11
-7.999999046325684
 21
-5.634070396423340
  0
LINE
  8
0
  6
CONTINUOUS
 62
3
 10
0.000000000000000
 20
6.500000000000000
 11
-7.499999046325684
 21
6.500000000000000
  0
LINE
  8
0
  6
CONTINUOUS
 62
3
 10
-0.000000000000000
 20
-6.500000000000000
 11
-7.499998092651367
 21
-6.500000000000000
  0
LINE
  8
0
  6
CONTINUOUS
 62
3
 10
-7.499999203818277
 20
6.499999909101064
 11
-7.999999021366804
 21
5.633876130311293
  0
LINE
  8
0
  6
CONTINUOUS
 62
3
 10
-7.499997911632022
 20
-6.499999445138201
 11
-7.999998623386432
 21
-5.634070287011241
  0
LINE
  8
0
  6
CONTINUOUS
 62
3
 10
-7.499999046325684
 20
6.500000000000000
 11
-7.499999046325684
 21
-6.500000000000000
  0
ENDBLK
  8
0
  0
BLOCK
  8
0
  2
SYM2
 70
64
 10
0.000000000000000
 20
0.000000000000000
  0
POINT
  8
0
  6
CONTINUOUS
 62
3
 10
0.000000000000000
 20
0.000000000000000
  0
LINE
  8
0
  6
CONTINUOUS
 62
3
 10
0.000000000000000
 20
-6.500000000000000
 11
-0.000000000000000
 21
6.500000000000000
  0
LINE
  8
0
  6
CONTINUOUS
 62
3
 10
-7.999999046325684
 20
5.633875846862793
 11
-7.999999046325684
 21
-5.634070396423340
  0
LINE
  8
0
  6
CONTINUOUS
 62
3
 10
0.000000000000000
 20
6.500000000000000
 11
-7.499999046325684
 21
6.500000000000000
  0
LINE
  8
0
  6
CONTINUOUS
 62
3
 10
-0.000000000000000
 20
-6.500000000000000
 11
-7.499998092651367
 21
-6.500000000000000
  0
LINE
  8
0
  6
CONTINUOUS
 62
3
 10
-7.499999203818277
 20
6.499999909101064
 11
-7.999999021366804
 21
5.633876130311293
  0
LINE
  8
0
  6
CONTINUOUS
 62
3
 10
-7.499997911632022
 20
-6.499999445138201
 11
-7.999998623386432
 21
-5.634070287011241
  0
LINE
  8
0
  6
CONTINUOUS
 62
3
 10
-7.499999046325684
 20
6.500000000000000
 11
-7.499999046325684
 21
-6.500000000000000
  0
ENDBLK
  8
0
  0
BLOCK
  8
0
  2
SYM3
 70
64
 10
0.000000000000000
 20
0.000000000000000
  0
ARC
  8
0
  6
CONTINUOUS
 62
3
 10
2.040000915527344
 20
-0.000008403939319
 40
5.539999008178711
 50
155.470186567177590
 51
204.529249714844780
  0
ARC
  8
0
  6
CONTINUOUS
 62
3
 10
-1.929986000061035
 20
3.450007438659668
 40
1.569999694824219
 50
179.999745461767870
 51
227.099746430935310
  0
ARC
  8
0
  6
CONTINUOUS
 62
3
 10
-1.930013656616211
 20
-3.449991226196289
 40
1.569999694824219
 50
132.899744492600430
 51
179.999745461767870
  0
LINE
  8
0
  6
CONTINUOUS
 62
3
 10
-2.999989096318101
 20
2.300010681148706
 11
0.000009475023974
 21
2.300000190729854
  0
LINE
  8
0
  6
CONTINUOUS
 62
3
 10
-3.000007597599688
 20
-2.299985885626180
 11
-0.000008155921205
 21
-2.299998283391806
  0
LINE
  8
0
  6
CONTINUOUS
 62
3
 10
0.000018950048186
 20
4.600000381469727
 11
-0.000018950048186
 21
-4.600000381469727
  0
LINE
  8
0
  6
CONTINUOUS
 62
3
 10
-2.999979146307184
 20
4.600011825551216
 11
0.000019104623546
 21
4.600001335133485
  0
LINE
  8
0
  6
CONTINUOUS
 62
3
 10
-3.499965125831864
 20
3.900000017678906
 11
-2.999963510759926
 21
4.599997551336457
  0
LINE
  8
0
  6
CONTINUOUS
 62
3
 10
-3.500011920918244
 20
-3.899979774771439
 11
-3.499980449679529
 21
3.900009925545944
  0
LINE
  8
0
  6
CONTINUOUS
 62
3
 10
-2.999996095884057
 20
-4.599969847145871
 11
-3.499991138206155
 21
-3.899966512616629
  0
LINE
  8
0
  6
CONTINUOUS
 62
3
 10
-0.000017659877873
 20
-4.599998474126673
 11
-3.000017102555891
 21
-4.599986076361044
  0
POINT
  8
0
  6
CONTINUOUS
 62
3
 10
0.000000000000000
 20
0.000000000000000
  0
ENDBLK
  8
0
  0
BLOCK
  8
0
  2
SYM4
 70
64
 10
0.000000000000000
 20
0.000000000000000
  0
ARC
  8
0
  6
CONTINUOUS
 62
3
 10
2.040000915527344
 20
-0.000008403939319
 40
5.539999008178711
 50
155.470186567177590
 51
204.529249714844780
  0
ARC
  8
0
  6
CONTINUOUS
 62
3
 10
-1.929986000061035
 20
3.450007438659668
 40
1.569999694824219
 50
179.999745461767870
 51
227.099746430935310
  0
ARC
  8
0
  6
CONTINUOUS
 62
3
 10
-1.930013656616211
 20
-3.449991226196289
 40
1.569999694824219
 50
132.899744492600430
 51
179.999745461767870
  0
LINE
  8
0
  6
CONTINUOUS
 62
3
 10
-2.999989096318101
 20
2.300010681148706
 11
0.000009475023974
 21
2.300000190729854
  0
LINE
  8
0
  6
CONTINUOUS
 62
3
 10
-3.000007597599688
 20
-2.299985885626180
 11
-0.000008155921205
 21
-2.299998283391806
  0
LINE
  8
0
  6
CONTINUOUS
 62
3
 10
0.000018950048186
 20
4.600000381469727
 11
-0.000018950048186
 21
-4.600000381469727
  0
LINE
  8
0
  6
CONTINUOUS
 62
3
 10
-2.999979146307184
 20
4.600011825551216
 11
0.000019104623546
 21
4.600001335133485
  0
LINE
  8
0
  6
CONTINUOUS
 62
3
 10
-3.499965125831864
 20
3.900000017678906
 11
-2.999963510759926
 21
4.599997551336457
  0
LINE
  8
0
  6
CONTINUOUS
 62
3
 10
-3.500011920918244
 20
-3.899979774771439
 11
-3.499980449679529
 21
3.900009925545944
  0
LINE
  8
0
  6
CONTINUOUS
 62
3
 10
-2.999996095884057
 20
-4.599969847145871
 11
-3.499991138206155
 21
-3.899966512616629
  0
LINE
  8
0
  6
CONTINUOUS
 62
3
 10
-0.000017659877873
 20
-4.599998474126673
 11
-3.000017102555891
 21
-4.599986076361044
  0
POINT
  8
0
  6
CONTINUOUS
 62
3
 10
0.000000000000000
 20
0.000000000000000
  0
ENDBLK
  8
0
  0
BLOCK
  8
0
  2
SYM5
 70
64
 10
0.000000000000000
 20
0.000000000000000
  0
POINT
  8
0
  6
CONTINUOUS
 62
3
 10
0.000000000000000
 20
0.000000000000000
  0
LINE
  8
0
  6
CONTINUOUS
 62
3
 10
0.000000000000000
 20
-6.500000000000000
 11
-0.000000000000000
 21
6.500000000000000
  0
LINE
  8
0
  6
CONTINUOUS
 62
3
 10
-7.999999046325684
 20
5.633875846862793
 11
-7.999999046325684
 21
-5.634070396423340
  0
LINE
  8
0
  6
CONTINUOUS
 62
3
 10
0.000000000000000
 20
6.500000000000000
 11
-7.499999046325684
 21
6.500000000000000
  0
LINE
  8
0
  6
CONTINUOUS
 62
3
 10
-0.000000000000000
 20
-6.500000000000000
 11
-7.499998092651367
 21
-6.500000000000000
  0
LINE
  8
0
  6
CONTINUOUS
 62
3
 10
-7.499999203818277
 20
6.499999909101064
 11
-7.999999021366804
 21
5.633876130311293
  0
LINE
  8
0
  6
CONTINUOUS
 62
3
 10
-7.499997911632022
 20
-6.499999445138201
 11
-7.999998623386432
 21
-5.634070287011241
  0
LINE
  8
0
  6
CONTINUOUS
 62
3
 10
-7.499999046325684
 20
6.500000000000000
 11
-7.499999046325684
 21
-6.500000000000000
  0
ENDBLK
  8
0
  0
BLOCK
  8
0
  2
SYM6
 70
64
 10
0.000000000000000
 20
0.000000000000000
  0
POINT
  8
0
  6
CONTINUOUS
 62
3
 10
0.000000000000000
 20
0.000000000000000
  0
LINE
  8
0
  6
CONTINUOUS
 62
3
 10
0.000000000000000
 20
-6.500000000000000
 11
-0.000000000000000
 21
6.500000000000000
  0
LINE
  8
0
  6
CONTINUOUS
 62
3
 10
-7.999999046325684
 20
5.633875846862793
 11
-7.999999046325684
 21
-5.634070396423340
  0
LINE
  8
0
  6
CONTINUOUS
 62
3
 10
0.000000000000000
 20
6.500000000000000
 11
-7.499999046325684
 21
6.500000000000000
  0
LINE
  8
0
  6
CONTINUOUS
 62
3
 10
-0.000000000000000
 20
-6.500000000000000
 11
-7.499998092651367
 21
-6.500000000000000
  0
LINE
  8
0
  6
CONTINUOUS
 62
3
 10
-7.499999203818277
 20
6.499999909101064
 11
-7.999999021366804
 21
5.633876130311293
  0
LINE
  8
0
  6
CONTINUOUS
 62
3
 10
-7.499997911632022
 20
-6.499999445138201
 11
-7.999998623386432
 21
-5.634070287011241
  0
LINE
  8
0
  6
CONTINUOUS
 62
3
 10
-7.499999046325684
 20
6.500000000000000
 11
-7.499999046325684
 21
-6.500000000000000
  0
ENDBLK
  8
0
  0
BLOCK
  8
0
  2
SYM7
 70
64
 10
0.000000000000000
 20
0.000000000000000
  0
ARC
  8
0
  6
CONTINUOUS
 62
3
 10
2.040000915527344
 20
-0.000008403939319
 40
5.539999008178711
 50
155.470186567177590
 51
204.529249714844780
  0
ARC
  8
0
  6
CONTINUOUS
 62
3
 10
-1.929986000061035
 20
3.450007438659668
 40
1.569999694824219
 50
179.999745461767870
 51
227.099746430935310
  0
ARC
  8
0
  6
CONTINUOUS
 62
3
 10
-1.930013656616211
 20
-3.449991226196289
 40
1.569999694824219
 50
132.899744492600430
 51
179.999745461767870
  0
LINE
  8
0
  6
CONTINUOUS
 62
3
 10
-2.999989096318101
 20
2.300010681148706
 11
0.000009475023974
 21
2.300000190729854
  0
LINE
  8
0
  6
CONTINUOUS
 62
3
 10
-3.000007597599688
 20
-2.299985885626180
 11
-0.000008155921205
 21
-2.299998283391806
  0
LINE
  8
0
  6
CONTINUOUS
 62
3
 10
0.000018950048186
 20
4.600000381469727
 11
-0.000018950048186
 21
-4.600000381469727
  0
LINE
  8
0
  6
CONTINUOUS
 62
3
 10
-2.999979146307184
 20
4.600011825551216
 11
0.000019104623546
 21
4.600001335133485
  0
LINE
  8
0
  6
CONTINUOUS
 62
3
 10
-3.499965125831864
 20
3.900000017678906
 11
-2.999963510759926
 21
4.599997551336457
  0
LINE
  8
0
  6
CONTINUOUS
 62
3
 10
-3.500011920918244
 20
-3.899979774771439
 11
-3.499980449679529
 21
3.900009925545944
  0
LINE
  8
0
  6
CONTINUOUS
 62
3
 10
-2.999996095884057
 20
-4.599969847145871
 11
-3.499991138206155
 21
-3.899966512616629
  0
LINE
  8
0
  6
CONTINUOUS
 62
3
 10
-0.000017659877873
 20
-4.599998474126673
 11
-3.000017102555891
 21
-4.599986076361044
  0
POINT
  8
0
  6
CONTINUOUS
 62
3
 10
0.000000000000000
 20
0.000000000000000
  0
ENDBLK
  8
0
  0
BLOCK
  8
0
  2
SYM8
 70
64
 10
0.000000000000000
 20
0.000000000000000
  0
ARC
  8
0
  6
CONTINUOUS
 62
3
 10
2.040000915527344
 20
-0.000008403939319
 40
5.539999008178711
 50
155.470186567177590
 51
204.529249714844780
  0
ARC
  8
0
  6
CONTINUOUS
 62
3
 10
-1.929986000061035
 20
3.450007438659668
 40
1.569999694824219
 50
179.999745461767870
 51
227.099746430935310
  0
ARC
  8
0
  6
CONTINUOUS
 62
3
 10
-1.930013656616211
 20
-3.449991226196289
 40
1.569999694824219
 50
132.899744492600430
 51
179.999745461767870
  0
LINE
  8
0
  6
CONTINUOUS
 62
3
 10
-2.999989096318101
 20
2.300010681148706
 11
0.000009475023974
 21
2.300000190729854
  0
LINE
  8
0
  6
CONTINUOUS
 62
3
 10
-3.000007597599688
 20
-2.299985885626180
 11
-0.000008155921205
 21
-2.299998283391806
  0
LINE
  8
0
  6
CONTINUOUS
 62
3
 10
0.000018950048186
 20
4.600000381469727
 11
-0.000018950048186
 21
-4.600000381469727
  0
LINE
  8
0
  6
CONTINUOUS
 62
3
 10
-2.999979146307184
 20
4.600011825551216
 11
0.000019104623546
 21
4.600001335133485
  0
LINE
  8
0
  6
CONTINUOUS
 62
3
 10
-3.499965125831864
 20
3.900000017678906
 11
-2.999963510759926
 21
4.599997551336457
  0
LINE
  8
0
  6
CONTINUOUS
 62
3
 10
-3.500011920918244
 20
-3.899979774771439
 11
-3.499980449679529
 21
3.900009925545944
  0
LINE
  8
0
  6
CONTINUOUS
 62
3
 10
-2.999996095884057
 20
-4.599969847145871
 11
-3.499991138206155
 21
-3.899966512616629
  0
LINE
  8
0
  6
CONTINUOUS
 62
3
 10
-0.000017659877873
 20
-4.599998474126673
 11
-3.000017102555891
 21
-4.599986076361044
  0
POINT
  8
0
  6
CONTINUOUS
 62
3
 10
0.000000000000000
 20
0.000000000000000
  0
ENDBLK
  8
0
  0
BLOCK
  8
0
  2
SYM9
 70
64
 10
0.000000000000000
 20
0.000000000000000
  0
POINT
  8
0
  6
CONTINUOUS
 62
3
 10
0.000000000000000
 20
0.000000000000000
  0
LINE
  8
0
  6
CONTINUOUS
 62
3
 10
0.000000000000000
 20
-6.500000000000000
 11
-0.000000000000000
 21
6.500000000000000
  0
LINE
  8
0
  6
CONTINUOUS
 62
3
 10
-7.999999046325684
 20
5.633875846862793
 11
-7.999999046325684
 21
-5.634070396423340
  0
LINE
  8
0
  6
CONTINUOUS
 62
3
 10
0.000000000000000
 20
6.500000000000000
 11
-7.499999046325684
 21
6.500000000000000
  0
LINE
  8
0
  6
CONTINUOUS
 62
3
 10
-0.000000000000000
 20
-6.500000000000000
 11
-7.499998092651367
 21
-6.500000000000000
  0
LINE
  8
0
  6
CONTINUOUS
 62
3
 10
-7.499999203818277
 20
6.499999909101064
 11
-7.999999021366804
 21
5.633876130311293
  0
LINE
  8
0
  6
CONTINUOUS
 62
3
 10
-7.499997911632022
 20
-6.499999445138201
 11
-7.999998623386432
 21
-5.634070287011241
  0
LINE
  8
0
  6
CONTINUOUS
 62
3
 10
-7.499999046325684
 20
6.500000000000000
 11
-7.499999046325684
 21
-6.500000000000000
  0
ENDBLK
  8
0
  0
BLOCK
  8
0
  2
SYM10
 70
64
 10
0.000000000000000
 20
0.000000000000000
  0
POINT
  8
0
  6
CONTINUOUS
 62
3
 10
0.000000000000000
 20
0.000000000000000
  0
LINE
  8
0
  6
CONTINUOUS
 62
3
 10
0.000000000000000
 20
-6.500000000000000
 11
-0.000000000000000
 21
6.500000000000000
  0
LINE
  8
0
  6
CONTINUOUS
 62
3
 10
-7.999999046325684
 20
5.633875846862793
 11
-7.999999046325684
 21
-5.634070396423340
  0
LINE
  8
0
  6
CONTINUOUS
 62
3
 10
0.000000000000000
 20
6.500000000000000
 11
-7.499999046325684
 21
6.500000000000000
  0
LINE
  8
0
  6
CONTINUOUS
 62
3
 10
-0.000000000000000
 20
-6.500000000000000
 11
-7.499998092651367
 21
-6.500000000000000
  0
LINE
  8
0
  6
CONTINUOUS
 62
3
 10
-7.499999203818277
 20
6.499999909101064
 11
-7.999999021366804
 21
5.633876130311293
  0
LINE
  8
0
  6
CONTINUOUS
 62
3
 10
-7.499997911632022
 20
-6.499999445138201
 11
-7.999998623386432
 21
-5.634070287011241
  0
LINE
  8
0
  6
CONTINUOUS
 62
3
 10
-7.499999046325684
 20
6.500000000000000
 11
-7.499999046325684
 21
-6.500000000000000
  0
ENDBLK
  8
0
  0
BLOCK
  8
0
  2
SYM11
 70
64
 10
0.000000000000000
 20
0.000000000000000
  0
POINT
  8
0
  6
CONTINUOUS
 62
3
 10
0.000000000000000
 20
0.000000000000000
  0
LINE
  8
0
  6
CONTINUOUS
 62
3
 10
0.000000000000000
 20
-6.500000000000000
 11
-0.000000000000000
 21
6.500000000000000
  0
LINE
  8
0
  6
CONTINUOUS
 62
3
 10
-7.999999046325684
 20
5.633875846862793
 11
-7.999999046325684
 21
-5.634070396423340
  0
LINE
  8
0
  6
CONTINUOUS
 62
3
 10
0.000000000000000
 20
6.500000000000000
 11
-7.499999046325684
 21
6.500000000000000
  0
LINE
  8
0
  6
CONTINUOUS
 62
3
 10
-0.000000000000000
 20
-6.500000000000000
 11
-7.499998092651367
 21
-6.500000000000000
  0
LINE
  8
0
  6
CONTINUOUS
 62
3
 10
-7.499999203818277
 20
6.499999909101064
 11
-7.999999021366804
 21
5.633876130311293
  0
LINE
  8
0
  6
CONTINUOUS
 62
3
 10
-7.499997911632022
 20
-6.499999445138201
 11
-7.999998623386432
 21
-5.634070287011241
  0
LINE
  8
0
  6
CONTINUOUS
 62
3
 10
-7.499999046325684
 20
6.500000000000000
 11
-7.499999046325684
 21
-6.500000000000000
  0
ENDBLK
  8
0
  0
BLOCK
  8
0
  2
SYM12
 70
64
 10
0.000000000000000
 20
0.000000000000000
  0
POINT
  8
0
  6
CONTINUOUS
 62
3
 10
0.000000000000000
 20
0.000000000000000
  0
LINE
  8
0
  6
CONTINUOUS
 62
3
 10
0.000000000000000
 20
-6.500000000000000
 11
-0.000000000000000
 21
6.500000000000000
  0
LINE
  8
0
  6
CONTINUOUS
 62
3
 10
-7.999999046325684
 20
5.633875846862793
 11
-7.999999046325684
 21
-5.634070396423340
  0
LINE
  8
0
  6
CONTINUOUS
 62
3
 10
0.000000000000000
 20
6.500000000000000
 11
-7.499999046325684
 21
6.500000000000000
  0
LINE
  8
0
  6
CONTINUOUS
 62
3
 10
-0.000000000000000
 20
-6.500000000000000
 11
-7.499998092651367
 21
-6.500000000000000
  0
LINE
  8
0
  6
CONTINUOUS
 62
3
 10
-7.499999203818277
 20
6.499999909101064
 11
-7.999999021366804
 21
5.633876130311293
  0
LINE
  8
0
  6
CONTINUOUS
 62
3
 10
-7.499997911632022
 20
-6.499999445138201
 11
-7.999998623386432
 21
-5.634070287011241
  0
LINE
  8
0
  6
CONTINUOUS
 62
3
 10
-7.499999046325684
 20
6.500000000000000
 11
-7.499999046325684
 21
-6.500000000000000
  0
ENDBLK
  8
0
  0
BLOCK
  8
0
  2
SYM13
 70
64
 10
0.000000000000000
 20
0.000000000000000
  0
CIRCLE
  8
0
  6
CONTINUOUS
 62
3
 10
0.000000000000000
 20
0.000000000000000
 40
5.633955001831055
  0
CIRCLE
  8
0
  6
CONTINUOUS
 62
3
 10
0.000000000000000
 20
0.000000000000000
 40
6.500000000000000
  0
POINT
  8
0
  6
CONTINUOUS
 62
3
 10
0.000000000000000
 20
0.000000000000000
  0
LINE
  8
0
  6
CONTINUOUS
 62
3
 10
-2.999996662140960
 20
-1.732045999551255
 11
-2.999997615815242
 21
1.732051977133316
  0
LINE
  8
0
  6
CONTINUOUS
 62
3
 10
2.999996662140697
 20
1.732046953225571
 11
2.999997615814979
 21
-1.732051023458999
  0
LINE
  8
0
  6
CONTINUOUS
 62
3
 10
0.000006701720849
 20
3.464096999935236
 11
-2.999997939551520
 21
1.732051821705568
  0
LINE
  8
0
  6
CONTINUOUS
 62
3
 10
2.999998112093635
 20
-1.732051392778772
 11
-0.000004464412200
 21
-3.464098365415111
  0
LINE
  8
0
  6
CONTINUOUS
 62
3
 10
0.000006618601731
 20
3.464096896385627
 11
2.999997425948948
 21
1.732046782136365
  0
LINE
  8
0
  6
CONTINUOUS
 62
3
 10
-0.000004704988612
 20
-3.464098175748802
 11
-2.999997577100373
 21
-1.732046218032735
  0
POINT
  8
0
  6
CONTINUOUS
 62
3
 10
0.500000119209290
 20
6.500000000000000
  0
POINT
  8
0
  6
CONTINUOUS
 62
3
 10
0.000000000000000
 20
5.633955001831055
  0
ENDBLK
  8
0
  0
BLOCK
  8
0
  2
SYM14
 70
64
 10
0.000000000000000
 20
0.000000000000000
  0
CIRCLE
  8
0
  6
CONTINUOUS
 62
3
 10
0.000000000000000
 20
0.000000000000000
 40
5.633955001831055
  0
CIRCLE
  8
0
  6
CONTINUOUS
 62
3
 10
0.000000000000000
 20
0.000000000000000
 40
6.500000000000000
  0
POINT
  8
0
  6
CONTINUOUS
 62
3
 10
0.000000000000000
 20
0.000000000000000
  0
LINE
  8
0
  6
CONTINUOUS
 62
3
 10
-2.999996662140960
 20
-1.732045999551255
 11
-2.999997615815242
 21
1.732051977133316
  0
LINE
  8
0
  6
CONTINUOUS
 62
3
 10
2.999996662140697
 20
1.732046953225571
 11
2.999997615814979
 21
-1.732051023458999
  0
LINE
  8
0
  6
CONTINUOUS
 62
3
 10
0.000006701720849
 20
3.464096999935236
 11
-2.999997939551520
 21
1.732051821705568
  0
LINE
  8
0
  6
CONTINUOUS
 62
3
 10
2.999998112093635
 20
-1.732051392778772
 11
-0.000004464412200
 21
-3.464098365415111
  0
LINE
  8
0
  6
CONTINUOUS
 62
3
 10
0.000006618601731
 20
3.464096896385627
 11
2.999997425948948
 21
1.732046782136365
  0
LINE
  8
0
  6
CONTINUOUS
 62
3
 10
-0.000004704988612
 20
-3.464098175748802
 11
-2.999997577100373
 21
-1.732046218032735
  0
POINT
  8
0
  6
CONTINUOUS
 62
3
 10
0.500000119209290
 20
6.500000000000000
  0
POINT
  8
0
  6
CONTINUOUS
 62
3
 10
0.000000000000000
 20
5.633955001831055
  0
ENDBLK
  8
0
  0
BLOCK
  8
0
  2
SYM15
 70
64
 10
0.000000000000000
 20
0.000000000000000
  0
CIRCLE
  8
0
  6
CONTINUOUS
 62
3
 10
0.000000000000000
 20
0.000000000000000
 40
5.633955001831055
  0
CIRCLE
  8
0
  6
CONTINUOUS
 62
3
 10
0.000000000000000
 20
0.000000000000000
 40
6.500000000000000
  0
POINT
  8
0
  6
CONTINUOUS
 62
3
 10
0.000000000000000
 20
0.000000000000000
  0
LINE
  8
0
  6
CONTINUOUS
 62
3
 10
-2.999996662140960
 20
-1.732045999551255
 11
-2.999997615815242
 21
1.732051977133316
  0
LINE
  8
0
  6
CONTINUOUS
 62
3
 10
2.999996662140697
 20
1.732046953225571
 11
2.999997615814979
 21
-1.732051023458999
  0
LINE
  8
0
  6
CONTINUOUS
 62
3
 10
0.000006701720849
 20
3.464096999935236
 11
-2.999997939551520
 21
1.732051821705568
  0
LINE
  8
0
  6
CONTINUOUS
 62
3
 10
2.999998112093635
 20
-1.732051392778772
 11
-0.000004464412200
 21
-3.464098365415111
  0
LINE
  8
0
  6
CONTINUOUS
 62
3
 10
0.000006618601731
 20
3.464096896385627
 11
2.999997425948948
 21
1.732046782136365
  0
LINE
  8
0
  6
CONTINUOUS
 62
3
 10
-0.000004704988612
 20
-3.464098175748802
 11
-2.999997577100373
 21
-1.732046218032735
  0
POINT
  8
0
  6
CONTINUOUS
 62
3
 10
0.500000119209290
 20
6.500000000000000
  0
POINT
  8
0
  6
CONTINUOUS
 62
3
 10
0.000000000000000
 20
5.633955001831055
  0
ENDBLK
  8
0
  0
BLOCK
  8
0
  2
SYM16
 70
64
 10
0.000000000000000
 20
0.000000000000000
  0
CIRCLE
  8
0
  6
CONTINUOUS
 62
3
 10
0.000000000000000
 20
0.000000000000000
 40
5.633955001831055
  0
CIRCLE
  8
0
  6
CONTINUOUS
 62
3
 10
0.000000000000000
 20
0.000000000000000
 40
6.500000000000000
  0
POINT
  8
0
  6
CONTINUOUS
 62
3
 10
0.000000000000000
 20
0.000000000000000
  0
LINE
  8
0
  6
CONTINUOUS
 62
3
 10
-2.999996662140960
 20
-1.732045999551255
 11
-2.999997615815242
 21
1.732051977133316
  0
LINE
  8
0
  6
CONTINUOUS
 62
3
 10
2.999996662140697
 20
1.732046953225571
 11
2.999997615814979
 21
-1.732051023458999
  0
LINE
  8
0
  6
CONTINUOUS
 62
3
 10
0.000006701720849
 20
3.464096999935236
 11
-2.999997939551520
 21
1.732051821705568
  0
LINE
  8
0
  6
CONTINUOUS
 62
3
 10
2.999998112093635
 20
-1.732051392778772
 11
-0.000004464412200
 21
-3.464098365415111
  0
LINE
  8
0
  6
CONTINUOUS
 62
3
 10
0.000006618601731
 20
3.464096896385627
 11
2.999997425948948
 21
1.732046782136365
  0
LINE
  8
0
  6
CONTINUOUS
 62
3
 10
-0.000004704988612
 20
-3.464098175748802
 11
-2.999997577100373
 21
-1.732046218032735
  0
POINT
  8
0
  6
CONTINUOUS
 62
3
 10
0.500000119209290
 20
6.500000000000000
  0
POINT
  8
0
  6
CONTINUOUS
 62
3
 10
0.000000000000000
 20
5.633955001831055
  0
ENDBLK
  8
0
  0
BLOCK
  8
0
  2
SYM17
 70
64
 10
0.000000000000000
 20
0.000000000000000
  0
CIRCLE
  8
0
  6
CONTINUOUS
 62
3
 10
0.000000000000000
 20
0.000000000000000
 40
5.633955001831055
  0
CIRCLE
  8
0
  6
CONTINUOUS
 62
3
 10
0.000000000000000
 20
0.000000000000000
 40
6.500000000000000
  0
POINT
  8
0
  6
CONTINUOUS
 62
3
 10
0.000000000000000
 20
0.000000000000000
  0
LINE
  8
0
  6
CONTINUOUS
 62
3
 10
-2.999996662140960
 20
-1.732045999551255
 11
-2.999997615815242
 21
1.732051977133316
  0
LINE
  8
0
  6
CONTINUOUS
 62
3
 10
2.999996662140697
 20
1.732046953225571
 11
2.999997615814979
 21
-1.732051023458999
  0
LINE
  8
0
  6
CONTINUOUS
 62
3
 10
0.000006701720849
 20
3.464096999935236
 11
-2.999997939551520
 21
1.732051821705568
  0
LINE
  8
0
  6
CONTINUOUS
 62
3
 10
2.999998112093635
 20
-1.732051392778772
 11
-0.000004464412200
 21
-3.464098365415111
  0
LINE
  8
0
  6
CONTINUOUS
 62
3
 10
0.000006618601731
 20
3.464096896385627
 11
2.999997425948948
 21
1.732046782136365
  0
LINE
  8
0
  6
CONTINUOUS
 62
3
 10
-0.000004704988612
 20
-3.464098175748802
 11
-2.999997577100373
 21
-1.732046218032735
  0
POINT
  8
0
  6
CONTINUOUS
 62
3
 10
0.500000119209290
 20
6.500000000000000
  0
POINT
  8
0
  6
CONTINUOUS
 62
3
 10
0.000000000000000
 20
5.633955001831055
  0
ENDBLK
  8
0
  0
BLOCK
  8
0
  2
SYM18
 70
64
 10
0.000000000000000
 20
0.000000000000000
  0
POINT
  8
0
  6
CONTINUOUS
 62
3
 10
0.000000000000000
 20
0.000000000000000
  0
LINE
  8
0
  6
CONTINUOUS
 62
3
 10
3.999993333512748
 20
-2.300001902428903
 11
-0.000004858421221
 21
-4.599995671750889
  0
LINE
  8
0
  6
CONTINUOUS
 62
3
 10
-0.000007291900715
 20
-4.600000131531601
 11
-4.000000535118602
 21
-2.299995435993480
  0
LINE
  8
0
  6
CONTINUOUS
 62
3
 10
-4.000000476834402
 20
-2.299992229627764
 11
-3.999995708466355
 21
2.300002429796065
  0
LINE
  8
0
  6
CONTINUOUS
 62
3
 10
-3.999993333512748
 20
2.300001902428903
 11
0.000004858421221
 21
4.599995671750889
  0
LINE
  8
0
  6
CONTINUOUS
 62
3
 10
0.000007291900715
 20
4.600000131531601
 11
4.000000535118602
 21
2.299995435993480
  0
LINE
  8
0
  6
CONTINUOUS
 62
3
 10
4.000000476834402
 20
2.299992229627764
 11
3.999995708466355
 21
-2.300002429796065
  0
CIRCLE
  8
0
  6
CONTINUOUS
 62
3
 10
0.000000000000000
 20
0.000000000000000
 40
4.000000000000000
  0
ENDBLK
  8
0
  0
BLOCK
  8
0
  2
SYM19
 70
64
 10
0.000000000000000
 20
0.000000000000000
  0
POINT
  8
0
  6
CONTINUOUS
 62
3
 10
0.000000000000000
 20
0.000000000000000
  0
LINE
  8
0
  6
CONTINUOUS
 62
3
 10
3.999993333512748
 20
-2.300001902428903
 11
-0.000004858421221
 21
-4.599995671750889
  0
LINE
  8
0
  6
CONTINUOUS
 62
3
 10
-0.000007291900715
 20
-4.600000131531601
 11
-4.000000535118602
 21
-2.299995435993480
  0
LINE
  8
0
  6
CONTINUOUS
 62
3
 10
-4.000000476834402
 20
-2.299992229627764
 11
-3.999995708466355
 21
2.300002429796065
  0
LINE
  8
0
  6
CONTINUOUS
 62
3
 10
-3.999993333512748
 20
2.300001902428903
 11
0.000004858421221
 21
4.599995671750889
  0
LINE
  8
0
  6
CONTINUOUS
 62
3
 10
0.000007291900715
 20
4.600000131531601
 11
4.000000535118602
 21
2.299995435993480
  0
LINE
  8
0
  6
CONTINUOUS
 62
3
 10
4.000000476834402
 20
2.299992229627764
 11
3.999995708466355
 21
-2.300002429796065
  0
CIRCLE
  8
0
  6
CONTINUOUS
 62
3
 10
0.000000000000000
 20
0.000000000000000
 40
4.000000000000000
  0
ENDBLK
  8
0
  0
BLOCK
  8
0
  2
SYM20
 70
64
 10
0.000000000000000
 20
0.000000000000000
  0
CIRCLE
  8
0
  6
CONTINUOUS
 62
3
 10
0.000000000000000
 20
0.000000000000000
 40
5.633955001831055
  0
CIRCLE
  8
0
  6
CONTINUOUS
 62
3
 10
0.000000000000000
 20
0.000000000000000
 40
6.500000000000000
  0
POINT
  8
0
  6
CONTINUOUS
 62
3
 10
0.000000000000000
 20
0.000000000000000
  0
LINE
  8
0
  6
CONTINUOUS
 62
3
 10
-2.999996662140960
 20
-1.732045999551255
 11
-2.999997615815242
 21
1.732051977133316
  0
LINE
  8
0
  6
CONTINUOUS
 62
3
 10
2.999996662140697
 20
1.732046953225571
 11
2.999997615814979
 21
-1.732051023458999
  0
LINE
  8
0
  6
CONTINUOUS
 62
3
 10
0.000006701720849
 20
3.464096999935236
 11
-2.999997939551520
 21
1.732051821705568
  0
LINE
  8
0
  6
CONTINUOUS
 62
3
 10
2.999998112093635
 20
-1.732051392778772
 11
-0.000004464412200
 21
-3.464098365415111
  0
LINE
  8
0
  6
CONTINUOUS
 62
3
 10
0.000006618601731
 20
3.464096896385627
 11
2.999997425948948
 21
1.732046782136365
  0
LINE
  8
0
  6
CONTINUOUS
 62
3
 10
-0.000004704988612
 20
-3.464098175748802
 11
-2.999997577100373
 21
-1.732046218032735
  0
POINT
  8
0
  6
CONTINUOUS
 62
3
 10
0.500000119209290
 20
6.500000000000000
  0
POINT
  8
0
  6
CONTINUOUS
 62
3
 10
0.000000000000000
 20
5.633955001831055
  0
ENDBLK
  8
0
  0
BLOCK
  8
0
  2
SYM21
 70
64
 10
0.000000000000000
 20
0.000000000000000
  0
CIRCLE
  8
0
  6
CONTINUOUS
 62
3
 10
0.000000000000000
 20
0.000000000000000
 40
5.633955001831055
  0
CIRCLE
  8
0
  6
CONTINUOUS
 62
3
 10
0.000000000000000
 20
0.000000000000000
 40
6.500000000000000
  0
POINT
  8
0
  6
CONTINUOUS
 62
3
 10
0.000000000000000
 20
0.000000000000000
  0
LINE
  8
0
  6
CONTINUOUS
 62
3
 10
-2.999996662140960
 20
-1.732045999551255
 11
-2.999997615815242
 21
1.732051977133316
  0
LINE
  8
0
  6
CONTINUOUS
 62
3
 10
2.999996662140697
 20
1.732046953225571
 11
2.999997615814979
 21
-1.732051023458999
  0
LINE
  8
0
  6
CONTINUOUS
 62
3
 10
0.000006701720849
 20
3.464096999935236
 11
-2.999997939551520
 21
1.732051821705568
  0
LINE
  8
0
  6
CONTINUOUS
 62
3
 10
2.999998112093635
 20
-1.732051392778772
 11
-0.000004464412200
 21
-3.464098365415111
  0
LINE
  8
0
  6
CONTINUOUS
 62
3
 10
0.000006618601731
 20
3.464096896385627
 11
2.999997425948948
 21
1.732046782136365
  0
LINE
  8
0
  6
CONTINUOUS
 62
3
 10
-0.000004704988612
 20
-3.464098175748802
 11
-2.999997577100373
 21
-1.732046218032735
  0
POINT
  8
0
  6
CONTINUOUS
 62
3
 10
0.500000119209290
 20
6.500000000000000
  0
POINT
  8
0
  6
CONTINUOUS
 62
3
 10
0.000000000000000
 20
5.633955001831055
  0
ENDBLK
  8
0
  0
ENDSEC
  0
SECTION
  2
ENTITIES
  0
ARC
  8
0
  6
DASHDOT
 62
4
 10
-366.201821218868870
 20
-132.321345641394490
 40
140.000000000000000
 50
128.482317748483270
 51
141.479657587948880
  0
LINE
  8
0
  6
DASHDOT
 62
4
 10
-453.468641888903680
 20
-45.054524971359655
 11
-473.812490478067560
 21
-24.710676382195714
  0
CIRCLE
  8
0
  6
CONTINUOUS
 62
3
 10
-465.196770584985530
 20
-33.326396275277801
 40
7.500000000000000
  0
ARC
  8
0
  6
DASHDOT
 62
4
 10
-366.201821218868870
 20
-132.321345641394490
 40
140.000000000000000
 50
218.520342412051120
 51
231.517682251516730
  0
LINE
  8
0
  6
DASHDOT
 62
4
 10
-453.468641888903680
 20
-219.588166311429320
 11
-473.812490478067560
 21
-239.932014900593260
  0
CIRCLE
  8
0
  6
CONTINUOUS
 62
3
 10
-465.196770584985530
 20
-231.316295007511170
 40
7.500000000000000
  0
ARC
  8
0
  6
DASHDOT
 62
4
 10
-366.201821218868870
 20
-132.321345641394490
 40
140.000000000000000
 50
308.482317748483240
 51
321.479657587948910
  0
LINE
  8
0
  6
DASHDOT
 62
4
 10
-278.935000548834070
 20
-219.588166311429290
 11
-258.591151959670130
 21
-239.932014900593230
  0
CIRCLE
  8
0
  6
CONTINUOUS
 62
3
 10
-267.206871852752220
 20
-231.316295007511140
 40
7.500000000000000
  0
CIRCLE
  8
0
  6
CONTINUOUS
 62
3
 10
-267.206871852752220
 20
-33.326396275277830
 40
7.500000000000000
  0
LINE
  8
0
  6
DASHDOT
 62
4
 10
-278.935000548834070
 20
-45.054524971359669
 11
-258.591151959670130
 21
-24.710676382195729
  0
ARC
  8
0
  6
DASHDOT
 62
4
 10
-366.201821218868870
 20
-132.321345641394490
 40
139.999999999999970
 50
38.520342412051107
 51
51.517682251516725
  0
POINT
  8
0
  6
DASHDOT
 62
4
 10
-366.201821218868870
 20
-132.321345641394490
  0
ARC
  8
0
  6
CONTINUOUS
 62
3
 10
-411.032391280965780
 20
-92.990775579297363
 40
6.099999427795419
 50
84.601927898108485
 51
185.398089404735120
  0
POINT
  8
0
  6
CONTINUOUS
 62
3
 10
-413.295132845892790
 20
-90.728034014370323
  0
LINE
  8
0
  6
CONTINUOUS
 62
3
 10
-416.618534582599640
 20
-94.051435751077179
 11
-409.971731109185950
 21
-87.404632277663467
  0
LINE
  8
0
  6
CONTINUOUS
 62
3
 10
-416.931673191568450
 20
-93.798888800226806
 11
-410.254573889095520
 21
-87.121789497753895
  0
LINE
  8
0
  6
CONTINUOUS
 62
3
 10
-409.971731109185950
 20
-87.404632277663467
 11
-410.458534500891570
 21
-86.917828885957846
  0
LINE
  8
0
  6
CONTINUOUS
 62
3
 10
-416.618534582599640
 20
-94.051435751077179
 11
-417.105337974305260
 21
-93.564632359371558
  0
ARC
  8
0
  6
CONTINUOUS
 62
3
 10
-411.032391280965780
 20
-182.651915703491370
 40
6.099999427795398
 50
174.601910595264880
 51
275.398072101891500
  0
POINT
  8
0
  6
CONTINUOUS
 62
3
 10
-413.295132845892790
 20
-184.914657268418410
  0
LINE
  8
0
  6
CONTINUOUS
 62
3
 10
-416.618534582599640
 20
-181.591255531711540
 11
-409.971731109185950
 21
-188.238059005125280
  0
LINE
  8
0
  6
CONTINUOUS
 62
3
 10
-416.931673191568450
 20
-181.843802482561930
 11
-410.254573889095520
 21
-188.520901785034850
  0
LINE
  8
0
  6
CONTINUOUS
 62
3
 10
-409.971731109185950
 20
-188.238059005125280
 11
-410.458534500891570
 21
-188.724862396830870
  0
LINE
  8
0
  6
CONTINUOUS
 62
3
 10
-416.618534582599640
 20
-181.591255531711540
 11
-417.105337974305260
 21
-182.078058923417160
  0
ARC
  8
0
  6
CONTINUOUS
 62
3
 10
-321.371251156771960
 20
-182.651915703491370
 40
6.099999427795406
 50
264.601927898108500
 51
5.398089404735109
  0
POINT
  8
0
  6
CONTINUOUS
 62
3
 10
-319.108509591844950
 20
-184.914657268418410
  0
LINE
  8
0
  6
CONTINUOUS
 62
3
 10
-315.785107855138110
 20
-181.591255531711540
 11
-322.431911328551790
 21
-188.238059005125280
  0
LINE
  8
0
  6
CONTINUOUS
 62
3
 10
-315.471969246169290
 20
-181.843802482561930
 11
-322.149068548642220
 21
-188.520901785034850
  0
LINE
  8
0
  6
CONTINUOUS
 62
3
 10
-322.431911328551790
 20
-188.238059005125280
 11
-321.945107936846170
 21
-188.724862396830870
  0
LINE
  8
0
  6
CONTINUOUS
 62
3
 10
-315.785107855138110
 20
-181.591255531711540
 11
-315.298304463432490
 21
-182.078058923417160
  0
ARC
  8
0
  6
CONTINUOUS
 62
3
 10
-321.371251156771960
 20
-92.990775579297363
 40
6.099999427795398
 50
354.601910595264880
 51
95.398072101891515
  0
POINT
  8
0
  6
CONTINUOUS
 62
3
 10
-319.108509591844950
 20
-90.728034014370323
  0
LINE
  8
0
  6
CONTINUOUS
 62
3
 10
-315.785107855138110
 20
-94.051435751077179
 11
-322.431911328551790
 21
-87.404632277663467
  0
LINE
  8
0
  6
CONTINUOUS
 62
3
 10
-315.471969246169290
 20
-93.798888800226806
 11
-322.149068548642220
 21
-87.121789497753895
  0
LINE
  8
0
  6
CONTINUOUS
 62
3
 10
-322.431911328551790
 20
-87.404632277663467
 11
-321.945107936846170
 21
-86.917828885957846
  0
LINE
  8
0
  6
CONTINUOUS
 62
3
 10
-315.785107855138110
 20
-94.051435751077179
 11
-315.298304463432490
 21
-93.564632359371558
  0
INSERT
  8
0
  2
SYM1
 10
56.551737066243504
 20
-245.321345641397840
  0
INSERT
  8
0
  2
SYM2
 10
56.551737066243504
 20
-157.321345641397780
  0
INSERT
  8
0
  2
SYM3
 10
28.051737066244868
 20
-206.515519465555370
  0
INSERT
  8
0
  2
SYM4
 10
28.051737066244868
 20
-118.127171817237460
  0
INSERT
  8
0
  2
SYM5
 10
41.051737066247142
 20
-71.321345641397770
  0
INSERT
  8
0
  2
SYM6
 10
56.551737066243504
 20
-81.321345641397770
  0
INSERT
  8
0
  2
SYM7
 10
28.051729204931007
 20
94.027053164219069
  0
INSERT
  8
0
  2
SYM8
 10
28.051729204931007
 20
182.415400812537880
 41
-1.000000000000000
 50
180.000000000000000
  0
INSERT
  8
0
  2
SYM9
 10
41.051737066252599
 20
148.721226988378930
 41
-1.000000000000000
 50
179.999999999996310
  0
INSERT
  8
0
  2
SYM10
 10
56.551737066249871
 20
188.221226988378020
 41
-1.000000000000000
 50
179.999999999996310
  0
INSERT
  8
0
  2
SYM11
 10
41.051737066251690
 20
127.721226988379380
  0
INSERT
  8
0
  2
SYM12
 10
56.551737066246233
 20
88.221226988379385
  0
INSERT
  8
0
  2
SYM13
 10
-316.201821218868640
 20
-81.321345641394473
  0
INSERT
  8
0
  2
SYM14
 10
-314.201821218868640
 20
-245.321345641394490
  0
INSERT
  8
0
  2
SYM15
 10
-416.201821218868420
 20
-81.321345641394473
 41
-1.000000000000000
  0
INSERT
  8
0
  2
SYM16
 10
-450.201821218867960
 20
-157.321345641394490
 41
-1.000000000000000
  0
INSERT
  8
0
  2
SYM17
 10
-418.201821218868420
 20
-245.321345641394490
 41
-1.000000000000000
  0
INSERT
  8
0
  2
SYM18
 10
-410.395995043027820
 20
-206.515519465553440
  0
INSERT
  8
0
  2
SYM19
 10
-322.007647394709240
 20
-206.515519465553440
 41
-1.000000000000000
  0
INSERT
  8
0
  2
SYM20
 10
-376.701821218868420
 20
-71.321345641395894
 41
-1.000000000000000
  0
INSERT
  8
0
  2
SYM21
 10
-355.701821218868870
 20
-71.321345641395894
  0
TEXT
  8
0
  6
CONTINUOUS
 62
3
 10
-407.511932373046880
 20
154.984481811523440
 40
7.919999599456787
  1
Ｓ１９３
 50
0.000002504478167
 41
0.984848598876354
  7
STANDARD1
  0
TEXT
  8
0
  6
CONTINUOUS
 62
3
 10
-407.511932373046880
 20
142.264480590820310
 40
7.919999599456787
  1
三菱ギヤードモートル
 50
0.000002504478167
 41
0.984848598876354
  7
STANDARD1
  0
TEXT
  8
0
  6
CONTINUOUS
 62
3
 10
-407.511932373046880
 20
129.544479370117190
 40
7.919999599456787
  1
ＧＭ－ＳＦＳＢ
 50
0.000002504478167
 41
0.984848598876354
  7
STANDARD1
  0
TEXT
  8
0
  6
CONTINUOUS
 62
3
 10
-407.511932373046880
 20
116.824485778808590
 40
7.919999599456787
  1
０．１ｋＷ
 50
0.000002504478167
 41
0.984848598876354
  7
STANDARD1
  0
TEXT
  8
0
  6
CONTINUOUS
 62
3
 10
-407.511932373046880
 20
104.104484558105460
 40
7.919999599456787
  1
１／５４０～１／９００
 50
0.000002504478167
 41
0.984848598876354
  7
STANDARD1
  0
TEXT
  8
0
  6
CONTINUOUS
 62
3
 10
-407.511932373046880
 20
91.384483337402344
 40
7.919999599456787
  1
ＳＣＡＬＥ１／１
 50
0.000002504478167
 41
0.984848598876354
  7
STANDARD1
  0
LINE
  8
0
  6
DASHED
 62
3
 10
309.760596438673930
 20
-168.321345641396310
 11
309.760596438673930
 21
-169.821345641396310
  0
LINE
  8
0
  6
DASHDOT
 62
4
 10
258.760596438673930
 20
-240.821345641397840
 11
277.685764421134990
 21
-221.896177658936320
  0
LINE
  8
0
  6
DASHDOT
 62
4
 10
475.760596438673930
 20
-240.821345641397840
 11
456.835428456212410
 21
-221.896177658936320
  0
LINE
  8
0
  6
DASHDOT
 62
4
 10
475.760596438673930
 20
-23.821345641397784
 11
456.835428456212410
 21
-42.746513623859187
  0
CIRCLE
  8
0
  6
CONTINUOUS
 62
3
 10
367.260596438673930
 20
-132.321345641397780
 40
23.500000000000000
  0
CIRCLE
  8
0
  6
CONTINUOUS
 62
3
 10
367.260596438673930
 20
-132.321345641397780
 40
48.000000000000000
  0
ARC
  8
0
  6
CONTINUOUS
 62
3
 10
459.375820127823320
 20
-242.821345641397840
 40
1.999999999999695
 50
225.000000000018420
 51
270.000000000000000
  0
CIRCLE
  8
0
  6
CONTINUOUS
 62
3
 10
466.255545804790930
 20
-231.316295007514380
 40
7.500000000000000
  0
ARC
  8
0
  6
CONTINUOUS
 62
3
 10
477.760596438673930
 20
-224.436569330547680
 40
2.000000000000000
 50
0.000000000000000
 51
44.999999999990798
  0
ARC
  8
0
  6
CONTINUOUS
 62
3
 10
432.573890272499740
 20
-232.989978534550630
 40
9.999999999999437
 50
45.000000000001855
 51
122.975300819435740
  0
ARC
  8
0
  6
CONTINUOUS
 62
3
 10
367.260596438673930
 20
-132.321345641397780
 40
110.000000000000050
 50
270.000000000000000
 51
302.975300819434150
  0
ARC
  8
0
  6
CONTINUOUS
 62
3
 10
467.929229331826720
 20
-197.634639475223650
 40
9.999999999999902
 50
147.024699180564230
 51
224.999999999998180
  0
ARC
  8
0
  6
CONTINUOUS
 62
3
 10
275.145372749524090
 20
-242.821345641397840
 40
2.000000000000000
 50
270.000000000000000
 51
314.999999999990790
  0
CIRCLE
  8
0
  6
CONTINUOUS
 62
3
 10
268.265647072556930
 20
-231.316295007514380
 40
7.500000000000000
  0
ARC
  8
0
  6
CONTINUOUS
 62
3
 10
256.760596438673930
 20
-224.436569330547680
 40
2.000000000000016
 50
135.000000000009210
 51
180.000000000000000
  0
ARC
  8
0
  6
CONTINUOUS
 62
3
 10
301.947302604848120
 20
-232.989978534550630
 40
9.999999999999902
 50
57.024699180564248
 51
134.999999999998150
  0
ARC
  8
0
  6
CONTINUOUS
 62
3
 10
367.260596438673930
 20
-132.321345641397780
 40
110.000000000000280
 50
237.024699180565850
 51
270.000000000000000
  0
ARC
  8
0
  6
CONTINUOUS
 62
3
 10
266.591963545521140
 20
-197.634639475223650
 40
9.999999999999758
 50
315.000000000000000
 51
32.975300819435773
  0
ARC
  8
0
  6
CONTINUOUS
 62
3
 10
275.145372749524090
 20
-21.821345641397784
 40
1.999999999999694
 50
45.000000000000000
 51
90.000000000000000
  0
CIRCLE
  8
0
  6
CONTINUOUS
 62
3
 10
268.265647072556930
 20
-33.326396275281240
 40
7.500000000000000
  0
ARC
  8
0
  6
CONTINUOUS
 62
3
 10
256.760596438673930
 20
-40.206121952248395
 40
2.000000000000000
 50
180.000000000000000
 51
224.999999999990790
  0
ARC
  8
0
  6
CONTINUOUS
 62
3
 10
301.947302604848120
 20
-31.652712748244994
 40
9.999999999999758
 50
225.000000000003690
 51
302.975300819434380
  0
ARC
  8
0
  6
CONTINUOUS
 62
3
 10
367.260596438673930
 20
-132.321345641397780
 40
110.000000000000000
 50
90.000000000000000
 51
122.975300819434320
  0
ARC
  8
0
  6
CONTINUOUS
 62
3
 10
266.591963545521140
 20
-67.008051807572429
 40
9.999999999999902
 50
327.024699180564200
 51
45.000000000000000
  0
ARC
  8
0
  6
CONTINUOUS
 62
3
 10
262.760596438673930
 20
-27.821345641397784
 40
8.000000000000000
 50
90.000000000000000
 51
180.000000000000000
  0
ARC
  8
0
  6
CONTINUOUS
 62
3
 10
471.760596438673930
 20
-236.821345641397840
 40
8.000000000000000
 50
270.000000000000000
 51
0.000000000000000
  0
ARC
  8
0
  6
CONTINUOUS
 62
3
 10
262.760596438673930
 20
-236.821345641397840
 40
8.000000000000000
 50
180.000000000000000
 51
270.000000000000000
  0
CIRCLE
  8
0
  6
CONTINUOUS
 62
3
 10
367.260596438673930
 20
-132.321345641397780
 40
99.000000000000000
  0
ARC
  8
0
  6
CONTINUOUS
 62
3
 10
477.760596438673930
 20
-40.206121952248395
 40
2.000000000000016
 50
315.000000000009210
 51
0.000000000000000
  0
ARC
  8
0
  6
CONTINUOUS
 62
3
 10
459.375820127823320
 20
-21.821345641397784
 40
2.000000000000000
 50
90.000000000000000
 51
134.999999999990790
  0
CIRCLE
  8
0
  6
CONTINUOUS
 62
3
 10
466.255545804790930
 20
-33.326396275281240
 40
7.500000000000000
  0
ARC
  8
0
  6
CONTINUOUS
 62
3
 10
471.760596438673930
 20
-27.821345641397784
 40
8.000000000000000
 50
0.000000000000000
 51
90.000000000000000
  0
CIRCLE
  8
0
  6
CONTINUOUS
 62
3
 10
367.260596438673930
 20
-132.321345641397780
 40
105.000000000000000
  0
ARC
  8
0
  6
CONTINUOUS
 62
3
 10
467.929229331826720
 20
-67.008051807572429
 40
10.000000000000082
 50
135.000000000001820
 51
212.975300819435770
  0
ARC
  8
0
  6
CONTINUOUS
 62
3
 10
432.573890272499740
 20
-31.652712748244994
 40
10.000000000000284
 50
237.024699180565620
 51
314.999999999996310
  0
ARC
  8
0
  6
CONTINUOUS
 62
3
 10
367.260596438673930
 20
-132.321345641397780
 40
109.999999999999850
 50
57.024699180565683
 51
90.000000000000000
  0
ARC
  8
0
  6
CONTINUOUS
 62
3
 10
419.260596438673930
 20
-245.321345641397840
 40
12.566440900597172
 50
270.000000000000000
 51
358.218230102087600
  0
ARC
  8
0
  6
CONTINUOUS
 62
3
 10
315.260596438673930
 20
-245.321345641397840
 40
12.530739605809545
 50
181.781769897913250
 51
270.000000000000000
  0
ARC
  8
0
  6
CONTINUOUS
 62
3
 10
437.251893508884680
 20
-245.881014946808190
 40
5.433559099403096
 50
168.753929484950930
 51
178.218230102085670
  0
ARC
  8
0
  6
CONTINUOUS
 62
3
 10
297.269299368463180
 20
-245.881014946808190
 40
5.469260394190242
 50
1.781769897912350
 51
11.246070515048753
  0
CIRCLE
  8
0
  6
CONTINUOUS
 62
3
 10
367.260596438673930
 20
-132.321345641397780
 40
33.500000000000000
  0
ARC
  8
0
  6
CONTINUOUS
 62
3
 10
453.399808427137940
 20
-169.951601526873730
 40
5.000000000000556
 50
336.401698263640920
 51
0.000000000000000
  0
ARC
  8
0
  6
CONTINUOUS
 62
3
 10
281.121384450209010
 20
-169.951601526873730
 40
5.000000000000000
 50
180.000000000000000
 51
203.598301736363200
  0
ARC
  8
0
  6
CONTINUOUS
 62
3
 10
331.703420352411290
 20
-171.623854833185360
 40
4.999999999999588
 50
307.256131004966900
 51
47.864198486307934
  0
ARC
  8
0
  6
CONTINUOUS
 62
3
 10
354.102449336984140
 20
-201.073532260081320
 40
31.999999999999872
 50
127.256131004967170
 51
198.872128672720810
  0
ARC
  8
0
  6
CONTINUOUS
 62
3
 10
319.091465168804460
 20
-213.041447181882690
 40
4.999999999999471
 50
239.173668330597560
 51
18.872128672723658
  0
ARC
  8
0
  6
CONTINUOUS
 62
3
 10
406.054868639032970
 20
-190.588012308064260
 40
27.000000000000107
 50
353.114296223340200
 51
77.708022749951752
  0
ARC
  8
0
  6
CONTINUOUS
 62
3
 10
412.867463037178820
 20
-159.321599696983920
 40
4.999999999999936
 50
149.373547225007940
 51
257.708022749950660
  0
ARC
  8
0
  6
CONTINUOUS
 62
3
 10
437.824061826523580
 20
-194.424464342939300
 40
4.999999999999885
 50
173.114296223340180
 51
318.648896542797160
  0
ARC
  8
0
  6
CONTINUOUS
 62
3
 10
415.699044244131980
 20
-153.832198116320400
 40
4.999999999999789
 50
156.054647304130040
 51
255.297858639474210
  0
ARC
  8
0
  6
CONTINUOUS
 62
3
 10
406.054868639032970
 20
-190.588012308064260
 40
32.999999999999922
 50
5.724045726881045
 51
75.297858639474498
  0
ARC
  8
0
  6
CONTINUOUS
 62
3
 10
443.865393043151930
 20
-186.797993273081430
 40
5.000000000000169
 50
185.724045726879550
 51
324.581888853420930
  0
ARC
  8
0
  6
CONTINUOUS
 62
3
 10
327.460880966115840
 20
-167.321097759140290
 40
4.999999999999686
 50
308.284839477501690
 51
41.328301793388754
  0
ARC
  8
0
  6
CONTINUOUS
 62
3
 10
354.102449336984140
 20
-201.073532260081320
 40
37.999999999999908
 50
128.284839477505610
 51
189.449699705365930
  0
ARC
  8
0
  6
CONTINUOUS
 62
3
 10
311.685954276418670
 20
-208.133344352270400
 40
4.999999999999974
 50
233.756397618482510
 51
9.449699705361347
  0
ARC
  8
0
  6
CONTINUOUS
 62
3
 10
316.614767390271480
 20
-126.321345641397780
 40
3.000000000000000
 50
270.000000000000000
 51
353.243672969409600
  0
ARC
  8
0
  6
CONTINUOUS
 62
3
 10
316.614767390271480
 20
-138.321345641397780
 40
2.999999999999939
 50
6.756327030581794
 51
90.000000000000000
  0
ARC
  8
0
  6
CONTINUOUS
 62
3
 10
271.448279902645940
 20
-138.321345641397780
 40
3.000000000000000
 50
90.000000000000000
 51
183.583321698471880
  0
ARC
  8
0
  6
CONTINUOUS
 62
3
 10
271.448279902645940
 20
-126.321345641397780
 40
3.000000000000075
 50
176.416678301528120
 51
270.000000000000000
  0
ARC
  8
0
  6
CONTINUOUS
 62
3
 10
353.260596438673470
 20
-142.554743825579410
 40
77.139211988464069
 50
91.910213171709728
 51
165.359522790078270
  0
ARC
  8
0
  6
CONTINUOUS
 62
3
 10
283.463683204822700
 20
-124.321345641397780
 40
4.999999999999463
 50
165.359522790078730
 51
270.000000000000000
  0
ARC
  8
0
  6
CONTINUOUS
 62
3
 10
353.260596438673470
 20
-142.554743825579410
 40
77.139211988464439
 50
178.225864444680160
 51
180.000000000000000
  0
ARC
  8
0
  6
CONTINUOUS
 62
3
 10
281.155965249910880
 20
-140.321345641397780
 40
5.000000000000000
 50
90.000000000000000
 51
178.225864444682000
  0
ARC
  8
0
  6
CONTINUOUS
 62
3
 10
453.365227627436980
 20
-140.321345641397780
 40
4.999999999999758
 50
1.774135555318164
 51
90.000000000000000
  0
ARC
  8
0
  6
CONTINUOUS
 62
3
 10
463.072912974701470
 20
-138.321345641397780
 40
3.000000000000075
 50
356.416678301528120
 51
90.000000000000000
  0
ARC
  8
0
  6
CONTINUOUS
 62
3
 10
463.072912974701470
 20
-126.321345641397780
 40
3.000000000000000
 50
270.000000000000000
 51
3.583321698471884
  0
ARC
  8
0
  6
CONTINUOUS
 62
3
 10
417.906425487076380
 20
-126.321345641397780
 40
3.000000000000444
 50
186.756327030589400
 51
270.000000000000000
  0
ARC
  8
0
  6
CONTINUOUS
 62
3
 10
417.906425487076380
 20
-138.321345641397780
 40
3.000000000000000
 50
90.000000000000000
 51
173.243672969419240
  0
ARC
  8
0
  6
CONTINUOUS
 62
3
 10
381.260596438673930
 20
-142.554743825579410
 40
77.139211988464012
 50
0.000000000000000
 51
1.774135555319836
  0
ARC
  8
0
  6
CONTINUOUS
 62
3
 10
361.260596438673930
 20
-81.675516592995336
 40
3.000000000000390
 50
276.756327030580790
 51
0.000000000000000
  0
ARC
  8
0
  6
CONTINUOUS
 62
3
 10
373.260596438673930
 20
-81.675516592995336
 40
3.000000000000000
 50
180.000000000000000
 51
263.243672969410620
  0
ARC
  8
0
  6
CONTINUOUS
 62
3
 10
373.260596438673930
 20
-36.509029105370246
 40
3.000000000000075
 50
86.416678301528108
 51
180.000000000000000
  0
ARC
  8
0
  6
CONTINUOUS
 62
3
 10
361.260596438673930
 20
-36.509029105370246
 40
3.000000000000000
 50
0.000000000000000
 51
93.583321698471892
  0
ARC
  8
0
  6
CONTINUOUS
 62
3
 10
367.260596438673930
 20
-562.321345641397780
 40
497.139211988464010
 50
90.695721199138291
 51
91.910213171709955
  0
ARC
  8
0
  6
CONTINUOUS
 62
3
 10
361.260596438673930
 20
-68.218561977330410
 40
3.000000000000000
 50
0.000000000000000
 51
90.695721199139356
  0
ARC
  8
0
  6
CONTINUOUS
 62
3
 10
477.760596438673930
 20
-129.321345641397780
 40
2.000000000000000
 50
0.000000000000000
 51
63.214562179985727
  0
ARC
  8
0
  6
CONTINUOUS
 62
3
 10
480.013849780246350
 20
-124.857843722646970
 40
3.000000000000164
 50
183.787068033871800
 51
243.214562179987690
  0
ARC
  8
0
  6
CONTINUOUS
 62
3
 10
476.760596438673930
 20
-134.321345641397780
 40
3.000000000000028
 50
303.156214469688900
 51
0.000000000000000
  0
ARC
  8
0
  6
CONTINUOUS
 62
3
 10
480.042138080557380
 20
-139.344440748260240
 40
3.000000000000028
 50
123.156214469688900
 51
176.436697168475770
  0
ARC
  8
0
  6
CONTINUOUS
 62
3
 10
257.760596438673930
 20
-134.321345641398240
 40
3.000000000000000
 50
180.000000000000000
 51
236.843785530306350
  0
ARC
  8
0
  6
CONTINUOUS
 62
3
 10
254.479054796790020
 20
-139.344440748260240
 40
3.000000000000222
 50
3.563302831523683
 51
56.843785530303819
  0
ARC
  8
0
  6
CONTINUOUS
 62
3
 10
256.760596438673930
 20
-129.321345641398240
 40
2.000000000000302
 50
116.785437820020030
 51
180.000000000000000
  0
ARC
  8
0
  6
CONTINUOUS
 62
3
 10
254.507343097101510
 20
-124.857843722646970
 40
3.000000000000044
 50
296.785437820004520
 51
356.212931966127600
  0
ARC
  8
0
  6
CONTINUOUS
 62
3
 10
367.260596438673930
 20
-132.321345641397780
 40
109.999999999999870
 50
3.787068033865315
 51
32.975300819434004
  0
ARC
  8
0
  6
CONTINUOUS
 62
3
 10
367.260596438673930
 20
-132.321345641397780
 40
110.000000000000270
 50
327.024699180565790
 51
356.436697168476600
  0
ARC
  8
0
  6
CONTINUOUS
 62
3
 10
367.260596438673930
 20
-132.321345641397780
 40
109.999999999999980
 50
147.024699180565990
 51
176.212931966134700
  0
ARC
  8
0
  6
CONTINUOUS
 62
3
 10
367.260596438673930
 20
-132.321345641397780
 40
109.999999999999900
 50
183.563302831523370
 51
212.975300819434210
  0
LINE
  8
0
  6
CONTINUOUS
 62
3
 10
457.961606565450890
 20
-244.235559203771170
 11
439.644958084364590
 21
-225.918910722685330
  0
LINE
  8
0
  6
CONTINUOUS
 62
3
 10
479.174810001047260
 20
-223.022355768174800
 11
460.858161519960960
 21
-204.705707287088960
  0
LINE
  8
0
  6
CONTINUOUS
 62
3
 10
276.559586311896960
 20
-244.235559203771170
 11
294.876234792983270
 21
-225.918910722685330
  0
LINE
  8
0
  6
CONTINUOUS
 62
3
 10
255.346382876300590
 20
-223.022355768174800
 11
273.663031357386440
 21
-204.705707287088960
  0
LINE
  8
0
  6
CONTINUOUS
 62
3
 10
276.559586311896960
 20
-20.407132079024905
 11
294.876234792983270
 21
-38.723780560110754
  0
LINE
  8
0
  6
CONTINUOUS
 62
3
 10
255.346382876300590
 20
-41.620335514621274
 11
273.663031357386440
 21
-59.936983995707124
  0
LINE
  8
0
  6
DASHDOT
 62
4
 10
258.760596438673930
 20
-23.821345641397784
 11
277.685764421134990
 21
-42.746513623859187
  0
LINE
  8
0
  6
CONTINUOUS
 62
3
 10
254.760596438673930
 20
-27.821345641397784
 11
254.760596438673930
 21
-236.821345641397840
  0
LINE
  8
0
  6
CONTINUOUS
 62
3
 10
262.760596438673930
 20
-19.821345641397784
 11
471.760596438673930
 21
-19.821345641397784
  0
LINE
  8
0
  6
CONTINUOUS
 62
3
 10
262.760596438673930
 20
-244.821345641397840
 11
471.760596438673930
 21
-244.821345641397840
  0
LINE
  8
0
  6
CONTINUOUS
 62
3
 10
479.174810001047260
 20
-41.620335514621274
 11
460.858161519960960
 21
-59.936983995707124
  0
LINE
  8
0
  6
CONTINUOUS
 62
3
 10
457.961606565450890
 20
-20.407132079024905
 11
439.644958084364590
 21
-38.723780560110754
  0
LINE
  8
0
  6
CONTINUOUS
 62
3
 10
419.260596438673930
 20
-257.821345641397840
 11
367.260596438673930
 21
-257.821345641397840
  0
LINE
  8
0
  6
CONTINUOUS
 62
3
 10
315.260596438673930
 20
-257.821345641397840
 11
367.260596438673930
 21
-257.821345641397840
  0
LINE
  8
0
  6
CONTINUOUS
 62
3
 10
458.399808427137940
 20
-142.554743825579410
 11
458.399808427137940
 21
-169.951601526873730
  0
LINE
  8
0
  6
CONTINUOUS
 62
3
 10
276.121384450209010
 20
-142.554743825579410
 11
276.121384450209010
 21
-169.951601526873730
  0
LINE
  8
0
  6
CONTINUOUS
 62
3
 10
271.448279902645940
 20
-135.321345641397780
 11
316.614767390271480
 21
-135.321345641397780
  0
LINE
  8
0
  6
CONTINUOUS
 62
3
 10
271.448279902645940
 20
-129.321345641397780
 11
316.614767390271480
 21
-129.321345641397780
  0
LINE
  8
0
  6
CONTINUOUS
 62
3
 10
463.072912974701470
 20
-135.321345641397780
 11
417.906425487076380
 21
-135.321345641397780
  0
LINE
  8
0
  6
CONTINUOUS
 62
3
 10
463.072912974701470
 20
-129.321345641397780
 11
417.906425487076380
 21
-129.321345641397780
  0
LINE
  8
0
  6
CONTINUOUS
 62
3
 10
370.260596438673930
 20
-36.509029105370246
 11
370.260596438673930
 21
-81.675516592995336
  0
LINE
  8
0
  6
CONTINUOUS
 62
3
 10
364.260596438673930
 20
-36.509029105370246
 11
364.260596438673930
 21
-81.675516592995336
  0
LINE
  8
0
  6
CONTINUOUS
 62
3
 10
479.760596438673930
 20
-27.821345641397784
 11
479.760596438673930
 21
-127.321345641397780
  0
LINE
  8
0
  6
CONTINUOUS
 62
3
 10
479.760596438673930
 20
-127.321345641397780
 11
479.760596438673930
 21
-137.321345641397780
  0
LINE
  8
0
  6
CONTINUOUS
 62
3
 10
479.760596438673930
 20
-137.321345641397780
 11
479.760596438673930
 21
-236.821345641397840
  0
CIRCLE
  8
0
  6
CONTINUOUS
 62
4
 10
367.260596438673930
 20
-132.321345641397780
 40
4.000000000000000
  0
CIRCLE
  8
0
  6
CONTINUOUS
 62
3
 10
367.260596438673930
 20
-132.321345641397780
 40
3.323500000000024
  0
LINE
  8
0
  6
CONTINUOUS
 62
3
 10
348.260596438673020
 20
-127.321345641397780
 11
356.260596438673020
 21
-127.321345641397780
  0
LINE
  8
0
  6
CONTINUOUS
 62
3
 10
348.260596438673020
 20
-137.321345641397780
 11
348.260596438673020
 21
-127.321345641397780
  0
ARC
  8
0
  6
CONTINUOUS
 62
3
 10
367.260596438673020
 20
-132.321345641397780
 40
16.000000000000192
 50
198.209956864282790
 51
161.790043135717210
  0
LINE
  8
0
  6
CONTINUOUS
 62
3
 10
356.260596438673020
 20
-137.321345641397780
 11
356.260596438673020
 21
-127.321345641397780
  0
LINE
  8
0
  6
CONTINUOUS
 62
3
 10
348.260596438673020
 20
-137.321345641397780
 11
356.260596438673020
 21
-137.321345641397780
  0
ARC
  8
0
  6
CONTINUOUS
 62
3
 10
367.260596438673990
 20
-562.321345641397780
 40
497.139211988463840
 50
88.089786828290059
 51
89.304278800861724
  0
ARC
  8
0
  6
CONTINUOUS
 62
3
 10
373.260596438673930
 20
-68.218561977330410
 40
2.999999999999993
 50
89.304278800860644
 51
180.000000000000000
  0
ARC
  8
0
  6
CONTINUOUS
 62
3
 10
451.057509672525160
 20
-124.321345641397780
 40
5.000000000000000
 50
270.000000000000000
 51
14.640477209921270
  0
ARC
  8
0
  6
CONTINUOUS
 62
3
 10
381.260596438674380
 20
-142.554743825579410
 40
77.139211988464197
 50
61.602930911019449
 51
88.089786828290272
  0
ARC
  8
0
  6
CONTINUOUS
 62
3
 10
381.260596438674380
 20
-142.554743825579410
 40
77.139211988463899
 50
14.640477209921725
 51
88.089786828290272
  0
LINE
  8
0
  6
DASHED
 62
3
 10
314.760596438673930
 20
-97.821345641396306
 11
282.393931665731540
 21
-97.821345641396306
  0
LINE
  8
0
  6
DASHED
 62
3
 10
314.760596438673930
 20
-113.321345641396300
 11
314.760596438673930
 21
-97.821345641396306
  0
LINE
  8
0
  6
DASHED
 62
3
 10
314.760596438673930
 20
-113.321345641396300
 11
313.260596438673930
 21
-113.321345641396300
  0
ARC
  8
0
  6
DASHED
 62
3
 10
282.393931665731540
 20
-102.821345641396300
 40
5.000000000000000
 50
90.000000000000000
 51
173.967950853630160
  0
LINE
  8
0
  6
DASHED
 62
3
 10
275.260596438673930
 20
-136.321345641396310
 11
275.260596438673930
 21
-131.321345641396310
  0
LINE
  8
0
  6
DASHED
 62
3
 10
275.760598295871550
 20
-131.321345641396310
 11
275.260596438673930
 21
-131.321345641396310
  0
LINE
  8
0
  6
DASHED
 62
3
 10
275.771013286191760
 20
-136.321345641396310
 11
275.260596438673930
 21
-136.321345641396310
  0
ARC
  8
0
  6
DASHED
 62
3
 10
575.760596438673930
 20
-133.821345641396310
 40
299.999999999999940
 50
173.967950853630190
 51
186.032049146369810
  0
LINE
  8
0
  6
DASHED
 62
3
 10
314.760596438673930
 20
-169.821345641396310
 11
282.393931665731540
 21
-169.821345641396310
  0
ARC
  8
0
  6
DASHED
 62
3
 10
282.393931665731540
 20
-164.821345641396310
 40
5.000000000000024
 50
186.032049146369840
 51
270.000000000000000
  0
LINE
  8
0
  6
DASHED
 62
3
 10
314.760596438673930
 20
-154.321345641396310
 11
314.760596438673930
 21
-169.821345641396310
  0
LINE
  8
0
  6
DASHED
 62
3
 10
313.260596438673930
 20
-113.321345641396300
 11
313.260596438673930
 21
-154.121345641396260
  0
LINE
  8
0
  6
DASHED
 62
3
 10
309.760596438673930
 20
-169.821345641396310
 11
309.760596438673930
 21
-97.821345641396306
  0
ARC
  8
0
  6
DASHED
 62
3
 10
313.460596438673970
 20
-154.121345641396260
 40
0.200000000000045
 50
180.000000000000000
 51
270.000000000000000
  0
LINE
  8
0
  6
DASHED
 62
3
 10
314.760596438673930
 20
-154.321345641396310
 11
313.460596438673970
 21
-154.321345641396310
  0
ARC
  8
0
  6
DASHDOT
 62
4
 10
367.260596438673930
 20
-132.321345641397780
 40
140.000000000000000
 50
129.596802635260840
 51
140.049027842506210
  0
ARC
  8
0
  6
DASHDOT
 62
4
 10
367.260596438673930
 20
-132.321345641397780
 40
139.999999999999970
 50
39.898121586544050
 51
50.508093093704147
  0
ARC
  8
0
  6
DASHDOT
 62
4
 10
367.260596438673930
 20
-132.321345641397780
 40
140.000000000000030
 50
309.529664382541910
 51
320.464647407951130
  0
ARC
  8
0
  6
DASHDOT
 62
4
 10
367.260596438673930
 20
-132.321345641397780
 40
140.000000000000000
 50
219.679352788090800
 51
230.156612480808630
  0
LINE
  8
0
  6
DASHDOT
 62
4
 10
403.103579288493390
 20
-137.821345641394940
 11
330.211951710909490
 21
-137.821345641394940
  0
LINE
  8
0
  6
DASHDOT
 62
4
 10
367.260596438673930
 20
-6.801179636266170
 11
367.260596438673930
 21
-269.550234914913740
  0
LINE
  8
0
  6
DASHDOT
 62
4
 10
491.978329118145670
 20
-132.321345641397780
 11
244.027129373829670
 21
-132.321345641397780
  0
LINE
  8
0
  6
CONTINUOUS
 62
3
 10
-128.448262933781510
 20
-191.821345641394710
 11
-205.953107882874290
 21
-191.821345641394710
  0
LINE
  8
0
  6
CONTINUOUS
 62
3
 10
-128.448262933781510
 20
-191.821345641394710
 11
-128.448262933781510
 21
-178.821345641394490
  0
LINE
  8
0
  6
CONTINUOUS
 62
3
 10
-128.448262933781510
 20
-83.821345641394245
 11
-128.448262933781510
 21
-96.821345641394473
  0
LINE
  8
0
  6
CONTINUOUS
 62
3
 10
-128.448262933781510
 20
-83.821345641394245
 11
-205.953107882874290
 21
-83.821345641394245
  0
LINE
  8
0
  6
CONTINUOUS
 62
3
 10
-139.448262933781510
 20
-186.965266664119670
 11
-141.448262933781510
 21
-185.312625024996240
  0
LINE
  8
0
  6
CONTINUOUS
 62
3
 10
-137.448262933781510
 20
-188.141052149742450
 11
-139.448262933781510
 21
-186.965266664119670
  0
LINE
  8
0
  6
CONTINUOUS
 62
3
 10
-139.448262933781510
 20
-186.965266664119670
 11
-137.448262933781510
 21
-185.312625024996240
  0
LINE
  8
0
  6
CONTINUOUS
 62
3
 10
-141.448262933781510
 20
-188.141052149742450
 11
-139.448262933781510
 21
-186.965266664119670
  0
POLYLINE
  8
0
  6
CONTINUOUS
 62
3
 66
1
 70
1
  0
VERTEX
  8
0
  6
CONTINUOUS
 62
3
 10
-134.748262933781290
 20
-185.148676595742130
  0
VERTEX
  8
0
  6
CONTINUOUS
 62
3
 10
-134.838572115886110
 20
-184.445719629541770
  0
VERTEX
  8
0
  6
CONTINUOUS
 62
3
 10
-135.106029130978240
 20
-183.769776905329680
  0
VERTEX
  8
0
  6
CONTINUOUS
 62
3
 10
-135.540355755959330
 20
-183.146824522924280
  0
VERTEX
  8
0
  6
CONTINUOUS
 62
3
 10
-136.124861062204500
 20
-182.600802193025690
  0
VERTEX
  8
0
  6
CONTINUOUS
 62
3
 10
-136.837082838589170
 20
-182.152693247559060
  0
VERTEX
  8
0
  6
CONTINUOUS
 62
3
 10
-137.649650801665360
 20
-181.819718261996310
  0
VERTEX
  8
0
  6
CONTINUOUS
 62
3
 10
-138.531338420305470
 20
-181.614673278298060
  0
VERTEX
  8
0
  6
CONTINUOUS
 62
3
 10
-139.448262933781280
 20
-181.545438060197280
  0
VERTEX
  8
0
  6
CONTINUOUS
 62
3
 10
-140.365187447257090
 20
-181.614673278298060
  0
VERTEX
  8
0
  6
CONTINUOUS
 62
3
 10
-141.246875065897200
 20
-181.819718261996310
  0
VERTEX
  8
0
  6
CONTINUOUS
 62
3
 10
-142.059443028973390
 20
-182.152693247559060
  0
VERTEX
  8
0
  6
CONTINUOUS
 62
3
 10
-142.771664805358060
 20
-182.600802193025690
  0
VERTEX
  8
0
  6
CONTINUOUS
 62
3
 10
-143.356170111603230
 20
-183.146824522924280
  0
VERTEX
  8
0
  6
CONTINUOUS
 62
3
 10
-143.790496736584320
 20
-183.769776905329680
  0
VERTEX
  8
0
  6
CONTINUOUS
 62
3
 10
-144.057953751676450
 20
-184.445719629541770
  0
VERTEX
  8
0
  6
CONTINUOUS
 62
3
 10
-144.148262933781270
 20
-185.148676595742130
  0
VERTEX
  8
0
  6
CONTINUOUS
 62
3
 10
-144.057953751676450
 20
-185.851633561942490
  0
VERTEX
  8
0
  6
CONTINUOUS
 62
3
 10
-143.790496736584320
 20
-186.527576286154580
  0
VERTEX
  8
0
  6
CONTINUOUS
 62
3
 10
-143.356170111603230
 20
-187.150528668559990
  0
VERTEX
  8
0
  6
CONTINUOUS
 62
3
 10
-142.771664805358030
 20
-187.696550998458580
  0
VERTEX
  8
0
  6
CONTINUOUS
 62
3
 10
-142.059443028973390
 20
-188.144659943925210
  0
VERTEX
  8
0
  6
CONTINUOUS
 62
3
 10
-141.246875065897200
 20
-188.477634929487950
  0
VERTEX
  8
0
  6
CONTINUOUS
 62
3
 10
-140.365187447257090
 20
-188.682679913186210
  0
VERTEX
  8
0
  6
CONTINUOUS
 62
3
 10
-139.448262933781280
 20
-188.751915131286980
  0
VERTEX
  8
0
  6
CONTINUOUS
 62
3
 10
-138.531338420305470
 20
-188.682679913186210
  0
VERTEX
  8
0
  6
CONTINUOUS
 62
3
 10
-137.649650801665360
 20
-188.477634929487950
  0
VERTEX
  8
0
  6
CONTINUOUS
 62
3
 10
-136.837082838589170
 20
-188.144659943925210
  0
VERTEX
  8
0
  6
CONTINUOUS
 62
3
 10
-136.124861062204530
 20
-187.696550998458580
  0
VERTEX
  8
0
  6
CONTINUOUS
 62
3
 10
-135.540355755959330
 20
-187.150528668559990
  0
VERTEX
  8
0
  6
CONTINUOUS
 62
3
 10
-135.106029130978240
 20
-186.527576286154580
  0
VERTEX
  8
0
  6
CONTINUOUS
 62
3
 10
-134.838572115886110
 20
-185.851633561942490
  0
SEQEND
  8
0
  6
CONTINUOUS
 62
3
  0
LINE
  8
0
  6
CONTINUOUS
 62
3
 10
-139.448262933781510
 20
-88.677424618669292
 11
-141.448262933781510
 21
-90.330066257792723
  0
LINE
  8
0
  6
CONTINUOUS
 62
3
 10
-137.448262933781510
 20
-87.501639133046510
 11
-139.448262933781510
 21
-88.677424618669292
  0
LINE
  8
0
  6
CONTINUOUS
 62
3
 10
-139.448262933781510
 20
-88.677424618669292
 11
-137.448262933781510
 21
-90.330066257792723
  0
LINE
  8
0
  6
CONTINUOUS
 62
3
 10
-141.448262933781510
 20
-87.501639133046510
 11
-139.448262933781510
 21
-88.677424618669292
  0
POLYLINE
  8
0
  6
CONTINUOUS
 62
3
 66
1
 70
1
  0
VERTEX
  8
0
  6
CONTINUOUS
 62
3
 10
-134.748262933781290
 20
-90.494014687046828
  0
VERTEX
  8
0
  6
CONTINUOUS
 62
3
 10
-134.838572115886110
 20
-89.791057720846467
  0
VERTEX
  8
0
  6
CONTINUOUS
 62
3
 10
-135.106029130978240
 20
-89.115114996634375
  0
VERTEX
  8
0
  6
CONTINUOUS
 62
3
 10
-135.540355755959330
 20
-88.492162614228974
  0
VERTEX
  8
0
  6
CONTINUOUS
 62
3
 10
-136.124861062204500
 20
-87.946140284330397
  0
VERTEX
  8
0
  6
CONTINUOUS
 62
3
 10
-136.837082838589170
 20
-87.498031338863782
  0
VERTEX
  8
0
  6
CONTINUOUS
 62
3
 10
-137.649650801665360
 20
-87.165056353301011
  0
VERTEX
  8
0
  6
CONTINUOUS
 62
3
 10
-138.531338420305470
 20
-86.960011369602768
  0
VERTEX
  8
0
  6
CONTINUOUS
 62
3
 10
-139.448262933781280
 20
-86.890776151501996
  0
VERTEX
  8
0
  6
CONTINUOUS
 62
3
 10
-140.365187447257090
 20
-86.960011369602768
  0
VERTEX
  8
0
  6
CONTINUOUS
 62
3
 10
-141.246875065897200
 20
-87.165056353301011
  0
VERTEX
  8
0
  6
CONTINUOUS
 62
3
 10
-142.059443028973390
 20
-87.498031338863782
  0
VERTEX
  8
0
  6
CONTINUOUS
 62
3
 10
-142.771664805358060
 20
-87.946140284330397
  0
VERTEX
  8
0
  6
CONTINUOUS
 62
3
 10
-143.356170111603230
 20
-88.492162614228974
  0
VERTEX
  8
0
  6
CONTINUOUS
 62
3
 10
-143.790496736584320
 20
-89.115114996634375
  0
VERTEX
  8
0
  6
CONTINUOUS
 62
3
 10
-144.057953751676450
 20
-89.791057720846467
  0
VERTEX
  8
0
  6
CONTINUOUS
 62
3
 10
-144.148262933781270
 20
-90.494014687046828
  0
VERTEX
  8
0
  6
CONTINUOUS
 62
3
 10
-144.057953751676450
 20
-91.196971653247189
  0
VERTEX
  8
0
  6
CONTINUOUS
 62
3
 10
-143.790496736584320
 20
-91.872914377459281
  0
VERTEX
  8
0
  6
CONTINUOUS
 62
3
 10
-143.356170111603230
 20
-92.495866759864683
  0
VERTEX
  8
0
  6
CONTINUOUS
 62
3
 10
-142.771664805358030
 20
-93.041889089763259
  0
VERTEX
  8
0
  6
CONTINUOUS
 62
3
 10
-142.059443028973390
 20
-93.489998035229874
  0
VERTEX
  8
0
  6
CONTINUOUS
 62
3
 10
-141.246875065897200
 20
-93.822973020792645
  0
VERTEX
  8
0
  6
CONTINUOUS
 62
3
 10
-140.365187447257090
 20
-94.028018004490889
  0
VERTEX
  8
0
  6
CONTINUOUS
 62
3
 10
-139.448262933781280
 20
-94.097253222591661
  0
VERTEX
  8
0
  6
CONTINUOUS
 62
3
 10
-138.531338420305470
 20
-94.028018004490889
  0
VERTEX
  8
0
  6
CONTINUOUS
 62
3
 10
-137.649650801665360
 20
-93.822973020792645
  0
VERTEX
  8
0
  6
CONTINUOUS
 62
3
 10
-136.837082838589170
 20
-93.489998035229874
  0
VERTEX
  8
0
  6
CONTINUOUS
 62
3
 10
-136.124861062204530
 20
-93.041889089763259
  0
VERTEX
  8
0
  6
CONTINUOUS
 62
3
 10
-135.540355755959330
 20
-92.495866759864683
  0
VERTEX
  8
0
  6
CONTINUOUS
 62
3
 10
-135.106029130978240
 20
-91.872914377459281
  0
VERTEX
  8
0
  6
CONTINUOUS
 62
3
 10
-134.838572115886110
 20
-91.196971653247189
  0
SEQEND
  8
0
  6
CONTINUOUS
 62
3
  0
LINE
  8
0
  6
CONTINUOUS
 62
3
 10
-138.448262933781510
 20
-137.821345641394490
 11
-138.448262933781510
 21
-102.821345641394470
  0
LINE
  8
0
  6
CONTINUOUS
 62
3
 10
-7.948262933760361
 20
-85.321345641394473
 11
-128.448262933781510
 21
-85.321345641394473
  0
LINE
  8
0
  6
CONTINUOUS
 62
4
 10
-128.448262933781510
 20
-87.321345641394473
 11
-7.948262933760361
 21
-87.321345641394473
  0
LINE
  8
0
  6
CONTINUOUS
 62
4
 10
-128.448262933781510
 20
-86.821345641394245
 11
-7.948262933760361
 21
-86.821345641394245
  0
LINE
  8
0
  6
CONTINUOUS
 62
4
 10
-128.448262933781510
 20
-91.688263046511665
 11
-7.948262933760361
 21
-91.688263046511665
  0
LINE
  8
0
  6
CONTINUOUS
 62
4
 10
-128.448262933781510
 20
-93.316690114289585
 11
-7.948262933760361
 21
-93.316690114289585
  0
LINE
  8
0
  6
CONTINUOUS
 62
4
 10
-128.448262933781510
 20
-96.779431871054712
 11
-7.948262933760361
 21
-96.779431871054712
  0
LINE
  8
0
  6
CONTINUOUS
 62
4
 10
-128.605863280152790
 20
-97.780910234870007
 11
-7.948262933760361
 21
-97.780910234870007
  0
LINE
  8
0
  6
CONTINUOUS
 62
4
 10
-138.448262933781510
 20
-104.517744689885700
 11
-136.248262933759860
 21
-104.517744689885700
  0
LINE
  8
0
  6
CONTINUOUS
 62
4
 10
-138.448262933781510
 20
-106.106954482624460
 11
-136.248262933759860
 21
-106.106954482624460
  0
LINE
  8
0
  6
CONTINUOUS
 62
4
 10
-138.448262933781510
 20
-109.064950090757390
 11
-136.248262933759860
 21
-109.064950090757390
  0
LINE
  8
0
  6
CONTINUOUS
 62
4
 10
-138.448262933781510
 20
-110.543973244234490
 11
-136.248262933759860
 21
-110.543973244234490
  0
LINE
  8
0
  6
CONTINUOUS
 62
4
 10
-138.448262933781510
 20
-113.636704235899850
 11
-136.248262933759860
 21
-113.636704235899850
  0
LINE
  8
0
  6
CONTINUOUS
 62
4
 10
-138.448262933781510
 20
-114.983105961398330
 11
-136.248262933759860
 21
-114.983105961398330
  0
LINE
  8
0
  6
CONTINUOUS
 62
4
 10
-138.448262933781510
 20
-117.821345641394480
 11
-136.248262933759860
 21
-117.821345641394480
  0
LINE
  8
0
  6
CONTINUOUS
 62
4
 10
-46.248262933759861
 20
-109.064950090757390
 11
-7.948262933760361
 21
-109.064950090757390
  0
LINE
  8
0
  6
CONTINUOUS
 62
4
 10
-46.248262933759861
 20
-110.543973244234490
 11
-7.948262933760361
 21
-110.543973244234490
  0
LINE
  8
0
  6
CONTINUOUS
 62
4
 10
-46.248262933759861
 20
-113.636704235899850
 11
-7.948262933760361
 21
-113.636704235899850
  0
LINE
  8
0
  6
CONTINUOUS
 62
4
 10
-46.248262933759861
 20
-114.983105961398330
 11
-7.948262933760361
 21
-114.983105961398330
  0
LINE
  8
0
  6
CONTINUOUS
 62
4
 10
-46.248262933759861
 20
-117.821345641394480
 11
-7.948262933760361
 21
-117.821345641394480
  0
LINE
  8
0
  6
CONTINUOUS
 62
4
 10
-46.248262933759861
 20
-106.106954482624460
 11
-7.948262933760361
 21
-106.106954482624460
  0
LINE
  8
0
  6
CONTINUOUS
 62
4
 10
-46.248262933759861
 20
-104.517744689885700
 11
-7.948262933760361
 21
-104.517744689885700
  0
ARC
  8
0
  6
CONTINUOUS
 62
3
 10
-131.448262933781510
 20
-96.821345641394473
 40
3.000000000000000
 50
270.000000000000000
 51
0.000000000000000
  0
LINE
  8
0
  6
CONTINUOUS
 62
3
 10
-131.448262933781510
 20
-99.821345641394473
 11
-135.448262933781510
 21
-99.821345641394473
  0
ARC
  8
0
  6
CONTINUOUS
 62
3
 10
-135.448262933781510
 20
-102.821345641394470
 40
3.000000000000000
 50
90.000000000000000
 51
180.000000000000000
  0
LINE
  8
0
  6
CONTINUOUS
 62
3
 10
-217.768782471705660
 20
-87.546813529040818
 11
-225.339561668294440
 21
-92.847930192613703
  0
LINE
  8
0
  6
CONTINUOUS
 62
3
 10
-226.448262933781510
 20
-94.977725507764816
 11
-226.448262933781510
 21
-137.821345641394490
  0
ARC
  8
0
  6
CONTINUOUS
 62
3
 10
-223.848262933781600
 20
-94.977725507764816
 40
2.600000000000037
 50
125.000000000002600
 51
180.000000000000000
  0
ARC
  8
0
  6
CONTINUOUS
 62
3
 10
-205.953107882874290
 20
-104.421345641394150
 40
20.599999999999909
 50
90.000000000000000
 51
124.999999999999780
  0
LINE
  8
0
  6
CONTINUOUS
 62
3
 10
-138.448262933781510
 20
-137.821345641394490
 11
-138.448262933781510
 21
-172.821345641394490
  0
LINE
  8
0
  6
CONTINUOUS
 62
3
 10
-7.948262933760361
 20
-190.321345641394490
 11
-128.448262933781510
 21
-190.321345641394490
  0
LINE
  8
0
  6
CONTINUOUS
 62
4
 10
-128.448262933781510
 20
-188.321345641394490
 11
-7.948262933760361
 21
-188.321345641394490
  0
LINE
  8
0
  6
CONTINUOUS
 62
4
 10
-128.448262933781510
 20
-188.821345641394710
 11
-7.948262933760361
 21
-188.821345641394710
  0
LINE
  8
0
  6
CONTINUOUS
 62
4
 10
-128.448262933781510
 20
-183.954428236277290
 11
-7.948262933760361
 21
-183.954428236277290
  0
LINE
  8
0
  6
CONTINUOUS
 62
4
 10
-128.448262933781510
 20
-182.326001168499370
 11
-7.948262933760361
 21
-182.326001168499370
  0
LINE
  8
0
  6
CONTINUOUS
 62
4
 10
-128.448262933781510
 20
-178.863259411734020
 11
-7.948262933760361
 21
-178.863259411734020
  0
LINE
  8
0
  6
CONTINUOUS
 62
4
 10
-128.605863280152790
 20
-177.861781047918730
 11
-7.948262933760361
 21
-177.861781047918730
  0
LINE
  8
0
  6
CONTINUOUS
 62
4
 10
-138.448262933781510
 20
-171.124946592903260
 11
-136.248262933759860
 21
-171.124946592903260
  0
LINE
  8
0
  6
CONTINUOUS
 62
4
 10
-138.448262933781510
 20
-169.535736800164500
 11
-136.248262933759860
 21
-169.535736800164500
  0
LINE
  8
0
  6
CONTINUOUS
 62
4
 10
-138.448262933781510
 20
-166.577741192031570
 11
-136.248262933759860
 21
-166.577741192031570
  0
LINE
  8
0
  6
CONTINUOUS
 62
4
 10
-138.448262933781510
 20
-165.098718038554470
 11
-136.248262933759860
 21
-165.098718038554470
  0
LINE
  8
0
  6
CONTINUOUS
 62
4
 10
-138.448262933781510
 20
-162.005987046889120
 11
-136.248262933759860
 21
-162.005987046889120
  0
LINE
  8
0
  6
CONTINUOUS
 62
4
 10
-138.448262933781510
 20
-160.659585321390640
 11
-136.248262933759860
 21
-160.659585321390640
  0
LINE
  8
0
  6
CONTINUOUS
 62
4
 10
-138.448262933781510
 20
-157.821345641394490
 11
-136.248262933759860
 21
-157.821345641394490
  0
LINE
  8
0
  6
CONTINUOUS
 62
4
 10
-46.248262933759861
 20
-166.577741192031570
 11
-7.948262933760361
 21
-166.577741192031570
  0
LINE
  8
0
  6
CONTINUOUS
 62
4
 10
-46.248262933759861
 20
-165.098718038554470
 11
-7.948262933760361
 21
-165.098718038554470
  0
LINE
  8
0
  6
CONTINUOUS
 62
4
 10
-46.248262933759861
 20
-162.005987046889120
 11
-7.948262933760361
 21
-162.005987046889120
  0
LINE
  8
0
  6
CONTINUOUS
 62
4
 10
-46.248262933759861
 20
-160.659585321390640
 11
-7.948262933760361
 21
-160.659585321390640
  0
LINE
  8
0
  6
CONTINUOUS
 62
4
 10
-46.248262933759861
 20
-157.821345641394490
 11
-7.948262933760361
 21
-157.821345641394490
  0
LINE
  8
0
  6
CONTINUOUS
 62
4
 10
-46.248262933759861
 20
-169.535736800164500
 11
-7.948262933760361
 21
-169.535736800164500
  0
LINE
  8
0
  6
CONTINUOUS
 62
4
 10
-46.248262933759861
 20
-171.124946592903260
 11
-7.948262933760361
 21
-171.124946592903260
  0
ARC
  8
0
  6
CONTINUOUS
 62
3
 10
-131.448262933781510
 20
-178.821345641394490
 40
3.000000000000000
 50
0.000000000000000
 51
90.000000000000000
  0
LINE
  8
0
  6
CONTINUOUS
 62
3
 10
-131.448262933781510
 20
-175.821345641394490
 11
-135.448262933781510
 21
-175.821345641394490
  0
ARC
  8
0
  6
CONTINUOUS
 62
3
 10
-135.448262933781510
 20
-172.821345641394490
 40
3.000000000000000
 50
180.000000000000000
 51
270.000000000000000
  0
LINE
  8
0
  6
CONTINUOUS
 62
3
 10
-217.768782471705660
 20
-188.095877753747910
 11
-225.339561668294440
 21
-182.794761090175260
  0
LINE
  8
0
  6
CONTINUOUS
 62
3
 10
-226.448262933781510
 20
-180.664965775024140
 11
-226.448262933781510
 21
-137.821345641394490
  0
ARC
  8
0
  6
CONTINUOUS
 62
3
 10
-223.848262933781600
 20
-180.664965775024140
 40
2.599999999999909
 50
180.000000000000000
 51
234.999999999994540
  0
ARC
  8
0
  6
CONTINUOUS
 62
3
 10
-205.953107882874290
 20
-171.221345641394810
 40
20.599999999999795
 50
235.000000000000260
 51
270.000000000000000
  0
LINE
  8
0
  6
CONTINUOUS
 62
3
 10
69.051737066246233
 20
-255.321345641397840
 11
58.551737066243504
 21
-255.321345641397840
  0
ARC
  8
0
  6
CONTINUOUS
 62
3
 10
58.551737066243504
 20
-253.321345641397840
 40
2.000000000000000
 50
180.000000000000000
 51
270.000000000000000
  0
ARC
  8
0
  6
CONTINUOUS
 62
3
 10
155.051737066246230
 20
-254.765566815443950
 40
2.999999999999897
 50
268.371217566513960
 51
0.000000000000000
  0
LINE
  8
0
  6
CONTINUOUS
 62
3
 10
69.051737066246233
 20
-255.321345641397840
 11
154.966465703588940
 21
-257.764354703026190
  0
LINE
  8
0
  6
CONTINUOUS
 62
3
 10
34.051737066244868
 20
-218.621345641394210
 11
34.051737066244868
 21
-103.821345641396290
  0
LINE
  8
0
  6
CONTINUOUS
 62
3
 10
34.051737066244868
 20
-218.621345641394210
 11
34.051737066244868
 21
-220.821345641396420
  0
LINE
  8
0
  6
CONTINUOUS
 62
3
 10
56.551737066243504
 20
-146.785447256535460
 11
56.551737066243504
 21
-253.321345641397840
  0
LINE
  8
0
  6
CONTINUOUS
 62
3
 10
45.551737066248961
 20
-80.321345641397770
 11
45.551737066249871
 21
-65.321345641395951
  0
LINE
  8
0
  6
CONTINUOUS
 62
3
 10
69.051737066246233
 20
-62.321345641397770
 11
48.551737066249871
 21
-62.321345641396405
  0
LINE
  8
0
  6
CONTINUOUS
 62
3
 10
34.051737066245323
 20
-223.814239888482010
 11
53.708744934972628
 21
-224.844420018231180
  0
ARC
  8
0
  6
CONTINUOUS
 62
3
 10
59.551737066249871
 20
-65.321345641396860
 40
3.000000000000000
 50
90.000000000000000
 51
180.000000000000000
  0
ARC
  8
0
  6
CONTINUOUS
 62
3
 10
48.551737066249871
 20
-65.321345641396405
 40
3.000000000000000
 50
90.000000000000000
 51
179.999999999991330
  0
ARC
  8
0
  6
CONTINUOUS
 62
3
 10
45.551737066248052
 20
-100.214539141647930
 40
2.999999999999901
 50
272.999999999988290
 51
0.000000000000000
  0
ARC
  8
0
  6
CONTINUOUS
 62
3
 10
53.551737066243504
 20
-227.840308622494830
 40
3.000000000000000
 50
0.000000000000000
 51
86.999999999994344
  0
LINE
  8
0
  6
CONTINUOUS
 62
3
 10
53.708744934977176
 20
-102.791165511647230
 11
34.051737066245323
 21
-103.821345641396860
  0
LINE
  8
0
  6
CONTINUOUS
 62
3
 10
34.051737066245323
 20
-162.321345641396420
 11
34.051737066245323
 21
-103.821345641396400
  0
LINE
  8
0
  6
CONTINUOUS
 62
3
 10
34.051737066245323
 20
-162.321345641396420
 11
34.051737066245323
 21
-223.814239888482010
  0
LINE
  8
0
  6
CONTINUOUS
 62
3
 10
68.551737066243504
 20
-162.321345641397780
 11
68.551737066243504
 21
-255.321345641397840
  0
LINE
  8
0
  6
CONTINUOUS
 62
3
 10
68.551737066245323
 20
-162.321345641397780
 11
68.551737066249871
 21
-62.321345641397770
  0
LINE
  8
0
  6
CONTINUOUS
 62
3
 10
56.551737066243504
 20
-65.321345641396860
 11
56.551737066243504
 21
-127.857244026260100
  0
ARC
  8
0
  6
CONTINUOUS
 62
3
 10
53.551737066248052
 20
-99.795276907383581
 40
2.999999999999901
 50
272.999999999988290
 51
0.000000000000000
  0
LINE
  8
0
  6
CONTINUOUS
 62
3
 10
54.551737066243504
 20
-131.321345641397780
 11
54.551737066243504
 21
-143.321345641397780
  0
ARC
  8
0
  6
CONTINUOUS
 62
3
 10
56.551737066243504
 20
-143.321345641397780
 40
2.000000000000000
 50
180.000000000000000
 51
240.000000000002730
  0
ARC
  8
0
  6
CONTINUOUS
 62
3
 10
54.551737066243504
 20
-146.785447256535460
 40
2.000000000000000
 50
0.000000000000000
 51
59.999999999996206
  0
ARC
  8
0
  6
CONTINUOUS
 62
3
 10
56.551737066243504
 20
-131.321345641397780
 40
2.000000000000164
 50
119.999999999997270
 51
180.000000000000000
  0
ARC
  8
0
  6
CONTINUOUS
 62
3
 10
54.551737066243504
 20
-127.857244026260100
 40
1.999999999999770
 50
300.000000000003810
 51
0.000000000000000
  0
LINE
  8
0
  6
CONTINUOUS
 62
3
 10
34.051737066245323
 20
-142.321345641397780
 11
54.551737066243504
 21
-142.321345641397780
  0
LINE
  8
0
  6
CONTINUOUS
 62
3
 10
34.051737066245323
 20
-182.321345641397780
 11
56.551737066243504
 21
-182.321345641397780
  0
ARC
  8
0
  6
CONTINUOUS
 62
3
 10
48.551737066248961
 20
-80.321345641397770
 40
3.000000000000000
 50
180.000000000000000
 51
270.000000000000000
  0
LINE
  8
0
  6
CONTINUOUS
 62
3
 10
48.551737066248052
 20
-100.214539141647930
 11
48.551737066249984
 21
-86.955416037821109
  0
LINE
  8
0
  6
CONTINUOUS
 62
3
 10
41.051737066246233
 20
-81.321345641397770
 11
45.551737066246233
 21
-81.321345641397770
  0
LINE
  8
0
  6
CONTINUOUS
 62
3
 10
41.051737066246233
 20
-81.321345641397770
 11
41.051737066249871
 21
-27.321345641397770
  0
LINE
  8
0
  6
CONTINUOUS
 62
3
 10
45.551737066249871
 20
-27.321345641397770
 11
45.551737066249871
 21
-81.321345641397770
  0
LINE
  8
0
  6
DASHDOT
 62
4
 10
35.321489665433319
 20
-47.321345641397770
 11
53.420755680724824
 21
-47.321345641397770
  0
LINE
  8
0
  6
DASHDOT
 62
4
 10
26.557693414416235
 20
-71.321345641397770
 11
50.695308882521886
 21
-71.321345641397770
  0
LINE
  8
0
  6
CONTINUOUS
 62
3
 10
41.051737066249871
 20
-27.321345641397770
 11
45.551737066249871
 21
-27.321345641397770
  0
ARC
  8
0
  6
CONTINUOUS
 62
3
 10
176.051737066246230
 20
-97.821345641397770
 40
1.000000000000000
 50
180.000000000000000
 51
270.000000000000000
  0
ARC
  8
0
  6
CONTINUOUS
 62
3
 10
172.051737066246230
 20
-87.168239341542616
 40
3.000000000000000
 50
0.000000000000000
 51
70.528779365509465
  0
ARC
  8
0
  6
CONTINUOUS
 62
3
 10
176.051737066246230
 20
-166.821345641397780
 40
1.000000000000000
 50
90.000000000000000
 51
180.000000000000000
  0
ARC
  8
0
  6
CONTINUOUS
 62
3
 10
155.051737066246230
 20
-21.821345641397770
 40
2.000000000000000
 50
90.000000000000000
 51
180.000000000000000
  0
ARC
  8
0
  6
CONTINUOUS
 62
3
 10
161.051737066246230
 20
-247.821345641397840
 40
3.000000000000000
 50
90.000000000000000
 51
180.000000000000000
  0
ARC
  8
0
  6
CONTINUOUS
 62
3
 10
129.444337614881760
 20
-57.210560925735521
 40
3.000000000000001
 50
272.000000000003640
 51
329.999999999998350
  0
ARC
  8
0
  6
CONTINUOUS
 62
3
 10
172.051720082736890
 20
-177.474451941253390
 40
2.999999999999871
 50
300.000187270167030
 51
0.000000000000000
  0
ARC
  8
0
  6
CONTINUOUS
 62
3
 10
175.051737066246230
 20
-182.670594558489030
 40
2.999999999999871
 50
120.000187270167010
 51
131.810314895779530
  0
LINE
  8
0
  6
CONTINUOUS
 62
3
 10
169.051737066246230
 20
-132.321345641397780
 11
169.051737066246230
 21
-244.821345641398300
  0
LINE
  8
0
  6
CONTINUOUS
 62
3
 10
175.051737066246230
 20
-132.321345641397780
 11
175.051737066246230
 21
-87.168239341542616
  0
LINE
  8
0
  6
CONTINUOUS
 62
3
 10
175.051737066246230
 20
-132.321345641397780
 11
175.051737066246230
 21
-177.474451941253390
  0
LINE
  8
0
  6
CONTINUOUS
 62
3
 10
169.051737066246230
 20
-244.821345641397840
 11
155.051737066246230
 21
-244.821345641397840
  0
LINE
  8
0
  6
CONTINUOUS
 62
3
 10
69.051737066246233
 20
-255.321345641397840
 11
69.051737066246233
 21
-62.321345641397770
  0
LINE
  8
0
  6
CONTINUOUS
 62
3
 10
169.051737066246690
 20
-132.321345641397780
 11
169.051737066246230
 21
-19.821345641397770
  0
LINE
  8
0
  6
CONTINUOUS
 62
3
 10
177.051737066246230
 20
-165.821345641397780
 11
177.051737066246230
 21
-98.821345641397770
  0
LINE
  8
0
  6
CONTINUOUS
 62
3
 10
176.051737066246230
 20
-165.821345641397780
 11
177.051737066246230
 21
-165.821345641397780
  0
LINE
  8
0
  6
CONTINUOUS
 62
3
 10
176.051737066246230
 20
-98.821345641397770
 11
177.051737066246230
 21
-98.821345641397770
  0
LINE
  8
0
  6
CONTINUOUS
 62
3
 10
155.051737066246230
 20
-19.821345641397770
 11
169.051737066246230
 21
-19.821345641397770
  0
LINE
  8
0
  6
CONTINUOUS
 62
3
 10
158.051737066246230
 20
-247.821345641397840
 11
158.051737066246230
 21
-254.765566815443950
  0
LINE
  8
0
  6
CONTINUOUS
 62
3
 10
153.051737066246230
 20
-242.821345641397840
 11
153.051737066246230
 21
-21.821345641397770
  0
LINE
  8
0
  6
CONTINUOUS
 62
3
 10
132.042413826234910
 20
-58.710560925735521
 11
152.660179727871540
 21
-22.999542845539949
  0
LINE
  8
0
  6
CONTINUOUS
 62
3
 10
69.051737066246233
 20
-62.321345641397770
 11
140.709588564600150
 21
-59.818998326950336
  0
LINE
  8
0
  6
CONTINUOUS
 62
3
 10
173.051737066246230
 20
-132.321345641397780
 11
173.051737066246230
 21
-28.321345641397770
  0
LINE
  8
0
  6
CONTINUOUS
 62
3
 10
169.051737066246230
 20
-27.321345641397770
 11
172.051737066246230
 21
-27.321345641397770
  0
LINE
  8
0
  6
CONTINUOUS
 62
3
 10
172.051737066246230
 20
-27.321345641397770
 11
173.051737066246230
 21
-28.321345641397770
  0
LINE
  8
0
  6
CONTINUOUS
 62
3
 10
172.051737066246230
 20
-237.321345641397780
 11
169.051737066246230
 21
-237.321345641397780
  0
LINE
  8
0
  6
CONTINUOUS
 62
3
 10
173.051737066246230
 20
-236.321345641397780
 11
172.051737066246230
 21
-237.321345641397780
  0
LINE
  8
0
  6
CONTINUOUS
 62
3
 10
162.005697666060540
 20
-244.498776308735670
 11
162.005697666060540
 21
-244.821345641397840
  0
LINE
  8
0
  6
CONTINUOUS
 62
3
 10
173.051737066246230
 20
-132.321345641397780
 11
173.051737066246230
 21
-236.321345641397780
  0
ARC
  8
0
  6
CONTINUOUS
 62
3
 10
150.062103516517480
 20
-21.499542845539949
 40
3.000000000000640
 50
330.000000000007050
 51
356.309860996867600
  0
ARC
  8
0
  6
CONTINUOUS
 62
3
 10
155.051737066246230
 20
-242.821345641397840
 40
2.000000000000000
 50
180.000000000000000
 51
270.000000000000000
  0
LINE
  8
0
  6
CONTINUOUS
 62
3
 10
162.051737066246230
 20
-124.321345641397780
 11
162.051737066246230
 21
-44.034549076994594
  0
LINE
  8
0
  6
CONTINUOUS
 62
3
 10
169.051737066246690
 20
-41.034549076994594
 11
165.051737066246230
 21
-41.034549076994594
  0
LINE
  8
0
  6
CONTINUOUS
 62
3
 10
169.051737066246690
 20
-65.872772322084060
 11
165.051737066246230
 21
-65.872772322084060
  0
LINE
  8
0
  6
CONTINUOUS
 62
3
 10
165.051737066246230
 20
-127.321345641397780
 11
169.051737066246690
 21
-127.321345641397780
  0
ARC
  8
0
  6
CONTINUOUS
 62
3
 10
165.051737066246230
 20
-124.321345641397780
 40
3.000000000000000
 50
180.000000000000000
 51
270.000000000000000
  0
ARC
  8
0
  6
CONTINUOUS
 62
3
 10
165.051737066246230
 20
-68.872772322084060
 40
3.000000000000000
 50
90.000000000000000
 51
180.000000000000000
  0
ARC
  8
0
  6
CONTINUOUS
 62
3
 10
165.051737066246230
 20
-44.034549076994594
 40
3.000000000000000
 50
90.000000000000000
 51
180.000000000000000
  0
LINE
  8
0
  6
CONTINUOUS
 62
3
 10
165.051737066246230
 20
-137.321345641397780
 11
169.051737066246690
 21
-137.321345641397780
  0
LINE
  8
0
  6
CONTINUOUS
 62
3
 10
169.051737066246690
 20
-198.769918960711490
 11
165.051737066246230
 21
-198.769918960711490
  0
LINE
  8
0
  6
CONTINUOUS
 62
3
 10
169.051737066246690
 20
-223.608142205800960
 11
165.051737066246230
 21
-223.608142205800960
  0
ARC
  8
0
  6
CONTINUOUS
 62
3
 10
165.051737066246230
 20
-220.608142205800960
 40
3.000000000000000
 50
180.000000000000000
 51
270.000000000000000
  0
LINE
  8
0
  6
CONTINUOUS
 62
3
 10
162.051737066246230
 20
-140.321345641397780
 11
162.051737066246230
 21
-220.608142205800960
  0
ARC
  8
0
  6
CONTINUOUS
 62
3
 10
165.051737066246230
 20
-195.769918960711490
 40
3.000000000000000
 50
180.000000000000000
 51
270.000000000000000
  0
ARC
  8
0
  6
CONTINUOUS
 62
3
 10
165.051737066246230
 20
-140.321345641397780
 40
3.000000000000000
 50
90.000000000000000
 51
180.000000000000000
  0
LINE
  8
0
  6
DASHDOT
 62
4
 10
184.688246426087740
 20
-33.326396275281226
 11
145.692254236905460
 21
-33.326396275281226
  0
LINE
  8
0
  6
DASHDOT
 62
4
 10
184.688246426087740
 20
-231.316295007514780
 11
145.692254236905460
 21
-231.316295007514780
  0
ARC
  8
0
  6
CONTINUOUS
 62
3
 10
189.051737066268970
 20
-132.321345641397780
 40
5.000000000000000
 50
90.000000000000000
 51
270.000000000000000
  0
LINE
  8
0
  6
CONTINUOUS
 62
3
 10
229.051737066268060
 20
-137.321345641397780
 11
189.051737066268970
 21
-137.321345641397780
  0
LINE
  8
0
  6
CONTINUOUS
 62
3
 10
229.051737066268060
 20
-127.321345641397780
 11
189.051737066268970
 21
-127.321345641397780
  0
ARC
  8
0
  6
CONTINUOUS
 62
3
 10
228.651737066268420
 20
-147.921345641397690
 40
0.400000000000091
 50
270.000000000000000
 51
0.000000000000000
  0
LINE
  8
0
  6
CONTINUOUS
 62
3
 10
229.051737066268060
 20
-132.321345641397780
 11
229.051737066268060
 21
-147.921345641397690
  0
LINE
  8
0
  6
CONTINUOUS
 62
3
 10
179.051737066268060
 20
-149.121345641397510
 11
178.851737066268240
 21
-149.321345641397780
  0
ARC
  8
0
  6
CONTINUOUS
 62
3
 10
179.851737066268240
 20
-148.971345641397420
 40
0.799999999999727
 50
90.000000000000000
 51
176.296803365752200
  0
LINE
  8
0
  6
CONTINUOUS
 62
3
 10
179.051737066268060
 20
-149.121345641397510
 11
179.051737066268060
 21
-132.321345641397780
  0
LINE
  8
0
  6
CONTINUOUS
 62
3
 10
181.051737066268060
 20
-148.171345641397690
 11
179.851737066268240
 21
-148.171345641397690
  0
LINE
  8
0
  6
CONTINUOUS
 62
3
 10
228.651737066268420
 20
-148.321345641397780
 11
181.611544687403470
 21
-148.321345641397780
  0
LINE
  8
0
  6
CONTINUOUS
 62
3
 10
177.051737066246230
 20
-149.321345641397780
 11
178.851737066268240
 21
-149.321345641397780
  0
LINE
  8
0
  6
CONTINUOUS
 62
3
 10
181.051737066268060
 20
-148.171345641397690
 11
181.611544687403470
 21
-148.321345641397780
  0
LINE
  8
0
  6
CONTINUOUS
 62
3
 10
179.051737066268060
 20
-115.521345641397600
 11
178.851737066268240
 21
-115.321345641397780
  0
ARC
  8
0
  6
CONTINUOUS
 62
3
 10
179.851737066268240
 20
-115.671345641397690
 40
0.800000000000237
 50
183.703196634280290
 51
270.000000000000000
  0
LINE
  8
0
  6
CONTINUOUS
 62
3
 10
179.051737066268060
 20
-115.521345641397600
 11
179.051737066268060
 21
-132.321345641397780
  0
LINE
  8
0
  6
CONTINUOUS
 62
3
 10
177.051737066246230
 20
-115.321345641397780
 11
178.851737066268240
 21
-115.321345641397780
  0
LINE
  8
0
  6
CONTINUOUS
 62
3
 10
181.051737066268060
 20
-116.471345641397420
 11
179.851737066268240
 21
-116.471345641397420
  0
LINE
  8
0
  6
CONTINUOUS
 62
3
 10
181.051737066268060
 20
-116.471345641397420
 11
181.611544687403470
 21
-116.321345641397780
  0
LINE
  8
0
  6
CONTINUOUS
 62
3
 10
228.651737066268420
 20
-116.321345641397780
 11
181.611544687403470
 21
-116.321345641397780
  0
ARC
  8
0
  6
CONTINUOUS
 62
3
 10
228.651737066268420
 20
-116.721345641397420
 40
0.399999999999636
 50
0.000000000000000
 51
90.000000000000000
  0
LINE
  8
0
  6
CONTINUOUS
 62
3
 10
229.051737066268060
 20
-132.321345641397780
 11
229.051737066268060
 21
-116.721345641397420
  0
LINE
  8
0
  6
CONTINUOUS
 62
3
 10
150.070721787937830
 20
-76.880891645448159
 11
133.321282904535790
 21
-76.880891645448159
  0
LINE
  8
0
  6
CONTINUOUS
 62
3
 10
132.111094391849970
 20
-75.783827088523580
 11
152.370968986406070
 21
-51.091792459019857
  0
ARC
  8
0
  6
CONTINUOUS
 62
3
 10
129.791862471690140
 20
-73.880891645448159
 40
3.000000000000000
 50
270.000000000000000
 51
320.631038306637150
  0
ARC
  8
0
  6
CONTINUOUS
 62
3
 10
150.051737066246230
 20
-49.188857015944890
 40
2.999999999999867
 50
320.631038306643860
 51
0.000000000000000
  0
ARC
  8
0
  6
CONTINUOUS
 62
3
 10
150.051737066246230
 20
-43.703575641706706
 40
2.999999999999867
 50
320.631038306643860
 51
0.000000000000000
  0
LINE
  8
0
  6
CONTINUOUS
 62
3
 10
132.111094391849970
 20
-70.298545714285396
 11
152.370968986406070
 21
-45.606511084781673
  0
ARC
  8
0
  6
CONTINUOUS
 62
3
 10
129.791862471690140
 20
-68.395610271209975
 40
3.000000000000000
 50
270.000000000000000
 51
320.631038306637150
  0
LINE
  8
0
  6
CONTINUOUS
 62
3
 10
-46.248262933759634
 20
-102.821345641394470
 11
-46.248262933760316
 21
-137.821345641396080
  0
ARC
  8
0
  6
CONTINUOUS
 62
3
 10
-47.248262933759861
 20
-102.821345641394470
 40
1.000000000000227
 50
0.000000000000000
 51
90.000000000000000
  0
LINE
  8
0
  6
CONTINUOUS
 62
3
 10
-46.248262933759634
 20
-172.821345641394490
 11
-46.248262933760316
 21
-137.821345641392900
  0
ARC
  8
0
  6
CONTINUOUS
 62
3
 10
-47.248262933759861
 20
-172.821345641394490
 40
1.000000000000000
 50
270.000000000000000
 51
0.000000000000000
  0
ARC
  8
0
  6
CONTINUOUS
 62
3
 10
-135.248262933759860
 20
-172.821345641394490
 40
0.999999999999773
 50
180.000000000000000
 51
270.000000000000000
  0
LINE
  8
0
  6
CONTINUOUS
 62
3
 10
-47.248262933759861
 20
-173.821345641394490
 11
-135.248262933759860
 21
-173.821345641394490
  0
LINE
  8
0
  6
CONTINUOUS
 62
3
 10
-136.248262933759630
 20
-172.821345641394490
 11
-136.248262933760320
 21
-137.821345641394260
  0
LINE
  8
0
  6
CONTINUOUS
 62
3
 10
-136.248262933759630
 20
-102.821345641394470
 11
-136.248262933760320
 21
-137.821345641394710
  0
ARC
  8
0
  6
CONTINUOUS
 62
3
 10
-135.248262933759860
 20
-102.821345641394470
 40
1.000000000000000
 50
90.000000000000000
 51
180.000000000000000
  0
LINE
  8
0
  6
CONTINUOUS
 62
3
 10
-47.248262933759861
 20
-101.821345641394470
 11
-135.248262933759860
 21
-101.821345641394470
  0
ARC
  8
0
  6
CONTINUOUS
 62
3
 10
30.051752420373759
 20
-220.108969832268310
 40
2.000000000000000
 50
180.000000000000000
 51
267.000000000000910
  0
LINE
  8
0
  6
CONTINUOUS
 62
3
 10
34.051752420373759
 20
-222.321345641396360
 11
26.894744551645317
 21
-221.946262752685070
  0
ARC
  8
0
  6
CONTINUOUS
 62
3
 10
27.051752420374100
 20
-218.950374148421300
 40
3.000000000000000
 50
180.000000000000000
 51
267.000000000000970
  0
ARC
  8
0
  6
CONTINUOUS
 62
3
 10
19.065015667810712
 20
-219.410847866730530
 40
5.000000000000025
 50
3.299723825005552
 51
45.102043218056203
  0
LINE
  8
0
  6
CONTINUOUS
 62
3
 10
28.051752420373759
 20
-220.108969832268310
 11
28.051752420373759
 21
-199.321345641396360
  0
ARC
  8
0
  6
CONTINUOUS
 62
3
 10
26.051752420373759
 20
-199.321345641396360
 40
2.000000000000000
 50
0.000000000000000
 51
90.000000000000000
  0
ARC
  8
0
  6
CONTINUOUS
 62
3
 10
26.051752420374100
 20
-195.321345641396360
 40
2.000000000000000
 50
180.000000000000000
 51
270.000000000000000
  0
ARC
  8
0
  6
CONTINUOUS
 62
3
 10
21.051752420374100
 20
-193.836727040908560
 40
3.000000000000000
 50
0.000000000000000
 51
89.000000000000369
  0
LINE
  8
0
  6
CONTINUOUS
 62
3
 10
34.051752420373759
 20
-182.306410573877830
 11
24.051752420374100
 21
-182.306410573877830
  0
ARC
  8
0
  6
CONTINUOUS
 62
3
 10
26.051752420373759
 20
-125.321345641396360
 40
2.000000000000000
 50
270.000000000000000
 51
0.000000000000000
  0
ARC
  8
0
  6
CONTINUOUS
 62
3
 10
26.051752420374100
 20
-129.321345641396360
 40
2.000000000000000
 50
90.000000000000000
 51
180.000000000000000
  0
ARC
  8
0
  6
CONTINUOUS
 62
3
 10
30.051752420373759
 20
-104.114459216260050
 40
2.000000000000048
 50
87.000000000000995
 51
180.000000000000000
  0
LINE
  8
0
  6
CONTINUOUS
 62
3
 10
28.051752420373759
 20
-125.321345641396360
 11
28.051752420373759
 21
-104.114459216260050
  0
ARC
  8
0
  6
CONTINUOUS
 62
3
 10
34.051752420373759
 20
-100.321345641396360
 40
2.000000000000000
 50
180.000000000000000
 51
270.000000000000000
  0
LINE
  8
0
  6
CONTINUOUS
 62
3
 10
24.051752420374100
 20
-218.950374148421300
 11
24.051752420374100
 21
-105.821345641396420
  0
LINE
  8
0
  6
CONTINUOUS
 62
3
 10
34.051752420373759
 20
-142.336280708914900
 11
24.051752420374100
 21
-142.336280708914900
  0
LINE
  8
0
  6
CONTINUOUS
 62
3
 10
34.051752420373759
 20
-222.321345641396360
 11
34.051752420373759
 21
-102.321345641396360
  0
LINE
  8
0
  6
CONTINUOUS
 62
3
 10
21.104124993817550
 20
-190.837183955439460
 11
-7.948232225494166
 21
-190.330073173858690
  0
LINE
  8
0
  6
CONTINUOUS
 62
3
 10
22.594247218841701
 20
-215.869022820344470
 11
-1.520924879229824
 21
-191.839595868864820
  0
ARC
  8
0
  6
CONTINUOUS
 62
3
 10
-5.050156430260813
 20
-195.381420915250890
 40
5.000000000000026
 50
45.102043218056203
 51
89.000000000000824
  0
LINE
  8
0
  6
CONTINUOUS
 62
3
 10
7.051752420338062
 20
-157.821345641396310
 11
-7.948247579632380
 21
-157.821345641396310
  0
LINE
  8
0
  6
CONTINUOUS
 62
3
 10
10.086433757355962
 20
-170.321345641396310
 11
21.486194441707312
 21
-170.321345641396310
  0
LINE
  8
0
  6
CONTINUOUS
 62
3
 10
10.177631842832170
 20
-173.367403588656260
 11
21.668590612656089
 21
-173.367403588656260
  0
LINE
  8
0
  6
CONTINUOUS
 62
3
 10
10.648819408795362
 20
-127.321345641396360
 11
21.369774981955970
 21
-127.321345641396360
  0
ARC
  8
0
  6
CONTINUOUS
 62
3
 10
6.051752420338630
 20
-123.859222624806250
 40
1.000000000000000
 50
0.000000000000000
 51
59.999999999999460
  0
LINE
  8
0
  6
CONTINUOUS
 62
3
 10
6.051752420338744
 20
-122.127171817237350
 11
6.051752420338971
 21
-105.639532962143160
  0
ARC
  8
0
  6
CONTINUOUS
 62
3
 10
7.051752420338971
 20
-105.639532962143160
 40
0.999999999999984
 50
120.000000000000520
 51
180.000000000000000
  0
ARC
  8
0
  6
CONTINUOUS
 62
3
 10
6.051752420338971
 20
-103.907482154574260
 40
1.000000000000033
 50
299.999999999998920
 51
0.000000000000000
  0
ARC
  8
0
  6
CONTINUOUS
 62
3
 10
7.051752420338744
 20
-122.127171817237350
 40
1.000000000000000
 50
180.000000000000000
 51
239.999999999995450
  0
LINE
  8
0
  6
CONTINUOUS
 62
3
 10
10.861179162236340
 20
-113.535461412451630
 11
21.537763922651038
 21
-113.535461412451630
  0
LINE
  8
0
  6
CONTINUOUS
 62
3
 10
7.551724122622431
 20
-100.821345641394940
 11
7.551722665771990
 21
-100.821345641394940
  0
LINE
  8
0
  6
CONTINUOUS
 62
3
 10
7.051752420337607
 20
-190.591898879773850
 11
7.051752420338630
 21
-123.859222624806250
  0
LINE
  8
0
  6
CONTINUOUS
 62
3
 10
34.051752420373759
 20
-102.321345641396360
 11
11.790072639124332
 21
-101.154660440950860
  0
ARC
  8
0
  6
CONTINUOUS
 62
3
 10
12.051752420338971
 20
-96.161512767178010
 40
5.000000000000000
 50
179.999999999999350
 51
267.000000000000910
  0
LINE
  8
0
  6
CONTINUOUS
 62
3
 10
6.051752420338744
 20
-117.821345641396300
 11
-7.948247579630333
 21
-117.821345641396300
  0
LINE
  8
0
  6
CONTINUOUS
 62
3
 10
-7.948247579628742
 20
-85.321345641394487
 11
-7.948247579633971
 21
-190.330072905851180
  0
LINE
  8
0
  6
CONTINUOUS
 62
3
 10
7.051752420338971
 20
-103.907482154574260
 11
7.051752420339199
 21
-90.725982212043789
  0
LINE
  8
0
  6
CONTINUOUS
 62
3
 10
29.156450910481226
 20
-86.617070800606541
 11
-7.948262933760361
 21
-85.321345641394487
  0
LINE
  8
0
  6
DASHDOT
 62
4
 10
18.051752420373759
 20
-107.388696370401130
 11
18.051752420373759
 21
-82.925555372298163
  0
LINE
  8
0
  6
CONTINUOUS
 62
3
 10
32.051752420373759
 20
-100.321345641396360
 11
32.051752420373759
 21
-89.615243281663822
  0
ARC
  8
0
  6
CONTINUOUS
 62
3
 10
2.051767774470818
 20
-90.725982212043675
 40
5.000000000000000
 50
359.999999999998690
 51
88.000000000000256
  0
ARC
  8
0
  6
CONTINUOUS
 62
3
 10
29.051752420373759
 20
-89.615243281663822
 40
3.000000000000000
 50
0.000000000000000
 51
88.000000000000682
  0
LINE
  8
0
  6
DASHDOT
 62
4
 10
122.808975893542080
 20
-132.321345641397780
 11
240.334535942958610
 21
-132.321345641397780
  0
CIRCLE
  8
0
  6
DASHED
 62
4
 10
-124.248262933755990
 20
60.721226988378476
 40
6.000000000000000
  0
ARC
  8
0
  6
DASHED
 62
4
 10
-124.248262933755990
 20
60.721226988378476
 40
7.000000000000000
 50
180.000000000000000
 51
0.000000000000000
  0
LINE
  8
0
  6
DASHED
 62
4
 10
-117.248262933755990
 20
80.721226988378476
 11
-117.248262933755990
 21
60.721226988378476
  0
LINE
  8
0
  6
DASHED
 62
4
 10
-131.248262933756000
 20
80.721226988378476
 11
-131.248262933756000
 21
60.721226988378476
  0
LINE
  8
0
  6
DASHDOT
 62
4
 10
-124.248262933755990
 20
51.721226988378476
 11
-124.248262933755990
 21
78.722826310928212
  0
LINE
  8
0
  6
DASHDOT
 62
4
 10
-115.248262933755990
 20
60.721226988378476
 11
-133.248262933756000
 21
60.721226988378476
  0
LINE
  8
0
  6
CONTINUOUS
 62
3
 10
-7.948262933756041
 20
191.721226988378480
 11
-128.448262933777190
 21
191.721226988378480
  0
LINE
  8
0
  6
CONTINUOUS
 62
4
 10
-128.448262933777190
 20
152.221226988378480
 11
-7.948262933756041
 21
152.221226988378480
  0
LINE
  8
0
  6
CONTINUOUS
 62
4
 10
-128.448262933777190
 20
157.849261645016330
 11
-7.948262933756041
 21
157.849261645016330
  0
LINE
  8
0
  6
CONTINUOUS
 62
4
 10
-128.448262933777190
 20
156.607341780128420
 11
-7.948262933756041
 21
156.607341780128420
  0
LINE
  8
0
  6
CONTINUOUS
 62
4
 10
-128.448262933777190
 20
161.059466668374630
 11
-7.948262933756041
 21
161.059466668374630
  0
LINE
  8
0
  6
CONTINUOUS
 62
4
 10
-128.448262933777190
 20
162.405868393873220
 11
-7.948262933756041
 21
162.405868393873220
  0
LINE
  8
0
  6
CONTINUOUS
 62
4
 10
-128.448262933777190
 20
165.498599385538450
 11
-7.948262933756041
 21
165.498599385538450
  0
LINE
  8
0
  6
CONTINUOUS
 62
4
 10
-128.448262933777190
 20
166.977622539015560
 11
-7.948262933756041
 21
166.977622539015560
  0
LINE
  8
0
  6
CONTINUOUS
 62
4
 10
-128.448262933777190
 20
169.935618147148490
 11
-7.948262933756041
 21
169.935618147148490
  0
LINE
  8
0
  6
CONTINUOUS
 62
4
 10
-128.448262933777190
 20
171.524827939887250
 11
-7.948262933756041
 21
171.524827939887250
  0
LINE
  8
0
  6
CONTINUOUS
 62
4
 10
-128.448262933777190
 20
179.263140758718240
 11
-7.948262933756041
 21
179.263140758718240
  0
LINE
  8
0
  6
CONTINUOUS
 62
4
 10
-128.448262933777190
 20
184.354309583261170
 11
-7.948262933756041
 21
184.354309583261170
  0
LINE
  8
0
  6
CONTINUOUS
 62
4
 10
-128.448262933777190
 20
188.721226988378480
 11
-7.948262933756041
 21
188.721226988378480
  0
LINE
  8
0
  6
CONTINUOUS
 62
4
 10
-128.448262933777190
 20
189.221226988378480
 11
-7.948262933756041
 21
189.221226988378480
  0
LINE
  8
0
  6
CONTINUOUS
 62
4
 10
-128.448262933777190
 20
104.917626036869700
 11
-7.948262933756041
 21
104.917626036869700
  0
LINE
  8
0
  6
CONTINUOUS
 62
4
 10
-128.448262933777190
 20
106.506835829608460
 11
-7.948262933756041
 21
106.506835829608460
  0
LINE
  8
0
  6
CONTINUOUS
 62
4
 10
-128.448262933777190
 20
109.464831437741390
 11
-7.948262933756041
 21
109.464831437741390
  0
LINE
  8
0
  6
CONTINUOUS
 62
4
 10
-128.448262933777190
 20
110.943854591218490
 11
-7.948262933756041
 21
110.943854591218490
  0
LINE
  8
0
  6
CONTINUOUS
 62
4
 10
-128.448262933777190
 20
114.036585582883730
 11
-7.948262933756041
 21
114.036585582883730
  0
LINE
  8
0
  6
CONTINUOUS
 62
4
 10
-128.448262933776960
 20
115.382987308382320
 11
-7.948262933756041
 21
115.382987308382320
  0
LINE
  8
0
  6
CONTINUOUS
 62
4
 10
-128.448262933776960
 20
118.593192331740620
 11
-7.948262933756041
 21
118.593192331740620
  0
LINE
  8
0
  6
CONTINUOUS
 62
4
 10
-128.448262933776960
 20
119.835112196628520
 11
-7.948262933756041
 21
119.835112196628520
  0
LINE
  8
0
  6
CONTINUOUS
 62
4
 10
-128.448262933777190
 20
124.221226988378470
 11
-7.948262933756041
 21
124.221226988378470
  0
LINE
  8
0
  6
CONTINUOUS
 62
3
 10
-7.948262933756041
 20
84.721226988378476
 11
-7.948262933756041
 21
138.221226988378480
  0
LINE
  8
0
  6
CONTINUOUS
 62
3
 10
-128.448262933777190
 20
197.221226988378480
 11
-205.953107882869970
 21
197.221226988378480
  0
LINE
  8
0
  6
CONTINUOUS
 62
3
 10
-217.768782471701340
 20
193.495759100731680
 11
-225.339561668290120
 21
188.194642437159130
  0
LINE
  8
0
  6
CONTINUOUS
 62
3
 10
-226.448262933777190
 20
186.064847122007790
 11
-226.448262933777190
 21
138.221226988378480
  0
ARC
  8
0
  6
CONTINUOUS
 62
3
 10
-223.848262933777280
 20
186.064847122007790
 40
2.600000000000131
 50
125.000000000001180
 51
180.000000000000000
  0
ARC
  8
0
  6
CONTINUOUS
 62
3
 10
-205.953107882869970
 20
176.621226988378450
 40
20.600000000000023
 50
90.000000000000000
 51
124.999999999999600
  0
LINE
  8
0
  6
CONTINUOUS
 62
3
 10
-128.448262933777190
 20
197.221226988378480
 11
-128.448262933776960
 21
138.221226988378480
  0
LINE
  8
0
  6
CONTINUOUS
 62
3
 10
-139.448262933777190
 20
187.365148011103660
 11
-141.448262933777190
 21
185.712506371980230
  0
LINE
  8
0
  6
CONTINUOUS
 62
3
 10
-137.448262933777190
 20
188.540933496726440
 11
-139.448262933777190
 21
187.365148011103660
  0
LINE
  8
0
  6
CONTINUOUS
 62
3
 10
-139.448262933777190
 20
187.365148011103660
 11
-137.448262933777190
 21
185.712506371980230
  0
LINE
  8
0
  6
CONTINUOUS
 62
3
 10
-141.448262933777190
 20
188.540933496726440
 11
-139.448262933777190
 21
187.365148011103660
  0
POLYLINE
  8
0
  6
CONTINUOUS
 62
3
 66
1
 70
1
  0
VERTEX
  8
0
  6
CONTINUOUS
 62
3
 10
-134.748262933776970
 20
185.548557942726010
  0
VERTEX
  8
0
  6
CONTINUOUS
 62
3
 10
-134.838572115881790
 20
186.251514908926370
  0
VERTEX
  8
0
  6
CONTINUOUS
 62
3
 10
-135.106029130973920
 20
186.927457633138460
  0
VERTEX
  8
0
  6
CONTINUOUS
 62
3
 10
-135.540355755955010
 20
187.550410015543860
  0
VERTEX
  8
0
  6
CONTINUOUS
 62
3
 10
-136.124861062200180
 20
188.096432345442450
  0
VERTEX
  8
0
  6
CONTINUOUS
 62
3
 10
-136.837082838584850
 20
188.544541290909080
  0
VERTEX
  8
0
  6
CONTINUOUS
 62
3
 10
-137.649650801661040
 20
188.877516276471820
  0
VERTEX
  8
0
  6
CONTINUOUS
 62
3
 10
-138.531338420301150
 20
189.082561260170080
  0
VERTEX
  8
0
  6
CONTINUOUS
 62
3
 10
-139.448262933776960
 20
189.151796478270850
  0
VERTEX
  8
0
  6
CONTINUOUS
 62
3
 10
-140.365187447252770
 20
189.082561260170080
  0
VERTEX
  8
0
  6
CONTINUOUS
 62
3
 10
-141.246875065892880
 20
188.877516276471820
  0
VERTEX
  8
0
  6
CONTINUOUS
 62
3
 10
-142.059443028969070
 20
188.544541290909080
  0
VERTEX
  8
0
  6
CONTINUOUS
 62
3
 10
-142.771664805353740
 20
188.096432345442450
  0
VERTEX
  8
0
  6
CONTINUOUS
 62
3
 10
-143.356170111598910
 20
187.550410015543860
  0
VERTEX
  8
0
  6
CONTINUOUS
 62
3
 10
-143.790496736580000
 20
186.927457633138460
  0
VERTEX
  8
0
  6
CONTINUOUS
 62
3
 10
-144.057953751672130
 20
186.251514908926370
  0
VERTEX
  8
0
  6
CONTINUOUS
 62
3
 10
-144.148262933776950
 20
185.548557942726010
  0
VERTEX
  8
0
  6
CONTINUOUS
 62
3
 10
-144.057953751672130
 20
184.845600976525650
  0
VERTEX
  8
0
  6
CONTINUOUS
 62
3
 10
-143.790496736580000
 20
184.169658252313550
  0
VERTEX
  8
0
  6
CONTINUOUS
 62
3
 10
-143.356170111598910
 20
183.546705869908150
  0
VERTEX
  8
0
  6
CONTINUOUS
 62
3
 10
-142.771664805353710
 20
183.000683540009560
  0
VERTEX
  8
0
  6
CONTINUOUS
 62
3
 10
-142.059443028969070
 20
182.552574594542930
  0
VERTEX
  8
0
  6
CONTINUOUS
 62
3
 10
-141.246875065892880
 20
182.219599608980190
  0
VERTEX
  8
0
  6
CONTINUOUS
 62
3
 10
-140.365187447252770
 20
182.014554625281930
  0
VERTEX
  8
0
  6
CONTINUOUS
 62
3
 10
-139.448262933776960
 20
181.945319407181160
  0
VERTEX
  8
0
  6
CONTINUOUS
 62
3
 10
-138.531338420301150
 20
182.014554625281930
  0
VERTEX
  8
0
  6
CONTINUOUS
 62
3
 10
-137.649650801661040
 20
182.219599608980190
  0
VERTEX
  8
0
  6
CONTINUOUS
 62
3
 10
-136.837082838584850
 20
182.552574594542930
  0
VERTEX
  8
0
  6
CONTINUOUS
 62
3
 10
-136.124861062200210
 20
183.000683540009560
  0
VERTEX
  8
0
  6
CONTINUOUS
 62
3
 10
-135.540355755955010
 20
183.546705869908150
  0
VERTEX
  8
0
  6
CONTINUOUS
 62
3
 10
-135.106029130973920
 20
184.169658252313550
  0
VERTEX
  8
0
  6
CONTINUOUS
 62
3
 10
-134.838572115881790
 20
184.845600976525650
  0
SEQEND
  8
0
  6
CONTINUOUS
 62
3
  0
LINE
  8
0
  6
CONTINUOUS
 62
3
 10
-136.248262933756000
 20
80.721226988378476
 11
-46.248262933755996
 21
80.721226988378476
  0
LINE
  8
0
  6
CONTINUOUS
 62
3
 10
-136.248262933756000
 20
83.772897086535522
 11
-136.248262933756000
 21
47.721226988378476
  0
LINE
  8
0
  6
CONTINUOUS
 62
3
 10
-138.448262933777190
 20
79.221226988378476
 11
-138.448262933777190
 21
80.881530627569532
  0
LINE
  8
0
  6
CONTINUOUS
 62
3
 10
-138.448262933777190
 20
79.221226988378476
 11
-205.953107882869970
 21
79.221226988378476
  0
ARC
  8
0
  6
CONTINUOUS
 62
3
 10
-135.448262933777190
 20
80.881530627569532
 40
3.000000000000000
 50
90.000000000000000
 51
180.000000000000000
  0
LINE
  8
0
  6
CONTINUOUS
 62
3
 10
-135.448262933777190
 20
83.881530627569532
 11
-131.448262933777190
 21
83.881530627569532
  0
ARC
  8
0
  6
CONTINUOUS
 62
3
 10
-131.448262933777190
 20
86.881530627569532
 40
3.000000000000000
 50
270.000000000000000
 51
359.999999999997780
  0
LINE
  8
0
  6
CONTINUOUS
 62
3
 10
-128.448262933777190
 20
86.881530627569418
 11
-128.448262933776960
 21
138.221226988378480
  0
LINE
  8
0
  6
CONTINUOUS
 62
3
 10
-139.448262933777190
 20
89.077305965653409
 11
-141.448262933777190
 21
90.729947604776726
  0
LINE
  8
0
  6
CONTINUOUS
 62
3
 10
-137.448262933777190
 20
87.901520480030513
 11
-139.448262933777190
 21
89.077305965653409
  0
LINE
  8
0
  6
CONTINUOUS
 62
3
 10
-139.448262933777190
 20
89.077305965653409
 11
-137.448262933777190
 21
90.729947604776726
  0
LINE
  8
0
  6
CONTINUOUS
 62
3
 10
-141.448262933777190
 20
87.901520480030513
 11
-139.448262933777190
 21
89.077305965653409
  0
POLYLINE
  8
0
  6
CONTINUOUS
 62
3
 66
1
 70
1
  0
VERTEX
  8
0
  6
CONTINUOUS
 62
3
 10
-134.748262933776970
 20
90.893896034030945
  0
VERTEX
  8
0
  6
CONTINUOUS
 62
3
 10
-134.838572115881790
 20
91.596853000231306
  0
VERTEX
  8
0
  6
CONTINUOUS
 62
3
 10
-135.106029130973920
 20
92.272795724443398
  0
VERTEX
  8
0
  6
CONTINUOUS
 62
3
 10
-135.540355755955010
 20
92.895748106848799
  0
VERTEX
  8
0
  6
CONTINUOUS
 62
3
 10
-136.124861062200180
 20
93.441770436747376
  0
VERTEX
  8
0
  6
CONTINUOUS
 62
3
 10
-136.837082838584850
 20
93.889879382213991
  0
VERTEX
  8
0
  6
CONTINUOUS
 62
3
 10
-137.649650801661040
 20
94.222854367776762
  0
VERTEX
  8
0
  6
CONTINUOUS
 62
3
 10
-138.531338420301150
 20
94.427899351475006
  0
VERTEX
  8
0
  6
CONTINUOUS
 62
3
 10
-139.448262933776960
 20
94.497134569575778
  0
VERTEX
  8
0
  6
CONTINUOUS
 62
3
 10
-140.365187447252770
 20
94.427899351475006
  0
VERTEX
  8
0
  6
CONTINUOUS
 62
3
 10
-141.246875065892880
 20
94.222854367776762
  0
VERTEX
  8
0
  6
CONTINUOUS
 62
3
 10
-142.059443028969070
 20
93.889879382213991
  0
VERTEX
  8
0
  6
CONTINUOUS
 62
3
 10
-142.771664805353740
 20
93.441770436747376
  0
VERTEX
  8
0
  6
CONTINUOUS
 62
3
 10
-143.356170111598910
 20
92.895748106848799
  0
VERTEX
  8
0
  6
CONTINUOUS
 62
3
 10
-143.790496736580000
 20
92.272795724443398
  0
VERTEX
  8
0
  6
CONTINUOUS
 62
3
 10
-144.057953751672130
 20
91.596853000231306
  0
VERTEX
  8
0
  6
CONTINUOUS
 62
3
 10
-144.148262933776950
 20
90.893896034030945
  0
VERTEX
  8
0
  6
CONTINUOUS
 62
3
 10
-144.057953751672130
 20
90.190939067830584
  0
VERTEX
  8
0
  6
CONTINUOUS
 62
3
 10
-143.790496736580000
 20
89.514996343618492
  0
VERTEX
  8
0
  6
CONTINUOUS
 62
3
 10
-143.356170111598910
 20
88.892043961213091
  0
VERTEX
  8
0
  6
CONTINUOUS
 62
3
 10
-142.771664805353710
 20
88.346021631314514
  0
VERTEX
  8
0
  6
CONTINUOUS
 62
3
 10
-142.059443028969070
 20
87.897912685847899
  0
VERTEX
  8
0
  6
CONTINUOUS
 62
3
 10
-141.246875065892880
 20
87.564937700285128
  0
VERTEX
  8
0
  6
CONTINUOUS
 62
3
 10
-140.365187447252770
 20
87.359892716586884
  0
VERTEX
  8
0
  6
CONTINUOUS
 62
3
 10
-139.448262933776960
 20
87.290657498486112
  0
VERTEX
  8
0
  6
CONTINUOUS
 62
3
 10
-138.531338420301150
 20
87.359892716586884
  0
VERTEX
  8
0
  6
CONTINUOUS
 62
3
 10
-137.649650801661040
 20
87.564937700285128
  0
VERTEX
  8
0
  6
CONTINUOUS
 62
3
 10
-136.837082838584850
 20
87.897912685847899
  0
VERTEX
  8
0
  6
CONTINUOUS
 62
3
 10
-136.124861062200210
 20
88.346021631314514
  0
VERTEX
  8
0
  6
CONTINUOUS
 62
3
 10
-135.540355755955010
 20
88.892043961213091
  0
VERTEX
  8
0
  6
CONTINUOUS
 62
3
 10
-135.106029130973920
 20
89.514996343618492
  0
VERTEX
  8
0
  6
CONTINUOUS
 62
3
 10
-134.838572115881790
 20
90.190939067830584
  0
SEQEND
  8
0
  6
CONTINUOUS
 62
3
  0
LINE
  8
0
  6
CONTINUOUS
 62
3
 10
-46.248262933755996
 20
85.721226988378476
 11
-128.448262933777190
 21
85.721226988378476
  0
LINE
  8
0
  6
CONTINUOUS
 62
3
 10
-129.248262933756000
 20
46.721226988378476
 11
-129.248262933756000
 21
46.221226988378476
  0
LINE
  8
0
  6
CONTINUOUS
 62
3
 10
-121.248262933755990
 20
46.721226988378476
 11
-121.248262933755990
 21
46.221226988378476
  0
LINE
  8
0
  6
CONTINUOUS
 62
3
 10
-53.248262933755996
 20
46.721226988378476
 11
-53.248262933755996
 21
46.221226988378476
  0
LINE
  8
0
  6
CONTINUOUS
 62
3
 10
-61.248262933755996
 20
46.721226988378476
 11
-61.248262933755996
 21
46.221226988378476
  0
LINE
  8
0
  6
CONTINUOUS
 62
3
 10
-61.248262933755996
 20
46.221226988378476
 11
-53.248262933755996
 21
46.221226988378476
  0
LINE
  8
0
  6
CONTINUOUS
 62
3
 10
-129.248262933756000
 20
46.221226988378476
 11
-121.248262933755990
 21
46.221226988378476
  0
ARC
  8
0
  6
CONTINUOUS
 62
3
 10
-135.248262933756000
 20
47.721226988378476
 40
1.000000000000000
 50
180.000000000000000
 51
270.000000000000000
  0
LINE
  8
0
  6
CONTINUOUS
 62
3
 10
-135.248262933756000
 20
46.721226988378476
 11
-47.248262933755996
 21
46.721226988378476
  0
ARC
  8
0
  6
CONTINUOUS
 62
3
 10
-47.248262933755996
 20
47.721226988378476
 40
1.000000000000000
 50
270.000000000000000
 51
0.000000000000000
  0
LINE
  8
0
  6
CONTINUOUS
 62
3
 10
-46.248262933755996
 20
85.721226988378476
 11
-46.248262933755996
 21
47.721226988378476
  0
LINE
  8
0
  6
CONTINUOUS
 62
3
 10
-7.948262933756041
 20
84.721226988378476
 11
-46.248262933755996
 21
84.721226988378476
  0
LINE
  8
0
  6
CONTINUOUS
 62
4
 10
-128.448262933777190
 20
87.221226988378476
 11
-7.948262933756041
 21
87.221226988378476
  0
LINE
  8
0
  6
CONTINUOUS
 62
4
 10
-128.448262933777190
 20
87.721226988378476
 11
-7.948262933756041
 21
87.721226988378476
  0
LINE
  8
0
  6
CONTINUOUS
 62
4
 10
-128.448262933777190
 20
92.088144393495782
 11
-7.948262933756041
 21
92.088144393495782
  0
LINE
  8
0
  6
CONTINUOUS
 62
4
 10
-128.448262933777190
 20
97.179313218038715
 11
-7.948262933756041
 21
97.179313218038715
  0
LINE
  8
0
  6
CONTINUOUS
 62
3
 10
-226.448262933777190
 20
90.377606854749160
 11
-226.448262933777190
 21
138.221226988378480
  0
LINE
  8
0
  6
CONTINUOUS
 62
3
 10
-217.768782471701340
 20
82.946694876025276
 11
-225.339561668290120
 21
88.247811539597819
  0
ARC
  8
0
  6
CONTINUOUS
 62
3
 10
-223.848262933777280
 20
90.377606854749160
 40
2.599999999999909
 50
180.000000000000000
 51
234.999999999998810
  0
ARC
  8
0
  6
CONTINUOUS
 62
3
 10
-205.953107882869970
 20
99.821226988378498
 40
20.599999999999891
 50
235.000000000000400
 51
270.000000000000000
  0
ARC
  8
0
  6
CONTINUOUS
 62
3
 10
54.551737066251235
 20
62.953277795947997
 40
2.000000000000164
 50
299.999999999997270
 51
0.000000000000000
  0
ARC
  8
0
  6
CONTINUOUS
 62
3
 10
56.551737066251690
 20
59.489176180809864
 40
2.000000000000391
 50
120.000000000008560
 51
180.000000000000000
  0
LINE
  8
0
  6
DASHDOT
 62
4
 10
18.051737066247597
 20
128.520447629450700
 11
18.051737066247597
 21
149.380716932156700
  0
LINE
  8
0
  6
CONTINUOUS
 62
3
 10
34.051737066247597
 20
80.921226988380681
 11
34.051737066247597
 21
78.721226988378476
  0
LINE
  8
0
  6
CONTINUOUS
 62
3
 10
34.051737066247597
 20
195.521226988376380
 11
34.051737066247597
 21
197.721226988378480
  0
LINE
  8
0
  6
DASHDOT
 62
4
 10
-251.374498023407110
 20
138.221226988378480
 11
250.211563153154880
 21
138.221226988378480
  0
LINE
  8
0
  6
CONTINUOUS
 62
3
 10
34.051737066248961
 20
155.221226988379390
 11
34.051737066251690
 21
197.721226988379390
  0
LINE
  8
0
  6
CONTINUOUS
 62
3
 10
34.051737066251690
 20
197.721226988379390
 11
53.708744934979450
 21
198.751407118127640
  0
ARC
  8
0
  6
CONTINUOUS
 62
3
 10
53.551737066250780
 20
201.747295722391300
 40
2.999999999999925
 50
272.999999999996990
 51
359.999999999991300
  0
LINE
  8
0
  6
CONTINUOUS
 62
3
 10
56.551737066248052
 20
161.721226988378480
 11
56.551737066252599
 21
230.221226988378020
  0
LINE
  8
0
  6
CONTINUOUS
 62
3
 10
54.551737066251462
 20
216.953277795947320
 11
54.551737066252599
 21
230.221226988378020
  0
LINE
  8
0
  6
CONTINUOUS
 62
3
 10
49.051738019926006
 20
215.721226988378480
 11
49.051738019926461
 21
228.721226988378480
  0
LINE
  8
0
  6
CONTINUOUS
 62
3
 10
49.051739284411497
 20
228.721226965677490
 11
48.551738334218271
 21
227.855297394609350
  0
LINE
  8
0
  6
CONTINUOUS
 62
3
 10
49.051738657783744
 20
215.721226964310520
 11
48.551738631636681
 21
216.587351104444680
  0
LINE
  8
0
  6
CONTINUOUS
 62
3
 10
54.551737066252372
 20
228.721226988378250
 11
49.051738973600777
 21
228.721226988378480
  0
LINE
  8
0
  6
CONTINUOUS
 62
3
 10
54.976284493950971
 20
215.721226988378020
 11
49.051738019926006
 21
215.721226988378480
  0
LINE
  8
0
  6
CONTINUOUS
 62
3
 10
48.551738019926006
 20
216.587351141516140
 11
48.551738019926461
 21
227.855297384802270
  0
ARC
  8
0
  6
CONTINUOUS
 62
3
 10
56.551737066252599
 20
230.221226988378020
 40
2.000000000000000
 50
90.000000000000000
 51
180.000000000000000
  0
LINE
  8
0
  6
CONTINUOUS
 62
3
 10
69.051737066246233
 20
232.221226988377110
 11
56.551737066252599
 21
232.221226988378020
  0
ARC
  8
0
  6
CONTINUOUS
 62
3
 10
56.551737066251690
 20
216.953277795947090
 40
2.000000000000000
 50
180.000000000000000
 51
239.999999999991450
  0
ARC
  8
0
  6
CONTINUOUS
 62
3
 10
54.551737066251235
 20
213.489176180808950
 40
2.000000000000000
 50
0.000000000000000
 51
60.000000000002721
  0
LINE
  8
0
  6
CONTINUOUS
 62
3
 10
34.051737066248052
 20
138.221226988379390
 11
34.051737066248506
 21
142.221226988379390
  0
LINE
  8
0
  6
CONTINUOUS
 62
3
 10
45.551737066253509
 20
158.721226988378930
 11
41.051737066252599
 21
158.721226988378930
  0
LINE
  8
0
  6
CONTINUOUS
 62
3
 10
45.551737066252599
 20
138.221226988379390
 11
45.551737066253509
 21
158.721226988378930
  0
LINE
  8
0
  6
CONTINUOUS
 62
3
 10
41.051737066251690
 20
138.221226988378930
 11
41.051737066252599
 21
158.721226988378930
  0
ARC
  8
0
  6
CONTINUOUS
 62
3
 10
53.551737066248052
 20
161.721226988378480
 40
3.000000000000000
 50
270.000000000000000
 51
359.999999999991300
  0
LINE
  8
0
  6
CONTINUOUS
 62
3
 10
53.551737066247597
 20
158.721226988378480
 11
48.551737066253509
 21
158.721226988378480
  0
ARC
  8
0
  6
CONTINUOUS
 62
3
 10
48.551737066253509
 20
155.721226988378480
 40
3.000000000000000
 50
90.000000000000000
 51
179.999999999991330
  0
ARC
  8
0
  6
CONTINUOUS
 62
3
 10
58.551737066252599
 20
230.221226988378020
 40
2.000000000000000
 50
90.000000000000000
 51
180.000000000000000
  0
LINE
  8
0
  6
CONTINUOUS
 62
3
 10
68.551737066246233
 20
138.221226988378480
 11
68.551737066252599
 21
232.221226988377110
  0
LINE
  8
0
  6
CONTINUOUS
 62
3
 10
34.051737066248052
 20
121.221226988379380
 11
34.051737066248052
 21
78.721226988379385
  0
LINE
  8
0
  6
CONTINUOUS
 62
3
 10
34.051737066248052
 20
78.721226988379385
 11
53.708744934975357
 21
77.691046858630216
  0
ARC
  8
0
  6
CONTINUOUS
 62
3
 10
53.551737066246233
 20
74.695158254366561
 40
3.000000000000000
 50
0.000000000000000
 51
86.999999999994344
  0
LINE
  8
0
  6
CONTINUOUS
 62
3
 10
56.551737066246233
 20
114.721226988379380
 11
56.551737066246233
 21
46.221226988379385
  0
LINE
  8
0
  6
CONTINUOUS
 62
3
 10
54.551737066246233
 20
59.489176180809864
 11
54.551737066246233
 21
46.221226988379385
  0
LINE
  8
0
  6
CONTINUOUS
 62
3
 10
49.051738019920549
 20
60.721226988379385
 11
49.051738019920549
 21
47.721226988379385
  0
LINE
  8
0
  6
CONTINUOUS
 62
3
 10
49.051739284405585
 20
47.721227011080373
 11
48.551738334212814
 21
48.587156582148964
  0
LINE
  8
0
  6
CONTINUOUS
 62
3
 10
49.051738657778287
 20
60.721227012447343
 11
48.551738631631224
 21
59.855102872313637
  0
LINE
  8
0
  6
CONTINUOUS
 62
3
 10
54.551737066246233
 20
47.721226988379385
 11
49.051738973594865
 21
47.721226988379385
  0
LINE
  8
0
  6
CONTINUOUS
 62
3
 10
54.976284493951425
 20
60.721226988379385
 11
49.051738019920549
 21
60.721226988379385
  0
LINE
  8
0
  6
CONTINUOUS
 62
3
 10
48.551738019920549
 20
59.855102835242178
 11
48.551738019920549
 21
48.587156591956045
  0
ARC
  8
0
  6
CONTINUOUS
 62
3
 10
56.551737066246233
 20
46.221226988379385
 40
2.000000000000000
 50
180.000000000000000
 51
270.000000000000000
  0
LINE
  8
0
  6
CONTINUOUS
 62
3
 10
69.051737066246233
 20
44.221226988379385
 11
56.551737066246233
 21
44.221226988379385
  0
LINE
  8
0
  6
CONTINUOUS
 62
3
 10
34.051737066248052
 20
138.221226988379390
 11
34.051737066248052
 21
134.221226988379390
  0
LINE
  8
0
  6
CONTINUOUS
 62
3
 10
45.551737066252599
 20
117.721226988379380
 11
41.051737066251690
 21
117.721226988379380
  0
LINE
  8
0
  6
CONTINUOUS
 62
3
 10
45.551737066252599
 20
138.221226988378930
 11
45.551737066252599
 21
117.721226988379380
  0
LINE
  8
0
  6
CONTINUOUS
 62
3
 10
41.051737066251690
 20
138.221226988379390
 11
41.051737066251690
 21
117.721226988379380
  0
ARC
  8
0
  6
CONTINUOUS
 62
3
 10
53.551737066246233
 20
114.721226988379380
 40
3.000000000000000
 50
0.000000000000000
 51
90.000000000000000
  0
LINE
  8
0
  6
CONTINUOUS
 62
3
 10
53.551737066246233
 20
117.721226988379380
 11
48.551737066252599
 21
117.721226988379380
  0
ARC
  8
0
  6
CONTINUOUS
 62
3
 10
48.551737066252599
 20
120.721226988379380
 40
3.000000000000000
 50
180.000000000000000
 51
270.000000000000000
  0
ARC
  8
0
  6
CONTINUOUS
 62
3
 10
58.551737066246233
 20
46.221226988379385
 40
2.000000000000000
 50
180.000000000000000
 51
270.000000000000000
  0
LINE
  8
0
  6
CONTINUOUS
 62
3
 10
68.551737066246233
 20
138.221226988378020
 11
68.551737066246233
 21
44.221226988379385
  0
LINE
  8
0
  6
CONTINUOUS
 62
3
 10
69.051737066246233
 20
232.221226988377570
 11
150.156435556353930
 21
235.053465469047750
  0
LINE
  8
0
  6
CONTINUOUS
 62
3
 10
69.051737066246233
 20
44.221226988379385
 11
150.156435556353930
 21
41.388988507709200
  0
LINE
  8
0
  6
CONTINUOUS
 62
3
 10
69.051737066246233
 20
44.221226988379385
 11
69.051737066246233
 21
232.221226988378020
  0
LINE
  8
0
  6
CONTINUOUS
 62
3
 10
24.051737066245323
 20
168.651803911661090
 11
10.051737066210308
 21
168.651803911661090
  0
ARC
  8
0
  6
CONTINUOUS
 62
3
 10
10.051737066210308
 20
171.651803911661090
 40
3.000000000000000
 50
180.000000000000000
 51
270.000000000000000
  0
ARC
  8
0
  6
CONTINUOUS
 62
3
 10
2.051737066210308
 20
184.221226988378480
 40
5.000000000000000
 50
0.000000000000000
 51
90.000000000000000
  0
LINE
  8
0
  6
CONTINUOUS
 62
3
 10
-7.948262933758542
 20
189.221226988378480
 11
2.051737066210308
 21
189.221226988378480
  0
ARC
  8
0
  6
CONTINUOUS
 62
3
 10
2.051737066210308
 20
186.721226988378480
 40
5.000000000000000
 50
0.000000000000000
 51
90.000000000000000
  0
LINE
  8
0
  6
CONTINUOUS
 62
3
 10
-7.948262933758656
 20
191.721226988378480
 11
21.051737066245323
 21
191.721226988378480
  0
LINE
  8
0
  6
CONTINUOUS
 62
3
 10
7.051737066210308
 20
186.721226988378480
 11
7.051737066210308
 21
154.221226988378480
  0
LINE
  8
0
  6
CONTINUOUS
 62
3
 10
-7.948262933756041
 20
191.721226988378480
 11
-7.948262933756041
 21
138.221226988378480
  0
LINE
  8
0
  6
CONTINUOUS
 62
3
 10
24.051737066245323
 20
107.790650065095630
 11
10.051737066210308
 21
107.790650065095630
  0
ARC
  8
0
  6
CONTINUOUS
 62
3
 10
10.051737066210308
 20
104.790650065095630
 40
3.000000000000000
 50
90.000000000000000
 51
180.000000000000000
  0
ARC
  8
0
  6
CONTINUOUS
 62
3
 10
10.051737066210308
 20
122.221226988378470
 40
3.000000000000000
 50
90.000000000000000
 51
180.000000000000000
  0
LINE
  8
0
  6
CONTINUOUS
 62
3
 10
-7.948262933756723
 20
125.221226988378470
 11
29.051737066245096
 21
125.221226988378470
  0
LINE
  8
0
  6
CONTINUOUS
 62
3
 10
7.051737066210308
 20
89.721226988378476
 11
7.051737066210308
 21
122.221226988378470
  0
ARC
  8
0
  6
CONTINUOUS
 62
3
 10
2.051737066210308
 20
92.221226988378476
 40
5.000000000000000
 50
270.000000000000000
 51
0.000000000000000
  0
LINE
  8
0
  6
CONTINUOUS
 62
3
 10
-7.948262933758542
 20
87.221226988378476
 11
2.051737066210308
 21
87.221226988378476
  0
ARC
  8
0
  6
CONTINUOUS
 62
3
 10
2.051737066210308
 20
89.721226988378476
 40
5.000000000000000
 50
270.000000000000000
 51
0.000000000000000
  0
LINE
  8
0
  6
CONTINUOUS
 62
3
 10
-7.948262933758656
 20
84.721226988378476
 11
21.051737066245323
 21
84.721226988378476
  0
ARC
  8
0
  6
CONTINUOUS
 62
3
 10
10.051737066210308
 20
154.221226988378480
 40
3.000000000000000
 50
180.000000000000000
 51
270.000000000000000
  0
LINE
  8
0
  6
CONTINUOUS
 62
3
 10
-7.948262933756723
 20
151.221226988378480
 11
29.051737066245096
 21
151.221226988378480
  0
CIRCLE
  8
0
  6
CONTINUOUS
 62
3
 10
18.051737066245096
 20
138.221226988378480
 40
8.349999999999909
  0
LINE
  8
0
  6
DASHDOT
 62
4
 10
18.051737066245096
 20
128.520447629450700
 11
18.051737066245096
 21
149.380716932156700
  0
LINE
  8
0
  6
CONTINUOUS
 62
3
 10
24.051737066245323
 20
194.350255495403420
 11
24.051737066245323
 21
151.221226988378480
  0
ARC
  8
0
  6
CONTINUOUS
 62
3
 10
26.051737066245323
 20
166.651803911661090
 40
2.000000000000000
 50
90.000000000000000
 51
180.000000000000000
  0
ARC
  8
0
  6
CONTINUOUS
 62
3
 10
26.051737066245096
 20
170.651803911661090
 40
2.000000000000000
 50
270.000000000000000
 51
0.000000000000000
  0
LINE
  8
0
  6
CONTINUOUS
 62
3
 10
28.051737066245096
 20
195.508851179250540
 11
28.051737066245096
 21
170.651803911661090
  0
ARC
  8
0
  6
CONTINUOUS
 62
3
 10
21.051737066245323
 20
194.721226988378480
 40
3.000000000000000
 50
270.000000000000000
 51
0.000000000000000
  0
ARC
  8
0
  6
CONTINUOUS
 62
3
 10
27.051737066245323
 20
194.350255495403420
 40
2.999999999999925
 50
92.999999999996973
 51
180.000000000000000
  0
LINE
  8
0
  6
CONTINUOUS
 62
3
 10
34.051737066245096
 20
197.721226988378480
 11
26.894729197516540
 21
197.346144099667300
  0
ARC
  8
0
  6
CONTINUOUS
 62
3
 10
30.051737066245096
 20
195.508851179250540
 40
1.999999999999878
 50
92.999999999999261
 51
180.000000000000000
  0
LINE
  8
0
  6
CONTINUOUS
 62
3
 10
24.051737066245323
 20
81.721226988378476
 11
24.051737066245323
 21
125.221226988378470
  0
ARC
  8
0
  6
CONTINUOUS
 62
3
 10
26.051737066245323
 20
109.790650065095630
 40
2.000000000000000
 50
180.000000000000000
 51
270.000000000000000
  0
ARC
  8
0
  6
CONTINUOUS
 62
3
 10
26.051737066245096
 20
105.790650065095630
 40
2.000000000000000
 50
0.000000000000000
 51
90.000000000000000
  0
LINE
  8
0
  6
CONTINUOUS
 62
3
 10
28.051737066245096
 20
80.933602797506410
 11
28.051737066245096
 21
105.790650065095630
  0
ARC
  8
0
  6
CONTINUOUS
 62
3
 10
21.051737066245323
 20
81.721226988378476
 40
3.000000000000000
 50
0.000000000000000
 51
90.000000000000000
  0
ARC
  8
0
  6
CONTINUOUS
 62
3
 10
27.051737066245323
 20
82.092198481353307
 40
3.000000000000000
 50
180.000000000000000
 51
267.000000000003010
  0
LINE
  8
0
  6
CONTINUOUS
 62
3
 10
34.051737066245096
 20
78.721226988378476
 11
26.894729197516540
 21
79.096309877089652
  0
ARC
  8
0
  6
CONTINUOUS
 62
3
 10
30.051737066245096
 20
80.933602797506410
 40
2.000000000000000
 50
180.000000000000000
 51
267.000000000001080
  0
ARC
  8
0
  6
CONTINUOUS
 62
3
 10
29.051737066245096
 20
148.221226988378480
 40
3.000000000000000
 50
0.000000000000000
 51
90.000000000000000
  0
LINE
  8
0
  6
CONTINUOUS
 62
3
 10
32.051737066245096
 20
148.221226988378480
 11
32.051737066245096
 21
138.221226988378480
  0
ARC
  8
0
  6
CONTINUOUS
 62
3
 10
29.051737066245096
 20
128.221226988378480
 40
3.000000000000000
 50
270.000000000000000
 51
0.000000000000000
  0
LINE
  8
0
  6
CONTINUOUS
 62
3
 10
32.051737066245096
 20
128.221226988378480
 11
32.051737066245096
 21
138.221226988378480
  0
LINE
  8
0
  6
CONTINUOUS
 62
3
 10
34.051737066245096
 20
195.521226988376160
 11
34.051737066245096
 21
197.721226988378480
  0
LINE
  8
0
  6
CONTINUOUS
 62
3
 10
34.051737066245096
 20
80.921226988380567
 11
34.051737066245096
 21
78.721226988378476
  0
ARC
  8
0
  6
CONTINUOUS
 62
3
 10
150.051737066246230
 20
38.390816026651919
 40
3.000000000000000
 50
0.000000000000000
 51
87.999999999996348
  0
ARC
  8
0
  6
CONTINUOUS
 62
3
 10
150.051737066246230
 20
238.051637950105030
 40
3.000000000000001
 50
272.000000000003640
 51
0.000000000000000
  0
ARC
  8
0
  6
CONTINUOUS
 62
3
 10
129.760901349660120
 20
80.711837329624814
 40
3.000000000000160
 50
38.406432913586237
 51
90.000000000000000
  0
LINE
  8
0
  6
CONTINUOUS
 62
3
 10
132.111772487744700
 20
82.575544627491581
 11
152.402608204330820
 21
56.980785134768666
  0
ARC
  8
0
  6
CONTINUOUS
 62
3
 10
150.051737066246230
 20
55.117077836901899
 40
3.000000000000000
 50
0.000000000000000
 51
38.406432913586237
  0
ARC
  8
0
  6
CONTINUOUS
 62
3
 10
129.760901349660120
 20
75.226555955386175
 40
3.000000000000160
 50
38.406432913586237
 51
90.000000000000000
  0
LINE
  8
0
  6
CONTINUOUS
 62
3
 10
132.111772487744700
 20
77.090263253252942
 11
152.402608204330820
 21
51.495503760530028
  0
ARC
  8
0
  6
CONTINUOUS
 62
3
 10
150.051737066246230
 20
49.631796462663260
 40
3.000000000000000
 50
0.000000000000000
 51
38.406432913586237
  0
LINE
  8
0
  6
CONTINUOUS
 62
3
 10
149.796436215829770
 20
83.711837329624814
 11
134.813721276742170
 21
83.711837329624814
  0
ARC
  8
0
  6
CONTINUOUS
 62
3
 10
129.760901349660120
 20
201.215898021370780
 40
3.000000000000000
 50
270.000000000000000
 51
321.593567086413770
  0
LINE
  8
0
  6
CONTINUOUS
 62
3
 10
132.111772487744700
 20
199.352190723504010
 11
152.402608204330820
 21
224.946950216226920
  0
ARC
  8
0
  6
CONTINUOUS
 62
3
 10
150.051737066246230
 20
226.810657514093690
 40
3.000000000000160
 50
321.593567086413770
 51
0.000000000000000
  0
ARC
  8
0
  6
CONTINUOUS
 62
3
 10
150.051737066246230
 20
221.325376139855050
 40
3.000000000000160
 50
321.593567086413770
 51
0.000000000000000
  0
ARC
  8
0
  6
CONTINUOUS
 62
3
 10
129.760901349660120
 20
195.730616647132140
 40
3.000000000000000
 50
270.000000000000000
 51
321.593567086413770
  0
LINE
  8
0
  6
CONTINUOUS
 62
3
 10
132.111772487744700
 20
193.866909349265370
 11
152.402608204330820
 21
219.461668841988280
  0
LINE
  8
0
  6
CONTINUOUS
 62
3
 10
149.796436215829770
 20
192.730616647132140
 11
134.813721276742170
 21
192.730616647132140
  0
ARC
  8
0
  6
CONTINUOUS
 62
3
 10
134.210950249055490
 20
144.221226988378930
 40
3.000000000000000
 50
180.000000000000000
 51
270.000000000000000
  0
ARC
  8
0
  6
CONTINUOUS
 62
3
 10
134.210950249055490
 20
132.221226988378480
 40
3.000000000000000
 50
90.000000000000000
 51
180.000000000000000
  0
ARC
  8
0
  6
CONTINUOUS
 62
3
 10
150.051737066246230
 20
132.221226988378480
 40
3.000000000000000
 50
0.000000000000000
 51
90.000000000000000
  0
ARC
  8
0
  6
CONTINUOUS
 62
3
 10
150.051737066246230
 20
144.221226988378480
 40
3.000000000000000
 50
270.000000000000000
 51
0.000000000000000
  0
LINE
  8
0
  6
CONTINUOUS
 62
3
 10
134.210950249055490
 20
135.221226988378480
 11
150.051737066246230
 21
135.221226988378480
  0
LINE
  8
0
  6
CONTINUOUS
 62
3
 10
134.210950249055490
 20
141.221226988378480
 11
150.051737066246230
 21
141.221226988378480
  0
LINE
  8
0
  6
CONTINUOUS
 62
3
 10
229.051737066268060
 20
138.221226988378480
 11
229.051737066268060
 21
119.221226988378470
  0
ARC
  8
0
  6
CONTINUOUS
 62
3
 10
228.651737066267510
 20
153.821226988377930
 40
0.400000000000546
 50
0.000000000000000
 51
90.000000000000000
  0
LINE
  8
0
  6
CONTINUOUS
 62
3
 10
229.051737066268060
 20
119.221226988378470
 11
184.051737066268060
 21
119.221226988378470
  0
LINE
  8
0
  6
CONTINUOUS
 62
3
 10
228.651737066267510
 20
154.221226988378020
 11
181.611544687403470
 21
154.221226988378020
  0
LINE
  8
0
  6
CONTINUOUS
 62
3
 10
184.051737066268060
 20
122.221226988378470
 11
184.051737066268060
 21
119.221226988378470
  0
LINE
  8
0
  6
CONTINUOUS
 62
3
 10
181.051737066268060
 20
154.071226988377930
 11
181.611544687403470
 21
154.221226988378020
  0
LINE
  8
0
  6
CONTINUOUS
 62
3
 10
181.051737066268060
 20
154.071226988377930
 11
179.851737066268240
 21
154.071226988377930
  0
LINE
  8
0
  6
CONTINUOUS
 62
3
 10
177.051737066245320
 20
155.221226988378480
 11
178.851737066268240
 21
155.221226988378020
  0
LINE
  8
0
  6
CONTINUOUS
 62
3
 10
179.051737066268060
 20
155.021226988378200
 11
179.051737066268060
 21
138.221226988378020
  0
ARC
  8
0
  6
CONTINUOUS
 62
3
 10
179.851737066268240
 20
154.871226988378110
 40
0.800000000000237
 50
183.703196634280290
 51
270.000000000000000
  0
LINE
  8
0
  6
CONTINUOUS
 62
3
 10
179.051737066268060
 20
155.021226988378200
 11
178.851737066268240
 21
155.221226988378020
  0
LINE
  8
0
  6
CONTINUOUS
 62
3
 10
181.051737066268060
 20
122.371226988378110
 11
181.611544687403470
 21
122.221226988378020
  0
LINE
  8
0
  6
CONTINUOUS
 62
3
 10
177.051737066245320
 20
121.221226988377560
 11
178.851737066268240
 21
121.221226988378020
  0
LINE
  8
0
  6
CONTINUOUS
 62
3
 10
228.651737066267510
 20
122.221226988378020
 11
181.611544687403470
 21
122.221226988378020
  0
LINE
  8
0
  6
CONTINUOUS
 62
3
 10
181.051737066268060
 20
122.371226988378110
 11
179.851737066268240
 21
122.371226988378110
  0
LINE
  8
0
  6
CONTINUOUS
 62
3
 10
179.051737066268060
 20
121.421226988378290
 11
179.051737066268060
 21
138.221226988378020
  0
ARC
  8
0
  6
CONTINUOUS
 62
3
 10
179.851737066268240
 20
121.571226988377930
 40
0.800000000000182
 50
90.000000000000000
 51
176.296803365719710
  0
LINE
  8
0
  6
CONTINUOUS
 62
3
 10
179.051737066268060
 20
121.421226988378290
 11
178.851737066268240
 21
121.221226988378020
  0
LINE
  8
0
  6
CONTINUOUS
 62
3
 10
229.051737066268060
 20
138.221226988378480
 11
229.051737066268060
 21
153.821226988378380
  0
ARC
  8
0
  6
CONTINUOUS
 62
3
 10
228.651737066267510
 20
122.621226988378110
 40
0.400000000000091
 50
270.000000000000000
 51
0.000000000000000
  0
LINE
  8
0
  6
CONTINUOUS
 62
3
 10
162.005697666060540
 20
26.043796321040645
 11
162.005697666060540
 21
25.721226988378476
  0
LINE
  8
0
  6
CONTINUOUS
 62
3
 10
173.051737066246230
 20
34.221226988378476
 11
172.051737066246230
 21
33.221226988378476
  0
LINE
  8
0
  6
CONTINUOUS
 62
3
 10
172.051737066246230
 20
33.221226988378476
 11
169.051737066246230
 21
33.221226988378476
  0
LINE
  8
0
  6
CONTINUOUS
 62
3
 10
172.051737066246230
 20
243.221226988378480
 11
173.051737066246230
 21
242.221226988378480
  0
LINE
  8
0
  6
CONTINUOUS
 62
3
 10
169.051737066246230
 20
243.221226988378480
 11
172.051737066246230
 21
243.221226988378480
  0
LINE
  8
0
  6
CONTINUOUS
 62
3
 10
176.051737066246230
 20
171.721226988378480
 11
177.051737066246230
 21
171.721226988378480
  0
LINE
  8
0
  6
CONTINUOUS
 62
3
 10
176.051737066246230
 20
104.721226988378470
 11
177.051737066246230
 21
104.721226988378470
  0
LINE
  8
0
  6
CONTINUOUS
 62
3
 10
177.051737066246230
 20
104.721226988378470
 11
177.051737066246230
 21
171.721226988378480
  0
ARC
  8
0
  6
CONTINUOUS
 62
3
 10
172.051720082736890
 20
93.068120688522868
 40
2.999999999999871
 50
300.000187270167030
 51
0.000000000000000
  0
ARC
  8
0
  6
CONTINUOUS
 62
3
 10
176.051737066246230
 20
103.721226988378470
 40
1.000000000000000
 50
90.000000000000000
 51
180.000000000000000
  0
ARC
  8
0
  6
CONTINUOUS
 62
3
 10
176.051737066246230
 20
172.721226988378480
 40
1.000000000000000
 50
180.000000000000000
 51
270.000000000000000
  0
LINE
  8
0
  6
CONTINUOUS
 62
3
 10
155.051737066246230
 20
250.721226988378480
 11
169.051737066246230
 21
250.721226988378480
  0
ARC
  8
0
  6
CONTINUOUS
 62
3
 10
155.051737066246230
 20
248.721226988378480
 40
2.000000000000000
 50
90.000000000000000
 51
180.000000000000000
  0
LINE
  8
0
  6
CONTINUOUS
 62
3
 10
175.051737066246230
 20
138.221226988378480
 11
175.051737066246230
 21
183.374333288233630
  0
LINE
  8
0
  6
CONTINUOUS
 62
3
 10
169.051737066246690
 20
138.221226988378480
 11
169.051737066246230
 21
250.721226988378480
  0
LINE
  8
0
  6
CONTINUOUS
 62
3
 10
175.051737066246230
 20
138.221226988378480
 11
175.051737066246230
 21
93.068120688522868
  0
LINE
  8
0
  6
CONTINUOUS
 62
3
 10
173.051737066246230
 20
138.221226988378480
 11
173.051737066246230
 21
34.221226988378476
  0
LINE
  8
0
  6
CONTINUOUS
 62
3
 10
169.051737066246230
 20
138.221226988378480
 11
169.051737066246230
 21
25.721226988378021
  0
ARC
  8
0
  6
CONTINUOUS
 62
3
 10
175.051737066246230
 20
87.871978071287231
 40
2.999999999999871
 50
120.000187270167010
 51
131.810314895779530
  0
ARC
  8
0
  6
CONTINUOUS
 62
3
 10
172.051737066246230
 20
183.374333288233630
 40
3.000000000000000
 50
0.000000000000000
 51
70.528779365509465
  0
LINE
  8
0
  6
CONTINUOUS
 62
3
 10
173.051737066246230
 20
138.221226988378480
 11
173.051737066246230
 21
242.221226988378480
  0
ARC
  8
0
  6
CONTINUOUS
 62
3
 10
155.051737066246230
 20
27.721226988378476
 40
2.000000000000000
 50
180.000000000000000
 51
270.000000000000000
  0
LINE
  8
0
  6
CONTINUOUS
 62
3
 10
153.051737066246230
 20
27.721226988378476
 11
153.051737066246230
 21
248.721226988378480
  0
LINE
  8
0
  6
CONTINUOUS
 62
3
 10
169.051737066246230
 20
25.721226988378476
 11
155.051737066246230
 21
25.721226988378476
  0
ARC
  8
0
  6
CONTINUOUS
 62
3
 10
165.051737066246230
 20
201.669800307692190
 40
3.000000000000000
 50
90.000000000000000
 51
180.000000000000000
  0
LINE
  8
0
  6
CONTINUOUS
 62
3
 10
162.051737066246230
 20
138.221226988378480
 11
162.051737066246230
 21
226.508023552781650
  0
ARC
  8
0
  6
CONTINUOUS
 62
3
 10
165.051737066246230
 20
226.508023552781650
 40
3.000000000000000
 50
90.000000000000000
 51
180.000000000000000
  0
LINE
  8
0
  6
CONTINUOUS
 62
3
 10
169.051737066246690
 20
229.508023552781650
 11
165.051737066246230
 21
229.508023552781650
  0
LINE
  8
0
  6
CONTINUOUS
 62
3
 10
169.051737066246690
 20
204.669800307692190
 11
165.051737066246230
 21
204.669800307692190
  0
ARC
  8
0
  6
CONTINUOUS
 62
3
 10
165.051737066246230
 20
74.772653669064766
 40
3.000000000000000
 50
180.000000000000000
 51
270.000000000000000
  0
LINE
  8
0
  6
CONTINUOUS
 62
3
 10
162.051737066246230
 20
138.221226988378480
 11
162.051737066246230
 21
49.934430423975300
  0
ARC
  8
0
  6
CONTINUOUS
 62
3
 10
165.051737066246230
 20
49.934430423975300
 40
3.000000000000000
 50
180.000000000000000
 51
270.000000000000000
  0
LINE
  8
0
  6
CONTINUOUS
 62
3
 10
169.051737066246690
 20
46.934430423975300
 11
165.051737066246230
 21
46.934430423975300
  0
LINE
  8
0
  6
CONTINUOUS
 62
3
 10
169.051737066246690
 20
71.772653669064766
 11
165.051737066246230
 21
71.772653669064766
  0
LINE
  8
0
  6
DASHDOT
 62
4
 10
184.688246426087740
 20
39.226277622261478
 11
145.692254236905460
 21
39.226277622261478
  0
LINE
  8
0
  6
DASHDOT
 62
4
 10
184.688246426087740
 20
237.216176354495020
 11
145.692254236905460
 21
237.216176354495020
  0
LINE
  8
0
  6
DASHDOT
 62
4
 10
15.722523262895265
 20
-137.821345641394490
 11
-237.347070016363430
 21
-137.821345641394490
  0
ARC
  8
0
  6
CONTINUOUS
 62
3
 10
-376.701821218868870
 20
-71.321345641397770
 40
10.000000000000000
 50
180.000000000000000
 51
270.000000000000000
  0
LINE
  8
0
  6
CONTINUOUS
 62
3
 10
-376.701821218868870
 20
-81.321345641397770
 11
-355.701821218868640
 21
-81.321345641397770
  0
ARC
  8
0
  6
CONTINUOUS
 62
3
 10
-355.701821218868640
 20
-71.321345641397770
 40
10.000000000000000
 50
270.000000000000000
 51
0.000000000000000
  0
LINE
  8
0
  6
DASHDOT
 62
4
 10
-366.201821218868870
 20
-9.254129182886558
 11
-366.201821218868870
 21
-264.414479634241620
  0
LINE
  8
0
  6
DASHDOT
 62
4
 10
-390.088249970586280
 20
-132.321345641394490
 11
-342.480572711991500
 21
-132.321345641394490
  0
LINE
  8
0
  6
CONTINUOUS
 62
3
 10
-308.900372158967680
 20
-169.321345641394490
 11
-308.701821218868870
 21
-169.321345641394490
  0
LINE
  8
0
  6
CONTINUOUS
 62
3
 10
-308.701821218868870
 20
-169.321345641394490
 11
-308.701821218868870
 21
-167.809331495824720
  0
ARC
  8
0
  6
CONTINUOUS
 62
3
 10
-405.632688218956220
 20
-92.399398899096113
 40
6.600000000000009
 50
95.743681810995099
 51
135.000000000002790
  0
ARC
  8
0
  6
CONTINUOUS
 62
3
 10
-366.201821218868870
 20
-484.421345641394620
 40
400.599999999999910
 50
90.000000000000000
 51
95.743681810993436
  0
ARC
  8
0
  6
CONTINUOUS
 62
3
 10
-403.191888457015240
 20
-109.757589010378850
 40
20.600000000000069
 50
135.000000000002670
 51
174.247717268463500
  0
LINE
  8
0
  6
CONTINUOUS
 62
3
 10
-417.758288149458850
 20
-95.191189317936605
 11
-410.299592974787860
 21
-87.732494143264930
  0
ARC
  8
0
  6
CONTINUOUS
 62
3
 10
-124.601821218868500
 20
-137.821345641394490
 40
300.599999999999910
 50
174.247717268463390
 51
180.000000000000000
  0
ARC
  8
0
  6
CONTINUOUS
 62
3
 10
-405.632688218956220
 20
-183.243292383692850
 40
6.600000000000278
 50
224.999999999997190
 51
264.256318189004900
  0
ARC
  8
0
  6
CONTINUOUS
 62
3
 10
-366.201821218868870
 20
208.778654358605650
 40
400.599999999999910
 50
264.256318189006550
 51
270.000000000000000
  0
ARC
  8
0
  6
CONTINUOUS
 62
3
 10
-403.191888457015240
 20
-165.885102272410110
 40
20.599999999999916
 50
185.752282731536500
 51
224.999999999997330
  0
LINE
  8
0
  6
CONTINUOUS
 62
3
 10
-417.758288149458850
 20
-180.451501964852350
 11
-410.299592974787860
 21
-187.910197139524030
  0
ARC
  8
0
  6
CONTINUOUS
 62
3
 10
-124.601821218868500
 20
-137.821345641394490
 40
300.600000000000360
 50
180.000000000000000
 51
185.752282731536610
  0
ARC
  8
0
  6
CONTINUOUS
 62
3
 10
-326.770954218781530
 20
-183.243292383692850
 40
6.600000000000009
 50
275.743681810995100
 51
315.000000000002790
  0
ARC
  8
0
  6
CONTINUOUS
 62
3
 10
-366.201821218868870
 20
208.778654358605650
 40
400.599999999999910
 50
270.000000000000000
 51
275.743681810993450
  0
ARC
  8
0
  6
CONTINUOUS
 62
3
 10
-329.211753980722510
 20
-165.885102272410110
 40
20.600000000000069
 50
315.000000000002670
 51
354.247717268463480
  0
LINE
  8
0
  6
CONTINUOUS
 62
3
 10
-314.645354288278900
 20
-180.451501964852350
 11
-322.104049462949890
 21
-187.910197139524030
  0
ARC
  8
0
  6
CONTINUOUS
 62
3
 10
-607.801821218869240
 20
-137.821345641394490
 40
300.599999999999910
 50
354.247717268463420
 51
0.000000000000000
  0
ARC
  8
0
  6
CONTINUOUS
 62
4
 10
-607.801821218869240
 20
-137.821345641394490
 40
290.797000000000480
 50
0.000000000000000
 51
5.752282731536627
  0
LINE
  8
0
  6
CONTINUOUS
 62
4
 10
-321.577122064251170
 20
-102.122957093907970
 11
-327.464535936290530
 21
-96.235543221867928
  0
ARC
  8
0
  6
CONTINUOUS
 62
4
 10
-329.211753980722510
 20
-109.757589010378850
 40
10.797000000000011
 50
5.752282731536912
 51
44.999999999998295
  0
LINE
  8
0
  6
CONTINUOUS
 62
3
 10
-308.701821218868870
 20
-107.828846579132330
 11
-308.701821218868870
 21
-106.321345641394470
  0
LINE
  8
0
  6
CONTINUOUS
 62
3
 10
-308.900372158967680
 20
-106.321345641394470
 11
-308.701821218868870
 21
-106.321345641394470
  0
ARC
  8
0
  6
CONTINUOUS
 62
3
 10
-607.801821218869240
 20
-137.821345641394490
 40
300.600000000000360
 50
0.000000000000000
 51
5.752282731536607
  0
LINE
  8
0
  6
CONTINUOUS
 62
3
 10
-314.645354288278900
 20
-95.191189317936605
 11
-322.104049462949890
 21
-87.732494143264930
  0
ARC
  8
0
  6
CONTINUOUS
 62
3
 10
-329.211753980722510
 20
-109.757589010378850
 40
20.599999999999916
 50
5.752282731536487
 51
44.999999999997321
  0
ARC
  8
0
  6
CONTINUOUS
 62
4
 10
-124.601821218868730
 20
-137.821345641394490
 40
290.796999999999910
 50
174.998349729065040
 51
180.000000000000000
  0
LINE
  8
0
  6
CONTINUOUS
 62
4
 10
-408.279411534724890
 20
-99.575848255145829
 11
-404.939106501447210
 21
-96.235543221867928
  0
ARC
  8
0
  6
CONTINUOUS
 62
4
 10
-393.573711806388250
 20
-114.281547983482480
 40
20.797000000000025
 50
134.999999999999970
 51
174.998349729064670
  0
ARC
  8
0
  6
CONTINUOUS
 62
4
 10
-366.201821218868870
 20
-484.421345641394620
 40
390.797000000000030
 50
90.000000000000000
 51
95.417963762360529
  0
ARC
  8
0
  6
CONTINUOUS
 62
4
 10
-402.817786157887210
 20
-98.356863565427702
 40
3.000000000000067
 50
95.417963762365673
 51
135.000000000003040
  0
ARC
  8
0
  6
CONTINUOUS
 62
4
 10
-124.601821218868730
 20
-137.821345641394490
 40
290.797000000000250
 50
180.000000000000000
 51
185.001650270934930
  0
LINE
  8
0
  6
CONTINUOUS
 62
4
 10
-408.279411534724890
 20
-176.066843027643130
 11
-404.939106501447210
 21
-179.407148060921030
  0
ARC
  8
0
  6
CONTINUOUS
 62
4
 10
-393.573711806388250
 20
-161.361143299306490
 40
20.796999999999880
 50
185.001650270935330
 51
225.000000000000000
  0
ARC
  8
0
  6
CONTINUOUS
 62
4
 10
-366.201821218868870
 20
208.778654358605650
 40
390.797000000000030
 50
264.582036237639500
 51
270.000000000000000
  0
ARC
  8
0
  6
CONTINUOUS
 62
4
 10
-402.817786157887210
 20
-177.285827717361260
 40
3.000000000000346
 50
224.999999999996960
 51
264.582036237634270
  0
ARC
  8
0
  6
CONTINUOUS
 62
4
 10
-607.801821218869240
 20
-137.821345641394490
 40
290.797000000000140
 50
354.998349729065010
 51
0.000000000000000
  0
LINE
  8
0
  6
CONTINUOUS
 62
4
 10
-324.124230903012860
 20
-176.066843027643130
 11
-327.464535936290530
 21
-179.407148060921030
  0
ARC
  8
0
  6
CONTINUOUS
 62
4
 10
-338.829930631349500
 20
-161.361143299306490
 40
20.797000000000015
 50
315.000000000000000
 51
354.998349729064670
  0
ARC
  8
0
  6
CONTINUOUS
 62
4
 10
-366.201821218868870
 20
208.778654358605650
 40
390.797000000000030
 50
270.000000000000000
 51
275.417963762360500
  0
ARC
  8
0
  6
CONTINUOUS
 62
4
 10
-329.585856279850530
 20
-177.285827717361260
 40
3.000000000000067
 50
275.417963762365730
 51
315.000000000003070
  0
ARC
  8
0
  6
CONTINUOUS
 62
4
 10
-329.585856279850530
 20
-98.356863565427702
 40
3.000000000000346
 50
44.999999999996930
 51
84.582036237634313
  0
ARC
  8
0
  6
CONTINUOUS
 62
4
 10
-366.201821218868870
 20
-484.421345641394620
 40
390.797000000000030
 50
84.582036237639471
 51
90.000000000000000
  0
ARC
  8
0
  6
CONTINUOUS
 62
3
 10
-326.770954218781530
 20
-92.399398899096113
 40
6.600000000000278
 50
44.999999999997215
 51
84.256318189004901
  0
ARC
  8
0
  6
CONTINUOUS
 62
3
 10
-366.201821218868870
 20
-484.421345641394620
 40
400.599999999999910
 50
84.256318189006564
 51
90.000000000000000
  0
ARC
  8
0
  6
CONTINUOUS
 62
3
 10
-369.701821218868870
 20
-172.645905940126230
 40
1.000000000000000
 50
0.000000000000000
 51
84.260829522738291
  0
ARC
  8
0
  6
CONTINUOUS
 62
3
 10
-369.701821218868870
 20
-175.659818126419510
 40
1.000000000000042
 50
264.715267045464260
 51
0.000000000000000
  0
ARC
  8
0
  6
CONTINUOUS
 62
3
 10
-369.701821218868870
 20
-167.112982673148170
 40
1.000000000000077
 50
263.186145655820330
 51
0.000000000000000
  0
LINE
  8
0
  6
CONTINUOUS
 62
3
 10
-368.701821218868870
 20
-175.659818126419510
 11
-368.701821218868870
 21
-172.645905940126230
  0
ARC
  8
0
  6
CONTINUOUS
 62
3
 10
-383.242749902241710
 20
-143.618478519653650
 40
0.999999999999885
 50
300.000000000003810
 51
18.787728582346993
  0
LINE
  8
0
  6
CONTINUOUS
 62
3
 10
-385.383985059298310
 20
-146.009421752357530
 11
-382.742749902241710
 21
-144.484503923437960
  0
ARC
  8
0
  6
CONTINUOUS
 62
3
 10
-385.883985059298310
 20
-145.143396348573220
 40
1.000000000000094
 50
200.405931773138690
 51
300.000000000003810
  0
ARC
  8
0
  6
CONTINUOUS
 62
3
 10
-390.700447551023220
 20
-147.924182264712840
 40
1.000000000000082
 50
299.999999999997270
 51
22.410457608146043
  0
ARC
  8
0
  6
CONTINUOUS
 62
3
 10
-398.110775113193310
 20
-152.202536877514720
 40
1.000000000000082
 50
299.999999999997270
 51
24.260829522733715
  0
LINE
  8
0
  6
CONTINUOUS
 62
3
 10
-392.819123006800740
 20
-150.302100647810330
 11
-390.200447551023220
 21
-148.790207668497370
  0
ARC
  8
0
  6
CONTINUOUS
 62
3
 10
-393.319123006800740
 20
-149.436075244025800
 40
0.999999999999730
 50
203.186145655819840
 51
299.999999999997270
  0
LINE
  8
0
  6
CONTINUOUS
 62
3
 10
-400.220899631299060
 20
-154.575518374445780
 11
-397.610775113193310
 21
-153.068562281299250
  0
ARC
  8
0
  6
CONTINUOUS
 62
3
 10
-400.720899631299060
 20
-153.709492970661470
 40
1.000000000000248
 50
204.715267045455480
 51
300.000000000003810
  0
ARC
  8
0
  6
CONTINUOUS
 62
3
 10
-397.220899631299060
 20
-159.771670797152750
 40
1.000000000000082
 50
119.999999999997270
 51
215.284732954534320
  0
ARC
  8
0
  6
CONTINUOUS
 62
3
 10
-394.610775113193310
 20
-158.264714704005770
 40
0.999999999999807
 50
35.739170477263521
 51
120.000000000003780
  0
ARC
  8
0
  6
CONTINUOUS
 62
3
 10
-369.701821218868870
 20
-164.089196714521790
 40
1.000000000000000
 50
0.000000000000000
 51
82.410457608145762
  0
ARC
  8
0
  6
CONTINUOUS
 62
3
 10
-389.819123006800740
 20
-155.498253070516630
 40
0.999999999999885
 50
120.000000000003780
 51
216.813854344197100
  0
ARC
  8
0
  6
CONTINUOUS
 62
3
 10
-387.200447551023670
 20
-153.986360091203660
 40
1.000000000000194
 50
37.589542391851793
 51
119.999999999997270
  0
ARC
  8
0
  6
CONTINUOUS
 62
3
 10
-369.701821218868870
 20
-158.527624882243000
 40
1.000000000000268
 50
260.405931773124510
 51
0.000000000000000
  0
ARC
  8
0
  6
CONTINUOUS
 62
3
 10
-369.701821218868870
 20
-155.477789224404090
 40
1.000000000000000
 50
0.000000000000000
 51
78.787728582355996
  0
ARC
  8
0
  6
CONTINUOUS
 62
3
 10
-382.383985059297860
 20
-151.205574175064270
 40
0.999999999999885
 50
120.000000000003780
 51
219.594068226860460
  0
ARC
  8
0
  6
CONTINUOUS
 62
3
 10
-379.742749902241710
 20
-149.680656346144930
 40
1.000000000000165
 50
41.212271417643841
 51
119.999999999997270
  0
ARC
  8
0
  6
CONTINUOUS
 62
3
 10
-374.844126064282360
 20
-146.852434554639900
 40
0.999999999999885
 50
120.000000000003780
 51
226.260204708328700
  0
ARC
  8
0
  6
CONTINUOUS
 62
3
 10
-369.701821218868870
 20
-149.821345641394490
 40
0.999999999999964
 50
253.739795291702650
 51
0.000000000000000
  0
ARC
  8
0
  6
CONTINUOUS
 62
3
 10
-369.701821218868870
 20
-146.653106507722330
 40
1.000000000000000
 50
0.000000000000000
 51
68.381727577838021
  0
ARC
  8
0
  6
CONTINUOUS
 62
3
 10
-372.100350489258060
 20
-145.268314987803820
 40
0.999999999999961
 50
51.618272422159777
 51
120.000000000003780
  0
ARC
  8
0
  6
CONTINUOUS
 62
3
 10
-366.201821218868870
 20
-137.821345641394490
 40
38.999999999999865
 50
215.284732954534800
 51
264.715267045465400
  0
ARC
  8
0
  6
CONTINUOUS
 62
3
 10
-366.201821218868870
 20
-137.821345641394490
 40
30.499999999999964
 50
216.813854344181070
 51
263.186145655818960
  0
ARC
  8
0
  6
CONTINUOUS
 62
3
 10
-366.201821218868870
 20
-137.821345641394490
 40
33.999999999999964
 50
215.739170477266950
 51
264.260829522733050
  0
ARC
  8
0
  6
CONTINUOUS
 62
3
 10
-366.201821218868870
 20
-137.821345641394490
 40
25.499999999999890
 50
217.589542391857950
 51
262.410457608141830
  0
ARC
  8
0
  6
CONTINUOUS
 62
3
 10
-366.201821218868870
 20
-137.821345641394490
 40
22.000000000000025
 50
219.594068226860800
 51
260.405931773138780
  0
ARC
  8
0
  6
CONTINUOUS
 62
3
 10
-366.201821218868870
 20
-137.821345641394490
 40
16.999999999999773
 50
221.212271417650780
 51
258.787728582349980
  0
ARC
  8
0
  6
CONTINUOUS
 62
3
 10
-366.201821218868870
 20
-137.821345641394490
 40
13.499999999999927
 50
226.260204708312130
 51
253.739795291689150
  0
ARC
  8
0
  6
CONTINUOUS
 62
3
 10
-366.201821218868870
 20
-137.821345641394490
 40
8.499999999999948
 50
231.618272422157330
 51
248.381727577842330
  0
LINE
  8
0
  6
CONTINUOUS
 62
3
 10
-390.319123006800740
 20
-154.632227666732320
 11
-387.700447551023670
 21
-153.120334687419130
  0
LINE
  8
0
  6
CONTINUOUS
 62
3
 10
-397.720899631299060
 20
-158.905645393368220
 11
-395.110775113193310
 21
-157.398689300221460
  0
LINE
  8
0
  6
CONTINUOUS
 62
3
 10
-382.883985059297860
 20
-150.339548771279960
 11
-380.242749902241710
 21
-148.814630942360400
  0
LINE
  8
0
  6
CONTINUOUS
 62
3
 10
-375.344126064282360
 20
-145.986409150855590
 11
-372.600350489258060
 21
-144.402289584019510
  0
LINE
  8
0
  6
CONTINUOUS
 62
3
 10
-368.701821218868870
 20
-149.821345641394490
 11
-368.701821218868870
 21
-146.653106507722330
  0
LINE
  8
0
  6
CONTINUOUS
 62
3
 10
-368.701821218868870
 20
-158.527624882243000
 11
-368.701821218868870
 21
-155.477789224404090
  0
LINE
  8
0
  6
CONTINUOUS
 62
3
 10
-368.701821218868870
 20
-167.112982673148170
 11
-368.701821218868870
 21
-164.089196714521790
  0
ARC
  8
0
  6
CONTINUOUS
 62
3
 10
-375.600350489258060
 20
-139.206137161312990
 40
0.999999999999885
 50
300.000000000003810
 51
8.381727577845549
  0
ARC
  8
0
  6
CONTINUOUS
 62
3
 10
-366.201821218868870
 20
-137.821345641394490
 40
8.499999999999972
 50
171.618272422157790
 51
188.381727577842210
  0
LINE
  8
0
  6
CONTINUOUS
 62
3
 10
-377.844126064282360
 20
-141.656282131933380
 11
-375.100350489258060
 21
-140.072162565097300
  0
ARC
  8
0
  6
CONTINUOUS
 62
3
 10
-378.344126064282360
 20
-140.790256728149070
 40
0.999999999999879
 50
193.739795291686050
 51
300.000000000003810
  0
ARC
  8
0
  6
CONTINUOUS
 62
3
 10
-369.701821218868870
 20
-120.164902058384880
 40
0.999999999999982
 50
281.212271417643990
 51
0.000000000000000
  0
LINE
  8
0
  6
CONTINUOUS
 62
3
 10
-368.701821218868870
 20
-117.115066400545970
 11
-368.701821218868870
 21
-120.164902058384880
  0
ARC
  8
0
  6
CONTINUOUS
 62
3
 10
-369.701821218868870
 20
-117.115066400545970
 40
1.000000000000000
 50
0.000000000000000
 51
99.594068226875478
  0
ARC
  8
0
  6
CONTINUOUS
 62
3
 10
-369.701821218868870
 20
-111.553494568267160
 40
0.999999999999763
 50
277.589542391855840
 51
0.000000000013028
  0
LINE
  8
0
  6
CONTINUOUS
 62
3
 10
-368.701821218868870
 20
-108.529708609640790
 11
-368.701821218868870
 21
-111.553494568266940
  0
ARC
  8
0
  6
CONTINUOUS
 62
3
 10
-369.701821218868870
 20
-108.529708609640790
 40
1.000000000000000
 50
0.000000000000000
 51
96.813854344179688
  0
ARC
  8
0
  6
CONTINUOUS
 62
3
 10
-369.701821218868870
 20
-102.996785342662730
 40
0.999999999999973
 50
275.739170477261670
 51
0.000000000000000
  0
LINE
  8
0
  6
CONTINUOUS
 62
3
 10
-368.701821218868870
 20
-99.982873156369450
 11
-368.701821218868870
 21
-102.996785342662730
  0
ARC
  8
0
  6
CONTINUOUS
 62
3
 10
-369.701821218868870
 20
-99.982873156369450
 40
1.000000000000000
 50
0.000000000000000
 51
95.284732954535698
  0
ARC
  8
0
  6
CONTINUOUS
 62
3
 10
-389.819123006800740
 20
-120.144438212272120
 40
0.999999999999774
 50
143.186145655813330
 51
240.000000000002730
  0
LINE
  8
0
  6
CONTINUOUS
 62
3
 10
-390.319123006800740
 20
-121.010463616056650
 11
-387.700447551023220
 21
-122.522356595369840
  0
ARC
  8
0
  6
CONTINUOUS
 62
3
 10
-387.200447551023220
 20
-121.656331191585300
 40
1.000000000000082
 50
240.000000000002730
 51
322.410457608132330
  0
ARC
  8
0
  6
CONTINUOUS
 62
3
 10
-397.220899631299060
 20
-115.871020485636450
 40
0.999999999999908
 50
144.715267045455050
 51
239.999999999996220
  0
LINE
  8
0
  6
CONTINUOUS
 62
3
 10
-397.720899631299060
 20
-116.737045889420750
 11
-395.110775113193310
 21
-118.244001982567510
  0
ARC
  8
0
  6
CONTINUOUS
 62
3
 10
-394.610775113193310
 20
-117.377976578783200
 40
0.999999999999885
 50
239.999999999996220
 51
324.260829522725940
  0
ARC
  8
0
  6
CONTINUOUS
 62
3
 10
-372.100350489258060
 20
-130.374376294984930
 40
1.000000000000082
 50
240.000000000002730
 51
308.381727577840190
  0
LINE
  8
0
  6
CONTINUOUS
 62
3
 10
-375.344126064282360
 20
-129.656282131933380
 11
-372.600350489258060
 21
-131.240401698769460
  0
ARC
  8
0
  6
CONTINUOUS
 62
3
 10
-379.742749902241710
 20
-125.962034936644270
 40
0.999999999999885
 50
239.999999999996220
 51
318.787728582348790
  0
LINE
  8
0
  6
CONTINUOUS
 62
3
 10
-382.883985059297860
 20
-125.303142511509000
 11
-380.242749902241710
 21
-126.828060340428570
  0
ARC
  8
0
  6
CONTINUOUS
 62
3
 10
-382.383985059297860
 20
-124.437117107724470
 40
1.000000000000173
 50
140.405931773149600
 51
240.000000000002730
  0
ARC
  8
0
  6
CONTINUOUS
 62
3
 10
-369.701821218868870
 20
-128.989584775066650
 40
1.000000000000090
 50
291.618272422161970
 51
0.000000000000000
  0
ARC
  8
0
  6
CONTINUOUS
 62
3
 10
-366.201821218868870
 20
-137.821345641394490
 40
8.499999999999904
 50
111.618272422157710
 51
128.381727577841670
  0
ARC
  8
0
  6
CONTINUOUS
 62
3
 10
-374.844126064282360
 20
-128.790256728149070
 40
0.999999999999858
 50
133.739795291671300
 51
239.999999999996220
  0
LINE
  8
0
  6
CONTINUOUS
 62
3
 10
-368.701821218868870
 20
-125.821345641394480
 11
-368.701821218868870
 21
-128.989584775066650
  0
ARC
  8
0
  6
CONTINUOUS
 62
3
 10
-369.701821218868870
 20
-125.821345641394480
 40
1.000000000000000
 50
0.000000000000000
 51
106.260204708297360
  0
ARC
  8
0
  6
CONTINUOUS
 62
3
 10
-366.201821218868870
 20
-137.821345641394490
 40
13.499999999999963
 50
106.260204708310860
 51
133.739795291687870
  0
ARC
  8
0
  6
CONTINUOUS
 62
3
 10
-366.201821218868870
 20
-137.821345641394490
 40
17.000000000000046
 50
101.212271417650010
 51
138.787728582350240
  0
ARC
  8
0
  6
CONTINUOUS
 62
3
 10
-366.201821218868870
 20
-137.821345641394490
 40
22.000000000000131
 50
99.594068226861211
 51
140.405931773139200
  0
ARC
  8
0
  6
CONTINUOUS
 62
3
 10
-366.201821218868870
 20
-137.821345641394490
 40
30.500000000000149
 50
96.813854344181038
 51
143.186145655818930
  0
ARC
  8
0
  6
CONTINUOUS
 62
3
 10
-366.201821218868870
 20
-137.821345641394490
 40
25.500000000000160
 50
97.589542391858117
 51
142.410457608142050
  0
ARC
  8
0
  6
CONTINUOUS
 62
3
 10
-366.201821218868870
 20
-137.821345641394490
 40
34.000000000000085
 50
95.739170477266924
 51
144.260829522733360
  0
ARC
  8
0
  6
CONTINUOUS
 62
3
 10
-366.201821218868870
 20
-137.821345641394490
 40
39.000000000000000
 50
95.284732954534590
 51
144.715267045465200
  0
ARC
  8
0
  6
CONTINUOUS
 62
3
 10
-393.319123006800740
 20
-126.206616038763170
 40
1.000000000000082
 50
60.000000000002721
 51
156.813854344180160
  0
LINE
  8
0
  6
CONTINUOUS
 62
3
 10
-392.819123006800740
 20
-125.340590634978630
 11
-390.200447551023220
 21
-126.852483614291820
  0
ARC
  8
0
  6
CONTINUOUS
 62
3
 10
-390.700447551023220
 20
-127.718509018076360
 40
0.999999999999701
 50
337.589542391853970
 51
60.000000000002721
  0
ARC
  8
0
  6
CONTINUOUS
 62
3
 10
-400.720899631299060
 20
-121.933198312127500
 40
1.000000000000082
 50
60.000000000002721
 51
155.284732954544520
  0
LINE
  8
0
  6
CONTINUOUS
 62
3
 10
-400.220899631299060
 20
-121.067172908342960
 11
-397.610775113193310
 21
-122.574129001489720
  0
ARC
  8
0
  6
CONTINUOUS
 62
3
 10
-398.110775113193310
 20
-123.440154405274020
 40
0.999999999999863
 50
335.739170477254390
 51
59.999999999996206
  0
ARC
  8
0
  6
CONTINUOUS
 62
3
 10
-375.600350489258060
 20
-136.436554121476210
 40
1.000000000000026
 50
351.618272422167310
 51
60.000000000002721
  0
LINE
  8
0
  6
CONTINUOUS
 62
3
 10
-377.844126064282360
 20
-133.986409150855590
 11
-375.100350489258060
 21
-135.570528717691670
  0
ARC
  8
0
  6
CONTINUOUS
 62
3
 10
-383.242749902241710
 20
-132.024212763135320
 40
1.000000000000076
 50
341.212271417652970
 51
60.000000000002721
  0
LINE
  8
0
  6
CONTINUOUS
 62
3
 10
-385.383985059298310
 20
-129.633269530431450
 11
-382.742749902241710
 21
-131.158187359350790
  0
ARC
  8
0
  6
CONTINUOUS
 62
3
 10
-385.883985059298310
 20
-130.499294934215750
 40
0.999999999999885
 50
59.999999999996206
 51
159.594068226861310
  0
ARC
  8
0
  6
CONTINUOUS
 62
3
 10
-378.344126064282360
 20
-134.852434554639900
 40
0.999999999999885
 50
59.999999999996206
 51
166.260204708307780
  0
ARC
  8
0
  6
CONTINUOUS
 62
3
 10
-366.201821218868870
 20
-137.821345641394490
 40
13.499999999999687
 50
166.260204708311360
 51
193.739795291688180
  0
ARC
  8
0
  6
CONTINUOUS
 62
3
 10
-366.201821218868870
 20
-137.821345641394490
 40
16.999999999999716
 50
161.212271417649560
 51
198.787728582350440
  0
ARC
  8
0
  6
CONTINUOUS
 62
3
 10
-366.201821218868870
 20
-137.821345641394490
 40
22.000000000000206
 50
159.594068226860770
 51
200.405931773139230
  0
ARC
  8
0
  6
CONTINUOUS
 62
3
 10
-366.201821218868870
 20
-137.821345641394490
 40
30.499999999999947
 50
156.813854344181150
 51
203.186145655818850
  0
ARC
  8
0
  6
CONTINUOUS
 62
3
 10
-366.201821218868870
 20
-137.821345641394490
 40
25.500000000000000
 50
157.589542391857980
 51
202.410457608142480
  0
ARC
  8
0
  6
CONTINUOUS
 62
3
 10
-366.201821218868870
 20
-137.821345641394490
 40
34.000000000000007
 50
155.739170477266780
 51
204.260829522733220
  0
ARC
  8
0
  6
CONTINUOUS
 62
3
 10
-366.201821218868870
 20
-137.821345641394490
 40
39.000000000000220
 50
155.284732954534800
 51
204.715267045465200
  0
LINE
  8
0
  6
CONTINUOUS
 62
3
 10
-363.701821218868870
 20
-167.112982673148170
 11
-363.701821218868870
 21
-164.089196714521790
  0
LINE
  8
0
  6
CONTINUOUS
 62
3
 10
-363.701821218868870
 20
-158.527624882243000
 11
-363.701821218868870
 21
-155.477789224404090
  0
LINE
  8
0
  6
CONTINUOUS
 62
3
 10
-363.701821218868870
 20
-149.821345641394490
 11
-363.701821218868870
 21
-146.653106507722330
  0
LINE
  8
0
  6
CONTINUOUS
 62
3
 10
-357.059516373455380
 20
-145.986409150855590
 11
-359.803291948479680
 21
-144.402289584019510
  0
LINE
  8
0
  6
CONTINUOUS
 62
3
 10
-349.519657378439890
 20
-150.339548771279960
 11
-352.160892535496030
 21
-148.814630942360400
  0
LINE
  8
0
  6
CONTINUOUS
 62
3
 10
-334.682742806438680
 20
-158.905645393368220
 11
-337.292867324544430
 21
-157.398689300221460
  0
LINE
  8
0
  6
CONTINUOUS
 62
3
 10
-363.701821218868870
 20
-175.659818126419510
 11
-363.701821218868870
 21
-172.645905940126230
  0
LINE
  8
0
  6
CONTINUOUS
 62
3
 10
-342.084519430937010
 20
-154.632227666732320
 11
-344.703194886714070
 21
-153.120334687419130
  0
ARC
  8
0
  6
CONTINUOUS
 62
3
 10
-366.201821218868870
 20
-137.821345641394490
 40
8.499999999999904
 50
291.618272422157700
 51
308.381727577842640
  0
ARC
  8
0
  6
CONTINUOUS
 62
3
 10
-366.201821218868870
 20
-137.821345641394490
 40
13.499999999999963
 50
286.260204708310820
 51
313.739795291687870
  0
ARC
  8
0
  6
CONTINUOUS
 62
3
 10
-366.201821218868870
 20
-137.821345641394490
 40
17.000000000000046
 50
281.212271417650020
 51
318.787728582350210
  0
ARC
  8
0
  6
CONTINUOUS
 62
3
 10
-366.201821218868870
 20
-137.821345641394490
 40
22.000000000000131
 50
279.594068226861170
 51
320.405931773139170
  0
ARC
  8
0
  6
CONTINUOUS
 62
3
 10
-366.201821218868870
 20
-137.821345641394490
 40
25.499999999999932
 50
277.589542391858170
 51
322.410457608142050
  0
ARC
  8
0
  6
CONTINUOUS
 62
3
 10
-366.201821218868870
 20
-137.821345641394490
 40
34.000000000000071
 50
275.739170477266950
 51
324.260829522733050
  0
ARC
  8
0
  6
CONTINUOUS
 62
3
 10
-366.201821218868870
 20
-137.821345641394490
 40
30.500000000000135
 50
276.813854344181040
 51
323.186145655818900
  0
ARC
  8
0
  6
CONTINUOUS
 62
3
 10
-366.201821218868870
 20
-137.821345641394490
 40
38.999999999999986
 50
275.284732954534600
 51
324.715267045465230
  0
ARC
  8
0
  6
CONTINUOUS
 62
3
 10
-360.303291948479680
 20
-145.268314987803820
 40
0.999999999999885
 50
59.999999999996206
 51
128.381727577840220
  0
ARC
  8
0
  6
CONTINUOUS
 62
3
 10
-362.701821218868870
 20
-146.653106507722330
 40
1.000000000000090
 50
111.618272422161970
 51
180.000000000000000
  0
ARC
  8
0
  6
CONTINUOUS
 62
3
 10
-362.701821218868870
 20
-149.821345641394490
 40
1.000000000000000
 50
180.000000000000000
 51
286.260204708297350
  0
ARC
  8
0
  6
CONTINUOUS
 62
3
 10
-357.559516373455380
 20
-146.852434554639900
 40
0.999999999999858
 50
313.739795291671330
 51
59.999999999996206
  0
ARC
  8
0
  6
CONTINUOUS
 62
3
 10
-352.660892535496030
 20
-149.680656346144930
 40
1.000000000000082
 50
60.000000000002721
 51
138.787728582338990
  0
ARC
  8
0
  6
CONTINUOUS
 62
3
 10
-350.019657378439890
 20
-151.205574175064270
 40
1.000000000000318
 50
320.405931773139570
 51
59.999999999996206
  0
ARC
  8
0
  6
CONTINUOUS
 62
3
 10
-362.701821218868870
 20
-155.477789224404090
 40
0.999999999999982
 50
101.212271417644000
 51
180.000000000000000
  0
ARC
  8
0
  6
CONTINUOUS
 62
3
 10
-362.701821218868870
 20
-158.527624882243000
 40
1.000000000000000
 50
180.000000000000000
 51
279.594068226875490
  0
ARC
  8
0
  6
CONTINUOUS
 62
3
 10
-362.701821218868870
 20
-167.112982673148170
 40
1.000000000000000
 50
180.000000000000000
 51
276.813854344179670
  0
ARC
  8
0
  6
CONTINUOUS
 62
3
 10
-345.203194886714070
 20
-153.986360091203660
 40
1.000000000000082
 50
60.000000000002721
 51
142.410457608148220
  0
ARC
  8
0
  6
CONTINUOUS
 62
3
 10
-342.584519430937010
 20
-155.498253070516630
 40
0.999999999999911
 50
323.186145655802870
 51
59.999999999996206
  0
ARC
  8
0
  6
CONTINUOUS
 62
3
 10
-362.701821218868870
 20
-164.089196714521790
 40
0.999999999999975
 50
97.589542391854238
 51
180.000000000000000
  0
ARC
  8
0
  6
CONTINUOUS
 62
3
 10
-362.701821218868870
 20
-175.659818126419510
 40
1.000000000000000
 50
180.000000000000000
 51
275.284732954535740
  0
ARC
  8
0
  6
CONTINUOUS
 62
3
 10
-362.701821218868870
 20
-172.645905940126230
 40
0.999999999999973
 50
95.739170477261709
 51
180.000000000000000
  0
ARC
  8
0
  6
CONTINUOUS
 62
3
 10
-337.792867324544430
 20
-158.264714704005770
 40
0.999999999999885
 50
59.999999999996206
 51
144.260829522736490
  0
ARC
  8
0
  6
CONTINUOUS
 62
3
 10
-335.182742806438680
 20
-159.771670797152750
 40
0.999999999999776
 50
324.715267045465680
 51
60.000000000002721
  0
CIRCLE
  8
0
  6
CONTINUOUS
 62
3
 10
-366.201821218868870
 20
-137.821345641394490
 40
5.000000000000000
  0
ARC
  8
0
  6
CONTINUOUS
 62
3
 10
-331.682742806438680
 20
-153.709492970661470
 40
0.999999999999885
 50
239.999999999996220
 51
335.284732954544490
  0
LINE
  8
0
  6
CONTINUOUS
 62
3
 10
-332.182742806438680
 20
-154.575518374445780
 11
-334.792867324544430
 21
-153.068562281299250
  0
ARC
  8
0
  6
CONTINUOUS
 62
3
 10
-366.201821218868870
 20
-137.821345641394490
 40
39.000000000000220
 50
335.284732954534830
 51
24.715267045465190
  0
ARC
  8
0
  6
CONTINUOUS
 62
3
 10
-366.201821218868870
 20
-137.821345641394490
 40
34.000000000000007
 50
335.739170477266780
 51
24.260829522733218
  0
ARC
  8
0
  6
CONTINUOUS
 62
3
 10
-366.201821218868870
 20
-137.821345641394490
 40
25.500000000000085
 50
337.589542391857490
 51
22.410457608142021
  0
ARC
  8
0
  6
CONTINUOUS
 62
3
 10
-366.201821218868870
 20
-137.821345641394490
 40
30.499999999999947
 50
336.813854344181150
 51
23.186145655818844
  0
ARC
  8
0
  6
CONTINUOUS
 62
3
 10
-339.084519430937010
 20
-149.436075244025800
 40
1.000000000000082
 50
240.000000000002730
 51
336.813854344180130
  0
LINE
  8
0
  6
CONTINUOUS
 62
3
 10
-339.584519430937010
 20
-150.302100647810330
 11
-342.203194886714530
 21
-148.790207668497370
  0
ARC
  8
0
  6
CONTINUOUS
 62
3
 10
-366.201821218868870
 20
-137.821345641394490
 40
22.000000000000206
 50
339.594068226860770
 51
20.405931773139226
  0
ARC
  8
0
  6
CONTINUOUS
 62
3
 10
-334.292867324544430
 20
-152.202536877514720
 40
0.999999999999769
 50
155.739170477266270
 51
240.000000000002730
  0
ARC
  8
0
  6
CONTINUOUS
 62
3
 10
-341.703194886714530
 20
-147.924182264712840
 40
0.999999999999701
 50
157.589542391853940
 51
240.000000000002730
  0
ARC
  8
0
  6
CONTINUOUS
 62
3
 10
-346.519657378439430
 20
-145.143396348573220
 40
0.999999999999885
 50
239.999999999996220
 51
339.594068226861340
  0
ARC
  8
0
  6
CONTINUOUS
 62
3
 10
-366.201821218868870
 20
-137.821345641394490
 40
17.000000000000146
 50
341.212271417650070
 51
18.787728582350418
  0
LINE
  8
0
  6
CONTINUOUS
 62
3
 10
-347.019657378439430
 20
-146.009421752357530
 11
-349.660892535496030
 21
-144.484503923437960
  0
ARC
  8
0
  6
CONTINUOUS
 62
3
 10
-349.160892535496030
 20
-143.618478519653650
 40
0.999999999999646
 50
161.212271417644620
 51
239.999999999996220
  0
ARC
  8
0
  6
CONTINUOUS
 62
3
 10
-366.201821218868870
 20
-137.821345641394490
 40
13.500000000000130
 50
346.260204708311850
 51
13.739795291688171
  0
ARC
  8
0
  6
CONTINUOUS
 62
3
 10
-354.059516373455380
 20
-140.790256728149070
 40
0.999999999999885
 50
239.999999999996220
 51
346.260204708314010
  0
LINE
  8
0
  6
CONTINUOUS
 62
3
 10
-354.559516373455380
 20
-141.656282131933380
 11
-357.303291948479680
 21
-140.072162565097300
  0
ARC
  8
0
  6
CONTINUOUS
 62
3
 10
-354.059516373455380
 20
-134.852434554639900
 40
0.999999999999879
 50
13.739795291686027
 51
120.000000000003780
  0
ARC
  8
0
  6
CONTINUOUS
 62
3
 10
-366.201821218868870
 20
-137.821345641394490
 40
8.499999999999972
 50
351.618272422157820
 51
8.381727577842204
  0
ARC
  8
0
  6
CONTINUOUS
 62
3
 10
-356.803291948479680
 20
-139.206137161312990
 40
1.000000000000059
 50
171.618272422154460
 51
239.999999999996220
  0
ARC
  8
0
  6
CONTINUOUS
 62
3
 10
-346.519657378439430
 20
-130.499294934215750
 40
1.000000000000094
 50
20.405931773138686
 51
120.000000000003780
  0
LINE
  8
0
  6
CONTINUOUS
 62
3
 10
-347.019657378439430
 20
-129.633269530431450
 11
-349.660892535496030
 21
-131.158187359350790
  0
ARC
  8
0
  6
CONTINUOUS
 62
3
 10
-349.160892535496030
 20
-132.024212763135320
 40
1.000000000000082
 50
119.999999999997270
 51
198.787728582347000
  0
LINE
  8
0
  6
CONTINUOUS
 62
3
 10
-354.559516373455380
 20
-133.986409150855590
 11
-357.303291948479680
 21
-135.570528717691670
  0
ARC
  8
0
  6
CONTINUOUS
 62
3
 10
-356.803291948479680
 20
-136.436554121476210
 40
1.000000000000082
 50
119.999999999997270
 51
188.381727577832660
  0
ARC
  8
0
  6
CONTINUOUS
 62
3
 10
-334.292867324544430
 20
-123.440154405274020
 40
0.999999999999885
 50
120.000000000003780
 51
204.260829522745610
  0
LINE
  8
0
  6
CONTINUOUS
 62
3
 10
-332.182742806438680
 20
-121.067172908342960
 11
-334.792867324544430
 21
-122.574129001489720
  0
ARC
  8
0
  6
CONTINUOUS
 62
3
 10
-331.682742806438680
 20
-121.933198312127500
 40
1.000000000000248
 50
24.715267045455477
 51
119.999999999997270
  0
ARC
  8
0
  6
CONTINUOUS
 62
3
 10
-341.703194886714530
 20
-127.718509018076360
 40
1.000000000000082
 50
119.999999999997270
 51
202.410457608146060
  0
LINE
  8
0
  6
CONTINUOUS
 62
3
 10
-339.584519430937010
 20
-125.340590634978630
 11
-342.203194886714530
 21
-126.852483614291820
  0
ARC
  8
0
  6
CONTINUOUS
 62
3
 10
-339.084519430937010
 20
-126.206616038763170
 40
0.999999999999730
 50
23.186145655819850
 51
119.999999999997270
  0
ARC
  8
0
  6
CONTINUOUS
 62
3
 10
-366.201821218868870
 20
-137.821345641394490
 40
38.999999999999865
 50
35.284732954534789
 51
84.715267045465410
  0
ARC
  8
0
  6
CONTINUOUS
 62
3
 10
-366.201821218868870
 20
-137.821345641394490
 40
33.999999999999829
 50
35.739170477266640
 51
84.260829522733076
  0
ARC
  8
0
  6
CONTINUOUS
 62
3
 10
-366.201821218868870
 20
-137.821345641394490
 40
25.499999999999890
 50
37.589542391857961
 51
82.410457608141883
  0
ARC
  8
0
  6
CONTINUOUS
 62
3
 10
-366.201821218868870
 20
-137.821345641394490
 40
30.499999999999964
 50
36.813854344181067
 51
83.186145655818962
  0
ARC
  8
0
  6
CONTINUOUS
 62
3
 10
-366.201821218868870
 20
-137.821345641394490
 40
22.000000000000025
 50
39.594068226860820
 51
80.405931773138789
  0
ARC
  8
0
  6
CONTINUOUS
 62
3
 10
-366.201821218868870
 20
-137.821345641394490
 40
17.000000000000114
 50
41.212271417649760
 51
78.787728582349985
  0
ARC
  8
0
  6
CONTINUOUS
 62
3
 10
-366.201821218868870
 20
-137.821345641394490
 40
13.499999999999927
 50
46.260204708312145
 51
73.739795291689134
  0
ARC
  8
0
  6
CONTINUOUS
 62
3
 10
-362.701821218868870
 20
-125.821345641394480
 40
0.999999999999964
 50
73.739795291702634
 51
180.000000000000000
  0
LINE
  8
0
  6
CONTINUOUS
 62
3
 10
-363.701821218868870
 20
-125.821345641394480
 11
-363.701821218868870
 21
-128.989584775066650
  0
ARC
  8
0
  6
CONTINUOUS
 62
3
 10
-357.559516373455380
 20
-128.790256728149070
 40
0.999999999999885
 50
300.000000000003810
 51
46.260204708328693
  0
ARC
  8
0
  6
CONTINUOUS
 62
3
 10
-366.201821218868870
 20
-137.821345641394490
 40
8.500000000000128
 50
51.618272422158320
 51
68.381727577842284
  0
ARC
  8
0
  6
CONTINUOUS
 62
3
 10
-362.701821218868870
 20
-128.989584775066650
 40
1.000000000000000
 50
180.000000000000000
 51
248.381727577838030
  0
ARC
  8
0
  6
CONTINUOUS
 62
3
 10
-350.019657378439890
 20
-124.437117107724470
 40
1.000000000000082
 50
299.999999999997270
 51
39.594068226850403
  0
LINE
  8
0
  6
CONTINUOUS
 62
3
 10
-349.519657378439890
 20
-125.303142511509000
 11
-352.160892535496030
 21
-126.828060340428570
  0
ARC
  8
0
  6
CONTINUOUS
 62
3
 10
-352.660892535496030
 20
-125.962034936644270
 40
0.999999999999673
 50
221.212271417651210
 51
300.000000000003810
  0
LINE
  8
0
  6
CONTINUOUS
 62
3
 10
-357.059516373455380
 20
-129.656282131933380
 11
-359.803291948479680
 21
-131.240401698769460
  0
ARC
  8
0
  6
CONTINUOUS
 62
3
 10
-360.303291948479680
 20
-130.374376294984930
 40
0.999999999999961
 50
231.618272422159780
 51
299.999999999997270
  0
ARC
  8
0
  6
CONTINUOUS
 62
3
 10
-337.792867324544430
 20
-117.377976578783200
 40
0.999999999999940
 50
215.739170477274090
 51
300.000000000003810
  0
LINE
  8
0
  6
CONTINUOUS
 62
3
 10
-334.682742806438680
 20
-116.737045889420750
 11
-337.292867324544430
 21
-118.244001982567510
  0
ARC
  8
0
  6
CONTINUOUS
 62
3
 10
-335.182742806438680
 20
-115.871020485636450
 40
0.999999999999885
 50
300.000000000003810
 51
35.284732954544943
  0
ARC
  8
0
  6
CONTINUOUS
 62
3
 10
-345.203194886714530
 20
-121.656331191585300
 40
0.999999999999834
 50
217.589542391867670
 51
299.999999999997270
  0
LINE
  8
0
  6
CONTINUOUS
 62
3
 10
-342.084519430937010
 20
-121.010463616056650
 11
-344.703194886714530
 21
-122.522356595369840
  0
ARC
  8
0
  6
CONTINUOUS
 62
3
 10
-342.584519430937010
 20
-120.144438212272120
 40
1.000000000000082
 50
299.999999999997270
 51
36.813854344186687
  0
ARC
  8
0
  6
CONTINUOUS
 62
3
 10
-362.701821218868870
 20
-99.982873156369450
 40
1.000000000000042
 50
84.715267045464302
 51
180.000000000000000
  0
LINE
  8
0
  6
CONTINUOUS
 62
3
 10
-363.701821218868870
 20
-99.982873156369450
 11
-363.701821218868870
 21
-102.996785342662730
  0
ARC
  8
0
  6
CONTINUOUS
 62
3
 10
-362.701821218868870
 20
-102.996785342662730
 40
1.000000000000000
 50
180.000000000000000
 51
264.260829522738280
  0
ARC
  8
0
  6
CONTINUOUS
 62
3
 10
-362.701821218868870
 20
-108.529708609640790
 40
1.000000000000077
 50
83.186145655820312
 51
180.000000000000000
  0
LINE
  8
0
  6
CONTINUOUS
 62
3
 10
-363.701821218868870
 20
-108.529708609640790
 11
-363.701821218868870
 21
-111.553494568266940
  0
ARC
  8
0
  6
CONTINUOUS
 62
3
 10
-362.701821218868870
 20
-111.553494568267160
 40
1.000000000000000
 50
179.999999999986980
 51
262.410457608144160
  0
ARC
  8
0
  6
CONTINUOUS
 62
3
 10
-362.701821218868870
 20
-117.115066400545970
 40
1.000000000000268
 50
80.405931773124522
 51
180.000000000000000
  0
LINE
  8
0
  6
CONTINUOUS
 62
3
 10
-363.701821218868870
 20
-117.115066400545970
 11
-363.701821218868870
 21
-120.164902058384880
  0
ARC
  8
0
  6
CONTINUOUS
 62
3
 10
-362.701821218868870
 20
-120.164902058384880
 40
1.000000000000000
 50
180.000000000000000
 51
258.787728582356010
  0
LINE
  8
0
  6
CONTINUOUS
 62
3
 10
-369.201821218868870
 20
-25.321345641394473
 11
-369.201821218868870
 21
-27.321345641394473
  0
LINE
  8
0
  6
CONTINUOUS
 62
3
 10
-363.201821218868870
 20
-25.321345641394473
 11
-363.201821218868870
 21
-27.321345641394473
  0
ARC
  8
0
  6
CONTINUOUS
 62
3
 10
-261.701821218868870
 20
-236.821345641394490
 40
8.000000000000000
 50
270.000000000000000
 51
0.000000000000000
  0
ARC
  8
0
  6
CONTINUOUS
 62
3
 10
-261.701821218868870
 20
-27.821345641394473
 40
8.000000000000000
 50
0.000000000000000
 51
90.000000000000000
  0
ARC
  8
0
  6
CONTINUOUS
 62
3
 10
-372.201821218868870
 20
-25.321345641394473
 40
3.000000000000000
 50
0.000000000000000
 51
90.000000000000000
  0
ARC
  8
0
  6
CONTINUOUS
 62
3
 10
-360.201821218868870
 20
-25.321345641394473
 40
3.000000000000000
 50
90.000000000000000
 51
180.000000000000000
  0
ARC
  8
0
  6
CONTINUOUS
 62
3
 10
-420.206228671264630
 20
-69.831656814759853
 40
3.000000000000265
 50
224.999999999995400
 51
298.814852117042620
  0
ARC
  8
0
  6
CONTINUOUS
 62
3
 10
-430.487020067021830
 20
-76.521428167479925
 40
2.999999999999856
 50
307.289727379802290
 51
45.000000000000000
  0
ARC
  8
0
  6
CONTINUOUS
 62
3
 10
-453.746352372255160
 20
-53.262095862246937
 40
2.999999999999944
 50
45.000000000001542
 51
134.999999999998470
  0
ARC
  8
0
  6
CONTINUOUS
 62
3
 10
-445.261070998016520
 20
-44.776814488008299
 40
2.999999999999944
 50
134.999999999998470
 51
225.000000000001530
  0
ARC
  8
0
  6
CONTINUOUS
 62
3
 10
-287.142571439721220
 20
-44.776814488008299
 40
2.999999999999944
 50
314.999999999998470
 51
45.000000000001542
  0
ARC
  8
0
  6
CONTINUOUS
 62
3
 10
-278.657290065482580
 20
-53.262095862246937
 40
2.999999999999944
 50
45.000000000001542
 51
134.999999999996930
  0
ARC
  8
0
  6
CONTINUOUS
 62
3
 10
-301.916622370715910
 20
-76.521428167479925
 40
2.999999999999864
 50
135.000000000000000
 51
232.710272620190840
  0
ARC
  8
0
  6
CONTINUOUS
 62
3
 10
-312.197413766473120
 20
-69.831656814759853
 40
2.999999999999992
 50
241.185147882957380
 51
315.000000000004600
  0
LINE
  8
0
  6
CONTINUOUS
 62
3
 10
-304.140032390861280
 20
-244.821345641394490
 11
-261.701821218868870
 21
-244.821345641394490
  0
LINE
  8
0
  6
CONTINUOUS
 62
3
 10
-470.701821218868870
 20
-244.821345641394490
 11
-428.263610046876470
 21
-244.821345641394490
  0
LINE
  8
0
  6
CONTINUOUS
 62
3
 10
-470.701821218868870
 20
-19.821345641394473
 11
-261.701821218868870
 21
-19.821345641394473
  0
LINE
  8
0
  6
CONTINUOUS
 62
3
 10
-253.701821218868870
 20
-27.821345641394473
 11
-253.701821218868870
 21
-236.821345641394490
  0
LINE
  8
0
  6
CONTINUOUS
 62
3
 10
-447.382391341576070
 20
-46.898134831567958
 11
-422.327549014824630
 21
-71.952977158319513
  0
LINE
  8
0
  6
CONTINUOUS
 62
3
 10
-451.625032028695610
 20
-51.140775518687278
 11
-428.365699723462280
 21
-74.400107823920379
  0
LINE
  8
0
  6
CONTINUOUS
 62
3
 10
-285.021251096161680
 20
-46.898134831567958
 11
-310.076093422913120
 21
-71.952977158319513
  0
LINE
  8
0
  6
CONTINUOUS
 62
3
 10
-280.778610409042130
 20
-51.140775518687164
 11
-304.037942714275460
 21
-74.400107823920379
  0
ARC
  8
0
  6
CONTINUOUS
 62
3
 10
-428.701821218868870
 20
-172.202189794794660
 40
3.000000000000168
 50
322.203357465589990
 51
0.000000000000000
  0
ARC
  8
0
  6
CONTINUOUS
 62
3
 10
-402.052080747263740
 20
-220.443209332822220
 40
2.999999999999921
 50
79.695153531234737
 51
95.631713938415942
  0
ARC
  8
0
  6
CONTINUOUS
 62
3
 10
-404.996093419227920
 20
-190.588012308060910
 40
26.999999999999797
 50
142.203357465588340
 51
275.631713938414800
  0
ARC
  8
0
  6
CONTINUOUS
 62
3
 10
-329.052041535141140
 20
-220.206075073092170
 40
2.999999999999886
 50
99.749988138587184
 51
139.848912341650620
  0
ARC
  8
0
  6
CONTINUOUS
 62
3
 10
-351.982444499480380
 20
-200.861912648912830
 40
26.999999999999748
 50
232.492357161295270
 51
319.848912341650530
  0
ARC
  8
0
  6
CONTINUOUS
 62
3
 10
-366.201821218868420
 20
-162.321345641394490
 40
101.000000000000050
 50
309.950233661982400
 51
337.984630459603070
  0
ARC
  8
0
  6
CONTINUOUS
 62
3
 10
-366.201821218868870
 20
-162.321345641394490
 40
101.000000000000310
 50
202.015369540396850
 51
230.049766338017580
  0
ARC
  8
0
  6
CONTINUOUS
 62
3
 10
-455.201821218868870
 20
-198.307454072287670
 40
5.000000000000000
 50
180.000000000000000
 51
202.015369540398010
  0
ARC
  8
0
  6
CONTINUOUS
 62
3
 10
-277.201821218868420
 20
-198.307454072287670
 40
4.999999999999877
 50
337.984630459601990
 51
0.000000000000000
  0
ARC
  8
0
  6
CONTINUOUS
 62
3
 10
-436.193118289079620
 20
-245.881014946804610
 40
8.000000000000107
 50
1.781769897912753
 51
50.049766338017157
  0
ARC
  8
0
  6
CONTINUOUS
 62
3
 10
-418.201821218868870
 20
-245.321345641394490
 40
9.999999999999675
 50
181.781769897911860
 51
270.000000000000000
  0
ARC
  8
0
  6
CONTINUOUS
 62
3
 10
-314.201821218868640
 20
-245.321345641394490
 40
10.000000000000000
 50
270.000000000000000
 51
358.218230102088230
  0
ARC
  8
0
  6
CONTINUOUS
 62
3
 10
-296.210524148657670
 20
-245.881014946804610
 40
7.999999999999901
 50
129.950233661982820
 51
178.218230102087230
  0
ARC
  8
0
  6
CONTINUOUS
 62
3
 10
-380.201821218868870
 20
-142.554743825575880
 40
79.999999999999972
 50
94.660419384114789
 51
180.000000000000000
  0
ARC
  8
0
  6
CONTINUOUS
 62
3
 10
-352.201821218868420
 20
-142.554743825575880
 40
80.000000000000000
 50
0.000000000000000
 51
15.675342857763171
  0
ARC
  8
0
  6
CONTINUOUS
 62
3
 10
-275.703823991737180
 20
-127.321345641394480
 40
2.000000000000033
 50
295.969013693521960
 51
11.262247925640054
  0
ARC
  8
0
  6
CONTINUOUS
 62
3
 10
-274.201821218868420
 20
-147.321345641394490
 40
2.000000000000000
 50
0.000000000000000
 51
90.000000000000000
  0
ARC
  8
0
  6
CONTINUOUS
 62
3
 10
-456.699818446000110
 20
-127.321345641394480
 40
1.999999999999699
 50
168.737752074358670
 51
270.000000000000000
  0
ARC
  8
0
  6
CONTINUOUS
 62
3
 10
-451.201821218868870
 20
-137.321345641394490
 40
8.000000000000000
 50
270.000000000000000
 51
90.000000000000000
  0
ARC
  8
0
  6
CONTINUOUS
 62
3
 10
-458.201821218868870
 20
-147.321345641394490
 40
2.000000000000000
 50
90.000000000000000
 51
180.000000000000000
  0
LINE
  8
0
  6
CONTINUOUS
 62
4
 10
-366.201821218868870
 20
-162.321345641394490
 11
-365.818415990843500
 21
-161.937940413369350
  0
LINE
  8
0
  6
CONTINUOUS
 62
3
 10
-272.201821218868420
 20
-142.554743825575880
 11
-272.201821218868420
 21
-198.307454072287670
  0
LINE
  8
0
  6
CONTINUOUS
 62
3
 10
-314.201821218868640
 20
-255.321345641394490
 11
-366.201821218868870
 21
-255.321345641394490
  0
LINE
  8
0
  6
CONTINUOUS
 62
3
 10
-418.201821218868870
 20
-255.321345641394490
 11
-366.201821218868870
 21
-255.321345641394490
  0
LINE
  8
0
  6
CONTINUOUS
 62
3
 10
-460.201821218868870
 20
-142.554743825575880
 11
-460.201821218868870
 21
-198.307454072287670
  0
LINE
  8
0
  6
CONTINUOUS
 62
3
 10
-274.201821218868420
 20
-145.321345641394490
 11
-274.795585871885810
 21
-145.321345641394490
  0
LINE
  8
0
  6
CONTINUOUS
 62
3
 10
-456.699818446000110
 20
-129.321345641394490
 11
-451.201821218868870
 21
-129.321345641394490
  0
LINE
  8
0
  6
CONTINUOUS
 62
3
 10
-458.201821218868870
 20
-145.321345641394490
 11
-451.201821218868870
 21
-145.321345641394490
  0
LINE
  8
0
  6
DASHDOT
 62
4
 10
-343.033908219987100
 20
-47.321345641394473
 11
-390.056422121522020
 21
-47.321345641394473
  0
CIRCLE
  8
0
  6
CONTINUOUS
 62
3
 10
-366.201821218868870
 20
-47.321345641394473
 40
10.000000000000000
  0
LINE
  8
0
  6
CONTINUOUS
 62
3
 10
-386.701821218868870
 20
-37.321345641394473
 11
-386.701821218868870
 21
-80.321345641394529
  0
ARC
  8
0
  6
CONTINUOUS
 62
3
 10
-376.701821218868870
 20
-37.321345641394473
 40
10.000000000000000
 50
90.000000000000000
 51
180.000000000000000
  0
LINE
  8
0
  6
CONTINUOUS
 62
3
 10
-355.701821218868870
 20
-27.321345641394473
 11
-376.701821218868870
 21
-27.321345641394473
  0
ARC
  8
0
  6
CONTINUOUS
 62
3
 10
-355.701821218868870
 20
-37.321345641394473
 40
10.000000000000227
 50
0.000000000000000
 51
90.000000000000000
  0
LINE
  8
0
  6
CONTINUOUS
 62
3
 10
-345.701821218868640
 20
-37.321345641394473
 11
-345.701821218868640
 21
-80.321345641394529
  0
LINE
  8
0
  6
CONTINUOUS
 62
3
 10
-379.534112844841960
 20
-220.821345641394490
 11
-381.849272062626140
 21
-220.821345641394490
  0
LINE
  8
0
  6
CONTINUOUS
 62
3
 10
-352.869529592894880
 20
-220.821345641394490
 11
-350.554370375110690
 21
-220.821345641394490
  0
ARC
  8
0
  6
CONTINUOUS
 62
3
 10
-366.201821218868420
 20
-162.321345641394490
 40
60.000000000000036
 50
257.161431859015810
 51
282.838568140984190
  0
ARC
  8
0
  6
CONTINUOUS
 62
3
 10
-381.701821218868420
 20
-216.821345641394490
 40
3.000000000000000
 50
180.000000000000000
 51
270.000000000000000
  0
ARC
  8
0
  6
CONTINUOUS
 62
3
 10
-350.701821218868420
 20
-216.821345641394490
 40
3.000000000000000
 50
270.000000000000000
 51
0.000000000000000
  0
ARC
  8
0
  6
CONTINUOUS
 62
3
 10
-391.701821218868420
 20
-191.821345641394490
 40
3.000000000000000
 50
0.000000000000000
 51
12.243652867701085
  0
ARC
  8
0
  6
CONTINUOUS
 62
3
 10
-381.701821218868420
 20
-192.148404913476160
 40
3.000000000000101
 50
165.521193763419260
 51
180.000000000000000
  0
ARC
  8
0
  6
CONTINUOUS
 62
3
 10
-340.701821218868420
 20
-191.821345641394490
 40
3.000000000000724
 50
167.756347132292180
 51
180.000000000000000
  0
ARC
  8
0
  6
CONTINUOUS
 62
3
 10
-350.701821218868420
 20
-192.148404913475930
 40
3.000000000000000
 50
0.000000000000000
 51
14.478806236574281
  0
ARC
  8
0
  6
CONTINUOUS
 62
3
 10
-393.701821218868420
 20
-217.050793838868570
 40
5.000000000000000
 50
0.000000000000000
 51
63.321765549190360
  0
ARC
  8
0
  6
CONTINUOUS
 62
3
 10
-366.201821218868420
 20
-162.321345641394490
 40
56.250000000000249
 50
220.772804694042720
 51
243.321765549190420
  0
ARC
  8
0
  6
CONTINUOUS
 62
3
 10
-412.586759507066970
 20
-202.321345641394490
 40
4.999999999999657
 50
40.772804694045341
 51
90.000000000000000
  0
LINE
  8
0
  6
CONTINUOUS
 62
3
 10
-417.361418352355260
 20
-197.321345641394490
 11
-412.586759507066970
 21
-197.321345641394490
  0
ARC
  8
0
  6
CONTINUOUS
 62
3
 10
-417.361418352355260
 20
-192.321345641394490
 40
4.999999999999649
 50
190.000000000000570
 51
270.000000000000000
  0
ARC
  8
0
  6
CONTINUOUS
 62
3
 10
-338.701821218868420
 20
-217.050793838868570
 40
4.999999999999867
 50
116.678234450809640
 51
180.000000000000000
  0
ARC
  8
0
  6
CONTINUOUS
 62
3
 10
-366.201821218868420
 20
-162.321345641394490
 40
56.250000000000128
 50
296.678234450809610
 51
319.227195305957140
  0
ARC
  8
0
  6
CONTINUOUS
 62
3
 10
-319.816882930669860
 20
-202.321345641394490
 40
5.000000000000000
 50
90.000000000000000
 51
139.227195305956340
  0
LINE
  8
0
  6
CONTINUOUS
 62
3
 10
-315.042224085381800
 20
-197.321345641394490
 11
-319.816882930669860
 21
-197.321345641394490
  0
ARC
  8
0
  6
CONTINUOUS
 62
3
 10
-315.042224085381800
 20
-192.321345641394490
 40
5.000000000000000
 50
270.000000000000000
 51
350.000000000000340
  0
LINE
  8
0
  6
CONTINUOUS
 62
3
 10
-388.701821218868420
 20
-191.821345641394490
 11
-388.701821218868420
 21
-219.821345641394490
  0
LINE
  8
0
  6
CONTINUOUS
 62
3
 10
-343.701821218868420
 20
-191.821345641394490
 11
-343.701821218868420
 21
-219.821345641394490
  0
LINE
  8
0
  6
CONTINUOUS
 62
3
 10
-384.701821218868420
 20
-192.148404913476160
 11
-384.701821218868420
 21
-216.821345641394490
  0
LINE
  8
0
  6
CONTINUOUS
 62
3
 10
-347.701821218868420
 20
-192.148404913475930
 11
-347.701821218868420
 21
-216.821345641394490
  0
ARC
  8
0
  6
CONTINUOUS
 62
3
 10
-424.701821218868420
 20
-143.321345641394490
 40
0.999999999999465
 50
117.683035930785890
 51
180.000000000000000
  0
LINE
  8
0
  6
CONTINUOUS
 62
3
 10
-425.701821218868420
 20
-162.321345641394490
 11
-425.701821218868420
 21
-143.321345641394490
  0
ARC
  8
0
  6
CONTINUOUS
 62
3
 10
-425.046187760770180
 20
-183.291475506357410
 40
0.999999999999677
 50
10.000000000008416
 51
80.085216630857445
  0
ARC
  8
0
  6
CONTINUOUS
 62
3
 10
-424.701821218868420
 20
-181.321345641394490
 40
1.000000000000000
 50
180.000000000000000
 51
260.085216630857420
  0
LINE
  8
0
  6
CONTINUOUS
 62
3
 10
-424.061380007758320
 20
-183.117827328690400
 11
-421.285480156429680
 21
-198.860737688607860
  0
LINE
  8
0
  6
CONTINUOUS
 62
3
 10
-425.701821218868420
 20
-162.321345641394490
 11
-425.701821218868420
 21
-181.321345641394490
  0
ARC
  8
0
  6
CONTINUOUS
 62
3
 10
-406.513363861246720
 20
-196.256015023603940
 40
14.999999999999844
 50
189.999999999999970
 51
225.000000000000000
  0
LINE
  8
0
  6
CONTINUOUS
 62
3
 10
-417.119965579044900
 20
-206.862616741402120
 11
-410.909915223660620
 21
-213.072667096785950
  0
ARC
  8
0
  6
CONTINUOUS
 62
3
 10
-400.303313505862430
 20
-202.466065378987760
 40
14.999999999999961
 50
225.000000000000000
 51
259.695153531233190
  0
LINE
  8
0
  6
CONTINUOUS
 62
3
 10
-402.986595078862360
 20
-217.224114030486250
 11
-384.532553635626070
 21
-220.579394292892970
  0
ARC
  8
0
  6
CONTINUOUS
 62
3
 10
-381.849272062626140
 20
-205.821345641394490
 40
14.999999999999908
 50
259.695153531233190
 51
270.000000000000000
  0
ARC
  8
0
  6
CONTINUOUS
 62
3
 10
-307.357454676966650
 20
-183.291475506357410
 40
1.000000000000028
 50
99.914783369142555
 51
169.999999999993860
  0
ARC
  8
0
  6
CONTINUOUS
 62
3
 10
-307.701821218868420
 20
-181.321345641394490
 40
1.000000000000028
 50
279.914783369142580
 51
0.000000000000000
  0
LINE
  8
0
  6
CONTINUOUS
 62
3
 10
-308.342262429978750
 20
-183.117827328690400
 11
-311.118162281307150
 21
-198.860737688607860
  0
LINE
  8
0
  6
CONTINUOUS
 62
3
 10
-306.701821218868420
 20
-173.821345641394490
 11
-306.701821218868420
 21
-181.321345641394490
  0
ARC
  8
0
  6
CONTINUOUS
 62
3
 10
-325.890278576490120
 20
-196.256015023603940
 40
14.999999999999961
 50
315.000000000000000
 51
350.000000000000000
  0
LINE
  8
0
  6
CONTINUOUS
 62
3
 10
-315.283676858691930
 20
-206.862616741402120
 11
-321.493727214075990
 21
-213.072667096785950
  0
ARC
  8
0
  6
CONTINUOUS
 62
3
 10
-332.100328931874170
 20
-202.466065378987760
 40
14.999999999999867
 50
280.304846468765960
 51
315.000000000000000
  0
LINE
  8
0
  6
CONTINUOUS
 62
3
 10
-329.417047358874470
 20
-217.224114030486250
 11
-347.871088802110760
 21
-220.579394292892970
  0
ARC
  8
0
  6
CONTINUOUS
 62
3
 10
-350.554370375110690
 20
-205.821345641394490
 40
15.000000000000000
 50
270.000000000000000
 51
280.304846468766810
  0
LINE
  8
0
  6
CONTINUOUS
 62
3
 10
-363.201821218868870
 20
-37.781953627224979
 11
-363.201821218868870
 21
-56.860737655563966
  0
LINE
  8
0
  6
CONTINUOUS
 62
3
 10
-369.201821218868870
 20
-37.781953627224979
 11
-369.201821218868870
 21
-56.860737655563966
  0
ARC
  8
0
  6
CONTINUOUS
 62
3
 10
-350.701821218868870
 20
-80.321345641394529
 40
5.000000000000203
 50
308.158322091880790
 51
0.000000000000000
  0
ARC
  8
0
  6
CONTINUOUS
 62
3
 10
-381.701821218868870
 20
-80.321345641394529
 40
5.000000000000000
 50
180.000000000000000
 51
231.841677908119210
  0
ARC
  8
0
  6
CONTINUOUS
 62
3
 10
-352.201821218868420
 20
-142.554743825575880
 40
80.000000000000000
 50
30.608391721918355
 51
85.339580615885353
  0
LINE
  8
0
  6
CONTINUOUS
 62
3
 10
-308.701821218868870
 20
-101.821345641394700
 11
-281.335156445926490
 21
-101.821345641394700
  0
LINE
  8
0
  6
CONTINUOUS
 62
3
 10
-308.701821218868870
 20
-173.821345641394490
 11
-281.335156445926490
 21
-173.821345641394490
  0
LINE
  8
0
  6
CONTINUOUS
 62
3
 10
-274.201821218868870
 20
-135.321345641394260
 11
-274.712238066386590
 21
-135.321345641394260
  0
LINE
  8
0
  6
CONTINUOUS
 62
3
 10
-274.201821218868870
 20
-140.321345641394490
 11
-274.201821218868870
 21
-135.321345641394490
  0
LINE
  8
0
  6
CONTINUOUS
 62
3
 10
-274.201821218868870
 20
-140.321345641394490
 11
-274.712238066386590
 21
-140.321345641394490
  0
ARC
  8
0
  6
CONTINUOUS
 62
3
 10
-281.335156445926490
 20
-168.821345641394490
 40
5.000000000000000
 50
270.000000000000000
 51
353.967950853629650
  0
ARC
  8
0
  6
CONTINUOUS
 62
3
 10
-281.335156445926490
 20
-106.821345641394700
 40
5.000000000000143
 50
6.032049146370342
 51
90.000000000000000
  0
ARC
  8
0
  6
CONTINUOUS
 62
3
 10
-574.701821218868870
 20
-137.821345641394490
 40
300.000000000000060
 50
353.967950853630210
 51
6.032049146369776
  0
LINE
  8
0
  6
CONTINUOUS
 62
3
 10
-308.701821218868870
 20
-107.833359786964230
 11
-308.701821218868870
 21
-101.821345641394700
  0
LINE
  8
0
  6
CONTINUOUS
 62
3
 10
-310.201860735671060
 20
-101.821345641394700
 11
-308.701821218868870
 21
-101.821345641394700
  0
LINE
  8
0
  6
CONTINUOUS
 62
3
 10
-310.201860735671060
 20
-173.821345641394260
 11
-308.701821218868870
 21
-173.821345641394260
  0
LINE
  8
0
  6
CONTINUOUS
 62
3
 10
-308.701821218868870
 20
-173.821345641394490
 11
-308.701821218868870
 21
-167.813844703656860
  0
LINE
  8
0
  6
DASHDOT
 62
4
 10
-243.844881556473410
 20
-137.821345641394490
 11
-492.159763625072170
 21
-137.821345641394490
  0
ARC
  8
0
  6
CONTINUOUS
 62
3
 10
-470.701821218868870
 20
-236.821345641394490
 40
8.000000000000000
 50
180.000000000000000
 51
270.000000000000000
  0
ARC
  8
0
  6
CONTINUOUS
 62
3
 10
-470.701821218868870
 20
-27.821345641394473
 40
8.000000000000000
 50
90.000000000000000
 51
180.000000000000000
  0
LINE
  8
0
  6
CONTINUOUS
 62
3
 10
-478.701821218868870
 20
-27.821345641394473
 11
-478.701821218868870
 21
-236.821345641394490
  0
ENDSEC
  0
EOF
