  0
SECTION
  2
HEADER
  9
$FILLMODE
 70
1
  9
$TEXTSTYLE
  7
STANDARD1
  9
$ACADVER
  1
AC1009
  9
$DIMASZ
 40
1.931851648807023
  9
$DIMEXE
 40
2.000000000000000
  9
$DIMEXO
 40
1.000000000000000
  9
$DIMLFAC
 40
1.000000000000000
  9
$DIMSCALE
 40
1.000000000000000
  9
$DIMTAD
 70
1
  9
$DIMTFAC
 40
0.714285731315613
  9
$DIMTXT
 40
2.799999952316284
  9
$LUPREC
 70
3
  9
$TEXTSIZE
 40
2.799999952316284
  9
$REGENMODE
 70
1
  0
ENDSEC
  0
SECTION
  2
TABLES
  0
TABLE
  2
LTYPE
 70
4
  0
LTYPE
  2
CONTINUOUS
 70
64
  3
Solid line
 72
65
 73
0
 40
0.0
  0
LTYPE
  2
DASHED
 70
64
  3
-- -- -- -- -- -- -- -- -- -- -- -- -- -- --
 72
65
 73
2
 40
0.75
 49
0.5
 49
-0.25
  0
LTYPE
  2
DASHDOT
 70
64
  3
__ . __ . __ . __ . __ . __ . __ . __ . __ . __
 72
65
 73
4
 40
1.0
 49
0.5
 49
-0.25
 49
0.0
 49
-0.25
  0
LTYPE
  2
DIVIDE
 70
64
  3
__ . . __ . . __ . . __ . . __ . . __ . . __
 72
65
 73
6
 40
1.25
 49
0.5
 49
-0.25
 49
0.0
 49
-0.25
 49
0.0
 49
-0.25
  0
ENDTAB
  0
TABLE
  2
LAYER
 70
1
  0
LAYER
  2
0
 70
64
 62
2
  6
CONTINUOUS
  0
ENDTAB
  0
TABLE
  2
STYLE
 70
4
  0
STYLE
  2
STANDARD1
 70
64
 40
0.0
 41
1.0
 50
0.0
 71
0
 42
2.799999952316284
  3
MONOTXT
  4
BIGFONT
  0
STYLE
  2
STANDARD2
 70
68
 40
0.0
 41
1.0
 50
0.0
 71
0
 42
2.799999952316284
  3
MONOTXT
  4
BIGFONT
  0
STYLE
  2
STANDARD3
 70
64
 40
0.0
 41
1.0
 50
0.0
 71
0
 42
2.799999952316284
  3
MONOTXT
  4

  0
STYLE
  2
STANDARD4
 70
68
 40
0.0
 41
1.0
 50
0.0
 71
0
 42
2.799999952316284
  3
MONOTXT
  4

  0
ENDTAB
  0
TABLE
  2
VIEW
 70
0
  0
ENDTAB
  0
ENDSEC
  0
SECTION
  2
BLOCKS
  0
BLOCK
  8
0
  2
SYM1
 70
64
 10
0.000000000000000
 20
0.000000000000000
  0
LINE
  8
0
  6
CONTINUOUS
 62
3
 10
-7.499999046325684
 20
6.500000000000000
 11
-7.499999046325684
 21
-6.500000000000000
  0
LINE
  8
0
  6
CONTINUOUS
 62
3
 10
-7.499997911632022
 20
-6.499999445138201
 11
-7.999998623386432
 21
-5.634070287011241
  0
LINE
  8
0
  6
CONTINUOUS
 62
3
 10
-7.499999203818277
 20
6.499999909101064
 11
-7.999999021366804
 21
5.633876130311293
  0
LINE
  8
0
  6
CONTINUOUS
 62
3
 10
-0.000000000000000
 20
-6.500000000000000
 11
-7.499998092651367
 21
-6.500000000000000
  0
LINE
  8
0
  6
CONTINUOUS
 62
3
 10
0.000000000000000
 20
6.500000000000000
 11
-7.499999046325684
 21
6.500000000000000
  0
LINE
  8
0
  6
CONTINUOUS
 62
3
 10
-7.999999046325684
 20
5.633875846862793
 11
-7.999999046325684
 21
-5.634070396423340
  0
LINE
  8
0
  6
CONTINUOUS
 62
3
 10
0.000000000000000
 20
-6.500000000000000
 11
-0.000000000000000
 21
6.500000000000000
  0
POINT
  8
0
  6
CONTINUOUS
 62
3
 10
0.000000000000000
 20
0.000000000000000
  0
ENDBLK
  8
0
  0
BLOCK
  8
0
  2
SYM2
 70
64
 10
0.000000000000000
 20
0.000000000000000
  0
LINE
  8
0
  6
CONTINUOUS
 62
3
 10
-7.499999046325684
 20
6.500000000000000
 11
-7.499999046325684
 21
-6.500000000000000
  0
LINE
  8
0
  6
CONTINUOUS
 62
3
 10
-7.499997911632022
 20
-6.499999445138201
 11
-7.999998623386432
 21
-5.634070287011241
  0
LINE
  8
0
  6
CONTINUOUS
 62
3
 10
-7.499999203818277
 20
6.499999909101064
 11
-7.999999021366804
 21
5.633876130311293
  0
LINE
  8
0
  6
CONTINUOUS
 62
3
 10
-0.000000000000000
 20
-6.500000000000000
 11
-7.499998092651367
 21
-6.500000000000000
  0
LINE
  8
0
  6
CONTINUOUS
 62
3
 10
0.000000000000000
 20
6.500000000000000
 11
-7.499999046325684
 21
6.500000000000000
  0
LINE
  8
0
  6
CONTINUOUS
 62
3
 10
-7.999999046325684
 20
5.633875846862793
 11
-7.999999046325684
 21
-5.634070396423340
  0
LINE
  8
0
  6
CONTINUOUS
 62
3
 10
0.000000000000000
 20
-6.500000000000000
 11
-0.000000000000000
 21
6.500000000000000
  0
POINT
  8
0
  6
CONTINUOUS
 62
3
 10
0.000000000000000
 20
0.000000000000000
  0
ENDBLK
  8
0
  0
BLOCK
  8
0
  2
SYM3
 70
64
 10
0.000000000000000
 20
0.000000000000000
  0
LINE
  8
0
  6
CONTINUOUS
 62
3
 10
-7.499999046325684
 20
6.500000000000000
 11
-7.499999046325684
 21
-6.500000000000000
  0
LINE
  8
0
  6
CONTINUOUS
 62
3
 10
-7.499997911632022
 20
-6.499999445138201
 11
-7.999998623386432
 21
-5.634070287011241
  0
LINE
  8
0
  6
CONTINUOUS
 62
3
 10
-7.499999203818277
 20
6.499999909101064
 11
-7.999999021366804
 21
5.633876130311293
  0
LINE
  8
0
  6
CONTINUOUS
 62
3
 10
-0.000000000000000
 20
-6.500000000000000
 11
-7.499998092651367
 21
-6.500000000000000
  0
LINE
  8
0
  6
CONTINUOUS
 62
3
 10
0.000000000000000
 20
6.500000000000000
 11
-7.499999046325684
 21
6.500000000000000
  0
LINE
  8
0
  6
CONTINUOUS
 62
3
 10
-7.999999046325684
 20
5.633875846862793
 11
-7.999999046325684
 21
-5.634070396423340
  0
LINE
  8
0
  6
CONTINUOUS
 62
3
 10
0.000000000000000
 20
-6.500000000000000
 11
-0.000000000000000
 21
6.500000000000000
  0
POINT
  8
0
  6
CONTINUOUS
 62
3
 10
0.000000000000000
 20
0.000000000000000
  0
ENDBLK
  8
0
  0
BLOCK
  8
0
  2
SYM4
 70
64
 10
0.000000000000000
 20
0.000000000000000
  0
POINT
  8
0
  6
CONTINUOUS
 62
3
 10
0.000000000000000
 20
0.000000000000000
  0
LINE
  8
0
  6
CONTINUOUS
 62
3
 10
-0.000017659877873
 20
-4.599998474126673
 11
-3.000017102555891
 21
-4.599986076361044
  0
LINE
  8
0
  6
CONTINUOUS
 62
3
 10
-2.999996095884057
 20
-4.599969847145871
 11
-3.499991138206155
 21
-3.899966512616629
  0
LINE
  8
0
  6
CONTINUOUS
 62
3
 10
-3.500011920918244
 20
-3.899979774771439
 11
-3.499980449679529
 21
3.900009925545944
  0
LINE
  8
0
  6
CONTINUOUS
 62
3
 10
-3.499965125831864
 20
3.900000017678906
 11
-2.999963510759926
 21
4.599997551336457
  0
LINE
  8
0
  6
CONTINUOUS
 62
3
 10
-2.999979146307184
 20
4.600011825551216
 11
0.000019104623546
 21
4.600001335133485
  0
LINE
  8
0
  6
CONTINUOUS
 62
3
 10
0.000018950048186
 20
4.600000381469727
 11
-0.000018950048186
 21
-4.600000381469727
  0
LINE
  8
0
  6
CONTINUOUS
 62
3
 10
-3.000007597599688
 20
-2.299985885626180
 11
-0.000008155921205
 21
-2.299998283391806
  0
LINE
  8
0
  6
CONTINUOUS
 62
3
 10
-2.999989096318101
 20
2.300010681148706
 11
0.000009475023974
 21
2.300000190729854
  0
ARC
  8
0
  6
CONTINUOUS
 62
3
 10
-1.930013656616211
 20
-3.449991226196289
 40
1.569999694824219
 50
132.899744492600430
 51
179.999745461767870
  0
ARC
  8
0
  6
CONTINUOUS
 62
3
 10
-1.929986000061035
 20
3.450007438659668
 40
1.569999694824219
 50
179.999745461767870
 51
227.099746430935310
  0
ARC
  8
0
  6
CONTINUOUS
 62
3
 10
2.040000915527344
 20
-0.000008403939319
 40
5.539999008178711
 50
155.470186567177590
 51
204.529249714844780
  0
ENDBLK
  8
0
  0
BLOCK
  8
0
  2
SYM5
 70
64
 10
0.000000000000000
 20
0.000000000000000
  0
POINT
  8
0
  6
CONTINUOUS
 62
3
 10
0.000000000000000
 20
0.000000000000000
  0
LINE
  8
0
  6
CONTINUOUS
 62
3
 10
-0.000017659877873
 20
-4.599998474126673
 11
-3.000017102555891
 21
-4.599986076361044
  0
LINE
  8
0
  6
CONTINUOUS
 62
3
 10
-2.999996095884057
 20
-4.599969847145871
 11
-3.499991138206155
 21
-3.899966512616629
  0
LINE
  8
0
  6
CONTINUOUS
 62
3
 10
-3.500011920918244
 20
-3.899979774771439
 11
-3.499980449679529
 21
3.900009925545944
  0
LINE
  8
0
  6
CONTINUOUS
 62
3
 10
-3.499965125831864
 20
3.900000017678906
 11
-2.999963510759926
 21
4.599997551336457
  0
LINE
  8
0
  6
CONTINUOUS
 62
3
 10
-2.999979146307184
 20
4.600011825551216
 11
0.000019104623546
 21
4.600001335133485
  0
LINE
  8
0
  6
CONTINUOUS
 62
3
 10
0.000018950048186
 20
4.600000381469727
 11
-0.000018950048186
 21
-4.600000381469727
  0
LINE
  8
0
  6
CONTINUOUS
 62
3
 10
-3.000007597599688
 20
-2.299985885626180
 11
-0.000008155921205
 21
-2.299998283391806
  0
LINE
  8
0
  6
CONTINUOUS
 62
3
 10
-2.999989096318101
 20
2.300010681148706
 11
0.000009475023974
 21
2.300000190729854
  0
ARC
  8
0
  6
CONTINUOUS
 62
3
 10
-1.930013656616211
 20
-3.449991226196289
 40
1.569999694824219
 50
132.899744492600430
 51
179.999745461767870
  0
ARC
  8
0
  6
CONTINUOUS
 62
3
 10
-1.929986000061035
 20
3.450007438659668
 40
1.569999694824219
 50
179.999745461767870
 51
227.099746430935310
  0
ARC
  8
0
  6
CONTINUOUS
 62
3
 10
2.040000915527344
 20
-0.000008403939319
 40
5.539999008178711
 50
155.470186567177590
 51
204.529249714844780
  0
ENDBLK
  8
0
  0
BLOCK
  8
0
  2
SYM6
 70
64
 10
0.000000000000000
 20
0.000000000000000
  0
POINT
  8
0
  6
CONTINUOUS
 62
3
 10
0.000000000000000
 20
0.000000000000000
  0
LINE
  8
0
  6
CONTINUOUS
 62
3
 10
0.000000000000000
 20
-6.500000000000000
 11
-0.000000000000000
 21
6.500000000000000
  0
LINE
  8
0
  6
CONTINUOUS
 62
3
 10
-7.999999046325684
 20
5.633875846862793
 11
-7.999999046325684
 21
-5.634070396423340
  0
LINE
  8
0
  6
CONTINUOUS
 62
3
 10
0.000000000000000
 20
6.500000000000000
 11
-7.499999046325684
 21
6.500000000000000
  0
LINE
  8
0
  6
CONTINUOUS
 62
3
 10
-0.000000000000000
 20
-6.500000000000000
 11
-7.499998092651367
 21
-6.500000000000000
  0
LINE
  8
0
  6
CONTINUOUS
 62
3
 10
-7.499999203818277
 20
6.499999909101064
 11
-7.999999021366804
 21
5.633876130311293
  0
LINE
  8
0
  6
CONTINUOUS
 62
3
 10
-7.499997911632022
 20
-6.499999445138201
 11
-7.999998623386432
 21
-5.634070287011241
  0
LINE
  8
0
  6
CONTINUOUS
 62
3
 10
-7.499999046325684
 20
6.500000000000000
 11
-7.499999046325684
 21
-6.500000000000000
  0
ENDBLK
  8
0
  0
BLOCK
  8
0
  2
SYM7
 70
64
 10
0.000000000000000
 20
0.000000000000000
  0
POINT
  8
0
  6
CONTINUOUS
 62
3
 10
0.000000000000000
 20
0.000000000000000
  0
LINE
  8
0
  6
CONTINUOUS
 62
3
 10
0.000000000000000
 20
-6.500000000000000
 11
-0.000000000000000
 21
6.500000000000000
  0
LINE
  8
0
  6
CONTINUOUS
 62
3
 10
-7.999999046325684
 20
5.633875846862793
 11
-7.999999046325684
 21
-5.634070396423340
  0
LINE
  8
0
  6
CONTINUOUS
 62
3
 10
0.000000000000000
 20
6.500000000000000
 11
-7.499999046325684
 21
6.500000000000000
  0
LINE
  8
0
  6
CONTINUOUS
 62
3
 10
-0.000000000000000
 20
-6.500000000000000
 11
-7.499998092651367
 21
-6.500000000000000
  0
LINE
  8
0
  6
CONTINUOUS
 62
3
 10
-7.499999203818277
 20
6.499999909101064
 11
-7.999999021366804
 21
5.633876130311293
  0
LINE
  8
0
  6
CONTINUOUS
 62
3
 10
-7.499997911632022
 20
-6.499999445138201
 11
-7.999998623386432
 21
-5.634070287011241
  0
LINE
  8
0
  6
CONTINUOUS
 62
3
 10
-7.499999046325684
 20
6.500000000000000
 11
-7.499999046325684
 21
-6.500000000000000
  0
ENDBLK
  8
0
  0
BLOCK
  8
0
  2
SYM8
 70
64
 10
0.000000000000000
 20
0.000000000000000
  0
POINT
  8
0
  6
CONTINUOUS
 62
3
 10
0.000000000000000
 20
0.000000000000000
  0
LINE
  8
0
  6
CONTINUOUS
 62
3
 10
0.000000000000000
 20
-6.500000000000000
 11
-0.000000000000000
 21
6.500000000000000
  0
LINE
  8
0
  6
CONTINUOUS
 62
3
 10
-7.999999046325684
 20
5.633875846862793
 11
-7.999999046325684
 21
-5.634070396423340
  0
LINE
  8
0
  6
CONTINUOUS
 62
3
 10
0.000000000000000
 20
6.500000000000000
 11
-7.499999046325684
 21
6.500000000000000
  0
LINE
  8
0
  6
CONTINUOUS
 62
3
 10
-0.000000000000000
 20
-6.500000000000000
 11
-7.499998092651367
 21
-6.500000000000000
  0
LINE
  8
0
  6
CONTINUOUS
 62
3
 10
-7.499999203818277
 20
6.499999909101064
 11
-7.999999021366804
 21
5.633876130311293
  0
LINE
  8
0
  6
CONTINUOUS
 62
3
 10
-7.499997911632022
 20
-6.499999445138201
 11
-7.999998623386432
 21
-5.634070287011241
  0
LINE
  8
0
  6
CONTINUOUS
 62
3
 10
-7.499999046325684
 20
6.500000000000000
 11
-7.499999046325684
 21
-6.500000000000000
  0
ENDBLK
  8
0
  0
BLOCK
  8
0
  2
SYM9
 70
64
 10
0.000000000000000
 20
0.000000000000000
  0
POINT
  8
0
  6
CONTINUOUS
 62
3
 10
0.000000000000000
 20
0.000000000000000
  0
LINE
  8
0
  6
CONTINUOUS
 62
3
 10
0.000000000000000
 20
-6.500000000000000
 11
-0.000000000000000
 21
6.500000000000000
  0
LINE
  8
0
  6
CONTINUOUS
 62
3
 10
-7.999999046325684
 20
5.633875846862793
 11
-7.999999046325684
 21
-5.634070396423340
  0
LINE
  8
0
  6
CONTINUOUS
 62
3
 10
0.000000000000000
 20
6.500000000000000
 11
-7.499999046325684
 21
6.500000000000000
  0
LINE
  8
0
  6
CONTINUOUS
 62
3
 10
-0.000000000000000
 20
-6.500000000000000
 11
-7.499998092651367
 21
-6.500000000000000
  0
LINE
  8
0
  6
CONTINUOUS
 62
3
 10
-7.499999203818277
 20
6.499999909101064
 11
-7.999999021366804
 21
5.633876130311293
  0
LINE
  8
0
  6
CONTINUOUS
 62
3
 10
-7.499997911632022
 20
-6.499999445138201
 11
-7.999998623386432
 21
-5.634070287011241
  0
LINE
  8
0
  6
CONTINUOUS
 62
3
 10
-7.499999046325684
 20
6.500000000000000
 11
-7.499999046325684
 21
-6.500000000000000
  0
ENDBLK
  8
0
  0
BLOCK
  8
0
  2
SYM10
 70
64
 10
0.000000000000000
 20
0.000000000000000
  0
POINT
  8
0
  6
CONTINUOUS
 62
3
 10
0.000000000000000
 20
0.000000000000000
  0
LINE
  8
0
  6
CONTINUOUS
 62
3
 10
0.000000000000000
 20
-6.500000000000000
 11
-0.000000000000000
 21
6.500000000000000
  0
LINE
  8
0
  6
CONTINUOUS
 62
3
 10
-7.999999046325684
 20
5.633875846862793
 11
-7.999999046325684
 21
-5.634070396423340
  0
LINE
  8
0
  6
CONTINUOUS
 62
3
 10
0.000000000000000
 20
6.500000000000000
 11
-7.499999046325684
 21
6.500000000000000
  0
LINE
  8
0
  6
CONTINUOUS
 62
3
 10
-0.000000000000000
 20
-6.500000000000000
 11
-7.499998092651367
 21
-6.500000000000000
  0
LINE
  8
0
  6
CONTINUOUS
 62
3
 10
-7.499999203818277
 20
6.499999909101064
 11
-7.999999021366804
 21
5.633876130311293
  0
LINE
  8
0
  6
CONTINUOUS
 62
3
 10
-7.499997911632022
 20
-6.499999445138201
 11
-7.999998623386432
 21
-5.634070287011241
  0
LINE
  8
0
  6
CONTINUOUS
 62
3
 10
-7.499999046325684
 20
6.500000000000000
 11
-7.499999046325684
 21
-6.500000000000000
  0
ENDBLK
  8
0
  0
BLOCK
  8
0
  2
SYM11
 70
64
 10
0.000000000000000
 20
0.000000000000000
  0
POINT
  8
0
  6
CONTINUOUS
 62
3
 10
0.000000000000000
 20
0.000000000000000
  0
LINE
  8
0
  6
CONTINUOUS
 62
3
 10
3.999993333512748
 20
-2.300001902428903
 11
-0.000004858421221
 21
-4.599995671750889
  0
LINE
  8
0
  6
CONTINUOUS
 62
3
 10
-0.000007291900715
 20
-4.600000131531601
 11
-4.000000535118602
 21
-2.299995435993480
  0
LINE
  8
0
  6
CONTINUOUS
 62
3
 10
-4.000000476834402
 20
-2.299992229627764
 11
-3.999995708466355
 21
2.300002429796065
  0
LINE
  8
0
  6
CONTINUOUS
 62
3
 10
-3.999993333512748
 20
2.300001902428903
 11
0.000004858421221
 21
4.599995671750889
  0
LINE
  8
0
  6
CONTINUOUS
 62
3
 10
0.000007291900715
 20
4.600000131531601
 11
4.000000535118602
 21
2.299995435993480
  0
LINE
  8
0
  6
CONTINUOUS
 62
3
 10
4.000000476834402
 20
2.299992229627764
 11
3.999995708466355
 21
-2.300002429796065
  0
CIRCLE
  8
0
  6
CONTINUOUS
 62
3
 10
0.000000000000000
 20
0.000000000000000
 40
4.000000000000000
  0
ENDBLK
  8
0
  0
BLOCK
  8
0
  2
SYM12
 70
64
 10
0.000000000000000
 20
0.000000000000000
  0
POINT
  8
0
  6
CONTINUOUS
 62
3
 10
0.000000000000000
 20
0.000000000000000
  0
LINE
  8
0
  6
CONTINUOUS
 62
3
 10
3.999993333512748
 20
-2.300001902428903
 11
-0.000004858421221
 21
-4.599995671750889
  0
LINE
  8
0
  6
CONTINUOUS
 62
3
 10
-0.000007291900715
 20
-4.600000131531601
 11
-4.000000535118602
 21
-2.299995435993480
  0
LINE
  8
0
  6
CONTINUOUS
 62
3
 10
-4.000000476834402
 20
-2.299992229627764
 11
-3.999995708466355
 21
2.300002429796065
  0
LINE
  8
0
  6
CONTINUOUS
 62
3
 10
-3.999993333512748
 20
2.300001902428903
 11
0.000004858421221
 21
4.599995671750889
  0
LINE
  8
0
  6
CONTINUOUS
 62
3
 10
0.000007291900715
 20
4.600000131531601
 11
4.000000535118602
 21
2.299995435993480
  0
LINE
  8
0
  6
CONTINUOUS
 62
3
 10
4.000000476834402
 20
2.299992229627764
 11
3.999995708466355
 21
-2.300002429796065
  0
CIRCLE
  8
0
  6
CONTINUOUS
 62
3
 10
0.000000000000000
 20
0.000000000000000
 40
4.000000000000000
  0
ENDBLK
  8
0
  0
BLOCK
  8
0
  2
SYM13
 70
64
 10
0.000000000000000
 20
0.000000000000000
  0
CIRCLE
  8
0
  6
CONTINUOUS
 62
3
 10
0.000000000000000
 20
0.000000000000000
 40
5.633955001831055
  0
CIRCLE
  8
0
  6
CONTINUOUS
 62
3
 10
0.000000000000000
 20
0.000000000000000
 40
6.500000000000000
  0
POINT
  8
0
  6
CONTINUOUS
 62
3
 10
0.000000000000000
 20
0.000000000000000
  0
LINE
  8
0
  6
CONTINUOUS
 62
3
 10
-2.999996662140960
 20
-1.732045999551255
 11
-2.999997615815242
 21
1.732051977133316
  0
LINE
  8
0
  6
CONTINUOUS
 62
3
 10
2.999996662140697
 20
1.732046953225571
 11
2.999997615814979
 21
-1.732051023458999
  0
LINE
  8
0
  6
CONTINUOUS
 62
3
 10
0.000006701720849
 20
3.464096999935236
 11
-2.999997939551520
 21
1.732051821705568
  0
LINE
  8
0
  6
CONTINUOUS
 62
3
 10
2.999998112093635
 20
-1.732051392778772
 11
-0.000004464412200
 21
-3.464098365415111
  0
LINE
  8
0
  6
CONTINUOUS
 62
3
 10
0.000006618601731
 20
3.464096896385627
 11
2.999997425948948
 21
1.732046782136365
  0
LINE
  8
0
  6
CONTINUOUS
 62
3
 10
-0.000004704988612
 20
-3.464098175748802
 11
-2.999997577100373
 21
-1.732046218032735
  0
POINT
  8
0
  6
CONTINUOUS
 62
3
 10
0.500000119209290
 20
6.500000000000000
  0
POINT
  8
0
  6
CONTINUOUS
 62
3
 10
0.000000000000000
 20
5.633955001831055
  0
ENDBLK
  8
0
  0
BLOCK
  8
0
  2
SYM14
 70
64
 10
0.000000000000000
 20
0.000000000000000
  0
CIRCLE
  8
0
  6
CONTINUOUS
 62
3
 10
0.000000000000000
 20
0.000000000000000
 40
5.633955001831055
  0
CIRCLE
  8
0
  6
CONTINUOUS
 62
3
 10
0.000000000000000
 20
0.000000000000000
 40
6.500000000000000
  0
POINT
  8
0
  6
CONTINUOUS
 62
3
 10
0.000000000000000
 20
0.000000000000000
  0
LINE
  8
0
  6
CONTINUOUS
 62
3
 10
-2.999996662140960
 20
-1.732045999551255
 11
-2.999997615815242
 21
1.732051977133316
  0
LINE
  8
0
  6
CONTINUOUS
 62
3
 10
2.999996662140697
 20
1.732046953225571
 11
2.999997615814979
 21
-1.732051023458999
  0
LINE
  8
0
  6
CONTINUOUS
 62
3
 10
0.000006701720849
 20
3.464096999935236
 11
-2.999997939551520
 21
1.732051821705568
  0
LINE
  8
0
  6
CONTINUOUS
 62
3
 10
2.999998112093635
 20
-1.732051392778772
 11
-0.000004464412200
 21
-3.464098365415111
  0
LINE
  8
0
  6
CONTINUOUS
 62
3
 10
0.000006618601731
 20
3.464096896385627
 11
2.999997425948948
 21
1.732046782136365
  0
LINE
  8
0
  6
CONTINUOUS
 62
3
 10
-0.000004704988612
 20
-3.464098175748802
 11
-2.999997577100373
 21
-1.732046218032735
  0
POINT
  8
0
  6
CONTINUOUS
 62
3
 10
0.500000119209290
 20
6.500000000000000
  0
POINT
  8
0
  6
CONTINUOUS
 62
3
 10
0.000000000000000
 20
5.633955001831055
  0
ENDBLK
  8
0
  0
BLOCK
  8
0
  2
SYM15
 70
64
 10
0.000000000000000
 20
0.000000000000000
  0
CIRCLE
  8
0
  6
CONTINUOUS
 62
3
 10
0.000000000000000
 20
0.000000000000000
 40
5.633955001831055
  0
CIRCLE
  8
0
  6
CONTINUOUS
 62
3
 10
0.000000000000000
 20
0.000000000000000
 40
6.500000000000000
  0
POINT
  8
0
  6
CONTINUOUS
 62
3
 10
0.000000000000000
 20
0.000000000000000
  0
LINE
  8
0
  6
CONTINUOUS
 62
3
 10
-2.999996662140960
 20
-1.732045999551255
 11
-2.999997615815242
 21
1.732051977133316
  0
LINE
  8
0
  6
CONTINUOUS
 62
3
 10
2.999996662140697
 20
1.732046953225571
 11
2.999997615814979
 21
-1.732051023458999
  0
LINE
  8
0
  6
CONTINUOUS
 62
3
 10
0.000006701720849
 20
3.464096999935236
 11
-2.999997939551520
 21
1.732051821705568
  0
LINE
  8
0
  6
CONTINUOUS
 62
3
 10
2.999998112093635
 20
-1.732051392778772
 11
-0.000004464412200
 21
-3.464098365415111
  0
LINE
  8
0
  6
CONTINUOUS
 62
3
 10
0.000006618601731
 20
3.464096896385627
 11
2.999997425948948
 21
1.732046782136365
  0
LINE
  8
0
  6
CONTINUOUS
 62
3
 10
-0.000004704988612
 20
-3.464098175748802
 11
-2.999997577100373
 21
-1.732046218032735
  0
POINT
  8
0
  6
CONTINUOUS
 62
3
 10
0.500000119209290
 20
6.500000000000000
  0
POINT
  8
0
  6
CONTINUOUS
 62
3
 10
0.000000000000000
 20
5.633955001831055
  0
ENDBLK
  8
0
  0
ENDSEC
  0
SECTION
  2
ENTITIES
  0
LINE
  8
0
  6
CONTINUOUS
 62
3
 10
-414.888986564977700
 20
-178.352606446248440
 11
-415.375789956683320
 21
-178.839409837954070
  0
LINE
  8
0
  6
CONTINUOUS
 62
3
 10
-408.242183091564020
 20
-184.999409919662180
 11
-408.728986483269640
 21
-185.486213311367780
  0
LINE
  8
0
  6
CONTINUOUS
 62
3
 10
-415.202125173946510
 20
-178.605153397098830
 11
-408.525025871473590
 21
-185.282252699571760
  0
LINE
  8
0
  6
CONTINUOUS
 62
3
 10
-414.888986564977700
 20
-178.352606446248440
 11
-408.242183091564020
 21
-184.999409919662180
  0
POINT
  8
0
  6
CONTINUOUS
 62
3
 10
-411.565584828270860
 20
-181.676008182955310
  0
ARC
  8
0
  6
CONTINUOUS
 62
3
 10
-409.302843263343850
 20
-179.413266618028270
 40
6.099999427795398
 50
174.601910595264880
 51
275.398072101891500
  0
LINE
  8
0
  6
CONTINUOUS
 62
3
 10
-314.055559837516170
 20
-178.352606446248440
 11
-313.568756445810550
 21
-178.839409837954070
  0
LINE
  8
0
  6
CONTINUOUS
 62
3
 10
-320.702363310929850
 20
-184.999409919662180
 11
-320.215559919224230
 21
-185.486213311367780
  0
LINE
  8
0
  6
CONTINUOUS
 62
3
 10
-313.742421228547360
 20
-178.605153397098830
 11
-320.419520531020280
 21
-185.282252699571760
  0
LINE
  8
0
  6
CONTINUOUS
 62
3
 10
-314.055559837516170
 20
-178.352606446248440
 11
-320.702363310929850
 21
-184.999409919662180
  0
POINT
  8
0
  6
CONTINUOUS
 62
3
 10
-317.378961574223010
 20
-181.676008182955310
  0
ARC
  8
0
  6
CONTINUOUS
 62
3
 10
-319.641703139150020
 20
-179.413266618028270
 40
6.099999427795406
 50
264.601927898108500
 51
5.398089404735109
  0
LINE
  8
0
  6
DASHED
 62
3
 10
286.928723613208940
 20
-138.582696555930340
 11
286.418306765691230
 21
-138.582696555930340
  0
LINE
  8
0
  6
CONTINUOUS
 62
3
 10
354.918306765690890
 20
-140.582696555935400
 11
362.918306765690890
 21
-140.582696555935400
  0
LINE
  8
0
  6
CONTINUOUS
 62
3
 10
362.918306765690890
 20
-140.582696555935400
 11
362.918306765690890
 21
-130.582696555935400
  0
ARC
  8
0
  6
CONTINUOUS
 62
3
 10
373.918306765690890
 20
-135.582696555935400
 40
16.000000000000192
 50
198.209956864282790
 51
161.790043135717210
  0
LINE
  8
0
  6
CONTINUOUS
 62
3
 10
354.918306765690890
 20
-140.582696555935400
 11
354.918306765690890
 21
-130.582696555935400
  0
LINE
  8
0
  6
CONTINUOUS
 62
3
 10
354.918306765690890
 20
-130.582696555935400
 11
362.918306765690890
 21
-130.582696555935400
  0
CIRCLE
  8
0
  6
CONTINUOUS
 62
3
 10
373.918306765691800
 20
-135.582696555935400
 40
3.323500000000024
  0
CIRCLE
  8
0
  6
CONTINUOUS
 62
4
 10
373.918306765691800
 20
-135.582696555935400
 40
4.000000000000000
  0
LINE
  8
0
  6
CONTINUOUS
 62
3
 10
486.418306765691340
 20
-140.582696555935400
 11
486.418306765691340
 21
-240.082696555935400
  0
LINE
  8
0
  6
CONTINUOUS
 62
3
 10
486.418306765691340
 20
-130.582696555935400
 11
486.418306765691340
 21
-140.582696555935400
  0
LINE
  8
0
  6
CONTINUOUS
 62
3
 10
486.418306765691340
 20
-31.082696555935385
 11
486.418306765691340
 21
-130.582696555935400
  0
LINE
  8
0
  6
CONTINUOUS
 62
3
 10
370.918306765691570
 20
-39.770380019907847
 11
370.918306765691340
 21
-84.936867507532938
  0
LINE
  8
0
  6
CONTINUOUS
 62
3
 10
376.918306765691570
 20
-39.770380019907847
 11
376.918306765691340
 21
-84.936867507532938
  0
LINE
  8
0
  6
CONTINUOUS
 62
3
 10
469.730623301719330
 20
-132.582696555935400
 11
424.564135814093790
 21
-132.582696555935400
  0
LINE
  8
0
  6
CONTINUOUS
 62
3
 10
469.730623301719330
 20
-138.582696555935400
 11
424.564135814093790
 21
-138.582696555935400
  0
LINE
  8
0
  6
CONTINUOUS
 62
3
 10
278.105990229663580
 20
-132.582696555935400
 11
323.272477717289120
 21
-132.582696555935400
  0
LINE
  8
0
  6
CONTINUOUS
 62
3
 10
278.105990229663580
 20
-138.582696555935400
 11
323.272477717289120
 21
-138.582696555935400
  0
LINE
  8
0
  6
CONTINUOUS
 62
3
 10
282.779094777226870
 20
-145.816094740117020
 11
282.779094777226870
 21
-173.212952441411290
  0
LINE
  8
0
  6
CONTINUOUS
 62
3
 10
465.057518754155810
 20
-145.816094740117020
 11
465.057518754155810
 21
-173.212952441411290
  0
LINE
  8
0
  6
CONTINUOUS
 62
3
 10
321.918306765691800
 20
-261.082696555935460
 11
373.918306765691800
 21
-261.082696555935460
  0
LINE
  8
0
  6
CONTINUOUS
 62
3
 10
425.918306765691340
 20
-261.082696555935460
 11
373.918306765691800
 21
-261.082696555935460
  0
LINE
  8
0
  6
CONTINUOUS
 62
3
 10
464.619316892468310
 20
-23.668482993562506
 11
446.302668411382460
 21
-41.985131474648355
  0
LINE
  8
0
  6
CONTINUOUS
 62
3
 10
485.832520328064670
 20
-44.881686429158876
 11
467.515871846978830
 21
-63.198334910244725
  0
LINE
  8
0
  6
CONTINUOUS
 62
3
 10
269.418306765691340
 20
-248.082696555935460
 11
478.418306765691340
 21
-248.082696555935460
  0
LINE
  8
0
  6
CONTINUOUS
 62
3
 10
269.418306765691340
 20
-23.082696555935385
 11
478.418306765691340
 21
-23.082696555935385
  0
LINE
  8
0
  6
CONTINUOUS
 62
3
 10
261.418306765691340
 20
-31.082696555935385
 11
261.418306765691340
 21
-240.082696555935400
  0
LINE
  8
0
  6
CONTINUOUS
 62
3
 10
262.004093203318460
 20
-44.881686429158876
 11
280.320741684404080
 21
-63.198334910244725
  0
LINE
  8
0
  6
CONTINUOUS
 62
3
 10
283.217296638914830
 20
-23.668482993562506
 11
301.533945120000680
 21
-41.985131474648355
  0
LINE
  8
0
  6
CONTINUOUS
 62
3
 10
262.004093203318460
 20
-226.283706682712360
 11
280.320741684404080
 21
-207.967058201626510
  0
LINE
  8
0
  6
CONTINUOUS
 62
3
 10
283.217296638914830
 20
-247.496910118308790
 11
301.533945120000680
 21
-229.180261637222880
  0
LINE
  8
0
  6
CONTINUOUS
 62
3
 10
485.832520328064670
 20
-226.283706682712360
 11
467.515871846978830
 21
-207.967058201626510
  0
LINE
  8
0
  6
CONTINUOUS
 62
3
 10
464.619316892468310
 20
-247.496910118308790
 11
446.302668411382460
 21
-229.180261637222880
  0
ARC
  8
0
  6
CONTINUOUS
 62
3
 10
373.918306765691340
 20
-135.582696555935400
 40
109.999999999999900
 50
183.563302831523370
 51
212.975300819434320
  0
ARC
  8
0
  6
CONTINUOUS
 62
3
 10
373.918306765691340
 20
-135.582696555935400
 40
109.999999999999610
 50
147.024699180565850
 51
176.212931966134700
  0
ARC
  8
0
  6
CONTINUOUS
 62
3
 10
373.918306765691340
 20
-135.582696555935400
 40
110.000000000000220
 50
327.024699180565790
 51
356.436697168476600
  0
ARC
  8
0
  6
CONTINUOUS
 62
3
 10
373.918306765691340
 20
-135.582696555935400
 40
110.000000000000090
 50
3.787068033865307
 51
32.975300819434004
  0
ARC
  8
0
  6
CONTINUOUS
 62
3
 10
261.165053424119150
 20
-128.119194637184590
 40
3.000000000000147
 50
296.785437820008440
 51
356.212931966127880
  0
ARC
  8
0
  6
CONTINUOUS
 62
3
 10
263.418306765691340
 20
-132.582696555935850
 40
2.000000000000098
 50
116.785437820008410
 51
180.000000000000000
  0
ARC
  8
0
  6
CONTINUOUS
 62
3
 10
261.136765123807660
 20
-142.605791662797860
 40
2.999999999999995
 50
3.563302831523953
 51
56.843785530307450
  0
ARC
  8
0
  6
CONTINUOUS
 62
3
 10
264.418306765691340
 20
-137.582696555935850
 40
3.000000000000000
 50
180.000000000000000
 51
236.843785530306350
  0
ARC
  8
0
  6
CONTINUOUS
 62
3
 10
486.699848407575250
 20
-142.605791662797860
 40
3.000000000000153
 50
123.156214469692540
 51
176.436697168476060
  0
ARC
  8
0
  6
CONTINUOUS
 62
3
 10
483.418306765691340
 20
-137.582696555935400
 40
3.000000000000153
 50
303.156214469692540
 51
0.000000000000000
  0
ARC
  8
0
  6
CONTINUOUS
 62
3
 10
486.671560107263760
 20
-128.119194637184590
 40
2.999999999999937
 50
183.787068033872120
 51
243.214562179991560
  0
ARC
  8
0
  6
CONTINUOUS
 62
3
 10
484.418306765691340
 20
-132.582696555935400
 40
2.000000000000000
 50
0.000000000000000
 51
63.214562179979900
  0
ARC
  8
0
  6
CONTINUOUS
 62
3
 10
367.918306765691570
 20
-71.479912891868011
 40
2.999999999999773
 50
0.000000000000000
 51
90.695721199139356
  0
ARC
  8
0
  6
CONTINUOUS
 62
3
 10
373.918306765691570
 20
-565.582696555935400
 40
497.139211988464010
 50
90.695721199138291
 51
91.910213171709984
  0
ARC
  8
0
  6
CONTINUOUS
 62
3
 10
379.918306765691570
 20
-71.479912891868011
 40
2.999999999999991
 50
89.304278800864978
 51
180.000000000000000
  0
ARC
  8
0
  6
CONTINUOUS
 62
3
 10
373.918306765691340
 20
-565.582696555935400
 40
497.139211988463840
 50
88.089786828290016
 51
89.304278800861709
  0
ARC
  8
0
  6
CONTINUOUS
 62
3
 10
367.918306765691570
 20
-39.770380019907847
 40
3.000000000000000
 50
0.000000000000000
 51
93.583321698471892
  0
ARC
  8
0
  6
CONTINUOUS
 62
3
 10
379.918306765691570
 20
-39.770380019907847
 40
3.000000000000075
 50
86.416678301528108
 51
180.000000000000000
  0
ARC
  8
0
  6
CONTINUOUS
 62
3
 10
379.918306765691340
 20
-84.936867507532938
 40
3.000000000000000
 50
180.000000000000000
 51
263.243672969414940
  0
ARC
  8
0
  6
CONTINUOUS
 62
3
 10
367.918306765691340
 20
-84.936867507532938
 40
3.000000000000444
 50
276.756327030589380
 51
0.000000000000000
  0
ARC
  8
0
  6
CONTINUOUS
 62
3
 10
387.918306765691800
 20
-145.816094740117020
 40
77.139211988464012
 50
0.000000000000000
 51
1.774135555319842
  0
ARC
  8
0
  6
CONTINUOUS
 62
3
 10
424.564135814093790
 20
-141.582696555935400
 40
3.000000000000000
 50
90.000000000000000
 51
173.243672969418210
  0
ARC
  8
0
  6
CONTINUOUS
 62
3
 10
424.564135814093790
 20
-129.582696555935400
 40
2.999999999999992
 50
186.756327030590430
 51
270.000000000000000
  0
ARC
  8
0
  6
CONTINUOUS
 62
3
 10
469.730623301719330
 20
-129.582696555935400
 40
3.000000000000000
 50
270.000000000000000
 51
3.583321698471884
  0
ARC
  8
0
  6
CONTINUOUS
 62
3
 10
469.730623301719330
 20
-141.582696555935400
 40
3.000000000000075
 50
356.416678301528120
 51
90.000000000000000
  0
ARC
  8
0
  6
CONTINUOUS
 62
3
 10
457.715219999542340
 20
-127.582696555935390
 40
5.000000000000000
 50
270.000000000000000
 51
14.640477209919299
  0
ARC
  8
0
  6
CONTINUOUS
 62
3
 10
460.022937954454390
 20
-143.582696555935400
 40
4.999999999999986
 50
1.774135555318083
 51
90.000000000000000
  0
ARC
  8
0
  6
CONTINUOUS
 62
3
 10
287.813675576928520
 20
-143.582696555935400
 40
5.000000000000000
 50
90.000000000000000
 51
178.225864444681920
  0
ARC
  8
0
  6
CONTINUOUS
 62
3
 10
359.918306765691110
 20
-145.816094740117020
 40
77.139211988464211
 50
178.225864444680160
 51
180.000000000000000
  0
ARC
  8
0
  6
CONTINUOUS
 62
3
 10
290.121393531840570
 20
-127.582696555935390
 40
4.999999999999902
 50
165.359522790080040
 51
270.000000000000000
  0
ARC
  8
0
  6
CONTINUOUS
 62
3
 10
359.918306765691110
 20
-145.816094740117020
 40
77.139211988464098
 50
91.910213171709884
 51
165.359522790078330
  0
ARC
  8
0
  6
CONTINUOUS
 62
3
 10
278.105990229663580
 20
-129.582696555935400
 40
3.000000000000075
 50
176.416678301528120
 51
270.000000000000000
  0
ARC
  8
0
  6
CONTINUOUS
 62
3
 10
278.105990229663580
 20
-141.582696555935400
 40
3.000000000000000
 50
90.000000000000000
 51
183.583321698471880
  0
ARC
  8
0
  6
CONTINUOUS
 62
3
 10
323.272477717289120
 20
-141.582696555935400
 40
2.999999999999939
 50
6.756327030581794
 51
90.000000000000000
  0
ARC
  8
0
  6
CONTINUOUS
 62
3
 10
323.272477717289120
 20
-129.582696555935400
 40
3.000000000000000
 50
270.000000000000000
 51
353.243672969409600
  0
ARC
  8
0
  6
CONTINUOUS
 62
3
 10
318.343664603436540
 20
-211.394695266807960
 40
4.999999999999974
 50
233.756397618482510
 51
9.449699705361777
  0
ARC
  8
0
  6
CONTINUOUS
 62
3
 10
360.760159664002000
 20
-204.334883174618880
 40
37.999999999999908
 50
128.284839477505610
 51
189.449699705365900
  0
ARC
  8
0
  6
CONTINUOUS
 62
3
 10
334.118591293133250
 20
-170.582448673677850
 40
4.999999999999969
 50
308.284839477505780
 51
41.328301793388754
  0
ARC
  8
0
  6
CONTINUOUS
 62
3
 10
450.523103370169340
 20
-190.059344187618990
 40
4.999999999999943
 50
185.724045726879840
 51
324.581888853422470
  0
ARC
  8
0
  6
CONTINUOUS
 62
3
 10
412.712578966050390
 20
-193.849363222601820
 40
33.000000000000149
 50
5.724045726881005
 51
75.297858639473745
  0
ARC
  8
0
  6
CONTINUOUS
 62
3
 10
422.356754571149850
 20
-157.093549030857960
 40
4.999999999999789
 50
156.054647304130040
 51
255.297858639474210
  0
ARC
  8
0
  6
CONTINUOUS
 62
3
 10
444.481772153541210
 20
-197.685815257476860
 40
5.000000000000110
 50
173.114296223340490
 51
318.648896542795460
  0
ARC
  8
0
  6
CONTINUOUS
 62
3
 10
419.525173364196460
 20
-162.582950611521480
 40
5.000000000000131
 50
149.373547225009280
 51
257.708022749950660
  0
ARC
  8
0
  6
CONTINUOUS
 62
3
 10
412.712578966050390
 20
-193.849363222601820
 40
27.000000000000107
 50
353.114296223340200
 51
77.708022749951269
  0
ARC
  8
0
  6
CONTINUOUS
 62
3
 10
325.749175495822330
 20
-216.302798096420250
 40
4.999999999999703
 50
239.173668330593100
 51
18.872128672724504
  0
ARC
  8
0
  6
CONTINUOUS
 62
3
 10
360.760159664002000
 20
-204.334883174618880
 40
31.999999999999872
 50
127.256131004967170
 51
198.872128672720690
  0
ARC
  8
0
  6
CONTINUOUS
 62
3
 10
338.361130679428920
 20
-174.885205747722920
 40
4.999999999999726
 50
307.256131004969010
 51
47.864198486307934
  0
ARC
  8
0
  6
CONTINUOUS
 62
3
 10
287.779094777226870
 20
-173.212952441411290
 40
5.000000000000000
 50
180.000000000000000
 51
203.598301736362150
  0
ARC
  8
0
  6
CONTINUOUS
 62
3
 10
460.057518754155810
 20
-173.212952441411290
 40
5.000000000000139
 50
336.401698263638880
 51
0.000000000000000
  0
CIRCLE
  8
0
  6
CONTINUOUS
 62
3
 10
373.918306765691800
 20
-135.582696555935400
 40
33.500000000000000
  0
ARC
  8
0
  6
CONTINUOUS
 62
3
 10
303.927009695480590
 20
-249.142365861345810
 40
5.469260394190242
 50
1.781769897912350
 51
11.246070515048286
  0
ARC
  8
0
  6
CONTINUOUS
 62
3
 10
443.909603835902540
 20
-249.142365861345810
 40
5.433559099403096
 50
168.753929484950930
 51
178.218230102085810
  0
ARC
  8
0
  6
CONTINUOUS
 62
3
 10
321.918306765691800
 20
-248.582696555935460
 40
12.530739605810000
 50
181.781769897913190
 51
270.000000000000000
  0
ARC
  8
0
  6
CONTINUOUS
 62
3
 10
425.918306765691340
 20
-248.582696555935460
 40
12.566440900597172
 50
270.000000000000000
 51
358.218230102087600
  0
ARC
  8
0
  6
CONTINUOUS
 62
3
 10
373.918306765691340
 20
-135.582696555935400
 40
109.999999999999850
 50
57.024699180565690
 51
90.000000000000000
  0
ARC
  8
0
  6
CONTINUOUS
 62
3
 10
439.231600599517150
 20
-34.914063662782596
 40
10.000000000000284
 50
237.024699180565620
 51
314.999999999998120
  0
ARC
  8
0
  6
CONTINUOUS
 62
3
 10
474.586939658844130
 20
-70.269402722110030
 40
9.999999999999758
 50
135.000000000000000
 51
212.975300819435770
  0
CIRCLE
  8
0
  6
CONTINUOUS
 62
3
 10
373.918306765691340
 20
-135.582696555935400
 40
105.000000000000000
  0
ARC
  8
0
  6
CONTINUOUS
 62
3
 10
478.418306765691340
 20
-31.082696555935385
 40
8.000000000000000
 50
0.000000000000000
 51
90.000000000000000
  0
CIRCLE
  8
0
  6
CONTINUOUS
 62
3
 10
472.913256131808340
 20
-36.587747189818842
 40
7.500000000000000
  0
ARC
  8
0
  6
CONTINUOUS
 62
3
 10
466.033530454841180
 20
-25.082696555935385
 40
2.000000000000000
 50
90.000000000000000
 51
135.000000000000000
  0
ARC
  8
0
  6
CONTINUOUS
 62
3
 10
484.418306765691340
 20
-43.467472866785997
 40
2.000000000000016
 50
315.000000000009210
 51
0.000000000000000
  0
CIRCLE
  8
0
  6
CONTINUOUS
 62
3
 10
373.918306765691340
 20
-135.582696555935400
 40
99.000000000000000
  0
ARC
  8
0
  6
CONTINUOUS
 62
3
 10
269.418306765691340
 20
-240.082696555935400
 40
8.000000000000000
 50
180.000000000000000
 51
270.000000000000000
  0
ARC
  8
0
  6
CONTINUOUS
 62
3
 10
478.418306765691340
 20
-240.082696555935400
 40
8.000000000000057
 50
270.000000000000000
 51
0.000000000000000
  0
ARC
  8
0
  6
CONTINUOUS
 62
3
 10
269.418306765691340
 20
-31.082696555935385
 40
8.000000000000000
 50
90.000000000000000
 51
180.000000000000000
  0
ARC
  8
0
  6
CONTINUOUS
 62
3
 10
273.249673872538550
 20
-70.269402722110030
 40
10.000000000000284
 50
327.024699180565620
 51
44.999999999999083
  0
ARC
  8
0
  6
CONTINUOUS
 62
3
 10
373.918306765691340
 20
-135.582696555935400
 40
110.000000000000010
 50
90.000000000000000
 51
122.975300819434110
  0
ARC
  8
0
  6
CONTINUOUS
 62
3
 10
308.605012931865990
 20
-34.914063662782596
 40
10.000000000000082
 50
225.000000000001850
 51
302.975300819434380
  0
ARC
  8
0
  6
CONTINUOUS
 62
3
 10
263.418306765691340
 20
-43.467472866785997
 40
2.000000000000000
 50
180.000000000000000
 51
225.000000000000000
  0
CIRCLE
  8
0
  6
CONTINUOUS
 62
3
 10
274.923357399574800
 20
-36.587747189818842
 40
7.500000000000000
  0
ARC
  8
0
  6
CONTINUOUS
 62
3
 10
281.803083076541720
 20
-25.082696555935385
 40
1.999999999999855
 50
44.999999999995396
 51
90.000000000000000
  0
ARC
  8
0
  6
CONTINUOUS
 62
3
 10
273.249673872538550
 20
-200.895990389761210
 40
9.999999999999920
 50
315.000000000000910
 51
32.975300819434352
  0
ARC
  8
0
  6
CONTINUOUS
 62
3
 10
373.918306765691340
 20
-135.582696555935400
 40
109.999999999999980
 50
237.024699180566050
 51
270.000000000000000
  0
ARC
  8
0
  6
CONTINUOUS
 62
3
 10
308.605012931865990
 20
-236.251329449088190
 40
9.999999999999902
 50
57.024699180564248
 51
135.000000000000000
  0
ARC
  8
0
  6
CONTINUOUS
 62
3
 10
263.418306765691340
 20
-227.697920245085240
 40
1.999999999999694
 50
135.000000000000000
 51
180.000000000000000
  0
CIRCLE
  8
0
  6
CONTINUOUS
 62
3
 10
274.923357399574800
 20
-234.577645922051940
 40
7.500000000000000
  0
ARC
  8
0
  6
CONTINUOUS
 62
3
 10
281.803083076541720
 20
-246.082696555935460
 40
2.000000000000000
 50
270.000000000000000
 51
314.999999999995400
  0
ARC
  8
0
  6
CONTINUOUS
 62
3
 10
474.586939658844130
 20
-200.895990389761210
 40
9.999999999999902
 50
147.024699180564230
 51
225.000000000000000
  0
ARC
  8
0
  6
CONTINUOUS
 62
3
 10
373.918306765691340
 20
-135.582696555935400
 40
110.000000000000050
 50
270.000000000000000
 51
302.975300819434150
  0
ARC
  8
0
  6
CONTINUOUS
 62
3
 10
439.231600599517150
 20
-236.251329449088190
 40
9.999999999999758
 50
45.000000000000000
 51
122.975300819435740
  0
ARC
  8
0
  6
CONTINUOUS
 62
3
 10
484.418306765691340
 20
-227.697920245085240
 40
2.000000000000000
 50
0.000000000000000
 51
44.999999999990798
  0
CIRCLE
  8
0
  6
CONTINUOUS
 62
3
 10
472.913256131808340
 20
-234.577645922051940
 40
7.500000000000000
  0
ARC
  8
0
  6
CONTINUOUS
 62
3
 10
466.033530454841180
 20
-246.082696555935460
 40
2.000000000000016
 50
225.000000000009210
 51
270.000000000000000
  0
CIRCLE
  8
0
  6
CONTINUOUS
 62
3
 10
373.918306765691340
 20
-135.582696555935400
 40
48.000000000000000
  0
CIRCLE
  8
0
  6
CONTINUOUS
 62
3
 10
373.918306765691800
 20
-135.582696555935400
 40
23.500000000000000
  0
LINE
  8
0
  6
DASHDOT
 62
4
 10
265.418306765691340
 20
-27.082696555935385
 11
284.343474748152630
 21
-46.007864538396788
  0
LINE
  8
0
  6
DASHDOT
 62
4
 10
482.418306765691340
 20
-27.082696555935385
 11
463.493138783230050
 21
-46.007864538396788
  0
LINE
  8
0
  6
DASHDOT
 62
4
 10
482.418306765691340
 20
-244.082696555935460
 11
463.493138783230050
 21
-225.157528573474000
  0
LINE
  8
0
  6
DASHDOT
 62
4
 10
265.418306765691340
 20
-244.082696555935460
 11
284.343474748152630
 21
-225.157528573474000
  0
LINE
  8
0
  6
DASHDOT
 62
4
 10
373.918306765691340
 20
-17.028448565238236
 11
373.918306765691340
 21
-272.156321756937420
  0
ARC
  8
0
  6
CONTINUOUS
 62
3
 10
387.918306765691800
 20
-145.816094740117020
 40
77.139211988464268
 50
60.258036328881303
 51
88.089786828290116
  0
ARC
  8
0
  6
CONTINUOUS
 62
3
 10
387.918306765691570
 20
-145.816094740117020
 40
77.139211988464126
 50
14.640477209921700
 51
88.089786828290116
  0
LINE
  8
0
  6
DASHED
 62
3
 10
316.418306765691110
 20
-170.582696555931820
 11
316.418306765691110
 21
-98.582696555931804
  0
ARC
  8
0
  6
DASHED
 62
3
 10
320.118306765691160
 20
-114.282696555931860
 40
0.200000000000045
 50
90.000000000000000
 51
180.000000000000000
  0
LINE
  8
0
  6
DASHED
 62
3
 10
321.418306765691110
 20
-114.082696555931760
 11
319.918306765691110
 21
-114.082696555931760
  0
LINE
  8
0
  6
DASHED
 62
3
 10
321.418306765691110
 20
-114.082696555931760
 11
321.418306765691110
 21
-98.582696555931804
  0
LINE
  8
0
  6
DASHED
 62
3
 10
319.918306765691110
 20
-114.082696555931760
 11
319.918306765691110
 21
-154.882696555931770
  0
LINE
  8
0
  6
DASHED
 62
3
 10
321.418306765691110
 20
-155.082696555931820
 11
321.418306765691110
 21
-170.582696555931820
  0
LINE
  8
0
  6
DASHED
 62
3
 10
321.418306765691110
 20
-155.082696555931820
 11
320.118306765690930
 21
-155.082696555931820
  0
ARC
  8
0
  6
DASHED
 62
3
 10
320.118306765690930
 20
-154.882696555931770
 40
0.199999999999818
 50
180.000000000000000
 51
270.000000000000000
  0
LINE
  8
0
  6
DASHED
 62
3
 10
321.418306765691110
 20
-98.582696555931804
 11
289.051641992748730
 21
-98.582696555931804
  0
ARC
  8
0
  6
DASHED
 62
3
 10
289.051641992748730
 20
-103.582696555931800
 40
5.000000000000000
 50
90.000000000000000
 51
173.967950853630300
  0
ARC
  8
0
  6
DASHED
 62
3
 10
582.418306765691110
 20
-134.582696555931820
 40
300.000000000000000
 50
173.967950853630190
 51
186.032049146369810
  0
LINE
  8
0
  6
DASHED
 62
3
 10
321.418306765691110
 20
-170.582696555931820
 11
289.051641992748730
 21
-170.582696555931820
  0
ARC
  8
0
  6
DASHED
 62
3
 10
289.051641992748730
 20
-165.582696555931820
 40
5.000000000000137
 50
186.032049146369700
 51
270.000000000000000
  0
ARC
  8
0
  6
DASHDOT
 62
4
 10
373.918306765691340
 20
-135.582696555935400
 40
140.000000000000030
 50
129.770385335450380
 51
140.370267004998770
  0
ARC
  8
0
  6
DASHDOT
 62
4
 10
373.918306765691340
 20
-135.582696555935400
 40
140.000000000000030
 50
39.833772590633217
 51
50.340792866860951
  0
ARC
  8
0
  6
DASHDOT
 62
4
 10
373.918306765691340
 20
-135.582696555935400
 40
140.000000000000000
 50
309.536972082652540
 51
320.350497860322380
  0
ARC
  8
0
  6
DASHDOT
 62
4
 10
373.918306765691340
 20
-135.582696555935400
 40
140.000000000000000
 50
219.765698667656320
 51
229.955523753529660
  0
LINE
  8
0
  6
DASHDOT
 62
4
 10
410.285898480815380
 20
-134.582696555931820
 11
337.551655836559800
 21
-134.582696555931820
  0
LINE
  8
0
  6
DASHDOT
 62
4
 10
498.636039445163530
 20
-135.582696555935400
 11
250.262877071094410
 21
-135.582696555935400
  0
INSERT
  8
0
  2
SYM1
 10
44.709447393259495
 20
-74.582696555935385
  0
INSERT
  8
0
  2
SYM2
 10
60.209447393255857
 20
-84.582696555935385
  0
INSERT
  8
0
  2
SYM3
 10
60.209447393255857
 20
-160.582696555935400
  0
INSERT
  8
0
  2
SYM4
 10
31.709447393257221
 20
-121.388522731775080
  0
INSERT
  8
0
  2
SYM5
 10
31.709447393257221
 20
-209.776870380092990
  0
INSERT
  8
0
  2
SYM6
 10
60.209447393255402
 20
-248.582696555935460
  0
LINE
  8
0
  6
CONTINUOUS
 62
3
 10
72.709447393258586
 20
-258.582696555935460
 11
158.624176030601060
 21
-261.025705617563800
  0
LINE
  8
0
  6
CONTINUOUS
 62
3
 10
161.709447393258590
 20
-251.082696555935460
 11
161.709447393258590
 21
-258.026917729981560
  0
ARC
  8
0
  6
CONTINUOUS
 62
3
 10
158.709447393258590
 20
-258.026917729981560
 40
2.999999999999903
 50
268.371217566509590
 51
0.000000000000000
  0
ARC
  8
0
  6
CONTINUOUS
 62
3
 10
62.209447393255402
 20
-256.582696555935460
 40
2.000000000000000
 50
180.000000000000000
 51
270.000000000000000
  0
LINE
  8
0
  6
CONTINUOUS
 62
3
 10
72.709447393258586
 20
-258.582696555935460
 11
62.209447393255402
 21
-258.582696555935460
  0
LINE
  8
0
  6
CONTINUOUS
 62
3
 10
37.709447393256994
 20
-224.082696555933860
 11
37.709447393256994
 21
-107.082696555933850
  0
ARC
  8
0
  6
CONTINUOUS
 62
3
 10
133.449572798702490
 20
-71.656961185747591
 40
3.000000000000000
 50
270.000000000000000
 51
320.631038306637150
  0
LINE
  8
0
  6
CONTINUOUS
 62
3
 10
135.768804718862330
 20
-73.559896628823012
 11
156.028679313417970
 21
-48.867861999319288
  0
ARC
  8
0
  6
CONTINUOUS
 62
3
 10
153.709447393258590
 20
-46.964926556244322
 40
2.999999999999515
 50
320.631038306638350
 51
0.000000000000000
  0
ARC
  8
0
  6
CONTINUOUS
 62
3
 10
153.709447393258590
 20
-52.450207930482506
 40
2.999999999999515
 50
320.631038306638350
 51
0.000000000000000
  0
ARC
  8
0
  6
CONTINUOUS
 62
3
 10
133.449572798702490
 20
-77.142242559985775
 40
3.000000000000000
 50
270.000000000000000
 51
320.631038306637150
  0
LINE
  8
0
  6
CONTINUOUS
 62
3
 10
135.768804718862330
 20
-79.045178003061196
 11
156.028679313417970
 21
-54.353143373557472
  0
LINE
  8
0
  6
CONTINUOUS
 62
3
 10
153.728432114950180
 20
-80.142242559985775
 11
136.978993231548150
 21
-80.142242559985775
  0
LINE
  8
0
  6
CONTINUOUS
 62
3
 10
232.709447393280410
 20
-135.582696555935400
 11
232.709447393280410
 21
-119.982696555935030
  0
ARC
  8
0
  6
CONTINUOUS
 62
3
 10
232.309447393280320
 20
-119.982696555935030
 40
0.400000000000091
 50
0.000000000000000
 51
90.000000000000000
  0
LINE
  8
0
  6
CONTINUOUS
 62
3
 10
232.309447393280320
 20
-119.582696555935390
 11
185.269255014415820
 21
-119.582696555935390
  0
LINE
  8
0
  6
CONTINUOUS
 62
3
 10
184.709447393280410
 20
-119.732696555935030
 11
185.269255014415820
 21
-119.582696555935390
  0
LINE
  8
0
  6
CONTINUOUS
 62
3
 10
184.709447393280410
 20
-119.732696555935030
 11
183.509447393280600
 21
-119.732696555935030
  0
LINE
  8
0
  6
CONTINUOUS
 62
3
 10
180.709447393258590
 20
-118.582696555935390
 11
182.509447393280600
 21
-118.582696555935390
  0
LINE
  8
0
  6
CONTINUOUS
 62
3
 10
182.709447393280410
 20
-118.782696555935210
 11
182.709447393280410
 21
-135.582696555935400
  0
ARC
  8
0
  6
CONTINUOUS
 62
3
 10
183.509447393280600
 20
-118.932696555935300
 40
0.800000000000237
 50
183.703196634280290
 51
270.000000000000000
  0
LINE
  8
0
  6
CONTINUOUS
 62
3
 10
182.709447393280410
 20
-118.782696555935210
 11
182.509447393280600
 21
-118.582696555935390
  0
LINE
  8
0
  6
CONTINUOUS
 62
3
 10
184.709447393280410
 20
-151.432696555935310
 11
185.269255014415820
 21
-151.582696555935400
  0
LINE
  8
0
  6
CONTINUOUS
 62
3
 10
180.709447393258590
 20
-152.582696555935400
 11
182.509447393280600
 21
-152.582696555935400
  0
LINE
  8
0
  6
CONTINUOUS
 62
3
 10
232.309447393280320
 20
-151.582696555935400
 11
185.269255014415820
 21
-151.582696555935400
  0
LINE
  8
0
  6
CONTINUOUS
 62
3
 10
184.709447393280410
 20
-151.432696555935310
 11
183.509447393280600
 21
-151.432696555935310
  0
LINE
  8
0
  6
CONTINUOUS
 62
3
 10
182.709447393280410
 20
-152.382696555935130
 11
182.709447393280410
 21
-135.582696555935400
  0
ARC
  8
0
  6
CONTINUOUS
 62
3
 10
183.509447393280600
 20
-152.232696555935040
 40
0.799999999999727
 50
90.000000000000000
 51
176.296803365752200
  0
LINE
  8
0
  6
CONTINUOUS
 62
3
 10
182.709447393280410
 20
-152.382696555935130
 11
182.509447393280600
 21
-152.582696555935400
  0
LINE
  8
0
  6
CONTINUOUS
 62
3
 10
232.709447393280410
 20
-135.582696555935400
 11
232.709447393280410
 21
-151.182696555935310
  0
ARC
  8
0
  6
CONTINUOUS
 62
3
 10
232.309447393280320
 20
-151.182696555935310
 40
0.400000000000091
 50
270.000000000000000
 51
0.000000000000000
  0
LINE
  8
0
  6
CONTINUOUS
 62
3
 10
232.709447393280410
 20
-130.582696555935400
 11
192.709447393281320
 21
-130.582696555935400
  0
LINE
  8
0
  6
CONTINUOUS
 62
3
 10
232.709447393280410
 20
-140.582696555935400
 11
192.709447393281320
 21
-140.582696555935400
  0
ARC
  8
0
  6
CONTINUOUS
 62
3
 10
192.709447393281320
 20
-135.582696555935400
 40
5.000000000000000
 50
90.000000000000000
 51
270.000000000000000
  0
LINE
  8
0
  6
DASHDOT
 62
4
 10
188.345956753100100
 20
-234.577645922052400
 11
149.349964563917810
 21
-234.577645922052400
  0
LINE
  8
0
  6
DASHDOT
 62
4
 10
188.345956753100100
 20
-36.587747189818842
 11
149.349964563917810
 21
-36.587747189818842
  0
ARC
  8
0
  6
CONTINUOUS
 62
3
 10
168.709447393258590
 20
-143.582696555935400
 40
3.000000000000000
 50
90.000000000000000
 51
180.000000000000000
  0
ARC
  8
0
  6
CONTINUOUS
 62
3
 10
168.709447393258590
 20
-199.031269875249110
 40
3.000000000000000
 50
180.000000000000000
 51
270.000000000000000
  0
LINE
  8
0
  6
CONTINUOUS
 62
3
 10
165.709447393258590
 20
-143.582696555935400
 11
165.709447393258590
 21
-223.869493120338570
  0
ARC
  8
0
  6
CONTINUOUS
 62
3
 10
168.709447393258590
 20
-223.869493120338570
 40
3.000000000000000
 50
180.000000000000000
 51
270.000000000000000
  0
LINE
  8
0
  6
CONTINUOUS
 62
3
 10
172.709447393258810
 20
-226.869493120338570
 11
168.709447393258590
 21
-226.869493120338570
  0
LINE
  8
0
  6
CONTINUOUS
 62
3
 10
172.709447393258810
 20
-202.031269875249110
 11
168.709447393258590
 21
-202.031269875249110
  0
LINE
  8
0
  6
CONTINUOUS
 62
3
 10
168.709447393258590
 20
-140.582696555935400
 11
172.709447393258810
 21
-140.582696555935400
  0
ARC
  8
0
  6
CONTINUOUS
 62
3
 10
168.709447393258590
 20
-47.295899991532210
 40
3.000000000000000
 50
90.000000000000000
 51
180.000000000000000
  0
ARC
  8
0
  6
CONTINUOUS
 62
3
 10
168.709447393258590
 20
-72.134123236621676
 40
3.000000000000000
 50
90.000000000000000
 51
180.000000000000000
  0
ARC
  8
0
  6
CONTINUOUS
 62
3
 10
168.709447393258590
 20
-127.582696555935390
 40
3.000000000000000
 50
180.000000000000000
 51
270.000000000000000
  0
LINE
  8
0
  6
CONTINUOUS
 62
3
 10
168.709447393258590
 20
-130.582696555935400
 11
172.709447393258810
 21
-130.582696555935400
  0
LINE
  8
0
  6
CONTINUOUS
 62
3
 10
172.709447393258810
 20
-69.134123236621676
 11
168.709447393258590
 21
-69.134123236621676
  0
LINE
  8
0
  6
CONTINUOUS
 62
3
 10
172.709447393258810
 20
-44.295899991532210
 11
168.709447393258590
 21
-44.295899991532210
  0
LINE
  8
0
  6
CONTINUOUS
 62
3
 10
165.709447393258590
 20
-127.582696555935390
 11
165.709447393258590
 21
-47.295899991532210
  0
ARC
  8
0
  6
CONTINUOUS
 62
3
 10
158.709447393258590
 20
-246.082696555935460
 40
2.000000000000000
 50
180.000000000000000
 51
270.000000000000000
  0
ARC
  8
0
  6
CONTINUOUS
 62
3
 10
153.719813843529830
 20
-24.760893760077565
 40
3.000000000000246
 50
330.000000000002730
 51
356.309860996867310
  0
LINE
  8
0
  6
CONTINUOUS
 62
3
 10
176.709447393258590
 20
-135.582696555935400
 11
176.709447393258590
 21
-239.582696555935400
  0
LINE
  8
0
  6
CONTINUOUS
 62
3
 10
165.663407993072440
 20
-247.760127223273290
 11
165.663407993072440
 21
-248.082696555935460
  0
LINE
  8
0
  6
CONTINUOUS
 62
3
 10
176.709447393258590
 20
-239.582696555935400
 11
175.709447393258590
 21
-240.582696555935400
  0
LINE
  8
0
  6
CONTINUOUS
 62
3
 10
175.709447393258590
 20
-240.582696555935400
 11
172.709447393258590
 21
-240.582696555935400
  0
LINE
  8
0
  6
CONTINUOUS
 62
3
 10
175.709447393258590
 20
-30.582696555935385
 11
176.709447393258590
 21
-31.582696555935385
  0
LINE
  8
0
  6
CONTINUOUS
 62
3
 10
172.709447393258590
 20
-30.582696555935385
 11
175.709447393258590
 21
-30.582696555935385
  0
LINE
  8
0
  6
CONTINUOUS
 62
3
 10
176.709447393258590
 20
-135.582696555935400
 11
176.709447393258590
 21
-31.582696555935385
  0
LINE
  8
0
  6
CONTINUOUS
 62
3
 10
72.709447393258586
 20
-65.582696555935385
 11
144.367298891612050
 21
-63.080349241487951
  0
LINE
  8
0
  6
CONTINUOUS
 62
3
 10
135.700124153247030
 20
-61.971911840273137
 11
156.317890054883430
 21
-26.260893760077565
  0
LINE
  8
0
  6
CONTINUOUS
 62
3
 10
156.709447393258590
 20
-246.082696555935460
 11
156.709447393258590
 21
-25.082696555935385
  0
LINE
  8
0
  6
CONTINUOUS
 62
3
 10
158.709447393258590
 20
-23.082696555935385
 11
172.709447393258590
 21
-23.082696555935385
  0
LINE
  8
0
  6
CONTINUOUS
 62
3
 10
179.709447393258590
 20
-102.082696555935380
 11
180.709447393258590
 21
-102.082696555935380
  0
LINE
  8
0
  6
CONTINUOUS
 62
3
 10
179.709447393258590
 20
-169.082696555935400
 11
180.709447393258590
 21
-169.082696555935400
  0
LINE
  8
0
  6
CONTINUOUS
 62
3
 10
180.709447393258590
 20
-169.082696555935400
 11
180.709447393258590
 21
-102.082696555935380
  0
LINE
  8
0
  6
CONTINUOUS
 62
3
 10
172.709447393258810
 20
-135.582696555935400
 11
172.709447393258590
 21
-23.082696555935385
  0
LINE
  8
0
  6
CONTINUOUS
 62
3
 10
72.709447393258586
 20
-258.582696555935460
 11
72.709447393258586
 21
-65.582696555935385
  0
LINE
  8
0
  6
CONTINUOUS
 62
3
 10
172.709447393258590
 20
-248.082696555935460
 11
158.709447393258590
 21
-248.082696555935460
  0
LINE
  8
0
  6
CONTINUOUS
 62
3
 10
178.709447393258590
 20
-135.582696555935400
 11
178.709447393258590
 21
-180.735802855791010
  0
LINE
  8
0
  6
CONTINUOUS
 62
3
 10
178.709447393258590
 20
-135.582696555935400
 11
178.709447393258590
 21
-90.429590256080232
  0
LINE
  8
0
  6
CONTINUOUS
 62
3
 10
172.709447393258590
 20
-135.582696555935400
 11
172.709447393258590
 21
-248.082696555935910
  0
ARC
  8
0
  6
CONTINUOUS
 62
3
 10
178.709447393258590
 20
-185.931945473026640
 40
2.999999999999984
 50
120.000187270170780
 51
131.810314895779530
  0
ARC
  8
0
  6
CONTINUOUS
 62
3
 10
175.709430409749020
 20
-180.735802855791010
 40
2.999999999999871
 50
300.000187270167030
 51
0.000000000000000
  0
ARC
  8
0
  6
CONTINUOUS
 62
3
 10
133.102047941893660
 20
-60.471911840273137
 40
3.000000000000001
 50
272.000000000003640
 51
330.000000000000570
  0
ARC
  8
0
  6
CONTINUOUS
 62
3
 10
164.709447393258590
 20
-251.082696555935460
 40
3.000000000000000
 50
90.000000000000000
 51
180.000000000000000
  0
ARC
  8
0
  6
CONTINUOUS
 62
3
 10
158.709447393258590
 20
-25.082696555935385
 40
2.000000000000000
 50
90.000000000000000
 51
180.000000000000000
  0
ARC
  8
0
  6
CONTINUOUS
 62
3
 10
179.709447393258590
 20
-170.082696555935400
 40
1.000000000000000
 50
90.000000000000000
 51
180.000000000000000
  0
ARC
  8
0
  6
CONTINUOUS
 62
3
 10
175.709447393258590
 20
-90.429590256080232
 40
3.000000000000000
 50
0.000000000000000
 51
70.528779365509465
  0
ARC
  8
0
  6
CONTINUOUS
 62
3
 10
179.709447393258590
 20
-101.082696555935380
 40
1.000000000000000
 50
180.000000000000000
 51
270.000000000000000
  0
LINE
  8
0
  6
CONTINUOUS
 62
3
 10
44.709447393261769
 20
-30.582696555935385
 11
49.209447393261769
 21
-30.582696555935385
  0
LINE
  8
0
  6
DASHDOT
 62
4
 10
30.215403741428133
 20
-74.582696555935385
 11
54.353019209533784
 21
-74.582696555935385
  0
LINE
  8
0
  6
DASHDOT
 62
4
 10
38.979199992445217
 20
-50.582696555935385
 11
57.078466007736722
 21
-50.582696555935385
  0
LINE
  8
0
  6
CONTINUOUS
 62
3
 10
49.209447393261769
 20
-30.582696555935385
 11
49.209447393261769
 21
-84.582696555935385
  0
LINE
  8
0
  6
CONTINUOUS
 62
3
 10
44.709447393258131
 20
-84.582696555935385
 11
44.709447393261769
 21
-30.582696555935385
  0
LINE
  8
0
  6
CONTINUOUS
 62
3
 10
44.709447393258131
 20
-84.582696555935385
 11
49.209447393258131
 21
-84.582696555935385
  0
LINE
  8
0
  6
CONTINUOUS
 62
3
 10
52.209447393259950
 20
-103.475890056185540
 11
52.209447393261883
 21
-90.216766952358725
  0
ARC
  8
0
  6
CONTINUOUS
 62
3
 10
52.209447393260859
 20
-83.582696555935385
 40
3.000000000000000
 50
180.000000000000000
 51
270.000000000000000
  0
LINE
  8
0
  6
CONTINUOUS
 62
3
 10
37.709447393257221
 20
-185.582696555935400
 11
60.209447393255402
 21
-185.582696555935400
  0
LINE
  8
0
  6
CONTINUOUS
 62
3
 10
37.709447393257221
 20
-145.582696555935400
 11
58.209447393255402
 21
-145.582696555935400
  0
ARC
  8
0
  6
CONTINUOUS
 62
3
 10
58.209447393255402
 20
-131.118594940797720
 40
1.999999999999770
 50
300.000000000003810
 51
0.000000000000000
  0
ARC
  8
0
  6
CONTINUOUS
 62
3
 10
60.209447393255402
 20
-134.582696555935400
 40
2.000000000000164
 50
119.999999999997270
 51
180.000000000000000
  0
ARC
  8
0
  6
CONTINUOUS
 62
3
 10
58.209447393255402
 20
-150.046798171073080
 40
2.000000000000000
 50
0.000000000000000
 51
59.999999999996206
  0
ARC
  8
0
  6
CONTINUOUS
 62
3
 10
60.209447393255402
 20
-146.582696555935400
 40
2.000000000000000
 50
180.000000000000000
 51
240.000000000002730
  0
LINE
  8
0
  6
CONTINUOUS
 62
3
 10
58.209447393255402
 20
-134.582696555935400
 11
58.209447393255402
 21
-146.582696555935400
  0
ARC
  8
0
  6
CONTINUOUS
 62
3
 10
57.209447393259950
 20
-103.056627821921190
 40
2.999999999999901
 50
272.999999999988290
 51
0.000000000000000
  0
LINE
  8
0
  6
CONTINUOUS
 62
3
 10
72.209447393257221
 20
-165.582696555935400
 11
72.209447393261769
 21
-65.582696555935385
  0
LINE
  8
0
  6
CONTINUOUS
 62
3
 10
72.209447393255402
 20
-165.582696555935400
 11
72.209447393255402
 21
-258.582696555935460
  0
LINE
  8
0
  6
CONTINUOUS
 62
3
 10
57.366455261989074
 20
-106.052516426184850
 11
37.709447393257221
 21
-107.082696555934470
  0
ARC
  8
0
  6
CONTINUOUS
 62
3
 10
57.209447393255402
 20
-231.101659537032450
 40
3.000000000000000
 50
0.000000000000000
 51
86.999999999994344
  0
ARC
  8
0
  6
CONTINUOUS
 62
3
 10
49.209447393259950
 20
-103.475890056185540
 40
2.999999999999901
 50
272.999999999988290
 51
0.000000000000000
  0
ARC
  8
0
  6
CONTINUOUS
 62
3
 10
52.209447393261769
 20
-68.582696555934021
 40
3.000000000000000
 50
90.000000000000000
 51
179.999999999991330
  0
LINE
  8
0
  6
CONTINUOUS
 62
3
 10
37.709447393256994
 20
-227.075590803019680
 11
57.366455261984527
 21
-228.105770932768790
  0
LINE
  8
0
  6
CONTINUOUS
 62
3
 10
49.209447393260859
 20
-83.582696555935385
 11
49.209447393261769
 21
-68.582696555933566
  0
LINE
  8
0
  6
CONTINUOUS
 62
3
 10
60.209447393255402
 20
-150.046798171073080
 11
60.209447393255402
 21
-256.582696555935460
  0
LINE
  8
0
  6
CONTINUOUS
 62
3
 10
37.709447393256994
 20
-227.075590803019680
 11
37.709447393256994
 21
-107.082696555933900
  0
LINE
  8
0
  6
CONTINUOUS
 62
3
 10
60.209447393255402
 20
-68.582696555934476
 11
60.209447393255402
 21
-131.118594940797720
  0
ARC
  8
0
  6
CONTINUOUS
 62
3
 10
63.209447393261769
 20
-68.582696555934476
 40
3.000000000000000
 50
90.000000000000000
 51
180.000000000000000
  0
LINE
  8
0
  6
CONTINUOUS
 62
3
 10
72.709447393258586
 20
-65.582696555935385
 11
52.209447393261769
 21
-65.582696555934021
  0
LINE
  8
0
  6
CONTINUOUS
 62
3
 10
-124.790552606764090
 20
-188.582696555932160
 11
-202.295397555856880
 21
-188.582696555932160
  0
LINE
  8
0
  6
CONTINUOUS
 62
3
 10
-124.790552606764090
 20
-188.582696555932160
 11
-124.790552606764090
 21
-175.582696555931930
  0
LINE
  8
0
  6
CONTINUOUS
 62
3
 10
-124.790552606764090
 20
-80.582696555931690
 11
-124.790552606764090
 21
-93.582696555931918
  0
LINE
  8
0
  6
CONTINUOUS
 62
3
 10
-124.790552606764090
 20
-80.582696555931690
 11
-202.295397555856880
 21
-80.582696555931690
  0
LINE
  8
0
  6
CONTINUOUS
 62
3
 10
-135.790552606764090
 20
-183.726617578657110
 11
-137.790552606764090
 21
-182.073975939533680
  0
LINE
  8
0
  6
CONTINUOUS
 62
3
 10
-133.790552606764090
 20
-184.902403064279890
 11
-135.790552606764090
 21
-183.726617578657110
  0
LINE
  8
0
  6
CONTINUOUS
 62
3
 10
-135.790552606764090
 20
-183.726617578657110
 11
-133.790552606764090
 21
-182.073975939533680
  0
LINE
  8
0
  6
CONTINUOUS
 62
3
 10
-137.790552606764090
 20
-184.902403064279890
 11
-135.790552606764090
 21
-183.726617578657110
  0
POLYLINE
  8
0
  6
CONTINUOUS
 62
3
 66
1
 70
1
  0
VERTEX
  8
0
  6
CONTINUOUS
 62
3
 10
-131.090552606763880
 20
-181.910027510279580
  0
VERTEX
  8
0
  6
CONTINUOUS
 62
3
 10
-131.180861788868700
 20
-181.207070544079220
  0
VERTEX
  8
0
  6
CONTINUOUS
 62
3
 10
-131.448318803960830
 20
-180.531127819867120
  0
VERTEX
  8
0
  6
CONTINUOUS
 62
3
 10
-131.882645428941910
 20
-179.908175437461720
  0
VERTEX
  8
0
  6
CONTINUOUS
 62
3
 10
-132.467150735187090
 20
-179.362153107563130
  0
VERTEX
  8
0
  6
CONTINUOUS
 62
3
 10
-133.179372511571760
 20
-178.914044162096500
  0
VERTEX
  8
0
  6
CONTINUOUS
 62
3
 10
-133.991940474647950
 20
-178.581069176533760
  0
VERTEX
  8
0
  6
CONTINUOUS
 62
3
 10
-134.873628093288060
 20
-178.376024192835500
  0
VERTEX
  8
0
  6
CONTINUOUS
 62
3
 10
-135.790552606763870
 20
-178.306788974734730
  0
VERTEX
  8
0
  6
CONTINUOUS
 62
3
 10
-136.707477120239670
 20
-178.376024192835500
  0
VERTEX
  8
0
  6
CONTINUOUS
 62
3
 10
-137.589164738879790
 20
-178.581069176533760
  0
VERTEX
  8
0
  6
CONTINUOUS
 62
3
 10
-138.401732701955980
 20
-178.914044162096500
  0
VERTEX
  8
0
  6
CONTINUOUS
 62
3
 10
-139.113954478340640
 20
-179.362153107563130
  0
VERTEX
  8
0
  6
CONTINUOUS
 62
3
 10
-139.698459784585820
 20
-179.908175437461720
  0
VERTEX
  8
0
  6
CONTINUOUS
 62
3
 10
-140.132786409566900
 20
-180.531127819867120
  0
VERTEX
  8
0
  6
CONTINUOUS
 62
3
 10
-140.400243424659040
 20
-181.207070544079220
  0
VERTEX
  8
0
  6
CONTINUOUS
 62
3
 10
-140.490552606763860
 20
-181.910027510279580
  0
VERTEX
  8
0
  6
CONTINUOUS
 62
3
 10
-140.400243424659040
 20
-182.612984476479940
  0
VERTEX
  8
0
  6
CONTINUOUS
 62
3
 10
-140.132786409566900
 20
-183.288927200692030
  0
VERTEX
  8
0
  6
CONTINUOUS
 62
3
 10
-139.698459784585820
 20
-183.911879583097430
  0
VERTEX
  8
0
  6
CONTINUOUS
 62
3
 10
-139.113954478340620
 20
-184.457901912996020
  0
VERTEX
  8
0
  6
CONTINUOUS
 62
3
 10
-138.401732701955980
 20
-184.906010858462650
  0
VERTEX
  8
0
  6
CONTINUOUS
 62
3
 10
-137.589164738879790
 20
-185.238985844025390
  0
VERTEX
  8
0
  6
CONTINUOUS
 62
3
 10
-136.707477120239670
 20
-185.444030827723650
  0
VERTEX
  8
0
  6
CONTINUOUS
 62
3
 10
-135.790552606763870
 20
-185.513266045824420
  0
VERTEX
  8
0
  6
CONTINUOUS
 62
3
 10
-134.873628093288060
 20
-185.444030827723650
  0
VERTEX
  8
0
  6
CONTINUOUS
 62
3
 10
-133.991940474647950
 20
-185.238985844025390
  0
VERTEX
  8
0
  6
CONTINUOUS
 62
3
 10
-133.179372511571760
 20
-184.906010858462650
  0
VERTEX
  8
0
  6
CONTINUOUS
 62
3
 10
-132.467150735187120
 20
-184.457901912996020
  0
VERTEX
  8
0
  6
CONTINUOUS
 62
3
 10
-131.882645428941910
 20
-183.911879583097430
  0
VERTEX
  8
0
  6
CONTINUOUS
 62
3
 10
-131.448318803960830
 20
-183.288927200692030
  0
VERTEX
  8
0
  6
CONTINUOUS
 62
3
 10
-131.180861788868700
 20
-182.612984476479940
  0
SEQEND
  8
0
  6
CONTINUOUS
 62
3
  0
LINE
  8
0
  6
CONTINUOUS
 62
3
 10
-135.790552606764090
 20
-85.438775533206737
 11
-137.790552606764090
 21
-87.091417172330168
  0
LINE
  8
0
  6
CONTINUOUS
 62
3
 10
-133.790552606764090
 20
-84.262990047583955
 11
-135.790552606764090
 21
-85.438775533206737
  0
LINE
  8
0
  6
CONTINUOUS
 62
3
 10
-135.790552606764090
 20
-85.438775533206737
 11
-133.790552606764090
 21
-87.091417172330168
  0
LINE
  8
0
  6
CONTINUOUS
 62
3
 10
-137.790552606764090
 20
-84.262990047583955
 11
-135.790552606764090
 21
-85.438775533206737
  0
POLYLINE
  8
0
  6
CONTINUOUS
 62
3
 66
1
 70
1
  0
VERTEX
  8
0
  6
CONTINUOUS
 62
3
 10
-131.090552606763880
 20
-87.255365601584273
  0
VERTEX
  8
0
  6
CONTINUOUS
 62
3
 10
-131.180861788868700
 20
-86.552408635383912
  0
VERTEX
  8
0
  6
CONTINUOUS
 62
3
 10
-131.448318803960830
 20
-85.876465911171820
  0
VERTEX
  8
0
  6
CONTINUOUS
 62
3
 10
-131.882645428941910
 20
-85.253513528766419
  0
VERTEX
  8
0
  6
CONTINUOUS
 62
3
 10
-132.467150735187090
 20
-84.707491198867842
  0
VERTEX
  8
0
  6
CONTINUOUS
 62
3
 10
-133.179372511571760
 20
-84.259382253401228
  0
VERTEX
  8
0
  6
CONTINUOUS
 62
3
 10
-133.991940474647950
 20
-83.926407267838457
  0
VERTEX
  8
0
  6
CONTINUOUS
 62
3
 10
-134.873628093288060
 20
-83.721362284140213
  0
VERTEX
  8
0
  6
CONTINUOUS
 62
3
 10
-135.790552606763870
 20
-83.652127066039441
  0
VERTEX
  8
0
  6
CONTINUOUS
 62
3
 10
-136.707477120239670
 20
-83.721362284140213
  0
VERTEX
  8
0
  6
CONTINUOUS
 62
3
 10
-137.589164738879790
 20
-83.926407267838457
  0
VERTEX
  8
0
  6
CONTINUOUS
 62
3
 10
-138.401732701955980
 20
-84.259382253401228
  0
VERTEX
  8
0
  6
CONTINUOUS
 62
3
 10
-139.113954478340640
 20
-84.707491198867842
  0
VERTEX
  8
0
  6
CONTINUOUS
 62
3
 10
-139.698459784585820
 20
-85.253513528766419
  0
VERTEX
  8
0
  6
CONTINUOUS
 62
3
 10
-140.132786409566900
 20
-85.876465911171820
  0
VERTEX
  8
0
  6
CONTINUOUS
 62
3
 10
-140.400243424659040
 20
-86.552408635383912
  0
VERTEX
  8
0
  6
CONTINUOUS
 62
3
 10
-140.490552606763860
 20
-87.255365601584273
  0
VERTEX
  8
0
  6
CONTINUOUS
 62
3
 10
-140.400243424659040
 20
-87.958322567784634
  0
VERTEX
  8
0
  6
CONTINUOUS
 62
3
 10
-140.132786409566900
 20
-88.634265291996726
  0
VERTEX
  8
0
  6
CONTINUOUS
 62
3
 10
-139.698459784585820
 20
-89.257217674402128
  0
VERTEX
  8
0
  6
CONTINUOUS
 62
3
 10
-139.113954478340620
 20
-89.803240004300704
  0
VERTEX
  8
0
  6
CONTINUOUS
 62
3
 10
-138.401732701955980
 20
-90.251348949767319
  0
VERTEX
  8
0
  6
CONTINUOUS
 62
3
 10
-137.589164738879790
 20
-90.584323935330090
  0
VERTEX
  8
0
  6
CONTINUOUS
 62
3
 10
-136.707477120239670
 20
-90.789368919028334
  0
VERTEX
  8
0
  6
CONTINUOUS
 62
3
 10
-135.790552606763870
 20
-90.858604137129106
  0
VERTEX
  8
0
  6
CONTINUOUS
 62
3
 10
-134.873628093288060
 20
-90.789368919028334
  0
VERTEX
  8
0
  6
CONTINUOUS
 62
3
 10
-133.991940474647950
 20
-90.584323935330090
  0
VERTEX
  8
0
  6
CONTINUOUS
 62
3
 10
-133.179372511571760
 20
-90.251348949767319
  0
VERTEX
  8
0
  6
CONTINUOUS
 62
3
 10
-132.467150735187120
 20
-89.803240004300704
  0
VERTEX
  8
0
  6
CONTINUOUS
 62
3
 10
-131.882645428941910
 20
-89.257217674402128
  0
VERTEX
  8
0
  6
CONTINUOUS
 62
3
 10
-131.448318803960830
 20
-88.634265291996726
  0
VERTEX
  8
0
  6
CONTINUOUS
 62
3
 10
-131.180861788868700
 20
-87.958322567784634
  0
SEQEND
  8
0
  6
CONTINUOUS
 62
3
  0
LINE
  8
0
  6
CONTINUOUS
 62
3
 10
-134.790552606764090
 20
-134.582696555931930
 11
-134.790552606764090
 21
-99.582696555931918
  0
LINE
  8
0
  6
CONTINUOUS
 62
3
 10
-4.290552606743006
 20
-82.082696555931918
 11
-124.790552606764090
 21
-82.082696555931918
  0
LINE
  8
0
  6
CONTINUOUS
 62
4
 10
-124.790552606764090
 20
-84.082696555931918
 11
-4.290552606743006
 21
-84.082696555931918
  0
LINE
  8
0
  6
CONTINUOUS
 62
4
 10
-124.790552606764090
 20
-83.582696555931690
 11
-4.290552606743006
 21
-83.582696555931690
  0
LINE
  8
0
  6
CONTINUOUS
 62
4
 10
-124.790552606764090
 20
-88.449613961049110
 11
-4.290552606743006
 21
-88.449613961049110
  0
LINE
  8
0
  6
CONTINUOUS
 62
4
 10
-124.790552606764090
 20
-90.078041028827030
 11
-4.290552606743006
 21
-90.078041028827030
  0
LINE
  8
0
  6
CONTINUOUS
 62
4
 10
-124.790552606764090
 20
-93.540782785592157
 11
-4.290552606743006
 21
-93.540782785592157
  0
LINE
  8
0
  6
CONTINUOUS
 62
4
 10
-124.948152953135370
 20
-94.542261149407452
 11
-4.290552606743006
 21
-94.542261149407452
  0
LINE
  8
0
  6
CONTINUOUS
 62
4
 10
-134.790552606764090
 20
-101.279095604423140
 11
-132.590552606742450
 21
-101.279095604423140
  0
LINE
  8
0
  6
CONTINUOUS
 62
4
 10
-134.790552606764090
 20
-102.868305397161900
 11
-132.590552606742450
 21
-102.868305397161900
  0
LINE
  8
0
  6
CONTINUOUS
 62
4
 10
-134.790552606764090
 20
-105.826301005294830
 11
-132.590552606742450
 21
-105.826301005294830
  0
LINE
  8
0
  6
CONTINUOUS
 62
4
 10
-134.790552606764090
 20
-107.305324158771930
 11
-132.590552606742450
 21
-107.305324158771930
  0
LINE
  8
0
  6
CONTINUOUS
 62
4
 10
-134.790552606764090
 20
-110.398055150437280
 11
-132.590552606742450
 21
-110.398055150437280
  0
LINE
  8
0
  6
CONTINUOUS
 62
4
 10
-134.790552606764090
 20
-111.744456875935760
 11
-132.590552606742450
 21
-111.744456875935760
  0
LINE
  8
0
  6
CONTINUOUS
 62
4
 10
-134.790552606764090
 20
-114.582696555931930
 11
-132.590552606742450
 21
-114.582696555931930
  0
LINE
  8
0
  6
CONTINUOUS
 62
4
 10
-42.590552606742506
 20
-105.826301005294830
 11
-4.290552606743006
 21
-105.826301005294830
  0
LINE
  8
0
  6
CONTINUOUS
 62
4
 10
-42.590552606742506
 20
-107.305324158771930
 11
-4.290552606743006
 21
-107.305324158771930
  0
LINE
  8
0
  6
CONTINUOUS
 62
4
 10
-42.590552606742506
 20
-110.398055150437280
 11
-4.290552606743006
 21
-110.398055150437280
  0
LINE
  8
0
  6
CONTINUOUS
 62
4
 10
-42.590552606742506
 20
-111.744456875935760
 11
-4.290552606743006
 21
-111.744456875935760
  0
LINE
  8
0
  6
CONTINUOUS
 62
4
 10
-42.590552606742506
 20
-114.582696555931930
 11
-4.290552606743006
 21
-114.582696555931930
  0
LINE
  8
0
  6
CONTINUOUS
 62
4
 10
-42.590552606742506
 20
-102.868305397161900
 11
-4.290552606743006
 21
-102.868305397161900
  0
LINE
  8
0
  6
CONTINUOUS
 62
4
 10
-42.590552606742506
 20
-101.279095604423140
 11
-4.290552606743006
 21
-101.279095604423140
  0
ARC
  8
0
  6
CONTINUOUS
 62
3
 10
-127.790552606764090
 20
-93.582696555931918
 40
3.000000000000000
 50
270.000000000000000
 51
0.000000000000000
  0
LINE
  8
0
  6
CONTINUOUS
 62
3
 10
-127.790552606764090
 20
-96.582696555931918
 11
-131.790552606764090
 21
-96.582696555931918
  0
ARC
  8
0
  6
CONTINUOUS
 62
3
 10
-131.790552606764090
 20
-99.582696555931918
 40
3.000000000000000
 50
90.000000000000000
 51
180.000000000000000
  0
LINE
  8
0
  6
CONTINUOUS
 62
3
 10
-214.111072144688250
 20
-84.308164443578264
 11
-221.681851341277020
 21
-89.609281107151148
  0
LINE
  8
0
  6
CONTINUOUS
 62
3
 10
-222.790552606764090
 20
-91.739076422302261
 11
-222.790552606764090
 21
-134.582696555931930
  0
ARC
  8
0
  6
CONTINUOUS
 62
3
 10
-220.190552606764190
 20
-91.739076422302261
 40
2.600000000000037
 50
125.000000000002600
 51
180.000000000000000
  0
ARC
  8
0
  6
CONTINUOUS
 62
3
 10
-202.295397555856880
 20
-101.182696555931590
 40
20.599999999999909
 50
90.000000000000000
 51
124.999999999999780
  0
LINE
  8
0
  6
CONTINUOUS
 62
3
 10
-134.790552606764090
 20
-134.582696555931930
 11
-134.790552606764090
 21
-169.582696555931930
  0
LINE
  8
0
  6
CONTINUOUS
 62
3
 10
-4.290552606743006
 20
-187.082696555931930
 11
-124.790552606764090
 21
-187.082696555931930
  0
LINE
  8
0
  6
CONTINUOUS
 62
4
 10
-124.790552606764090
 20
-185.082696555931930
 11
-4.290552606743006
 21
-185.082696555931930
  0
LINE
  8
0
  6
CONTINUOUS
 62
4
 10
-124.790552606764090
 20
-185.582696555932160
 11
-4.290552606743006
 21
-185.582696555932160
  0
LINE
  8
0
  6
CONTINUOUS
 62
4
 10
-124.790552606764090
 20
-180.715779150814740
 11
-4.290552606743006
 21
-180.715779150814740
  0
LINE
  8
0
  6
CONTINUOUS
 62
4
 10
-124.790552606764090
 20
-179.087352083036820
 11
-4.290552606743006
 21
-179.087352083036820
  0
LINE
  8
0
  6
CONTINUOUS
 62
4
 10
-124.790552606764090
 20
-175.624610326271470
 11
-4.290552606743006
 21
-175.624610326271470
  0
LINE
  8
0
  6
CONTINUOUS
 62
4
 10
-124.948152953135370
 20
-174.623131962456170
 11
-4.290552606743006
 21
-174.623131962456170
  0
LINE
  8
0
  6
CONTINUOUS
 62
4
 10
-134.790552606764090
 20
-167.886297507440700
 11
-132.590552606742450
 21
-167.886297507440700
  0
LINE
  8
0
  6
CONTINUOUS
 62
4
 10
-134.790552606764090
 20
-166.297087714701950
 11
-132.590552606742450
 21
-166.297087714701950
  0
LINE
  8
0
  6
CONTINUOUS
 62
4
 10
-134.790552606764090
 20
-163.339092106569010
 11
-132.590552606742450
 21
-163.339092106569010
  0
LINE
  8
0
  6
CONTINUOUS
 62
4
 10
-134.790552606764090
 20
-161.860068953091910
 11
-132.590552606742450
 21
-161.860068953091910
  0
LINE
  8
0
  6
CONTINUOUS
 62
4
 10
-134.790552606764090
 20
-158.767337961426560
 11
-132.590552606742450
 21
-158.767337961426560
  0
LINE
  8
0
  6
CONTINUOUS
 62
4
 10
-134.790552606764090
 20
-157.420936235928080
 11
-132.590552606742450
 21
-157.420936235928080
  0
LINE
  8
0
  6
CONTINUOUS
 62
4
 10
-134.790552606764090
 20
-154.582696555931930
 11
-132.590552606742450
 21
-154.582696555931930
  0
LINE
  8
0
  6
CONTINUOUS
 62
4
 10
-42.590552606742506
 20
-163.339092106569010
 11
-4.290552606743006
 21
-163.339092106569010
  0
LINE
  8
0
  6
CONTINUOUS
 62
4
 10
-42.590552606742506
 20
-161.860068953091910
 11
-4.290552606743006
 21
-161.860068953091910
  0
LINE
  8
0
  6
CONTINUOUS
 62
4
 10
-42.590552606742506
 20
-158.767337961426560
 11
-4.290552606743006
 21
-158.767337961426560
  0
LINE
  8
0
  6
CONTINUOUS
 62
4
 10
-42.590552606742506
 20
-157.420936235928080
 11
-4.290552606743006
 21
-157.420936235928080
  0
LINE
  8
0
  6
CONTINUOUS
 62
4
 10
-42.590552606742506
 20
-154.582696555931930
 11
-4.290552606743006
 21
-154.582696555931930
  0
LINE
  8
0
  6
CONTINUOUS
 62
4
 10
-42.590552606742506
 20
-166.297087714701950
 11
-4.290552606743006
 21
-166.297087714701950
  0
LINE
  8
0
  6
CONTINUOUS
 62
4
 10
-42.590552606742506
 20
-167.886297507440700
 11
-4.290552606743006
 21
-167.886297507440700
  0
ARC
  8
0
  6
CONTINUOUS
 62
3
 10
-127.790552606764090
 20
-175.582696555931930
 40
3.000000000000000
 50
0.000000000000000
 51
90.000000000000000
  0
LINE
  8
0
  6
CONTINUOUS
 62
3
 10
-127.790552606764090
 20
-172.582696555931930
 11
-131.790552606764090
 21
-172.582696555931930
  0
ARC
  8
0
  6
CONTINUOUS
 62
3
 10
-131.790552606764090
 20
-169.582696555931930
 40
3.000000000000000
 50
180.000000000000000
 51
270.000000000000000
  0
LINE
  8
0
  6
CONTINUOUS
 62
3
 10
-214.111072144688250
 20
-184.857228668285360
 11
-221.681851341277020
 21
-179.556112004712700
  0
LINE
  8
0
  6
CONTINUOUS
 62
3
 10
-222.790552606764090
 20
-177.426316689561590
 11
-222.790552606764090
 21
-134.582696555931930
  0
ARC
  8
0
  6
CONTINUOUS
 62
3
 10
-220.190552606764190
 20
-177.426316689561590
 40
2.599999999999909
 50
180.000000000000000
 51
234.999999999994540
  0
ARC
  8
0
  6
CONTINUOUS
 62
3
 10
-202.295397555856880
 20
-167.982696555932250
 40
20.599999999999795
 50
235.000000000000260
 51
270.000000000000000
  0
ARC
  8
0
  6
CONTINUOUS
 62
3
 10
-131.590552606742450
 20
-99.582696555931918
 40
1.000000000000000
 50
90.000000000000000
 51
180.000000000000000
  0
LINE
  8
0
  6
CONTINUOUS
 62
3
 10
-43.590552606742506
 20
-98.582696555931918
 11
-131.590552606742450
 21
-98.582696555931918
  0
LINE
  8
0
  6
CONTINUOUS
 62
3
 10
-132.590552606742220
 20
-99.582696555931918
 11
-132.590552606742900
 21
-134.582696555932160
  0
LINE
  8
0
  6
CONTINUOUS
 62
3
 10
-132.590552606742220
 20
-169.582696555931930
 11
-132.590552606742900
 21
-134.582696555931700
  0
ARC
  8
0
  6
CONTINUOUS
 62
3
 10
-131.590552606742450
 20
-169.582696555931930
 40
0.999999999999773
 50
180.000000000000000
 51
270.000000000000000
  0
LINE
  8
0
  6
CONTINUOUS
 62
3
 10
-43.590552606742506
 20
-170.582696555931930
 11
-131.590552606742450
 21
-170.582696555931930
  0
ARC
  8
0
  6
CONTINUOUS
 62
3
 10
-43.590552606742506
 20
-169.582696555931930
 40
1.000000000000000
 50
270.000000000000000
 51
0.000000000000000
  0
LINE
  8
0
  6
CONTINUOUS
 62
3
 10
-42.590552606742278
 20
-169.582696555931930
 11
-42.590552606742961
 21
-134.582696555930340
  0
ARC
  8
0
  6
CONTINUOUS
 62
3
 10
-43.590552606742506
 20
-99.582696555931918
 40
1.000000000000227
 50
0.000000000000000
 51
90.000000000000000
  0
LINE
  8
0
  6
CONTINUOUS
 62
3
 10
-42.590552606742278
 20
-99.582696555931918
 11
-42.590552606742961
 21
-134.582696555933520
  0
ARC
  8
0
  6
CONTINUOUS
 62
3
 10
33.709462747391115
 20
-223.370320746805820
 40
2.000000000000000
 50
180.000000000000000
 51
267.000000000000910
  0
POINT
  8
0
  6
CONTINUOUS
 62
3
 10
27.709462747391115
 20
-222.582696555933750
  0
ARC
  8
0
  6
CONTINUOUS
 62
3
 10
24.709492709566518
 20
-223.177999189348440
 40
3.000000000000012
 50
0.198353339126269
 51
22.444622314741064
  0
ARC
  8
0
  6
CONTINUOUS
 62
3
 10
29.709462747391115
 20
-223.160689629673640
 40
2.000000000000000
 50
180.000000000000000
 51
267.000000000000910
  0
LINE
  8
0
  6
CONTINUOUS
 62
3
 10
37.709462747391115
 20
-225.582696555933750
 11
29.604790834905259
 21
-225.157948699182780
  0
ARC
  8
0
  6
CONTINUOUS
 62
3
 10
30.709462747391115
 20
-201.582696555933750
 40
1.000000000000000
 50
0.000000000000000
 51
90.000000000000000
  0
LINE
  8
0
  6
CONTINUOUS
 62
3
 10
30.709462747391115
 20
-200.582696555933750
 11
28.709462747391115
 21
-200.582696555933750
  0
LINE
  8
0
  6
CONTINUOUS
 62
3
 10
31.709462747391115
 20
-223.370320746805820
 11
31.709462747391115
 21
-201.582696555933750
  0
ARC
  8
0
  6
CONTINUOUS
 62
3
 10
28.709462747391115
 20
-199.582696555933750
 40
1.000000000000000
 50
180.000000000000000
 51
270.000000000000000
  0
POINT
  8
0
  6
CONTINUOUS
 62
3
 10
27.709462747391115
 20
-200.082696555933750
  0
LINE
  8
0
  6
CONTINUOUS
 62
3
 10
19.381130829786059
 20
-193.950812460942300
 11
26.432647431361772
 21
-193.950812460942300
  0
ARC
  8
0
  6
CONTINUOUS
 62
3
 10
16.044032477068015
 20
-196.950812460942300
 40
2.999999999999917
 50
18.355737695026583
 51
90.000000000000000
  0
LINE
  8
0
  6
CONTINUOUS
 62
3
 10
27.709462747391115
 20
-222.582696555933750
 11
18.891391200888222
 21
-196.006064717952430
  0
POINT
  8
0
  6
CONTINUOUS
 62
3
 10
18.209462747391456
 20
-200.082696555933750
  0
ARC
  8
0
  6
CONTINUOUS
 62
3
 10
10.209462747391569
 20
-192.345284170074760
 40
4.999999999999886
 50
0.000000000000000
 51
89.000000000000838
  0
LINE
  8
0
  6
CONTINUOUS
 62
3
 10
15.209462747391456
 20
-196.580705614751140
 11
15.209462747391456
 21
-192.345284170074760
  0
LINE
  8
0
  6
CONTINUOUS
 62
3
 10
18.052454878662672
 20
-199.576594219014910
 11
20.111896721689220
 21
-199.684524992570520
  0
ARC
  8
0
  6
CONTINUOUS
 62
3
 10
18.209462747391456
 20
-196.580705614751140
 40
3.000000000000000
 50
180.000000000000000
 51
267.000000000000970
  0
LINE
  8
0
  6
CONTINUOUS
 62
3
 10
37.709462747391115
 20
-185.567761488415160
 11
27.709462747391115
 21
-185.567761488415160
  0
LINE
  8
0
  6
CONTINUOUS
 62
3
 10
37.709462747391115
 20
-145.597631623452400
 11
27.709462747391115
 21
-145.597631623452340
  0
LINE
  8
0
  6
CONTINUOUS
 62
3
 10
37.709462747391115
 20
-224.082696019755590
 11
37.709462747391115
 21
-107.082696019755530
  0
LINE
  8
0
  6
CONTINUOUS
 62
3
 10
13.039200813343712
 20
-170.464248647180400
 11
24.670652336649880
 21
-170.464248647180400
  0
LINE
  8
0
  6
CONTINUOUS
 62
3
 10
12.986795478036299
 20
-167.582696555933750
 11
24.708009555049728
 21
-167.582696555933750
  0
ARC
  8
0
  6
CONTINUOUS
 62
3
 10
5.709462747391115
 20
-182.265213097458740
 40
4.999999999999950
 50
269.000000000000850
 51
0.000000000000000
  0
LINE
  8
0
  6
CONTINUOUS
 62
3
 10
7.235340792388968
 20
-185.582696555933640
 11
-4.290537252608885
 21
-185.582696555933640
  0
LINE
  8
0
  6
CONTINUOUS
 62
3
 10
10.296724779577914
 20
-187.346045694292800
 11
-4.290537252608431
 21
-187.091424088396140
  0
LINE
  8
0
  6
CONTINUOUS
 62
3
 10
-4.290537252608885
 20
-154.582696555933750
 11
10.709462747391115
 21
-154.582696555933750
  0
LINE
  8
0
  6
CONTINUOUS
 62
3
 10
13.660298299900830
 20
-130.582696555933750
 11
24.211842509144560
 21
-130.582696555933750
  0
LINE
  8
0
  6
CONTINUOUS
 62
3
 10
13.660298299900830
 20
-116.796812326988970
 11
23.987341568515774
 21
-116.796812326988970
  0
ARC
  8
0
  6
CONTINUOUS
 62
3
 10
28.709462747391115
 20
-131.582696555933750
 40
1.000000000000000
 50
90.000000000000000
 51
180.000000000000000
  0
LINE
  8
0
  6
CONTINUOUS
 62
3
 10
28.709462747391115
 20
-130.582696555933750
 11
30.709462747391115
 21
-130.582696555933750
  0
ARC
  8
0
  6
CONTINUOUS
 62
3
 10
30.709462747391115
 20
-129.582696555933750
 40
1.000000000000000
 50
270.000000000000000
 51
0.000000000000000
  0
LINE
  8
0
  6
CONTINUOUS
 62
3
 10
27.709462747391115
 20
-223.160689629673640
 11
27.709462747391115
 21
-109.082696555933750
  0
LINE
  8
0
  6
CONTINUOUS
 62
3
 10
37.709462747391115
 20
-225.582696555933750
 11
37.709462747391115
 21
-105.582696555933750
  0
LINE
  8
0
  6
CONTINUOUS
 62
3
 10
31.709462747391115
 20
-129.582696555933750
 11
31.709462747391115
 21
-107.375810130797440
  0
ARC
  8
0
  6
CONTINUOUS
 62
3
 10
33.709462747391115
 20
-107.375810130797440
 40
1.999999999999998
 50
86.999999999997655
 51
180.000000000000000
  0
LINE
  8
0
  6
DASHDOT
 62
4
 10
21.709462747391115
 20
-114.109847961986980
 11
21.709462747391115
 21
-90.018576310056403
  0
ARC
  8
0
  6
CONTINUOUS
 62
3
 10
37.709462747391115
 20
-103.582696555933750
 40
2.000000000000000
 50
180.000000000000000
 51
270.000000000000000
  0
LINE
  8
0
  6
CONTINUOUS
 62
3
 10
35.709462747391115
 20
-103.582696555933750
 11
35.709462747391115
 21
-95.429590256076949
  0
ARC
  8
0
  6
CONTINUOUS
 62
3
 10
32.709462747391115
 20
-95.429590256076949
 40
3.000000000000000
 50
0.000000000000000
 51
86.999999999998735
  0
LINE
  8
0
  6
CONTINUOUS
 62
3
 10
37.709462747391115
 20
-105.582696555933750
 11
15.447782966176362
 21
-104.416011355490120
  0
LINE
  8
0
  6
CONTINUOUS
 62
3
 10
-4.290537252608885
 20
-114.582696555933750
 11
10.709462747391115
 21
-114.582696555933750
  0
LINE
  8
0
  6
CONTINUOUS
 62
3
 10
-4.290537252608885
 20
-187.091424088396140
 11
-4.290537252608885
 21
-82.082696019753769
  0
ARC
  8
0
  6
CONTINUOUS
 62
3
 10
13.709462747391115
 20
-88.425608373711441
 40
3.000000000000000
 50
180.000000000000000
 51
266.999999999998750
  0
LINE
  8
0
  6
CONTINUOUS
 62
3
 10
10.709462747391115
 20
-88.425608373711441
 11
10.709462747391115
 21
-86.736536046330400
  0
ARC
  8
0
  6
CONTINUOUS
 62
3
 10
15.709462747391115
 20
-99.422863681717274
 40
5.000000000000000
 50
180.000000000000000
 51
266.999999999999600
  0
ARC
  8
0
  6
CONTINUOUS
 62
3
 10
5.709462747391115
 20
-86.736536046330400
 40
5.000000000000000
 50
0.000000000000000
 51
91.999999999999744
  0
LINE
  8
0
  6
CONTINUOUS
 62
3
 10
10.709462747391115
 20
-182.265213097458740
 11
10.709462747391115
 21
-88.425608373711441
  0
LINE
  8
0
  6
CONTINUOUS
 62
3
 10
11.209434449639787
 20
-104.082696555932380
 11
11.209432992789345
 21
-104.082696555932380
  0
LINE
  8
0
  6
CONTINUOUS
 62
3
 10
32.866470616120012
 20
-92.433701651813237
 11
13.552454878662218
 21
-91.421496977975153
  0
LINE
  8
0
  6
CONTINUOUS
 62
3
 10
5.534965263878632
 20
-81.739581911234950
 11
-4.290552606743006
 21
-82.082696555931932
  0
LINE
  8
0
  6
DASHDOT
 62
4
 10
127.648849485449310
 20
-135.582696555935400
 11
243.996819395946660
 21
-135.582696555935400
  0
INSERT
  8
0
  2
SYM7
 10
60.209447393259040
 20
94.108229524325907
  0
INSERT
  8
0
  2
SYM8
 10
44.709447393264497
 20
133.608229524325910
  0
INSERT
  8
0
  2
SYM9
 10
60.209447393262224
 20
194.108229524324540
 41
-1.000000000000000
 50
179.999999999996310
  0
INSERT
  8
0
  2
SYM10
 10
44.709447393265179
 20
154.608229524325450
 41
-1.000000000000000
 50
179.999999999996310
  0
CIRCLE
  8
0
  6
DASHED
 62
4
 10
-120.590552606740450
 20
66.608229524324997
 40
6.000000000000000
  0
ARC
  8
0
  6
DASHED
 62
4
 10
-120.590552606740450
 20
66.608229524324997
 40
7.000000000000000
 50
180.000000000000000
 51
0.000000000000000
  0
LINE
  8
0
  6
DASHED
 62
4
 10
-113.590552606740450
 20
86.608229524324997
 11
-113.590552606740450
 21
66.608229524324997
  0
LINE
  8
0
  6
DASHED
 62
4
 10
-127.590552606740450
 20
86.608229524324997
 11
-127.590552606740450
 21
66.608229524324997
  0
LINE
  8
0
  6
DASHDOT
 62
4
 10
-120.590552606740450
 20
57.608229524324997
 11
-120.590552606740450
 21
84.609828846874734
  0
LINE
  8
0
  6
DASHDOT
 62
4
 10
-111.590552606740450
 20
66.608229524324997
 11
-129.590552606740460
 21
66.608229524324997
  0
LINE
  8
0
  6
CONTINUOUS
 62
3
 10
-4.290552606740505
 20
197.608229524325000
 11
-124.790552606761650
 21
197.608229524325000
  0
LINE
  8
0
  6
CONTINUOUS
 62
4
 10
-124.790552606761650
 20
158.108229524325000
 11
-4.290552606740505
 21
158.108229524325000
  0
LINE
  8
0
  6
CONTINUOUS
 62
4
 10
-124.790552606761650
 20
163.736264180962850
 11
-4.290552606740505
 21
163.736264180962850
  0
LINE
  8
0
  6
CONTINUOUS
 62
4
 10
-124.790552606761650
 20
162.494344316074940
 11
-4.290552606740505
 21
162.494344316074940
  0
LINE
  8
0
  6
CONTINUOUS
 62
4
 10
-124.790552606761650
 20
166.946469204321150
 11
-4.290552606740505
 21
166.946469204321150
  0
LINE
  8
0
  6
CONTINUOUS
 62
4
 10
-124.790552606761650
 20
168.292870929819740
 11
-4.290552606740505
 21
168.292870929819740
  0
LINE
  8
0
  6
CONTINUOUS
 62
4
 10
-124.790552606761650
 20
171.385601921484980
 11
-4.290552606740505
 21
171.385601921484980
  0
LINE
  8
0
  6
CONTINUOUS
 62
4
 10
-124.790552606761650
 20
172.864625074962080
 11
-4.290552606740505
 21
172.864625074962080
  0
LINE
  8
0
  6
CONTINUOUS
 62
4
 10
-124.790552606761650
 20
175.822620683095010
 11
-4.290552606740505
 21
175.822620683095010
  0
LINE
  8
0
  6
CONTINUOUS
 62
4
 10
-124.790552606761650
 20
177.411830475833770
 11
-4.290552606740505
 21
177.411830475833770
  0
LINE
  8
0
  6
CONTINUOUS
 62
4
 10
-124.790552606761650
 20
185.150143294664760
 11
-4.290552606740505
 21
185.150143294664760
  0
LINE
  8
0
  6
CONTINUOUS
 62
4
 10
-124.790552606761650
 20
190.241312119207690
 11
-4.290552606740505
 21
190.241312119207690
  0
LINE
  8
0
  6
CONTINUOUS
 62
4
 10
-124.790552606761650
 20
194.608229524325000
 11
-4.290552606740505
 21
194.608229524325000
  0
LINE
  8
0
  6
CONTINUOUS
 62
4
 10
-124.790552606761650
 20
195.108229524325000
 11
-4.290552606740505
 21
195.108229524325000
  0
LINE
  8
0
  6
CONTINUOUS
 62
4
 10
-124.790552606761650
 20
110.804628572816220
 11
-4.290552606740505
 21
110.804628572816220
  0
LINE
  8
0
  6
CONTINUOUS
 62
4
 10
-124.790552606761650
 20
112.393838365554980
 11
-4.290552606740505
 21
112.393838365554980
  0
LINE
  8
0
  6
CONTINUOUS
 62
4
 10
-124.790552606761650
 20
115.351833973687910
 11
-4.290552606740505
 21
115.351833973687910
  0
LINE
  8
0
  6
CONTINUOUS
 62
4
 10
-124.790552606761650
 20
116.830857127165010
 11
-4.290552606740505
 21
116.830857127165010
  0
LINE
  8
0
  6
CONTINUOUS
 62
4
 10
-124.790552606761650
 20
119.923588118830250
 11
-4.290552606740505
 21
119.923588118830250
  0
LINE
  8
0
  6
CONTINUOUS
 62
4
 10
-124.790552606761420
 20
121.269989844328840
 11
-4.290552606740505
 21
121.269989844328840
  0
LINE
  8
0
  6
CONTINUOUS
 62
4
 10
-124.790552606761420
 20
124.480194867687140
 11
-4.290552606740505
 21
124.480194867687140
  0
LINE
  8
0
  6
CONTINUOUS
 62
4
 10
-124.790552606761420
 20
125.722114732575050
 11
-4.290552606740505
 21
125.722114732575050
  0
LINE
  8
0
  6
CONTINUOUS
 62
4
 10
-124.790552606761650
 20
130.108229524325000
 11
-4.290552606740505
 21
130.108229524325000
  0
LINE
  8
0
  6
CONTINUOUS
 62
3
 10
-4.290552606740505
 20
90.608229524324997
 11
-4.290552606740505
 21
144.108229524325000
  0
LINE
  8
0
  6
CONTINUOUS
 62
3
 10
-124.790552606761650
 20
203.108229524325000
 11
-202.295397555854440
 21
203.108229524325000
  0
LINE
  8
0
  6
CONTINUOUS
 62
3
 10
-214.111072144685810
 20
199.382761636678200
 11
-221.681851341274580
 21
194.081644973105650
  0
LINE
  8
0
  6
CONTINUOUS
 62
3
 10
-222.790552606761650
 20
191.951849657954310
 11
-222.790552606761650
 21
144.108229524325000
  0
ARC
  8
0
  6
CONTINUOUS
 62
3
 10
-220.190552606761740
 20
191.951849657954310
 40
2.600000000000131
 50
125.000000000001180
 51
180.000000000000000
  0
ARC
  8
0
  6
CONTINUOUS
 62
3
 10
-202.295397555854440
 20
182.508229524324970
 40
20.600000000000023
 50
90.000000000000000
 51
124.999999999999600
  0
LINE
  8
0
  6
CONTINUOUS
 62
3
 10
-124.790552606761650
 20
203.108229524325000
 11
-124.790552606761420
 21
144.108229524325000
  0
LINE
  8
0
  6
CONTINUOUS
 62
3
 10
-135.790552606761650
 20
193.252150547050180
 11
-137.790552606761650
 21
191.599508907926750
  0
LINE
  8
0
  6
CONTINUOUS
 62
3
 10
-133.790552606761650
 20
194.427936032672960
 11
-135.790552606761650
 21
193.252150547050180
  0
LINE
  8
0
  6
CONTINUOUS
 62
3
 10
-135.790552606761650
 20
193.252150547050180
 11
-133.790552606761650
 21
191.599508907926750
  0
LINE
  8
0
  6
CONTINUOUS
 62
3
 10
-137.790552606761650
 20
194.427936032672960
 11
-135.790552606761650
 21
193.252150547050180
  0
POLYLINE
  8
0
  6
CONTINUOUS
 62
3
 66
1
 70
1
  0
VERTEX
  8
0
  6
CONTINUOUS
 62
3
 10
-131.090552606761430
 20
191.435560478672530
  0
VERTEX
  8
0
  6
CONTINUOUS
 62
3
 10
-131.180861788866250
 20
192.138517444872890
  0
VERTEX
  8
0
  6
CONTINUOUS
 62
3
 10
-131.448318803958390
 20
192.814460169084980
  0
VERTEX
  8
0
  6
CONTINUOUS
 62
3
 10
-131.882645428939470
 20
193.437412551490380
  0
VERTEX
  8
0
  6
CONTINUOUS
 62
3
 10
-132.467150735184650
 20
193.983434881388970
  0
VERTEX
  8
0
  6
CONTINUOUS
 62
3
 10
-133.179372511569310
 20
194.431543826855600
  0
VERTEX
  8
0
  6
CONTINUOUS
 62
3
 10
-133.991940474645500
 20
194.764518812418340
  0
VERTEX
  8
0
  6
CONTINUOUS
 62
3
 10
-134.873628093285620
 20
194.969563796116600
  0
VERTEX
  8
0
  6
CONTINUOUS
 62
3
 10
-135.790552606761420
 20
195.038799014217370
  0
VERTEX
  8
0
  6
CONTINUOUS
 62
3
 10
-136.707477120237230
 20
194.969563796116600
  0
VERTEX
  8
0
  6
CONTINUOUS
 62
3
 10
-137.589164738877340
 20
194.764518812418340
  0
VERTEX
  8
0
  6
CONTINUOUS
 62
3
 10
-138.401732701953530
 20
194.431543826855600
  0
VERTEX
  8
0
  6
CONTINUOUS
 62
3
 10
-139.113954478338200
 20
193.983434881388970
  0
VERTEX
  8
0
  6
CONTINUOUS
 62
3
 10
-139.698459784583380
 20
193.437412551490380
  0
VERTEX
  8
0
  6
CONTINUOUS
 62
3
 10
-140.132786409564460
 20
192.814460169084980
  0
VERTEX
  8
0
  6
CONTINUOUS
 62
3
 10
-140.400243424656590
 20
192.138517444872890
  0
VERTEX
  8
0
  6
CONTINUOUS
 62
3
 10
-140.490552606761410
 20
191.435560478672530
  0
VERTEX
  8
0
  6
CONTINUOUS
 62
3
 10
-140.400243424656590
 20
190.732603512472170
  0
VERTEX
  8
0
  6
CONTINUOUS
 62
3
 10
-140.132786409564460
 20
190.056660788260070
  0
VERTEX
  8
0
  6
CONTINUOUS
 62
3
 10
-139.698459784583380
 20
189.433708405854670
  0
VERTEX
  8
0
  6
CONTINUOUS
 62
3
 10
-139.113954478338170
 20
188.887686075956080
  0
VERTEX
  8
0
  6
CONTINUOUS
 62
3
 10
-138.401732701953530
 20
188.439577130489450
  0
VERTEX
  8
0
  6
CONTINUOUS
 62
3
 10
-137.589164738877340
 20
188.106602144926710
  0
VERTEX
  8
0
  6
CONTINUOUS
 62
3
 10
-136.707477120237230
 20
187.901557161228450
  0
VERTEX
  8
0
  6
CONTINUOUS
 62
3
 10
-135.790552606761420
 20
187.832321943127680
  0
VERTEX
  8
0
  6
CONTINUOUS
 62
3
 10
-134.873628093285620
 20
187.901557161228450
  0
VERTEX
  8
0
  6
CONTINUOUS
 62
3
 10
-133.991940474645500
 20
188.106602144926710
  0
VERTEX
  8
0
  6
CONTINUOUS
 62
3
 10
-133.179372511569310
 20
188.439577130489450
  0
VERTEX
  8
0
  6
CONTINUOUS
 62
3
 10
-132.467150735184670
 20
188.887686075956080
  0
VERTEX
  8
0
  6
CONTINUOUS
 62
3
 10
-131.882645428939470
 20
189.433708405854670
  0
VERTEX
  8
0
  6
CONTINUOUS
 62
3
 10
-131.448318803958390
 20
190.056660788260070
  0
VERTEX
  8
0
  6
CONTINUOUS
 62
3
 10
-131.180861788866250
 20
190.732603512472170
  0
SEQEND
  8
0
  6
CONTINUOUS
 62
3
  0
LINE
  8
0
  6
CONTINUOUS
 62
3
 10
-132.590552606740460
 20
86.608229524324997
 11
-42.590552606740459
 21
86.608229524324997
  0
LINE
  8
0
  6
CONTINUOUS
 62
3
 10
-132.590552606740460
 20
89.659899622482044
 11
-132.590552606740460
 21
53.608229524324997
  0
LINE
  8
0
  6
CONTINUOUS
 62
3
 10
-134.790552606761650
 20
85.108229524324997
 11
-134.790552606761650
 21
86.768533163516054
  0
LINE
  8
0
  6
CONTINUOUS
 62
3
 10
-134.790552606761650
 20
85.108229524324997
 11
-202.295397555854440
 21
85.108229524324997
  0
ARC
  8
0
  6
CONTINUOUS
 62
3
 10
-131.790552606761650
 20
86.768533163516054
 40
3.000000000000000
 50
90.000000000000000
 51
180.000000000000000
  0
LINE
  8
0
  6
CONTINUOUS
 62
3
 10
-131.790552606761650
 20
89.768533163516054
 11
-127.790552606761650
 21
89.768533163516054
  0
ARC
  8
0
  6
CONTINUOUS
 62
3
 10
-127.790552606761650
 20
92.768533163516054
 40
3.000000000000000
 50
270.000000000000000
 51
359.999999999997780
  0
LINE
  8
0
  6
CONTINUOUS
 62
3
 10
-124.790552606761650
 20
92.768533163515940
 11
-124.790552606761420
 21
144.108229524325000
  0
LINE
  8
0
  6
CONTINUOUS
 62
3
 10
-135.790552606761650
 20
94.964308501599930
 11
-137.790552606761650
 21
96.616950140723247
  0
LINE
  8
0
  6
CONTINUOUS
 62
3
 10
-133.790552606761650
 20
93.788523015977034
 11
-135.790552606761650
 21
94.964308501599930
  0
LINE
  8
0
  6
CONTINUOUS
 62
3
 10
-135.790552606761650
 20
94.964308501599930
 11
-133.790552606761650
 21
96.616950140723247
  0
LINE
  8
0
  6
CONTINUOUS
 62
3
 10
-137.790552606761650
 20
93.788523015977034
 11
-135.790552606761650
 21
94.964308501599930
  0
POLYLINE
  8
0
  6
CONTINUOUS
 62
3
 66
1
 70
1
  0
VERTEX
  8
0
  6
CONTINUOUS
 62
3
 10
-131.090552606761430
 20
96.780898569977467
  0
VERTEX
  8
0
  6
CONTINUOUS
 62
3
 10
-131.180861788866250
 20
97.483855536177828
  0
VERTEX
  8
0
  6
CONTINUOUS
 62
3
 10
-131.448318803958390
 20
98.159798260389920
  0
VERTEX
  8
0
  6
CONTINUOUS
 62
3
 10
-131.882645428939470
 20
98.782750642795321
  0
VERTEX
  8
0
  6
CONTINUOUS
 62
3
 10
-132.467150735184650
 20
99.328772972693898
  0
VERTEX
  8
0
  6
CONTINUOUS
 62
3
 10
-133.179372511569310
 20
99.776881918160512
  0
VERTEX
  8
0
  6
CONTINUOUS
 62
3
 10
-133.991940474645500
 20
100.109856903723280
  0
VERTEX
  8
0
  6
CONTINUOUS
 62
3
 10
-134.873628093285620
 20
100.314901887421520
  0
VERTEX
  8
0
  6
CONTINUOUS
 62
3
 10
-135.790552606761420
 20
100.384137105522290
  0
VERTEX
  8
0
  6
CONTINUOUS
 62
3
 10
-136.707477120237230
 20
100.314901887421520
  0
VERTEX
  8
0
  6
CONTINUOUS
 62
3
 10
-137.589164738877340
 20
100.109856903723280
  0
VERTEX
  8
0
  6
CONTINUOUS
 62
3
 10
-138.401732701953530
 20
99.776881918160512
  0
VERTEX
  8
0
  6
CONTINUOUS
 62
3
 10
-139.113954478338200
 20
99.328772972693898
  0
VERTEX
  8
0
  6
CONTINUOUS
 62
3
 10
-139.698459784583380
 20
98.782750642795321
  0
VERTEX
  8
0
  6
CONTINUOUS
 62
3
 10
-140.132786409564460
 20
98.159798260389920
  0
VERTEX
  8
0
  6
CONTINUOUS
 62
3
 10
-140.400243424656590
 20
97.483855536177828
  0
VERTEX
  8
0
  6
CONTINUOUS
 62
3
 10
-140.490552606761410
 20
96.780898569977467
  0
VERTEX
  8
0
  6
CONTINUOUS
 62
3
 10
-140.400243424656590
 20
96.077941603777106
  0
VERTEX
  8
0
  6
CONTINUOUS
 62
3
 10
-140.132786409564460
 20
95.401998879565014
  0
VERTEX
  8
0
  6
CONTINUOUS
 62
3
 10
-139.698459784583380
 20
94.779046497159612
  0
VERTEX
  8
0
  6
CONTINUOUS
 62
3
 10
-139.113954478338170
 20
94.233024167261036
  0
VERTEX
  8
0
  6
CONTINUOUS
 62
3
 10
-138.401732701953530
 20
93.784915221794421
  0
VERTEX
  8
0
  6
CONTINUOUS
 62
3
 10
-137.589164738877340
 20
93.451940236231650
  0
VERTEX
  8
0
  6
CONTINUOUS
 62
3
 10
-136.707477120237230
 20
93.246895252533406
  0
VERTEX
  8
0
  6
CONTINUOUS
 62
3
 10
-135.790552606761420
 20
93.177660034432634
  0
VERTEX
  8
0
  6
CONTINUOUS
 62
3
 10
-134.873628093285620
 20
93.246895252533406
  0
VERTEX
  8
0
  6
CONTINUOUS
 62
3
 10
-133.991940474645500
 20
93.451940236231650
  0
VERTEX
  8
0
  6
CONTINUOUS
 62
3
 10
-133.179372511569310
 20
93.784915221794421
  0
VERTEX
  8
0
  6
CONTINUOUS
 62
3
 10
-132.467150735184670
 20
94.233024167261036
  0
VERTEX
  8
0
  6
CONTINUOUS
 62
3
 10
-131.882645428939470
 20
94.779046497159612
  0
VERTEX
  8
0
  6
CONTINUOUS
 62
3
 10
-131.448318803958390
 20
95.401998879565014
  0
VERTEX
  8
0
  6
CONTINUOUS
 62
3
 10
-131.180861788866250
 20
96.077941603777106
  0
SEQEND
  8
0
  6
CONTINUOUS
 62
3
  0
LINE
  8
0
  6
CONTINUOUS
 62
3
 10
-42.590552606740459
 20
91.608229524324997
 11
-124.790552606761650
 21
91.608229524324997
  0
LINE
  8
0
  6
CONTINUOUS
 62
3
 10
-125.590552606740450
 20
52.608229524324997
 11
-125.590552606740450
 21
52.108229524324997
  0
LINE
  8
0
  6
CONTINUOUS
 62
3
 10
-117.590552606740450
 20
52.608229524324997
 11
-117.590552606740450
 21
52.108229524324997
  0
LINE
  8
0
  6
CONTINUOUS
 62
3
 10
-49.590552606740459
 20
52.608229524324997
 11
-49.590552606740459
 21
52.108229524324997
  0
LINE
  8
0
  6
CONTINUOUS
 62
3
 10
-57.590552606740459
 20
52.608229524324997
 11
-57.590552606740459
 21
52.108229524324997
  0
LINE
  8
0
  6
CONTINUOUS
 62
3
 10
-57.590552606740459
 20
52.108229524324997
 11
-49.590552606740459
 21
52.108229524324997
  0
LINE
  8
0
  6
CONTINUOUS
 62
3
 10
-125.590552606740450
 20
52.108229524324997
 11
-117.590552606740450
 21
52.108229524324997
  0
ARC
  8
0
  6
CONTINUOUS
 62
3
 10
-131.590552606740460
 20
53.608229524324997
 40
1.000000000000000
 50
180.000000000000000
 51
270.000000000000000
  0
LINE
  8
0
  6
CONTINUOUS
 62
3
 10
-131.590552606740460
 20
52.608229524324997
 11
-43.590552606740459
 21
52.608229524324997
  0
ARC
  8
0
  6
CONTINUOUS
 62
3
 10
-43.590552606740459
 20
53.608229524324997
 40
1.000000000000000
 50
270.000000000000000
 51
0.000000000000000
  0
LINE
  8
0
  6
CONTINUOUS
 62
3
 10
-42.590552606740459
 20
91.608229524324997
 11
-42.590552606740459
 21
53.608229524324997
  0
LINE
  8
0
  6
CONTINUOUS
 62
3
 10
-4.290552606740505
 20
90.608229524324997
 11
-42.590552606740459
 21
90.608229524324997
  0
LINE
  8
0
  6
CONTINUOUS
 62
4
 10
-124.790552606761650
 20
93.108229524324997
 11
-4.290552606740505
 21
93.108229524324997
  0
LINE
  8
0
  6
CONTINUOUS
 62
4
 10
-124.790552606761650
 20
93.608229524324997
 11
-4.290552606740505
 21
93.608229524324997
  0
LINE
  8
0
  6
CONTINUOUS
 62
4
 10
-124.790552606761650
 20
97.975146929442303
 11
-4.290552606740505
 21
97.975146929442303
  0
LINE
  8
0
  6
CONTINUOUS
 62
4
 10
-124.790552606761650
 20
103.066315753985230
 11
-4.290552606740505
 21
103.066315753985230
  0
LINE
  8
0
  6
CONTINUOUS
 62
3
 10
-222.790552606761650
 20
96.264609390695682
 11
-222.790552606761650
 21
144.108229524325000
  0
LINE
  8
0
  6
CONTINUOUS
 62
3
 10
-214.111072144685810
 20
88.833697411971798
 11
-221.681851341274580
 21
94.134814075544341
  0
ARC
  8
0
  6
CONTINUOUS
 62
3
 10
-220.190552606761740
 20
96.264609390695682
 40
2.599999999999909
 50
180.000000000000000
 51
234.999999999998810
  0
ARC
  8
0
  6
CONTINUOUS
 62
3
 10
-202.295397555854440
 20
105.708229524325020
 40
20.599999999999891
 50
235.000000000000400
 51
270.000000000000000
  0
LINE
  8
0
  6
CONTINUOUS
 62
3
 10
-4.290552606740505
 20
197.608229524325000
 11
-4.290552606740505
 21
144.108229524325000
  0
ARC
  8
0
  6
CONTINUOUS
 62
3
 10
58.209447393263815
 20
68.840280331894519
 40
2.000000000000164
 50
299.999999999997270
 51
0.000000000000000
  0
ARC
  8
0
  6
CONTINUOUS
 62
3
 10
60.209447393264043
 20
65.376178716756385
 40
2.000000000000278
 50
120.000000000002910
 51
180.000000000000000
  0
LINE
  8
0
  6
CONTINUOUS
 62
3
 10
27.709447393260859
 20
104.514069189215660
 11
27.709447393260859
 21
104.863406690750700
  0
LINE
  8
0
  6
CONTINUOUS
 62
3
 10
27.709447393260859
 20
183.702389859434330
 11
27.709447393260859
 21
183.353052357899290
  0
LINE
  8
0
  6
CONTINUOUS
 62
3
 10
72.709447393259040
 20
50.108229524325907
 11
72.709447393259040
 21
238.108229524324540
  0
LINE
  8
0
  6
CONTINUOUS
 62
3
 10
72.709447393259040
 20
50.108229524325907
 11
153.814145883366510
 21
47.275991043655722
  0
LINE
  8
0
  6
CONTINUOUS
 62
3
 10
72.709447393259040
 20
238.108229524324090
 11
153.814145883366510
 21
240.940468004994270
  0
LINE
  8
0
  6
CONTINUOUS
 62
3
 10
72.209447393259040
 20
144.108229524324540
 11
72.209447393259040
 21
50.108229524325907
  0
ARC
  8
0
  6
CONTINUOUS
 62
3
 10
62.209447393259040
 20
52.108229524325907
 40
2.000000000000000
 50
180.000000000000000
 51
270.000000000000000
  0
ARC
  8
0
  6
CONTINUOUS
 62
3
 10
52.209447393264952
 20
126.608229524325900
 40
3.000000000000000
 50
180.000000000000000
 51
270.000000000000000
  0
LINE
  8
0
  6
CONTINUOUS
 62
3
 10
57.209447393259040
 20
123.608229524325900
 11
52.209447393264952
 21
123.608229524325900
  0
ARC
  8
0
  6
CONTINUOUS
 62
3
 10
57.209447393259040
 20
120.608229524325900
 40
3.000000000000000
 50
0.000000000000000
 51
90.000000000000000
  0
LINE
  8
0
  6
CONTINUOUS
 62
3
 10
44.709447393264043
 20
144.108229524325910
 11
44.709447393264043
 21
123.608229524325900
  0
LINE
  8
0
  6
CONTINUOUS
 62
3
 10
49.209447393264952
 20
144.108229524325450
 11
49.209447393264952
 21
123.608229524325900
  0
LINE
  8
0
  6
CONTINUOUS
 62
3
 10
49.209447393264952
 20
123.608229524325900
 11
44.709447393264043
 21
123.608229524325900
  0
LINE
  8
0
  6
CONTINUOUS
 62
3
 10
37.709447393260859
 20
148.108229524325910
 11
37.709447393260859
 21
140.108229524325910
  0
ARC
  8
0
  6
CONTINUOUS
 62
3
 10
60.209447393259040
 20
52.108229524325907
 40
2.000000000000000
 50
180.000000000000000
 51
270.000000000000000
  0
LINE
  8
0
  6
CONTINUOUS
 62
3
 10
52.209448346933357
 20
65.742105371188700
 11
52.209448346933357
 21
54.474159127902567
  0
LINE
  8
0
  6
CONTINUOUS
 62
3
 10
58.633994820963778
 20
66.608229524325907
 11
52.709448346933357
 21
66.608229524325907
  0
LINE
  8
0
  6
CONTINUOUS
 62
3
 10
58.209447393259040
 20
53.608229524325907
 11
52.709449300607673
 21
53.608229524325907
  0
LINE
  8
0
  6
CONTINUOUS
 62
3
 10
52.709448984791095
 20
66.608229548393865
 11
52.209448958644032
 21
65.742105408260159
  0
LINE
  8
0
  6
CONTINUOUS
 62
3
 10
52.709449611418393
 20
53.608229547026895
 11
52.209448661225167
 21
54.474159118095486
  0
LINE
  8
0
  6
CONTINUOUS
 62
3
 10
52.709448346933357
 20
66.608229524325907
 11
52.709448346933357
 21
53.608229524325907
  0
LINE
  8
0
  6
CONTINUOUS
 62
3
 10
58.209447393259040
 20
65.376178716756385
 11
58.209447393259040
 21
52.108229524325907
  0
LINE
  8
0
  6
CONTINUOUS
 62
3
 10
60.209447393259040
 20
120.608229524325900
 11
60.209447393259040
 21
52.108229524325907
  0
ARC
  8
0
  6
CONTINUOUS
 62
3
 10
57.209447393259040
 20
80.582160790313083
 40
3.000000000000000
 50
0.000000000000000
 51
86.999999999994344
  0
LINE
  8
0
  6
CONTINUOUS
 62
3
 10
37.709447393260859
 20
84.608229524325907
 11
57.366455261988165
 21
83.578049394576738
  0
LINE
  8
0
  6
CONTINUOUS
 62
3
 10
72.209447393259040
 20
144.108229524325000
 11
72.209447393264952
 21
238.108229524323630
  0
ARC
  8
0
  6
CONTINUOUS
 62
3
 10
62.209447393264952
 20
236.108229524324540
 40
2.000000000000000
 50
90.000000000000000
 51
180.000000000000000
  0
ARC
  8
0
  6
CONTINUOUS
 62
3
 10
52.209447393266089
 20
161.608229524325000
 40
3.000000000000000
 50
90.000000000000000
 51
179.999999999991330
  0
LINE
  8
0
  6
CONTINUOUS
 62
3
 10
57.209447393260177
 20
164.608229524325000
 11
52.209447393266089
 21
164.608229524325000
  0
ARC
  8
0
  6
CONTINUOUS
 62
3
 10
57.209447393260405
 20
167.608229524325000
 40
3.000000000000000
 50
270.000000000000000
 51
359.999999999991300
  0
LINE
  8
0
  6
CONTINUOUS
 62
3
 10
44.709447393264043
 20
144.108229524325450
 11
44.709447393265179
 21
164.608229524325450
  0
LINE
  8
0
  6
CONTINUOUS
 62
3
 10
49.209447393264952
 20
144.108229524325910
 11
49.209447393266089
 21
164.608229524325450
  0
LINE
  8
0
  6
CONTINUOUS
 62
3
 10
49.209447393266089
 20
164.608229524325450
 11
44.709447393265179
 21
164.608229524325450
  0
ARC
  8
0
  6
CONTINUOUS
 62
3
 10
58.209447393263815
 20
219.376178716755480
 40
2.000000000000000
 50
0.000000000000000
 51
60.000000000002721
  0
ARC
  8
0
  6
CONTINUOUS
 62
3
 10
60.209447393264043
 20
222.840280331893610
 40
2.000000000000000
 50
180.000000000000000
 51
239.999999999997070
  0
ARC
  8
0
  6
CONTINUOUS
 62
3
 10
60.209447393264952
 20
236.108229524324540
 40
2.000000000000000
 50
90.000000000000000
 51
180.000000000000000
  0
LINE
  8
0
  6
CONTINUOUS
 62
3
 10
52.209448346938359
 20
222.474353677462660
 11
52.209448346939041
 21
233.742299920748790
  0
LINE
  8
0
  6
CONTINUOUS
 62
3
 10
58.633994820963323
 20
221.608229524324770
 11
52.709448346938359
 21
221.608229524325000
  0
LINE
  8
0
  6
CONTINUOUS
 62
3
 10
58.209447393264725
 20
234.608229524324770
 11
52.709449300613358
 21
234.608229524325000
  0
LINE
  8
0
  6
CONTINUOUS
 62
3
 10
52.709448984796097
 20
221.608229500257040
 11
52.209448958649034
 21
222.474353640391200
  0
LINE
  8
0
  6
CONTINUOUS
 62
3
 10
52.709449611424077
 20
234.608229501624010
 11
52.209448661230851
 21
233.742299930555870
  0
LINE
  8
0
  6
CONTINUOUS
 62
3
 10
52.709448346938359
 20
221.608229524325000
 11
52.709448346939041
 21
234.608229524325000
  0
LINE
  8
0
  6
CONTINUOUS
 62
3
 10
58.209447393263929
 20
222.840280331893840
 11
58.209447393264952
 21
236.108229524324540
  0
LINE
  8
0
  6
CONTINUOUS
 62
3
 10
60.209447393260405
 20
167.608229524325000
 11
60.209447393264952
 21
236.108229524324540
  0
ARC
  8
0
  6
CONTINUOUS
 62
3
 10
57.209447393263133
 20
207.634298258337820
 40
2.999999999999937
 50
273.000000000001360
 51
359.999999999991300
  0
LINE
  8
0
  6
CONTINUOUS
 62
3
 10
37.709447393264497
 20
203.608229524325910
 11
57.366455261992030
 21
204.638409654074170
  0
LINE
  8
0
  6
DASHDOT
 62
4
 10
-251.544678857841800
 20
144.108229524325000
 11
253.869273480167690
 21
144.108229524325000
  0
LINE
  8
0
  6
CONTINUOUS
 62
3
 10
72.709447393259040
 20
238.108229524323630
 11
60.209447393264952
 21
238.108229524324540
  0
LINE
  8
0
  6
CONTINUOUS
 62
3
 10
72.709447393259040
 20
50.108229524325907
 11
60.209447393259040
 21
50.108229524325907
  0
POINT
  8
0
  6
CONTINUOUS
 62
3
 10
31.709447393260859
 20
99.914055700166045
  0
LINE
  8
0
  6
CONTINUOUS
 62
3
 10
31.709429559573834
 20
95.314067184186570
 11
28.709432653439251
 21
95.314079160571424
  0
LINE
  8
0
  6
CONTINUOUS
 62
3
 10
28.709451599994452
 20
95.314093894630560
 11
28.209457882470531
 21
96.014096769075621
  0
LINE
  8
0
  6
CONTINUOUS
 62
3
 10
28.209437188953359
 20
96.014083077962795
 11
28.209468660194204
 21
103.814068009908590
  0
LINE
  8
0
  6
CONTINUOUS
 62
3
 10
28.209485104684006
 20
103.814056894377180
 11
28.709485619445957
 21
104.514054210467740
  0
LINE
  8
0
  6
CONTINUOUS
 62
3
 10
28.709469381022416
 20
104.514070386767710
 11
31.709466752841479
 21
104.514058410380980
  0
LINE
  8
0
  6
CONTINUOUS
 62
3
 10
28.709441512278829
 20
97.614076140573189
 11
31.709440558604513
 21
97.614063742809208
  0
LINE
  8
0
  6
CONTINUOUS
 62
3
 10
28.709460236078996
 20
102.214069560221700
 11
31.709457375056047
 21
102.214060023483080
  0
ARC
  8
0
  6
CONTINUOUS
 62
3
 10
29.779433545909740
 20
96.464070196015655
 40
1.569999694824249
 50
132.899744492602200
 51
179.999745461768300
  0
ARC
  8
0
  6
CONTINUOUS
 62
3
 10
29.779461202464915
 20
103.364067907197290
 40
1.569999694824250
 50
179.999745461768300
 51
227.099746430934860
  0
ARC
  8
0
  6
CONTINUOUS
 62
3
 10
33.749448118053294
 20
99.914052651676229
 40
5.539999008178769
 50
155.470186567177730
 51
204.529249714844810
  0
LINE
  8
0
  6
CONTINUOUS
 62
3
 10
31.709429559554962
 20
95.314062481617299
 11
31.709466752845572
 21
104.514059429859480
  0
POINT
  8
0
  6
CONTINUOUS
 62
3
 10
31.709447393260859
 20
188.302403348483950
  0
LINE
  8
0
  6
CONTINUOUS
 62
3
 10
31.709429559573834
 20
192.902391864463480
 11
28.709432653439251
 21
192.902379888078600
  0
LINE
  8
0
  6
CONTINUOUS
 62
3
 10
28.709451599994452
 20
192.902365154019440
 11
28.209457882470531
 21
192.202362279574400
  0
LINE
  8
0
  6
CONTINUOUS
 62
3
 10
28.209437188953359
 20
192.202375970687230
 11
28.209468660194204
 21
184.402391038741430
  0
LINE
  8
0
  6
CONTINUOUS
 62
3
 10
28.209485104684006
 20
184.402402154272810
 11
28.709485619445957
 21
183.702404838182250
  0
LINE
  8
0
  6
CONTINUOUS
 62
3
 10
28.709469381022416
 20
183.702388661882310
 11
31.709466752841479
 21
183.702400638269130
  0
LINE
  8
0
  6
CONTINUOUS
 62
3
 10
28.709441512278829
 20
190.602382908076780
 11
31.709440558604513
 21
190.602395305840790
  0
LINE
  8
0
  6
CONTINUOUS
 62
3
 10
28.709460236078996
 20
186.002389488428260
 11
31.709457375056047
 21
186.002399025166880
  0
ARC
  8
0
  6
CONTINUOUS
 62
3
 10
29.779433545909740
 20
191.752388852634340
 40
1.569999694824250
 50
180.000254538232720
 51
227.100255507397800
  0
ARC
  8
0
  6
CONTINUOUS
 62
3
 10
29.779461202464915
 20
184.852391141452700
 40
1.569999694824235
 50
132.900253569064430
 51
180.000254538232720
  0
ARC
  8
0
  6
CONTINUOUS
 62
3
 10
33.749448118053294
 20
188.302406396973770
 40
5.539999008178689
 50
155.470750285155190
 51
204.529813432822010
  0
LINE
  8
0
  6
CONTINUOUS
 62
3
 10
31.709429559554962
 20
192.902396567032670
 11
31.709466752845572
 21
183.702399618790480
  0
ARC
  8
0
  6
CONTINUOUS
 62
3
 10
13.709447393255402
 20
160.099502528038780
 40
3.000000000000000
 50
180.000000000000000
 51
270.000000000000000
  0
LINE
  8
0
  6
CONTINUOUS
 62
3
 10
10.709447393255402
 20
192.599502528038780
 11
10.709447393255402
 21
144.099502528038780
  0
ARC
  8
0
  6
CONTINUOUS
 62
3
 10
5.709447393255402
 20
192.599502528038780
 40
5.000000000000000
 50
0.000000000000000
 51
90.000000000000000
  0
ARC
  8
0
  6
CONTINUOUS
 62
3
 10
13.709447393220842
 20
177.530079451321630
 40
3.000000000000000
 50
180.000000000000000
 51
270.000000000000000
  0
LINE
  8
0
  6
CONTINUOUS
 62
3
 10
27.709447393255857
 20
174.530079451321630
 11
13.709447393220842
 21
174.530079451321630
  0
LINE
  8
0
  6
CONTINUOUS
 62
3
 10
-4.290552606748236
 20
197.599502528038780
 11
24.709447393255857
 21
197.599502528038780
  0
LINE
  8
0
  6
CONTINUOUS
 62
3
 10
13.709447393255402
 20
131.099502528038780
 11
32.709447393255402
 21
131.099502528038780
  0
LINE
  8
0
  6
CONTINUOUS
 62
3
 10
13.709447393255402
 20
157.099502528038780
 11
32.709447393255402
 21
157.099502528038780
  0
LINE
  8
0
  6
CONTINUOUS
 62
3
 10
-4.290552606740505
 20
157.099502528038780
 11
10.709447393255402
 21
157.099502528038780
  0
ARC
  8
0
  6
CONTINUOUS
 62
3
 10
32.709447393255402
 20
154.099502528038780
 40
3.000000000000000
 50
0.000000000000000
 51
90.000000000000000
  0
LINE
  8
0
  6
DASHDOT
 62
4
 10
21.709447393255402
 20
132.679349428408160
 11
21.709447393255402
 21
156.722463802006810
  0
CIRCLE
  8
0
  6
CONTINUOUS
 62
3
 10
21.709447393255402
 20
144.099502528038780
 40
8.462876856846833
  0
ARC
  8
0
  6
CONTINUOUS
 62
3
 10
13.709447393255402
 20
128.099502528038780
 40
3.000000000000000
 50
90.000000000000000
 51
180.000000000000000
  0
LINE
  8
0
  6
CONTINUOUS
 62
3
 10
-4.290552606740505
 20
131.099502528038780
 11
10.709447393255402
 21
131.099502528038780
  0
LINE
  8
0
  6
CONTINUOUS
 62
3
 10
10.709447393255402
 20
95.599502528038784
 11
10.709447393255402
 21
144.099502528038780
  0
ARC
  8
0
  6
CONTINUOUS
 62
3
 10
32.709447393255402
 20
134.099502528038780
 40
3.000000000000000
 50
270.000000000000000
 51
0.000000000000000
  0
LINE
  8
0
  6
CONTINUOUS
 62
3
 10
27.709447393255857
 20
200.599502528038780
 11
27.709447393255857
 21
157.099502528038780
  0
LINE
  8
0
  6
CONTINUOUS
 62
3
 10
27.709447393255857
 20
87.599502528038784
 11
27.709447393255857
 21
131.099502528038780
  0
ARC
  8
0
  6
CONTINUOUS
 62
3
 10
29.709447393255402
 20
176.530079451321630
 40
2.000000000000000
 50
270.000000000000000
 51
0.000000000000000
  0
ARC
  8
0
  6
CONTINUOUS
 62
3
 10
29.709447393255857
 20
172.530079451321630
 40
2.000000000000000
 50
90.000000000000000
 51
180.000000000000000
  0
LINE
  8
0
  6
CONTINUOUS
 62
3
 10
31.709447393255402
 20
201.599502528038780
 11
31.709447393255402
 21
176.530079451321630
  0
ARC
  8
0
  6
CONTINUOUS
 62
3
 10
33.709447393255402
 20
201.599502528038780
 40
2.000000000000000
 50
90.000000000000000
 51
180.000000000000000
  0
ARC
  8
0
  6
CONTINUOUS
 62
3
 10
24.709447393255857
 20
200.599502528038780
 40
3.000000000000000
 50
270.000000000000000
 51
0.000000000000000
  0
LINE
  8
0
  6
CONTINUOUS
 62
3
 10
30.709447393255857
 20
203.599502528038780
 11
37.709447393255402
 21
203.599502528038780
  0
ARC
  8
0
  6
CONTINUOUS
 62
3
 10
30.709447393255857
 20
200.599502528038780
 40
3.000000000000000
 50
90.000000000000000
 51
180.000000000000000
  0
LINE
  8
0
  6
CONTINUOUS
 62
3
 10
37.709447393256312
 20
161.099502528040150
 11
37.709447393259040
 21
203.599502528040150
  0
LINE
  8
0
  6
CONTINUOUS
 62
3
 10
37.709447393255402
 20
148.099502528040150
 11
37.709447393255402
 21
140.099502528040150
  0
LINE
  8
0
  6
CONTINUOUS
 62
3
 10
37.709447393256312
 20
127.099502528037410
 11
37.709447393259040
 21
84.599502528037419
  0
LINE
  8
0
  6
CONTINUOUS
 62
3
 10
27.709447393255857
 20
113.668925604755940
 11
13.709447393220842
 21
113.668925604755940
  0
ARC
  8
0
  6
CONTINUOUS
 62
3
 10
29.709447393255857
 20
115.668925604755940
 40
2.000000000000000
 50
180.000000000000000
 51
270.000000000000000
  0
ARC
  8
0
  6
CONTINUOUS
 62
3
 10
29.709447393255402
 20
111.668925604755940
 40
2.000000000000000
 50
0.000000000000000
 51
90.000000000000000
  0
LINE
  8
0
  6
CONTINUOUS
 62
3
 10
31.709447393255402
 20
86.599502528038784
 11
31.709447393255402
 21
111.668925604755940
  0
ARC
  8
0
  6
CONTINUOUS
 62
3
 10
5.709447393255402
 20
95.599502528038784
 40
5.000000000000000
 50
270.000000000000000
 51
0.000000000000000
  0
ARC
  8
0
  6
CONTINUOUS
 62
3
 10
13.709447393220842
 20
110.668925604755940
 40
3.000000000000000
 50
90.000000000000000
 51
180.000000000000000
  0
LINE
  8
0
  6
CONTINUOUS
 62
3
 10
-4.290552606748236
 20
90.599502528038784
 11
24.709447393255857
 21
90.599502528038784
  0
ARC
  8
0
  6
CONTINUOUS
 62
3
 10
24.709447393255857
 20
87.599502528038784
 40
3.000000000000000
 50
0.000000000000000
 51
90.000000000000000
  0
ARC
  8
0
  6
CONTINUOUS
 62
3
 10
30.709447393255857
 20
87.599502528038784
 40
3.000000000000000
 50
180.000000000000000
 51
270.000000000000000
  0
ARC
  8
0
  6
CONTINUOUS
 62
3
 10
33.709447393255402
 20
86.599502528038784
 40
2.000000000000000
 50
180.000000000000000
 51
270.000000000000000
  0
LINE
  8
0
  6
CONTINUOUS
 62
3
 10
30.709447393255857
 20
84.599502528038784
 11
37.709447393255402
 21
84.599502528038784
  0
LINE
  8
0
  6
CONTINUOUS
 62
3
 10
35.709447393255402
 20
134.099502528038780
 11
35.709447393255402
 21
154.099502528038780
  0
LINE
  8
0
  6
DASHDOT
 62
4
 10
188.345956753100550
 20
243.103178890441540
 11
149.349964563918260
 21
243.103178890441540
  0
LINE
  8
0
  6
DASHDOT
 62
4
 10
188.345956753100550
 20
45.113280158207999
 11
149.349964563918260
 21
45.113280158207999
  0
LINE
  8
0
  6
CONTINUOUS
 62
3
 10
172.709447393259270
 20
77.659656205011288
 11
168.709447393259040
 21
77.659656205011288
  0
LINE
  8
0
  6
CONTINUOUS
 62
3
 10
172.709447393259270
 20
52.821432959921822
 11
168.709447393259040
 21
52.821432959921822
  0
ARC
  8
0
  6
CONTINUOUS
 62
3
 10
168.709447393259040
 20
55.821432959921822
 40
3.000000000000000
 50
180.000000000000000
 51
270.000000000000000
  0
LINE
  8
0
  6
CONTINUOUS
 62
3
 10
165.709447393259040
 20
144.108229524325000
 11
165.709447393259040
 21
55.821432959921822
  0
ARC
  8
0
  6
CONTINUOUS
 62
3
 10
168.709447393259040
 20
80.659656205011288
 40
3.000000000000000
 50
180.000000000000000
 51
270.000000000000000
  0
LINE
  8
0
  6
CONTINUOUS
 62
3
 10
172.709447393259270
 20
210.556802843638710
 11
168.709447393259040
 21
210.556802843638710
  0
LINE
  8
0
  6
CONTINUOUS
 62
3
 10
172.709447393259270
 20
235.395026088728170
 11
168.709447393259040
 21
235.395026088728170
  0
ARC
  8
0
  6
CONTINUOUS
 62
3
 10
168.709447393259040
 20
232.395026088728170
 40
3.000000000000000
 50
90.000000000000000
 51
180.000000000000000
  0
LINE
  8
0
  6
CONTINUOUS
 62
3
 10
165.709447393259040
 20
144.108229524325000
 11
165.709447393259040
 21
232.395026088728170
  0
ARC
  8
0
  6
CONTINUOUS
 62
3
 10
168.709447393259040
 20
207.556802843638710
 40
3.000000000000000
 50
90.000000000000000
 51
180.000000000000000
  0
LINE
  8
0
  6
CONTINUOUS
 62
3
 10
172.709447393259040
 20
31.608229524324997
 11
158.709447393259040
 21
31.608229524324997
  0
LINE
  8
0
  6
CONTINUOUS
 62
3
 10
156.709447393259040
 20
33.608229524324997
 11
156.709447393259040
 21
254.608229524325000
  0
ARC
  8
0
  6
CONTINUOUS
 62
3
 10
158.709447393259040
 20
33.608229524324997
 40
2.000000000000000
 50
180.000000000000000
 51
270.000000000000000
  0
LINE
  8
0
  6
CONTINUOUS
 62
3
 10
176.709447393259040
 20
144.108229524325000
 11
176.709447393259040
 21
248.108229524325000
  0
ARC
  8
0
  6
CONTINUOUS
 62
3
 10
175.709447393259040
 20
189.261335824180150
 40
3.000000000000000
 50
0.000000000000000
 51
70.528779365509465
  0
ARC
  8
0
  6
CONTINUOUS
 62
3
 10
178.709447393259040
 20
93.758980607233752
 40
2.999999999999984
 50
120.000187270170780
 51
131.810314895779530
  0
LINE
  8
0
  6
CONTINUOUS
 62
3
 10
172.709447393259040
 20
144.108229524325000
 11
172.709447393259040
 21
31.608229524324543
  0
LINE
  8
0
  6
CONTINUOUS
 62
3
 10
176.709447393259040
 20
144.108229524325000
 11
176.709447393259040
 21
40.108229524324997
  0
LINE
  8
0
  6
CONTINUOUS
 62
3
 10
178.709447393259040
 20
144.108229524325000
 11
178.709447393259040
 21
98.955123224469389
  0
LINE
  8
0
  6
CONTINUOUS
 62
3
 10
172.709447393259270
 20
144.108229524325000
 11
172.709447393259040
 21
256.608229524325000
  0
LINE
  8
0
  6
CONTINUOUS
 62
3
 10
178.709447393259040
 20
144.108229524325000
 11
178.709447393259040
 21
189.261335824180150
  0
ARC
  8
0
  6
CONTINUOUS
 62
3
 10
158.709447393259040
 20
254.608229524325000
 40
2.000000000000000
 50
90.000000000000000
 51
180.000000000000000
  0
LINE
  8
0
  6
CONTINUOUS
 62
3
 10
158.709447393259040
 20
256.608229524325000
 11
172.709447393259040
 21
256.608229524325000
  0
ARC
  8
0
  6
CONTINUOUS
 62
3
 10
179.709447393259040
 20
178.608229524325000
 40
1.000000000000000
 50
180.000000000000000
 51
270.000000000000000
  0
ARC
  8
0
  6
CONTINUOUS
 62
3
 10
179.709447393259040
 20
109.608229524324990
 40
1.000000000000000
 50
90.000000000000000
 51
180.000000000000000
  0
ARC
  8
0
  6
CONTINUOUS
 62
3
 10
175.709430409749470
 20
98.955123224469389
 40
2.999999999999871
 50
300.000187270167030
 51
0.000000000000000
  0
LINE
  8
0
  6
CONTINUOUS
 62
3
 10
180.709447393259040
 20
110.608229524324990
 11
180.709447393259040
 21
177.608229524325000
  0
LINE
  8
0
  6
CONTINUOUS
 62
3
 10
179.709447393259040
 20
110.608229524324990
 11
180.709447393259040
 21
110.608229524324990
  0
LINE
  8
0
  6
CONTINUOUS
 62
3
 10
179.709447393259040
 20
177.608229524325000
 11
180.709447393259040
 21
177.608229524325000
  0
LINE
  8
0
  6
CONTINUOUS
 62
3
 10
172.709447393259040
 20
249.108229524325000
 11
175.709447393259040
 21
249.108229524325000
  0
LINE
  8
0
  6
CONTINUOUS
 62
3
 10
175.709447393259040
 20
249.108229524325000
 11
176.709447393259040
 21
248.108229524325000
  0
LINE
  8
0
  6
CONTINUOUS
 62
3
 10
175.709447393259040
 20
39.108229524324997
 11
172.709447393259040
 21
39.108229524324997
  0
LINE
  8
0
  6
CONTINUOUS
 62
3
 10
176.709447393259040
 20
40.108229524324997
 11
175.709447393259040
 21
39.108229524324997
  0
LINE
  8
0
  6
CONTINUOUS
 62
3
 10
165.663407993072890
 20
31.930798856987167
 11
165.663407993072890
 21
31.608229524324997
  0
ARC
  8
0
  6
CONTINUOUS
 62
3
 10
232.309447393280320
 20
128.508229524324630
 40
0.400000000000091
 50
270.000000000000000
 51
0.000000000000000
  0
LINE
  8
0
  6
CONTINUOUS
 62
3
 10
232.709447393280410
 20
144.108229524325000
 11
232.709447393280410
 21
159.708229524324910
  0
LINE
  8
0
  6
CONTINUOUS
 62
3
 10
182.709447393280410
 20
127.308229524324810
 11
182.509447393280600
 21
127.108229524324540
  0
ARC
  8
0
  6
CONTINUOUS
 62
3
 10
183.509447393280600
 20
127.458229524324450
 40
0.800000000000182
 50
90.000000000000000
 51
176.296803365719710
  0
LINE
  8
0
  6
CONTINUOUS
 62
3
 10
182.709447393280410
 20
127.308229524324810
 11
182.709447393280410
 21
144.108229524324540
  0
LINE
  8
0
  6
CONTINUOUS
 62
3
 10
184.709447393280410
 20
128.258229524324630
 11
183.509447393280600
 21
128.258229524324630
  0
LINE
  8
0
  6
CONTINUOUS
 62
3
 10
232.309447393280320
 20
128.108229524324540
 11
185.269255014415820
 21
128.108229524324540
  0
LINE
  8
0
  6
CONTINUOUS
 62
3
 10
180.709447393258130
 20
127.108229524324080
 11
182.509447393280600
 21
127.108229524324540
  0
LINE
  8
0
  6
CONTINUOUS
 62
3
 10
184.709447393280410
 20
128.258229524324630
 11
185.269255014415820
 21
128.108229524324540
  0
LINE
  8
0
  6
CONTINUOUS
 62
3
 10
182.709447393280410
 20
160.908229524324720
 11
182.509447393280600
 21
161.108229524324540
  0
ARC
  8
0
  6
CONTINUOUS
 62
3
 10
183.509447393280600
 20
160.758229524324630
 40
0.800000000000237
 50
183.703196634280290
 51
270.000000000000000
  0
LINE
  8
0
  6
CONTINUOUS
 62
3
 10
182.709447393280410
 20
160.908229524324720
 11
182.709447393280410
 21
144.108229524324540
  0
LINE
  8
0
  6
CONTINUOUS
 62
3
 10
180.709447393258130
 20
161.108229524325000
 11
182.509447393280600
 21
161.108229524324540
  0
LINE
  8
0
  6
CONTINUOUS
 62
3
 10
184.709447393280410
 20
159.958229524324450
 11
183.509447393280600
 21
159.958229524324450
  0
LINE
  8
0
  6
CONTINUOUS
 62
3
 10
184.709447393280410
 20
159.958229524324450
 11
185.269255014415820
 21
160.108229524324540
  0
LINE
  8
0
  6
CONTINUOUS
 62
3
 10
187.709447393280410
 20
128.108229524325000
 11
187.709447393280410
 21
125.108229524324990
  0
LINE
  8
0
  6
CONTINUOUS
 62
3
 10
232.309447393280320
 20
160.108229524324540
 11
185.269255014415820
 21
160.108229524324540
  0
LINE
  8
0
  6
CONTINUOUS
 62
3
 10
232.709447393280410
 20
125.108229524324990
 11
187.709447393280410
 21
125.108229524324990
  0
ARC
  8
0
  6
CONTINUOUS
 62
3
 10
232.309447393280320
 20
159.708229524324450
 40
0.400000000000091
 50
0.000000000000000
 51
90.000000000000000
  0
LINE
  8
0
  6
CONTINUOUS
 62
3
 10
232.709447393280410
 20
144.108229524325000
 11
232.709447393280410
 21
125.108229524324990
  0
LINE
  8
0
  6
CONTINUOUS
 62
3
 10
137.868660576068290
 20
147.108229524325000
 11
153.709447393259040
 21
147.108229524325000
  0
LINE
  8
0
  6
CONTINUOUS
 62
3
 10
137.868660576068290
 20
141.108229524325000
 11
153.709447393259040
 21
141.108229524325000
  0
ARC
  8
0
  6
CONTINUOUS
 62
3
 10
153.709447393259040
 20
150.108229524325000
 40
3.000000000000000
 50
270.000000000000000
 51
0.000000000000000
  0
ARC
  8
0
  6
CONTINUOUS
 62
3
 10
153.709447393259040
 20
138.108229524325000
 40
3.000000000000000
 50
0.000000000000000
 51
90.000000000000000
  0
ARC
  8
0
  6
CONTINUOUS
 62
3
 10
137.868660576068290
 20
138.108229524325000
 40
3.000000000000000
 50
90.000000000000000
 51
180.000000000000000
  0
ARC
  8
0
  6
CONTINUOUS
 62
3
 10
137.868660576068290
 20
150.108229524325450
 40
3.000000000000000
 50
180.000000000000000
 51
270.000000000000000
  0
LINE
  8
0
  6
CONTINUOUS
 62
3
 10
153.454146542842580
 20
198.617619183078660
 11
138.471431603754980
 21
198.617619183078660
  0
LINE
  8
0
  6
CONTINUOUS
 62
3
 10
135.769482814757280
 20
199.753911885211890
 11
156.060318531343170
 21
225.348671377934810
  0
ARC
  8
0
  6
CONTINUOUS
 62
3
 10
133.418611676672920
 20
201.617619183078660
 40
3.000000000000000
 50
270.000000000000000
 51
321.593567086411040
  0
ARC
  8
0
  6
CONTINUOUS
 62
3
 10
153.709447393259040
 20
227.212378675801570
 40
2.999999999999804
 50
321.593567086408370
 51
0.000000000000000
  0
ARC
  8
0
  6
CONTINUOUS
 62
3
 10
153.709447393259040
 20
232.697660050040210
 40
2.999999999999804
 50
321.593567086408370
 51
0.000000000000000
  0
LINE
  8
0
  6
CONTINUOUS
 62
3
 10
135.769482814757280
 20
205.239193259450530
 11
156.060318531343170
 21
230.833952752173450
  0
ARC
  8
0
  6
CONTINUOUS
 62
3
 10
133.418611676672920
 20
207.102900557317300
 40
3.000000000000000
 50
270.000000000000000
 51
321.593567086411040
  0
LINE
  8
0
  6
CONTINUOUS
 62
3
 10
153.454146542842580
 20
89.598839865571335
 11
138.471431603754980
 21
89.598839865571335
  0
ARC
  8
0
  6
CONTINUOUS
 62
3
 10
153.709447393259040
 20
55.518798998609782
 40
3.000000000000000
 50
0.000000000000000
 51
38.406432913591630
  0
LINE
  8
0
  6
CONTINUOUS
 62
3
 10
135.769482814757280
 20
82.977265789199464
 11
156.060318531343170
 21
57.382506296476549
  0
ARC
  8
0
  6
CONTINUOUS
 62
3
 10
133.418611676672920
 20
81.113558491332697
 40
2.999999999999982
 50
38.406432913588930
 51
90.000000000000000
  0
ARC
  8
0
  6
CONTINUOUS
 62
3
 10
153.709447393259040
 20
61.004080372848421
 40
3.000000000000000
 50
0.000000000000000
 51
38.406432913591630
  0
LINE
  8
0
  6
CONTINUOUS
 62
3
 10
135.769482814757280
 20
88.462547163438103
 11
156.060318531343170
 21
62.867787670715188
  0
ARC
  8
0
  6
CONTINUOUS
 62
3
 10
133.418611676672920
 20
86.598839865571335
 40
2.999999999999982
 50
38.406432913588930
 51
90.000000000000000
  0
ARC
  8
0
  6
CONTINUOUS
 62
3
 10
153.709447393259040
 20
243.938640486051550
 40
2.999999999999993
 50
271.999999999999320
 51
0.000000000000000
  0
ARC
  8
0
  6
CONTINUOUS
 62
3
 10
153.709447393259040
 20
44.277818562598441
 40
3.000000000000000
 50
0.000000000000000
 51
88.000000000000682
  0
INSERT
  8
0
  2
SYM11
 10
-408.666447025406340
 20
-209.776870380090510
  0
INSERT
  8
0
  2
SYM12
 10
-320.278099377087530
 20
-209.776870380090510
  0
INSERT
  8
0
  2
SYM13
 10
-448.472273201246940
 20
-160.582696555931560
 41
-1.000000000000000
  0
INSERT
  8
0
  2
SYM14
 10
-416.472273201246940
 20
-248.582696555931530
 41
-1.000000000000000
  0
INSERT
  8
0
  2
SYM15
 10
-312.472273201246940
 20
-248.582696555931530
  0
LINE
  8
0
  6
DASHDOT
 62
4
 10
-364.472273201246940
 20
-12.745994158307013
 11
-364.472273201246940
 21
-271.253400916913510
  0
LINE
  8
0
  6
DASHDOT
 62
4
 10
-277.274529015909140
 20
-222.780440741269250
 11
-256.021069276193880
 21
-244.033900480984470
  0
ARC
  8
0
  6
DASHDOT
 62
4
 10
-364.472273201246940
 20
-135.582696555931340
 40
139.999999999999940
 50
308.431565162941410
 51
321.758396018283180
  0
ARC
  8
0
  6
DASHDOT
 62
4
 10
-364.472273201246940
 20
-135.582696555931340
 40
140.000000000000000
 50
218.034983448953510
 51
231.299268738859920
  0
LINE
  8
0
  6
DASHDOT
 62
4
 10
-451.865519687455160
 20
-222.975943042139680
 11
-473.134690724175020
 21
-244.245114078859500
  0
LINE
  8
0
  6
DASHDOT
 62
4
 10
-453.259276074773880
 20
-46.795693682404391
 11
-472.853228781019420
 21
-27.201740976158845
  0
ARC
  8
0
  6
DASHDOT
 62
4
 10
-364.472273201246940
 20
-135.582696555931340
 40
139.999999999999940
 50
128.978986442835970
 51
141.160884140918570
  0
ARC
  8
0
  6
DASHDOT
 62
4
 10
-364.472273201246940
 20
-135.582696555931340
 40
139.999999999999770
 50
38.871260013313290
 51
51.111062693942884
  0
LINE
  8
0
  6
DASHDOT
 62
4
 10
-276.896989657685480
 20
-48.007413012369881
 11
-255.960701890075140
 21
-27.071125244759543
  0
LINE
  8
0
  6
DASHDOT
 62
4
 10
-489.485351887926300
 20
-134.582696555930820
 11
-241.174635557161310
 21
-134.582696555931960
  0
LINE
  8
0
  6
DASHDOT
 62
4
 10
-340.193044530924450
 20
-135.582696555931450
 11
-388.548461885280630
 21
-135.582696555931450
  0
ARC
  8
0
  6
CONTINUOUS
 62
3
 10
-409.302843263343900
 20
-89.752126493834254
 40
6.099999427795349
 50
84.601927898108414
 51
185.398089404735370
  0
POINT
  8
0
  6
CONTINUOUS
 62
3
 10
-411.565584828270860
 20
-87.489384928907242
  0
LINE
  8
0
  6
CONTINUOUS
 62
3
 10
-414.888986564977590
 20
-90.812786665614141
 11
-408.242183091563900
 21
-84.165983192200343
  0
LINE
  8
0
  6
CONTINUOUS
 62
3
 10
-415.202125173946570
 20
-90.560239714763753
 11
-408.525025871473640
 21
-83.883140412290828
  0
LINE
  8
0
  6
CONTINUOUS
 62
3
 10
-408.242183091563900
 20
-84.165983192200343
 11
-408.728986483269640
 21
-83.679179800494779
  0
LINE
  8
0
  6
CONTINUOUS
 62
3
 10
-414.888986564977590
 20
-90.812786665614141
 11
-415.375789956683320
 21
-90.325983273908520
  0
ARC
  8
0
  6
CONTINUOUS
 62
3
 10
-319.641703139149970
 20
-89.752126493834254
 40
6.099999427795400
 50
354.601910595264600
 51
95.398072101891586
  0
POINT
  8
0
  6
CONTINUOUS
 62
3
 10
-317.378961574223010
 20
-87.489384928907242
  0
LINE
  8
0
  6
CONTINUOUS
 62
3
 10
-314.055559837516280
 20
-90.812786665614141
 11
-320.702363310929740
 21
-84.165983192200343
  0
LINE
  8
0
  6
CONTINUOUS
 62
3
 10
-313.742421228547300
 20
-90.560239714763753
 11
-320.419520531020230
 21
-83.883140412290828
  0
LINE
  8
0
  6
CONTINUOUS
 62
3
 10
-320.702363310929740
 20
-84.165983192200343
 11
-320.215559919224230
 21
-83.679179800494779
  0
LINE
  8
0
  6
CONTINUOUS
 62
3
 10
-314.055559837516280
 20
-90.812786665614141
 11
-313.568756445810550
 21
-90.325983273908520
  0
LINE
  8
0
  6
CONTINUOUS
 62
3
 10
-307.170824141345750
 20
-166.082696555931390
 11
-306.972273201246940
 21
-166.082696555931390
  0
LINE
  8
0
  6
CONTINUOUS
 62
3
 10
-306.972273201246940
 20
-166.082696555931390
 11
-306.972273201246940
 21
-164.570682410361630
  0
ARC
  8
0
  6
CONTINUOUS
 62
3
 10
-403.903140201334280
 20
-89.160749813633032
 40
6.600000000000009
 50
95.743681810995099
 51
135.000000000002790
  0
ARC
  8
0
  6
CONTINUOUS
 62
3
 10
-364.472273201246940
 20
-481.182696555931440
 40
400.599999999999800
 50
90.000000000000000
 51
95.743681810993436
  0
ARC
  8
0
  6
CONTINUOUS
 62
3
 10
-401.462340439393300
 20
-106.518939924915770
 40
20.600000000000069
 50
135.000000000002670
 51
174.247717268463500
  0
LINE
  8
0
  6
CONTINUOUS
 62
3
 10
-416.028740131836910
 20
-91.952540232473524
 11
-408.570044957165920
 21
-84.493845057801849
  0
ARC
  8
0
  6
CONTINUOUS
 62
3
 10
-122.872273201246570
 20
-134.582696555931390
 40
300.599999999999910
 50
174.247717268463390
 51
180.000000000000000
  0
ARC
  8
0
  6
CONTINUOUS
 62
3
 10
-403.903140201334280
 20
-180.004643298229750
 40
6.600000000000278
 50
224.999999999997190
 51
264.256318189004900
  0
ARC
  8
0
  6
CONTINUOUS
 62
3
 10
-364.472273201246940
 20
212.017303444068800
 40
400.599999999999970
 50
264.256318189006550
 51
270.000000000000000
  0
ARC
  8
0
  6
CONTINUOUS
 62
3
 10
-401.462340439393300
 20
-162.646453186947010
 40
20.599999999999916
 50
185.752282731536500
 51
224.999999999997330
  0
LINE
  8
0
  6
CONTINUOUS
 62
3
 10
-416.028740131836910
 20
-177.212852879389260
 11
-408.570044957165920
 21
-184.671548054060930
  0
ARC
  8
0
  6
CONTINUOUS
 62
3
 10
-122.872273201246570
 20
-134.582696555931390
 40
300.600000000000360
 50
180.000000000000000
 51
185.752282731536610
  0
ARC
  8
0
  6
CONTINUOUS
 62
3
 10
-325.041406201159590
 20
-180.004643298229750
 40
6.600000000000009
 50
275.743681810995100
 51
315.000000000002790
  0
ARC
  8
0
  6
CONTINUOUS
 62
3
 10
-364.472273201246940
 20
212.017303444068800
 40
400.599999999999970
 50
270.000000000000000
 51
275.743681810993450
  0
ARC
  8
0
  6
CONTINUOUS
 62
3
 10
-327.482205963100570
 20
-162.646453186947010
 40
20.600000000000069
 50
315.000000000002670
 51
354.247717268463480
  0
LINE
  8
0
  6
CONTINUOUS
 62
3
 10
-312.915806270656960
 20
-177.212852879389260
 11
-320.374501445327950
 21
-184.671548054060930
  0
ARC
  8
0
  6
CONTINUOUS
 62
3
 10
-606.072273201247300
 20
-134.582696555931390
 40
300.599999999999910
 50
354.247717268463420
 51
0.000000000000000
  0
ARC
  8
0
  6
CONTINUOUS
 62
4
 10
-606.072273201247300
 20
-134.582696555931390
 40
290.797000000000480
 50
0.000000000000000
 51
5.752282731536624
  0
LINE
  8
0
  6
CONTINUOUS
 62
4
 10
-319.847574046629230
 20
-98.884308008444890
 11
-325.734987918668590
 21
-92.996894136404848
  0
ARC
  8
0
  6
CONTINUOUS
 62
4
 10
-327.482205963100570
 20
-106.518939924915770
 40
10.797000000000011
 50
5.752282731536912
 51
44.999999999998295
  0
LINE
  8
0
  6
CONTINUOUS
 62
3
 10
-306.972273201246940
 20
-104.590197493669250
 11
-306.972273201246940
 21
-103.082696555931390
  0
LINE
  8
0
  6
CONTINUOUS
 62
3
 10
-307.170824141345750
 20
-103.082696555931390
 11
-306.972273201246940
 21
-103.082696555931390
  0
ARC
  8
0
  6
CONTINUOUS
 62
3
 10
-606.072273201247300
 20
-134.582696555931390
 40
300.600000000000360
 50
0.000000000000000
 51
5.752282731536604
  0
LINE
  8
0
  6
CONTINUOUS
 62
3
 10
-312.915806270656960
 20
-91.952540232473524
 11
-320.374501445327950
 21
-84.493845057801849
  0
ARC
  8
0
  6
CONTINUOUS
 62
3
 10
-327.482205963100570
 20
-106.518939924915770
 40
20.599999999999916
 50
5.752282731536487
 51
44.999999999997321
  0
ARC
  8
0
  6
CONTINUOUS
 62
4
 10
-122.872273201246790
 20
-134.582696555931390
 40
290.796999999999910
 50
174.998349729065040
 51
180.000000000000000
  0
LINE
  8
0
  6
CONTINUOUS
 62
4
 10
-406.549863517102950
 20
-96.337199169682748
 11
-403.209558483825280
 21
-92.996894136404848
  0
ARC
  8
0
  6
CONTINUOUS
 62
4
 10
-391.844163788766310
 20
-111.042898898019380
 40
20.797000000000015
 50
135.000000000000000
 51
174.998349729064670
  0
ARC
  8
0
  6
CONTINUOUS
 62
4
 10
-364.472273201246940
 20
-481.182696555931440
 40
390.796999999999910
 50
90.000000000000000
 51
95.417963762360543
  0
ARC
  8
0
  6
CONTINUOUS
 62
4
 10
-401.088238140265280
 20
-95.118214479964621
 40
3.000000000000067
 50
95.417963762365673
 51
135.000000000003040
  0
ARC
  8
0
  6
CONTINUOUS
 62
4
 10
-122.872273201246790
 20
-134.582696555931390
 40
290.797000000000250
 50
180.000000000000000
 51
185.001650270934930
  0
LINE
  8
0
  6
CONTINUOUS
 62
4
 10
-406.549863517102950
 20
-172.828193942180040
 11
-403.209558483825280
 21
-176.168498975457940
  0
ARC
  8
0
  6
CONTINUOUS
 62
4
 10
-391.844163788766310
 20
-158.122494213843400
 40
20.796999999999880
 50
185.001650270935330
 51
225.000000000000000
  0
ARC
  8
0
  6
CONTINUOUS
 62
4
 10
-364.472273201246940
 20
212.017303444068800
 40
390.797000000000140
 50
264.582036237639500
 51
270.000000000000000
  0
ARC
  8
0
  6
CONTINUOUS
 62
4
 10
-401.088238140265280
 20
-174.047178631898160
 40
3.000000000000346
 50
224.999999999996960
 51
264.582036237634270
  0
ARC
  8
0
  6
CONTINUOUS
 62
4
 10
-606.072273201247300
 20
-134.582696555931390
 40
290.797000000000140
 50
354.998349729065010
 51
0.000000000000000
  0
LINE
  8
0
  6
CONTINUOUS
 62
4
 10
-322.394682885390920
 20
-172.828193942180040
 11
-325.734987918668590
 21
-176.168498975457940
  0
ARC
  8
0
  6
CONTINUOUS
 62
4
 10
-337.100382613727560
 20
-158.122494213843400
 40
20.797000000000015
 50
315.000000000000000
 51
354.998349729064670
  0
ARC
  8
0
  6
CONTINUOUS
 62
4
 10
-364.472273201246940
 20
212.017303444068800
 40
390.797000000000080
 50
270.000000000000000
 51
275.417963762360500
  0
ARC
  8
0
  6
CONTINUOUS
 62
4
 10
-327.856308262228590
 20
-174.047178631898160
 40
3.000000000000067
 50
275.417963762365730
 51
315.000000000003070
  0
ARC
  8
0
  6
CONTINUOUS
 62
4
 10
-327.856308262228590
 20
-95.118214479964621
 40
3.000000000000346
 50
44.999999999996930
 51
84.582036237634313
  0
ARC
  8
0
  6
CONTINUOUS
 62
4
 10
-364.472273201246940
 20
-481.182696555931440
 40
390.796999999999910
 50
84.582036237639457
 51
90.000000000000000
  0
ARC
  8
0
  6
CONTINUOUS
 62
3
 10
-325.041406201159590
 20
-89.160749813633032
 40
6.600000000000278
 50
44.999999999997215
 51
84.256318189004901
  0
ARC
  8
0
  6
CONTINUOUS
 62
3
 10
-364.472273201246940
 20
-481.182696555931440
 40
400.599999999999800
 50
84.256318189006564
 51
90.000000000000000
  0
ARC
  8
0
  6
CONTINUOUS
 62
3
 10
-367.972273201246940
 20
-169.407256854663130
 40
1.000000000000000
 50
0.000000000000000
 51
84.260829522738291
  0
ARC
  8
0
  6
CONTINUOUS
 62
3
 10
-367.972273201246940
 20
-172.421169040956410
 40
1.000000000000042
 50
264.715267045464260
 51
0.000000000000000
  0
ARC
  8
0
  6
CONTINUOUS
 62
3
 10
-367.972273201246940
 20
-163.874333587685070
 40
1.000000000000077
 50
263.186145655820330
 51
0.000000000000000
  0
LINE
  8
0
  6
CONTINUOUS
 62
3
 10
-366.972273201246940
 20
-172.421169040956410
 11
-366.972273201246940
 21
-169.407256854663130
  0
ARC
  8
0
  6
CONTINUOUS
 62
3
 10
-381.513201884619780
 20
-140.379829434190550
 40
0.999999999999885
 50
300.000000000003810
 51
18.787728582346993
  0
LINE
  8
0
  6
CONTINUOUS
 62
3
 10
-383.654437041676370
 20
-142.770772666894430
 11
-381.013201884619780
 21
-141.245854837974860
  0
ARC
  8
0
  6
CONTINUOUS
 62
3
 10
-384.154437041676370
 20
-141.904747263110120
 40
1.000000000000094
 50
200.405931773138690
 51
300.000000000003810
  0
ARC
  8
0
  6
CONTINUOUS
 62
3
 10
-388.970899533401280
 20
-144.685533179249750
 40
1.000000000000082
 50
299.999999999997270
 51
22.410457608146043
  0
ARC
  8
0
  6
CONTINUOUS
 62
3
 10
-396.381227095571380
 20
-148.963887792051620
 40
1.000000000000082
 50
299.999999999997270
 51
24.260829522733715
  0
LINE
  8
0
  6
CONTINUOUS
 62
3
 10
-391.089574989178800
 20
-147.063451562347240
 11
-388.470899533401280
 21
-145.551558583034280
  0
ARC
  8
0
  6
CONTINUOUS
 62
3
 10
-391.589574989178800
 20
-146.197426158562710
 40
0.999999999999730
 50
203.186145655819840
 51
299.999999999997270
  0
LINE
  8
0
  6
CONTINUOUS
 62
3
 10
-398.491351613677120
 20
-151.336869288982680
 11
-395.881227095571380
 21
-149.829913195836160
  0
ARC
  8
0
  6
CONTINUOUS
 62
3
 10
-398.991351613677120
 20
-150.470843885198380
 40
1.000000000000248
 50
204.715267045455480
 51
300.000000000003810
  0
ARC
  8
0
  6
CONTINUOUS
 62
3
 10
-395.491351613677120
 20
-156.533021711689660
 40
1.000000000000082
 50
119.999999999997270
 51
215.284732954534320
  0
ARC
  8
0
  6
CONTINUOUS
 62
3
 10
-392.881227095571380
 20
-155.026065618542670
 40
0.999999999999807
 50
35.739170477263521
 51
120.000000000003780
  0
ARC
  8
0
  6
CONTINUOUS
 62
3
 10
-367.972273201246940
 20
-160.850547629058700
 40
1.000000000000000
 50
0.000000000000000
 51
82.410457608145762
  0
ARC
  8
0
  6
CONTINUOUS
 62
3
 10
-388.089574989178800
 20
-152.259603985053530
 40
0.999999999999885
 50
120.000000000003780
 51
216.813854344197100
  0
ARC
  8
0
  6
CONTINUOUS
 62
3
 10
-385.470899533401730
 20
-150.747711005740570
 40
1.000000000000194
 50
37.589542391851793
 51
119.999999999997270
  0
ARC
  8
0
  6
CONTINUOUS
 62
3
 10
-367.972273201246940
 20
-155.288975796779910
 40
1.000000000000268
 50
260.405931773124510
 51
0.000000000000000
  0
ARC
  8
0
  6
CONTINUOUS
 62
3
 10
-367.972273201246940
 20
-152.239140138941000
 40
1.000000000000000
 50
0.000000000000000
 51
78.787728582355996
  0
ARC
  8
0
  6
CONTINUOUS
 62
3
 10
-380.654437041675920
 20
-147.966925089601180
 40
0.999999999999885
 50
120.000000000003780
 51
219.594068226860460
  0
ARC
  8
0
  6
CONTINUOUS
 62
3
 10
-378.013201884619780
 20
-146.442007260681830
 40
1.000000000000165
 50
41.212271417643841
 51
119.999999999997270
  0
ARC
  8
0
  6
CONTINUOUS
 62
3
 10
-373.114578046660430
 20
-143.613785469176800
 40
0.999999999999885
 50
120.000000000003780
 51
226.260204708328700
  0
ARC
  8
0
  6
CONTINUOUS
 62
3
 10
-367.972273201246940
 20
-146.582696555931390
 40
0.999999999999964
 50
253.739795291702650
 51
0.000000000000000
  0
ARC
  8
0
  6
CONTINUOUS
 62
3
 10
-367.972273201246940
 20
-143.414457422259230
 40
1.000000000000000
 50
0.000000000000000
 51
68.381727577838021
  0
ARC
  8
0
  6
CONTINUOUS
 62
3
 10
-370.370802471636130
 20
-142.029665902340720
 40
0.999999999999961
 50
51.618272422159777
 51
120.000000000003780
  0
ARC
  8
0
  6
CONTINUOUS
 62
3
 10
-364.472273201246940
 20
-134.582696555931390
 40
38.999999999999865
 50
215.284732954534800
 51
264.715267045465400
  0
ARC
  8
0
  6
CONTINUOUS
 62
3
 10
-364.472273201246940
 20
-134.582696555931390
 40
30.499999999999964
 50
216.813854344181070
 51
263.186145655818960
  0
ARC
  8
0
  6
CONTINUOUS
 62
3
 10
-364.472273201246940
 20
-134.582696555931390
 40
33.999999999999964
 50
215.739170477266950
 51
264.260829522733050
  0
ARC
  8
0
  6
CONTINUOUS
 62
3
 10
-364.472273201246940
 20
-134.582696555931390
 40
25.499999999999890
 50
217.589542391857950
 51
262.410457608141830
  0
ARC
  8
0
  6
CONTINUOUS
 62
3
 10
-364.472273201246940
 20
-134.582696555931390
 40
22.000000000000025
 50
219.594068226860800
 51
260.405931773138780
  0
ARC
  8
0
  6
CONTINUOUS
 62
3
 10
-364.472273201246940
 20
-134.582696555931390
 40
16.999999999999773
 50
221.212271417650780
 51
258.787728582349980
  0
ARC
  8
0
  6
CONTINUOUS
 62
3
 10
-364.472273201246940
 20
-134.582696555931390
 40
13.499999999999927
 50
226.260204708312130
 51
253.739795291689150
  0
ARC
  8
0
  6
CONTINUOUS
 62
3
 10
-364.472273201246940
 20
-134.582696555931390
 40
8.499999999999948
 50
231.618272422157330
 51
248.381727577842330
  0
LINE
  8
0
  6
CONTINUOUS
 62
3
 10
-388.589574989178800
 20
-151.393578581269220
 11
-385.970899533401730
 21
-149.881685601956040
  0
LINE
  8
0
  6
CONTINUOUS
 62
3
 10
-395.991351613677120
 20
-155.666996307905120
 11
-393.381227095571380
 21
-154.160040214758370
  0
LINE
  8
0
  6
CONTINUOUS
 62
3
 10
-381.154437041675920
 20
-147.100899685816870
 11
-378.513201884619780
 21
-145.575981856897300
  0
LINE
  8
0
  6
CONTINUOUS
 62
3
 10
-373.614578046660430
 20
-142.747760065392500
 11
-370.870802471636130
 21
-141.163640498556420
  0
LINE
  8
0
  6
CONTINUOUS
 62
3
 10
-366.972273201246940
 20
-146.582696555931390
 11
-366.972273201246940
 21
-143.414457422259230
  0
LINE
  8
0
  6
CONTINUOUS
 62
3
 10
-366.972273201246940
 20
-155.288975796779910
 11
-366.972273201246940
 21
-152.239140138941000
  0
LINE
  8
0
  6
CONTINUOUS
 62
3
 10
-366.972273201246940
 20
-163.874333587685070
 11
-366.972273201246940
 21
-160.850547629058700
  0
ARC
  8
0
  6
CONTINUOUS
 62
3
 10
-373.870802471636130
 20
-135.967488075849900
 40
0.999999999999885
 50
300.000000000003810
 51
8.381727577845549
  0
ARC
  8
0
  6
CONTINUOUS
 62
3
 10
-364.472273201246940
 20
-134.582696555931390
 40
8.499999999999972
 50
171.618272422157790
 51
188.381727577842210
  0
LINE
  8
0
  6
CONTINUOUS
 62
3
 10
-376.114578046660430
 20
-138.417633046470290
 11
-373.370802471636130
 21
-136.833513479634210
  0
ARC
  8
0
  6
CONTINUOUS
 62
3
 10
-376.614578046660430
 20
-137.551607642685980
 40
0.999999999999879
 50
193.739795291686050
 51
300.000000000003810
  0
ARC
  8
0
  6
CONTINUOUS
 62
3
 10
-367.972273201246940
 20
-116.926252972921780
 40
0.999999999999982
 50
281.212271417643990
 51
0.000000000000000
  0
LINE
  8
0
  6
CONTINUOUS
 62
3
 10
-366.972273201246940
 20
-113.876417315082870
 11
-366.972273201246940
 21
-116.926252972921780
  0
ARC
  8
0
  6
CONTINUOUS
 62
3
 10
-367.972273201246940
 20
-113.876417315082870
 40
1.000000000000000
 50
0.000000000000000
 51
99.594068226875478
  0
ARC
  8
0
  6
CONTINUOUS
 62
3
 10
-367.972273201246940
 20
-108.314845482804080
 40
0.999999999999749
 50
277.589542391855960
 51
0.000000000013028
  0
LINE
  8
0
  6
CONTINUOUS
 62
3
 10
-366.972273201246940
 20
-105.291059524177710
 11
-366.972273201246940
 21
-108.314845482803860
  0
ARC
  8
0
  6
CONTINUOUS
 62
3
 10
-367.972273201246940
 20
-105.291059524177710
 40
1.000000000000000
 50
0.000000000000000
 51
96.813854344179688
  0
ARC
  8
0
  6
CONTINUOUS
 62
3
 10
-367.972273201246940
 20
-99.758136257199652
 40
0.999999999999973
 50
275.739170477261670
 51
0.000000000000000
  0
LINE
  8
0
  6
CONTINUOUS
 62
3
 10
-366.972273201246940
 20
-96.744224070906370
 11
-366.972273201246940
 21
-99.758136257199652
  0
ARC
  8
0
  6
CONTINUOUS
 62
3
 10
-367.972273201246940
 20
-96.744224070906370
 40
1.000000000000000
 50
0.000000000000000
 51
95.284732954535698
  0
ARC
  8
0
  6
CONTINUOUS
 62
3
 10
-388.089574989178800
 20
-116.905789126809020
 40
0.999999999999774
 50
143.186145655813330
 51
240.000000000002730
  0
LINE
  8
0
  6
CONTINUOUS
 62
3
 10
-388.589574989178800
 20
-117.771814530593550
 11
-385.970899533401280
 21
-119.283707509906740
  0
ARC
  8
0
  6
CONTINUOUS
 62
3
 10
-385.470899533401280
 20
-118.417682106122210
 40
1.000000000000082
 50
240.000000000002730
 51
322.410457608132330
  0
ARC
  8
0
  6
CONTINUOUS
 62
3
 10
-395.491351613677120
 20
-112.632371400173350
 40
0.999999999999908
 50
144.715267045455050
 51
239.999999999996220
  0
LINE
  8
0
  6
CONTINUOUS
 62
3
 10
-395.991351613677120
 20
-113.498396803957660
 11
-393.381227095571380
 21
-115.005352897104410
  0
ARC
  8
0
  6
CONTINUOUS
 62
3
 10
-392.881227095571380
 20
-114.139327493320110
 40
0.999999999999885
 50
239.999999999996220
 51
324.260829522725940
  0
ARC
  8
0
  6
CONTINUOUS
 62
3
 10
-370.370802471636130
 20
-127.135727209521830
 40
1.000000000000082
 50
240.000000000002730
 51
308.381727577840190
  0
LINE
  8
0
  6
CONTINUOUS
 62
3
 10
-373.614578046660430
 20
-126.417633046470280
 11
-370.870802471636130
 21
-128.001752613306370
  0
ARC
  8
0
  6
CONTINUOUS
 62
3
 10
-378.013201884619780
 20
-122.723385851181170
 40
0.999999999999885
 50
239.999999999996220
 51
318.787728582348790
  0
LINE
  8
0
  6
CONTINUOUS
 62
3
 10
-381.154437041675920
 20
-122.064493426045910
 11
-378.513201884619780
 21
-123.589411254965480
  0
ARC
  8
0
  6
CONTINUOUS
 62
3
 10
-380.654437041675920
 20
-121.198468022261380
 40
1.000000000000173
 50
140.405931773149600
 51
240.000000000002730
  0
ARC
  8
0
  6
CONTINUOUS
 62
3
 10
-367.972273201246940
 20
-125.750935689603550
 40
1.000000000000090
 50
291.618272422161970
 51
0.000000000000000
  0
ARC
  8
0
  6
CONTINUOUS
 62
3
 10
-364.472273201246940
 20
-134.582696555931390
 40
8.499999999999904
 50
111.618272422157710
 51
128.381727577841670
  0
ARC
  8
0
  6
CONTINUOUS
 62
3
 10
-373.114578046660430
 20
-125.551607642685980
 40
0.999999999999858
 50
133.739795291671300
 51
239.999999999996220
  0
LINE
  8
0
  6
CONTINUOUS
 62
3
 10
-366.972273201246940
 20
-122.582696555931390
 11
-366.972273201246940
 21
-125.750935689603550
  0
ARC
  8
0
  6
CONTINUOUS
 62
3
 10
-367.972273201246940
 20
-122.582696555931390
 40
1.000000000000000
 50
0.000000000000000
 51
106.260204708297360
  0
ARC
  8
0
  6
CONTINUOUS
 62
3
 10
-364.472273201246940
 20
-134.582696555931390
 40
13.499999999999963
 50
106.260204708310860
 51
133.739795291687870
  0
ARC
  8
0
  6
CONTINUOUS
 62
3
 10
-364.472273201246940
 20
-134.582696555931390
 40
17.000000000000046
 50
101.212271417650010
 51
138.787728582350240
  0
ARC
  8
0
  6
CONTINUOUS
 62
3
 10
-364.472273201246940
 20
-134.582696555931390
 40
22.000000000000131
 50
99.594068226861211
 51
140.405931773139200
  0
ARC
  8
0
  6
CONTINUOUS
 62
3
 10
-364.472273201246940
 20
-134.582696555931390
 40
30.500000000000135
 50
96.813854344181038
 51
143.186145655818930
  0
ARC
  8
0
  6
CONTINUOUS
 62
3
 10
-364.472273201246940
 20
-134.582696555931390
 40
25.500000000000160
 50
97.589542391858117
 51
142.410457608142050
  0
ARC
  8
0
  6
CONTINUOUS
 62
3
 10
-364.472273201246940
 20
-134.582696555931390
 40
34.000000000000071
 50
95.739170477266924
 51
144.260829522733360
  0
ARC
  8
0
  6
CONTINUOUS
 62
3
 10
-364.472273201246940
 20
-134.582696555931390
 40
38.999999999999986
 50
95.284732954534590
 51
144.715267045465200
  0
ARC
  8
0
  6
CONTINUOUS
 62
3
 10
-391.589574989178800
 20
-122.967966953300070
 40
1.000000000000082
 50
60.000000000002721
 51
156.813854344180160
  0
LINE
  8
0
  6
CONTINUOUS
 62
3
 10
-391.089574989178800
 20
-122.101941549515540
 11
-388.470899533401280
 21
-123.613834528828730
  0
ARC
  8
0
  6
CONTINUOUS
 62
3
 10
-388.970899533401280
 20
-124.479859932613260
 40
0.999999999999701
 50
337.589542391853970
 51
60.000000000002721
  0
ARC
  8
0
  6
CONTINUOUS
 62
3
 10
-398.991351613677120
 20
-118.694549226664400
 40
1.000000000000082
 50
60.000000000002721
 51
155.284732954544520
  0
LINE
  8
0
  6
CONTINUOUS
 62
3
 10
-398.491351613677120
 20
-117.828523822879870
 11
-395.881227095571380
 21
-119.335479916026620
  0
ARC
  8
0
  6
CONTINUOUS
 62
3
 10
-396.381227095571380
 20
-120.201505319810930
 40
0.999999999999863
 50
335.739170477254390
 51
59.999999999996206
  0
ARC
  8
0
  6
CONTINUOUS
 62
3
 10
-373.870802471636130
 20
-133.197905036013110
 40
1.000000000000026
 50
351.618272422167310
 51
60.000000000002721
  0
LINE
  8
0
  6
CONTINUOUS
 62
3
 10
-376.114578046660430
 20
-130.747760065392500
 11
-373.370802471636130
 21
-132.331879632228580
  0
ARC
  8
0
  6
CONTINUOUS
 62
3
 10
-381.513201884619780
 20
-128.785563677672230
 40
1.000000000000076
 50
341.212271417652970
 51
60.000000000002721
  0
LINE
  8
0
  6
CONTINUOUS
 62
3
 10
-383.654437041676370
 20
-126.394620444968350
 11
-381.013201884619780
 21
-127.919538273887690
  0
ARC
  8
0
  6
CONTINUOUS
 62
3
 10
-384.154437041676370
 20
-127.260645848752660
 40
0.999999999999885
 50
59.999999999996206
 51
159.594068226861310
  0
ARC
  8
0
  6
CONTINUOUS
 62
3
 10
-376.614578046660430
 20
-131.613785469176800
 40
0.999999999999885
 50
59.999999999996206
 51
166.260204708307780
  0
ARC
  8
0
  6
CONTINUOUS
 62
3
 10
-364.472273201246940
 20
-134.582696555931390
 40
13.499999999999687
 50
166.260204708311360
 51
193.739795291688180
  0
ARC
  8
0
  6
CONTINUOUS
 62
3
 10
-364.472273201246940
 20
-134.582696555931390
 40
16.999999999999716
 50
161.212271417649560
 51
198.787728582350440
  0
ARC
  8
0
  6
CONTINUOUS
 62
3
 10
-364.472273201246940
 20
-134.582696555931390
 40
22.000000000000206
 50
159.594068226860770
 51
200.405931773139230
  0
ARC
  8
0
  6
CONTINUOUS
 62
3
 10
-364.472273201246940
 20
-134.582696555931390
 40
30.499999999999947
 50
156.813854344181150
 51
203.186145655818850
  0
ARC
  8
0
  6
CONTINUOUS
 62
3
 10
-364.472273201246940
 20
-134.582696555931390
 40
25.500000000000000
 50
157.589542391857980
 51
202.410457608142480
  0
ARC
  8
0
  6
CONTINUOUS
 62
3
 10
-364.472273201246940
 20
-134.582696555931390
 40
34.000000000000007
 50
155.739170477266780
 51
204.260829522733220
  0
ARC
  8
0
  6
CONTINUOUS
 62
3
 10
-364.472273201246940
 20
-134.582696555931390
 40
39.000000000000220
 50
155.284732954534800
 51
204.715267045465200
  0
LINE
  8
0
  6
CONTINUOUS
 62
3
 10
-361.972273201246940
 20
-163.874333587685070
 11
-361.972273201246940
 21
-160.850547629058700
  0
LINE
  8
0
  6
CONTINUOUS
 62
3
 10
-361.972273201246940
 20
-155.288975796779910
 11
-361.972273201246940
 21
-152.239140138941000
  0
LINE
  8
0
  6
CONTINUOUS
 62
3
 10
-361.972273201246940
 20
-146.582696555931390
 11
-361.972273201246940
 21
-143.414457422259230
  0
LINE
  8
0
  6
CONTINUOUS
 62
3
 10
-355.329968355833440
 20
-142.747760065392500
 11
-358.073743930857740
 21
-141.163640498556420
  0
LINE
  8
0
  6
CONTINUOUS
 62
3
 10
-347.790109360817950
 20
-147.100899685816870
 11
-350.431344517874090
 21
-145.575981856897300
  0
LINE
  8
0
  6
CONTINUOUS
 62
3
 10
-332.953194788816750
 20
-155.666996307905120
 11
-335.563319306922490
 21
-154.160040214758370
  0
LINE
  8
0
  6
CONTINUOUS
 62
3
 10
-361.972273201246940
 20
-172.421169040956410
 11
-361.972273201246940
 21
-169.407256854663130
  0
LINE
  8
0
  6
CONTINUOUS
 62
3
 10
-340.354971413315070
 20
-151.393578581269220
 11
-342.973646869092140
 21
-149.881685601956040
  0
ARC
  8
0
  6
CONTINUOUS
 62
3
 10
-364.472273201246940
 20
-134.582696555931390
 40
8.499999999999904
 50
291.618272422157700
 51
308.381727577842640
  0
ARC
  8
0
  6
CONTINUOUS
 62
3
 10
-364.472273201246940
 20
-134.582696555931390
 40
13.499999999999963
 50
286.260204708310820
 51
313.739795291687870
  0
ARC
  8
0
  6
CONTINUOUS
 62
3
 10
-364.472273201246940
 20
-134.582696555931390
 40
17.000000000000046
 50
281.212271417650020
 51
318.787728582350210
  0
ARC
  8
0
  6
CONTINUOUS
 62
3
 10
-364.472273201246940
 20
-134.582696555931390
 40
22.000000000000131
 50
279.594068226861170
 51
320.405931773139170
  0
ARC
  8
0
  6
CONTINUOUS
 62
3
 10
-364.472273201246940
 20
-134.582696555931390
 40
25.499999999999932
 50
277.589542391858170
 51
322.410457608142050
  0
ARC
  8
0
  6
CONTINUOUS
 62
3
 10
-364.472273201246940
 20
-134.582696555931390
 40
34.000000000000071
 50
275.739170477266950
 51
324.260829522733050
  0
ARC
  8
0
  6
CONTINUOUS
 62
3
 10
-364.472273201246940
 20
-134.582696555931390
 40
30.500000000000135
 50
276.813854344181040
 51
323.186145655818900
  0
ARC
  8
0
  6
CONTINUOUS
 62
3
 10
-364.472273201246940
 20
-134.582696555931390
 40
38.999999999999986
 50
275.284732954534600
 51
324.715267045465230
  0
ARC
  8
0
  6
CONTINUOUS
 62
3
 10
-358.573743930857740
 20
-142.029665902340720
 40
0.999999999999885
 50
59.999999999996206
 51
128.381727577840220
  0
ARC
  8
0
  6
CONTINUOUS
 62
3
 10
-360.972273201246940
 20
-143.414457422259230
 40
1.000000000000090
 50
111.618272422161970
 51
180.000000000000000
  0
ARC
  8
0
  6
CONTINUOUS
 62
3
 10
-360.972273201246940
 20
-146.582696555931390
 40
1.000000000000000
 50
180.000000000000000
 51
286.260204708297350
  0
ARC
  8
0
  6
CONTINUOUS
 62
3
 10
-355.829968355833440
 20
-143.613785469176800
 40
0.999999999999858
 50
313.739795291671330
 51
59.999999999996206
  0
ARC
  8
0
  6
CONTINUOUS
 62
3
 10
-350.931344517874090
 20
-146.442007260681830
 40
1.000000000000082
 50
60.000000000002721
 51
138.787728582338990
  0
ARC
  8
0
  6
CONTINUOUS
 62
3
 10
-348.290109360817950
 20
-147.966925089601180
 40
1.000000000000318
 50
320.405931773139570
 51
59.999999999996206
  0
ARC
  8
0
  6
CONTINUOUS
 62
3
 10
-360.972273201246940
 20
-152.239140138941000
 40
0.999999999999982
 50
101.212271417644000
 51
180.000000000000000
  0
ARC
  8
0
  6
CONTINUOUS
 62
3
 10
-360.972273201246940
 20
-155.288975796779910
 40
1.000000000000000
 50
180.000000000000000
 51
279.594068226875490
  0
ARC
  8
0
  6
CONTINUOUS
 62
3
 10
-360.972273201246940
 20
-163.874333587685070
 40
1.000000000000000
 50
180.000000000000000
 51
276.813854344179670
  0
ARC
  8
0
  6
CONTINUOUS
 62
3
 10
-343.473646869092140
 20
-150.747711005740570
 40
1.000000000000082
 50
60.000000000002721
 51
142.410457608148220
  0
ARC
  8
0
  6
CONTINUOUS
 62
3
 10
-340.854971413315070
 20
-152.259603985053530
 40
0.999999999999911
 50
323.186145655802870
 51
59.999999999996206
  0
ARC
  8
0
  6
CONTINUOUS
 62
3
 10
-360.972273201246940
 20
-160.850547629058700
 40
0.999999999999975
 50
97.589542391854238
 51
180.000000000000000
  0
ARC
  8
0
  6
CONTINUOUS
 62
3
 10
-360.972273201246940
 20
-172.421169040956410
 40
1.000000000000000
 50
180.000000000000000
 51
275.284732954535740
  0
ARC
  8
0
  6
CONTINUOUS
 62
3
 10
-360.972273201246940
 20
-169.407256854663130
 40
0.999999999999973
 50
95.739170477261709
 51
180.000000000000000
  0
ARC
  8
0
  6
CONTINUOUS
 62
3
 10
-336.063319306922490
 20
-155.026065618542670
 40
0.999999999999885
 50
59.999999999996206
 51
144.260829522736490
  0
ARC
  8
0
  6
CONTINUOUS
 62
3
 10
-333.453194788816750
 20
-156.533021711689660
 40
0.999999999999776
 50
324.715267045465680
 51
60.000000000002721
  0
CIRCLE
  8
0
  6
CONTINUOUS
 62
3
 10
-364.472273201246940
 20
-134.582696555931390
 40
5.000000000000000
  0
ARC
  8
0
  6
CONTINUOUS
 62
3
 10
-329.953194788816750
 20
-150.470843885198380
 40
0.999999999999885
 50
239.999999999996220
 51
335.284732954544490
  0
LINE
  8
0
  6
CONTINUOUS
 62
3
 10
-330.453194788816750
 20
-151.336869288982680
 11
-333.063319306922490
 21
-149.829913195836160
  0
ARC
  8
0
  6
CONTINUOUS
 62
3
 10
-364.472273201246940
 20
-134.582696555931390
 40
39.000000000000220
 50
335.284732954534830
 51
24.715267045465190
  0
ARC
  8
0
  6
CONTINUOUS
 62
3
 10
-364.472273201246940
 20
-134.582696555931390
 40
34.000000000000007
 50
335.739170477266780
 51
24.260829522733218
  0
ARC
  8
0
  6
CONTINUOUS
 62
3
 10
-364.472273201246940
 20
-134.582696555931390
 40
25.500000000000085
 50
337.589542391857490
 51
22.410457608142021
  0
ARC
  8
0
  6
CONTINUOUS
 62
3
 10
-364.472273201246940
 20
-134.582696555931390
 40
30.499999999999947
 50
336.813854344181150
 51
23.186145655818844
  0
ARC
  8
0
  6
CONTINUOUS
 62
3
 10
-337.354971413315070
 20
-146.197426158562710
 40
1.000000000000082
 50
240.000000000002730
 51
336.813854344180130
  0
LINE
  8
0
  6
CONTINUOUS
 62
3
 10
-337.854971413315070
 20
-147.063451562347240
 11
-340.473646869092590
 21
-145.551558583034280
  0
ARC
  8
0
  6
CONTINUOUS
 62
3
 10
-364.472273201246940
 20
-134.582696555931390
 40
22.000000000000206
 50
339.594068226860770
 51
20.405931773139226
  0
ARC
  8
0
  6
CONTINUOUS
 62
3
 10
-332.563319306922490
 20
-148.963887792051620
 40
0.999999999999769
 50
155.739170477266270
 51
240.000000000002730
  0
ARC
  8
0
  6
CONTINUOUS
 62
3
 10
-339.973646869092590
 20
-144.685533179249750
 40
0.999999999999701
 50
157.589542391853940
 51
240.000000000002730
  0
ARC
  8
0
  6
CONTINUOUS
 62
3
 10
-344.790109360817500
 20
-141.904747263110120
 40
0.999999999999885
 50
239.999999999996220
 51
339.594068226861340
  0
ARC
  8
0
  6
CONTINUOUS
 62
3
 10
-364.472273201246940
 20
-134.582696555931390
 40
17.000000000000146
 50
341.212271417650070
 51
18.787728582350418
  0
LINE
  8
0
  6
CONTINUOUS
 62
3
 10
-345.290109360817500
 20
-142.770772666894430
 11
-347.931344517874090
 21
-141.245854837974860
  0
ARC
  8
0
  6
CONTINUOUS
 62
3
 10
-347.431344517874090
 20
-140.379829434190550
 40
0.999999999999646
 50
161.212271417644620
 51
239.999999999996220
  0
ARC
  8
0
  6
CONTINUOUS
 62
3
 10
-364.472273201246940
 20
-134.582696555931390
 40
13.500000000000130
 50
346.260204708311850
 51
13.739795291688171
  0
ARC
  8
0
  6
CONTINUOUS
 62
3
 10
-352.329968355833440
 20
-137.551607642685980
 40
0.999999999999885
 50
239.999999999996220
 51
346.260204708314010
  0
LINE
  8
0
  6
CONTINUOUS
 62
3
 10
-352.829968355833440
 20
-138.417633046470290
 11
-355.573743930857740
 21
-136.833513479634210
  0
ARC
  8
0
  6
CONTINUOUS
 62
3
 10
-352.329968355833440
 20
-131.613785469176800
 40
0.999999999999879
 50
13.739795291686027
 51
120.000000000003780
  0
ARC
  8
0
  6
CONTINUOUS
 62
3
 10
-364.472273201246940
 20
-134.582696555931390
 40
8.499999999999972
 50
351.618272422157820
 51
8.381727577842204
  0
ARC
  8
0
  6
CONTINUOUS
 62
3
 10
-355.073743930857740
 20
-135.967488075849900
 40
1.000000000000059
 50
171.618272422154460
 51
239.999999999996220
  0
ARC
  8
0
  6
CONTINUOUS
 62
3
 10
-344.790109360817500
 20
-127.260645848752660
 40
1.000000000000094
 50
20.405931773138686
 51
120.000000000003780
  0
LINE
  8
0
  6
CONTINUOUS
 62
3
 10
-345.290109360817500
 20
-126.394620444968350
 11
-347.931344517874090
 21
-127.919538273887690
  0
ARC
  8
0
  6
CONTINUOUS
 62
3
 10
-347.431344517874090
 20
-128.785563677672230
 40
1.000000000000082
 50
119.999999999997270
 51
198.787728582347000
  0
LINE
  8
0
  6
CONTINUOUS
 62
3
 10
-352.829968355833440
 20
-130.747760065392500
 11
-355.573743930857740
 21
-132.331879632228580
  0
ARC
  8
0
  6
CONTINUOUS
 62
3
 10
-355.073743930857740
 20
-133.197905036013110
 40
1.000000000000082
 50
119.999999999997270
 51
188.381727577832660
  0
ARC
  8
0
  6
CONTINUOUS
 62
3
 10
-332.563319306922490
 20
-120.201505319810930
 40
0.999999999999885
 50
120.000000000003780
 51
204.260829522745610
  0
LINE
  8
0
  6
CONTINUOUS
 62
3
 10
-330.453194788816750
 20
-117.828523822879870
 11
-333.063319306922490
 21
-119.335479916026620
  0
ARC
  8
0
  6
CONTINUOUS
 62
3
 10
-329.953194788816750
 20
-118.694549226664400
 40
1.000000000000248
 50
24.715267045455477
 51
119.999999999997270
  0
ARC
  8
0
  6
CONTINUOUS
 62
3
 10
-339.973646869092590
 20
-124.479859932613260
 40
1.000000000000082
 50
119.999999999997270
 51
202.410457608146060
  0
LINE
  8
0
  6
CONTINUOUS
 62
3
 10
-337.854971413315070
 20
-122.101941549515540
 11
-340.473646869092590
 21
-123.613834528828730
  0
ARC
  8
0
  6
CONTINUOUS
 62
3
 10
-337.354971413315070
 20
-122.967966953300070
 40
0.999999999999730
 50
23.186145655819850
 51
119.999999999997270
  0
ARC
  8
0
  6
CONTINUOUS
 62
3
 10
-364.472273201246940
 20
-134.582696555931390
 40
38.999999999999865
 50
35.284732954534789
 51
84.715267045465410
  0
ARC
  8
0
  6
CONTINUOUS
 62
3
 10
-364.472273201246940
 20
-134.582696555931390
 40
33.999999999999829
 50
35.739170477266640
 51
84.260829522733076
  0
ARC
  8
0
  6
CONTINUOUS
 62
3
 10
-364.472273201246940
 20
-134.582696555931390
 40
25.499999999999890
 50
37.589542391857961
 51
82.410457608141883
  0
ARC
  8
0
  6
CONTINUOUS
 62
3
 10
-364.472273201246940
 20
-134.582696555931390
 40
30.499999999999964
 50
36.813854344181067
 51
83.186145655818962
  0
ARC
  8
0
  6
CONTINUOUS
 62
3
 10
-364.472273201246940
 20
-134.582696555931390
 40
22.000000000000025
 50
39.594068226860820
 51
80.405931773138789
  0
ARC
  8
0
  6
CONTINUOUS
 62
3
 10
-364.472273201246940
 20
-134.582696555931390
 40
17.000000000000114
 50
41.212271417649760
 51
78.787728582349985
  0
ARC
  8
0
  6
CONTINUOUS
 62
3
 10
-364.472273201246940
 20
-134.582696555931390
 40
13.499999999999927
 50
46.260204708312145
 51
73.739795291689134
  0
ARC
  8
0
  6
CONTINUOUS
 62
3
 10
-360.972273201246940
 20
-122.582696555931390
 40
0.999999999999964
 50
73.739795291702634
 51
180.000000000000000
  0
LINE
  8
0
  6
CONTINUOUS
 62
3
 10
-361.972273201246940
 20
-122.582696555931390
 11
-361.972273201246940
 21
-125.750935689603550
  0
ARC
  8
0
  6
CONTINUOUS
 62
3
 10
-355.829968355833440
 20
-125.551607642685980
 40
0.999999999999885
 50
300.000000000003810
 51
46.260204708328693
  0
ARC
  8
0
  6
CONTINUOUS
 62
3
 10
-364.472273201246940
 20
-134.582696555931390
 40
8.500000000000128
 50
51.618272422158320
 51
68.381727577842284
  0
ARC
  8
0
  6
CONTINUOUS
 62
3
 10
-360.972273201246940
 20
-125.750935689603550
 40
1.000000000000000
 50
180.000000000000000
 51
248.381727577838030
  0
ARC
  8
0
  6
CONTINUOUS
 62
3
 10
-348.290109360817950
 20
-121.198468022261380
 40
1.000000000000082
 50
299.999999999997270
 51
39.594068226850403
  0
LINE
  8
0
  6
CONTINUOUS
 62
3
 10
-347.790109360817950
 20
-122.064493426045910
 11
-350.431344517874090
 21
-123.589411254965480
  0
ARC
  8
0
  6
CONTINUOUS
 62
3
 10
-350.931344517874090
 20
-122.723385851181170
 40
0.999999999999673
 50
221.212271417651210
 51
300.000000000003810
  0
LINE
  8
0
  6
CONTINUOUS
 62
3
 10
-355.329968355833440
 20
-126.417633046470280
 11
-358.073743930857740
 21
-128.001752613306370
  0
ARC
  8
0
  6
CONTINUOUS
 62
3
 10
-358.573743930857740
 20
-127.135727209521830
 40
0.999999999999961
 50
231.618272422159780
 51
299.999999999997270
  0
ARC
  8
0
  6
CONTINUOUS
 62
3
 10
-336.063319306922490
 20
-114.139327493320110
 40
0.999999999999940
 50
215.739170477274090
 51
300.000000000003810
  0
LINE
  8
0
  6
CONTINUOUS
 62
3
 10
-332.953194788816750
 20
-113.498396803957660
 11
-335.563319306922490
 21
-115.005352897104410
  0
ARC
  8
0
  6
CONTINUOUS
 62
3
 10
-333.453194788816750
 20
-112.632371400173350
 40
0.999999999999885
 50
300.000000000003810
 51
35.284732954544943
  0
ARC
  8
0
  6
CONTINUOUS
 62
3
 10
-343.473646869092590
 20
-118.417682106122210
 40
0.999999999999834
 50
217.589542391867670
 51
299.999999999997270
  0
LINE
  8
0
  6
CONTINUOUS
 62
3
 10
-340.354971413315070
 20
-117.771814530593550
 11
-342.973646869092590
 21
-119.283707509906740
  0
ARC
  8
0
  6
CONTINUOUS
 62
3
 10
-340.854971413315070
 20
-116.905789126809020
 40
1.000000000000082
 50
299.999999999997270
 51
36.813854344186687
  0
ARC
  8
0
  6
CONTINUOUS
 62
3
 10
-360.972273201246940
 20
-96.744224070906370
 40
1.000000000000042
 50
84.715267045464302
 51
180.000000000000000
  0
LINE
  8
0
  6
CONTINUOUS
 62
3
 10
-361.972273201246940
 20
-96.744224070906370
 11
-361.972273201246940
 21
-99.758136257199652
  0
ARC
  8
0
  6
CONTINUOUS
 62
3
 10
-360.972273201246940
 20
-99.758136257199652
 40
1.000000000000000
 50
180.000000000000000
 51
264.260829522738280
  0
ARC
  8
0
  6
CONTINUOUS
 62
3
 10
-360.972273201246940
 20
-105.291059524177710
 40
1.000000000000077
 50
83.186145655820312
 51
180.000000000000000
  0
LINE
  8
0
  6
CONTINUOUS
 62
3
 10
-361.972273201246940
 20
-105.291059524177710
 11
-361.972273201246940
 21
-108.314845482803860
  0
ARC
  8
0
  6
CONTINUOUS
 62
3
 10
-360.972273201246940
 20
-108.314845482804080
 40
1.000000000000000
 50
179.999999999986980
 51
262.410457608144040
  0
ARC
  8
0
  6
CONTINUOUS
 62
3
 10
-360.972273201246940
 20
-113.876417315082870
 40
1.000000000000268
 50
80.405931773124522
 51
180.000000000000000
  0
LINE
  8
0
  6
CONTINUOUS
 62
3
 10
-361.972273201246940
 20
-113.876417315082870
 11
-361.972273201246940
 21
-116.926252972921780
  0
ARC
  8
0
  6
CONTINUOUS
 62
3
 10
-360.972273201246940
 20
-116.926252972921780
 40
1.000000000000000
 50
180.000000000000000
 51
258.787728582356010
  0
LINE
  8
0
  6
CONTINUOUS
 62
3
 10
-374.972268496257810
 20
-78.046794731681729
 11
-371.972275624146050
 21
-76.314742773965662
  0
LINE
  8
0
  6
CONTINUOUS
 62
3
 10
-374.972279819848150
 20
-71.118599659547300
 11
-377.972270627195480
 21
-72.850649773796562
  0
LINE
  8
0
  6
CONTINUOUS
 62
3
 10
-377.972271313340120
 20
-76.314747948711698
 11
-374.972268736834390
 21
-78.046794921348038
  0
LINE
  8
0
  6
CONTINUOUS
 62
3
 10
-374.972279902967330
 20
-71.118599555997690
 11
-371.972275261694900
 21
-72.850644734227359
  0
LINE
  8
0
  6
CONTINUOUS
 62
3
 10
-377.972269863387280
 20
-72.850649602707364
 11
-377.972270817061600
 21
-76.314747579391934
  0
LINE
  8
0
  6
CONTINUOUS
 62
3
 10
-371.972276539105450
 20
-76.314742555484173
 11
-371.972275585431360
 21
-72.850644578799603
  0
POINT
  8
0
  6
CONTINUOUS
 62
3
 10
-374.972273201246480
 20
-74.582696555932927
  0
ARC
  8
0
  6
CONTINUOUS
 62
3
 10
-374.972273201246480
 20
-74.582696555932927
 40
6.500000000000158
 50
290.604957506388700
 51
252.353586549793250
  0
CIRCLE
  8
0
  6
CONTINUOUS
 62
3
 10
-374.972273201246480
 20
-74.582696555932927
 40
5.633955001831055
  0
LINE
  8
0
  6
CONTINUOUS
 62
3
 10
-353.972277906235600
 20
-78.046794731681729
 11
-356.972270778347370
 21
-76.314742773965662
  0
LINE
  8
0
  6
CONTINUOUS
 62
3
 10
-353.972266582645260
 20
-71.118599659547300
 11
-350.972275775297930
 21
-72.850649773796562
  0
LINE
  8
0
  6
CONTINUOUS
 62
3
 10
-350.972275089153300
 20
-76.314747948711698
 11
-353.972277665659250
 21
-78.046794921348038
  0
LINE
  8
0
  6
CONTINUOUS
 62
3
 10
-353.972266499526090
 20
-71.118599555997690
 11
-356.972271140798510
 21
-72.850644734227359
  0
LINE
  8
0
  6
CONTINUOUS
 62
3
 10
-350.972276539106360
 20
-72.850649602707364
 11
-350.972275585432040
 21
-76.314747579391934
  0
LINE
  8
0
  6
CONTINUOUS
 62
3
 10
-356.972269863387960
 20
-76.314742555484173
 11
-356.972270817062280
 21
-72.850644578799603
  0
POINT
  8
0
  6
CONTINUOUS
 62
3
 10
-353.972273201246940
 20
-74.582696555932927
  0
ARC
  8
0
  6
CONTINUOUS
 62
3
 10
-353.972273201246940
 20
-74.582696555932927
 40
6.500000000000164
 50
287.646413450206750
 51
249.395042493611300
  0
CIRCLE
  8
0
  6
CONTINUOUS
 62
3
 10
-353.972273201246940
 20
-74.582696555932927
 40
5.633955001831055
  0
LINE
  8
0
  6
CONTINUOUS
 62
3
 10
-414.472279819848610
 20
-81.118599659545936
 11
-417.472270627195940
 21
-82.850649773795197
  0
LINE
  8
0
  6
CONTINUOUS
 62
3
 10
-417.472271313340570
 20
-86.314747948710334
 11
-415.051670305141900
 21
-87.712278297865652
  0
LINE
  8
0
  6
CONTINUOUS
 62
3
 10
-414.472279902967780
 20
-81.118599555996326
 11
-411.472275261695360
 21
-82.850644734225995
  0
LINE
  8
0
  6
CONTINUOUS
 62
3
 10
-417.472269863387740
 20
-82.850649602706000
 11
-417.472270817062050
 21
-86.314747579390570
  0
LINE
  8
0
  6
CONTINUOUS
 62
3
 10
-411.472275915875120
 20
-84.050937584033505
 11
-411.472275585431820
 21
-82.850644578798239
  0
POINT
  8
0
  6
CONTINUOUS
 62
3
 10
-414.472273201246940
 20
-84.582696555931562
  0
ARC
  8
0
  6
CONTINUOUS
 62
3
 10
-414.472273201246940
 20
-84.582696555931562
 40
6.499999999999854
 50
5.267140598052070
 51
264.228301906986530
  0
ARC
  8
0
  6
CONTINUOUS
 62
3
 10
-414.472273201246940
 20
-84.582696555931562
 40
5.633955001831057
 50
9.379064865855989
 51
260.620935134148740
  0
LINE
  8
0
  6
CONTINUOUS
 62
3
 10
-314.472266582645260
 20
-81.118599659545822
 11
-311.472275775297930
 21
-82.850649773795084
  0
LINE
  8
0
  6
CONTINUOUS
 62
3
 10
-311.472275089153300
 20
-86.314747948710220
 11
-313.892876097352200
 21
-87.712278297865538
  0
LINE
  8
0
  6
CONTINUOUS
 62
3
 10
-314.472266499526090
 20
-81.118599555996212
 11
-317.472271140798510
 21
-82.850644734225881
  0
LINE
  8
0
  6
CONTINUOUS
 62
3
 10
-311.472276539106360
 20
-82.850649602705886
 11
-311.472275585432040
 21
-86.314747579390456
  0
LINE
  8
0
  6
CONTINUOUS
 62
3
 10
-317.472270486618750
 20
-84.050937584033505
 11
-317.472270817062280
 21
-82.850644578798125
  0
POINT
  8
0
  6
CONTINUOUS
 62
3
 10
-314.472273201246940
 20
-84.582696555931449
  0
ARC
  8
0
  6
CONTINUOUS
 62
3
 10
-314.472273201246940
 20
-84.582696555931449
 40
6.500000000000012
 50
275.771698093013470
 51
174.732859401948620
  0
ARC
  8
0
  6
CONTINUOUS
 62
3
 10
-314.472273201246940
 20
-84.582696555931449
 40
5.633955001831040
 50
279.379064865851320
 51
170.620935134145720
  0
ARC
  8
0
  6
CONTINUOUS
 62
3
 10
-280.472273201246940
 20
-160.582696555931450
 40
6.499999999999964
 50
342.316603024727500
 51
7.524181255243374
  0
LINE
  8
0
  6
CONTINUOUS
 62
3
 10
-367.472273201246940
 20
-28.582696555931449
 11
-367.472273201246940
 21
-30.582696555931449
  0
LINE
  8
0
  6
CONTINUOUS
 62
3
 10
-361.472273201246940
 20
-28.582696555931449
 11
-361.472273201246940
 21
-30.582696555931449
  0
ARC
  8
0
  6
CONTINUOUS
 62
3
 10
-259.972273201246940
 20
-240.082696555931560
 40
7.999999999999972
 50
270.000000000000000
 51
0.000000000000000
  0
ARC
  8
0
  6
CONTINUOUS
 62
3
 10
-468.972273201246940
 20
-240.082696555931560
 40
8.000000000000000
 50
180.000000000000000
 51
270.000000000000000
  0
ARC
  8
0
  6
CONTINUOUS
 62
3
 10
-468.972273201246940
 20
-31.082696555931449
 40
8.000000000000000
 50
90.000000000000000
 51
180.000000000000000
  0
ARC
  8
0
  6
CONTINUOUS
 62
3
 10
-259.972273201246940
 20
-31.082696555931449
 40
8.000000000000000
 50
0.000000000000000
 51
90.000000000000000
  0
CIRCLE
  8
0
  6
CONTINUOUS
 62
3
 10
-265.477323835130390
 20
-234.577645922048110
 40
7.500000000000000
  0
CIRCLE
  8
0
  6
CONTINUOUS
 62
3
 10
-463.467222567363480
 20
-234.577645922048110
 40
7.500000000000000
  0
CIRCLE
  8
0
  6
CONTINUOUS
 62
3
 10
-463.467222567363480
 20
-36.587747189814792
 40
7.500000000000000
  0
CIRCLE
  8
0
  6
CONTINUOUS
 62
3
 10
-265.477323835130390
 20
-36.587747189814792
 40
7.500000000000000
  0
ARC
  8
0
  6
CONTINUOUS
 62
3
 10
-370.472273201246940
 20
-28.582696555931449
 40
3.000000000000000
 50
0.000000000000000
 51
90.000000000000000
  0
ARC
  8
0
  6
CONTINUOUS
 62
3
 10
-358.472273201246940
 20
-28.582696555931449
 40
3.000000000000000
 50
90.000000000000000
 51
180.000000000000000
  0
ARC
  8
0
  6
CONTINUOUS
 62
3
 10
-418.476680653642690
 20
-73.093007729296829
 40
3.000000000000265
 50
224.999999999995400
 51
298.814852117042620
  0
ARC
  8
0
  6
CONTINUOUS
 62
3
 10
-428.757472049399890
 20
-79.782779082016901
 40
2.999999999999856
 50
307.289727379802290
 51
45.000000000000000
  0
ARC
  8
0
  6
CONTINUOUS
 62
3
 10
-452.016804354633220
 20
-56.523446776783913
 40
2.999999999999944
 50
45.000000000001542
 51
134.999999999998470
  0
ARC
  8
0
  6
CONTINUOUS
 62
3
 10
-443.531522980394580
 20
-48.038165402545275
 40
2.999999999999944
 50
134.999999999998470
 51
225.000000000001530
  0
ARC
  8
0
  6
CONTINUOUS
 62
3
 10
-285.413023422099290
 20
-48.038165402545275
 40
2.999999999999944
 50
314.999999999998470
 51
45.000000000001542
  0
ARC
  8
0
  6
CONTINUOUS
 62
3
 10
-276.927742047860650
 20
-56.523446776783913
 40
2.999999999999944
 50
45.000000000001542
 51
134.999999999996930
  0
ARC
  8
0
  6
CONTINUOUS
 62
3
 10
-300.187074353093980
 20
-79.782779082016901
 40
2.999999999999864
 50
135.000000000000000
 51
232.710272620190840
  0
ARC
  8
0
  6
CONTINUOUS
 62
3
 10
-310.467865748851180
 20
-73.093007729296829
 40
2.999999999999992
 50
241.185147882957380
 51
315.000000000004600
  0
LINE
  8
0
  6
CONTINUOUS
 62
3
 10
-302.410484373239340
 20
-248.082696555931530
 11
-259.972273201246940
 21
-248.082696555931530
  0
LINE
  8
0
  6
CONTINUOUS
 62
3
 10
-468.972273201246940
 20
-248.082696555931530
 11
-426.534062029254530
 21
-248.082696555931530
  0
LINE
  8
0
  6
CONTINUOUS
 62
3
 10
-476.972273201246940
 20
-31.082696555931449
 11
-476.972273201246940
 21
-240.082696555931560
  0
LINE
  8
0
  6
CONTINUOUS
 62
3
 10
-468.972273201246940
 20
-23.082696555931449
 11
-259.972273201246940
 21
-23.082696555931449
  0
LINE
  8
0
  6
CONTINUOUS
 62
3
 10
-251.972273201246940
 20
-31.082696555931449
 11
-251.972273201246940
 21
-240.082696555931560
  0
LINE
  8
0
  6
CONTINUOUS
 62
3
 10
-445.652843323954130
 20
-50.159485746104934
 11
-420.598000997202690
 21
-75.214328072856489
  0
LINE
  8
0
  6
CONTINUOUS
 62
3
 10
-449.895484011073680
 20
-54.402126433224254
 11
-426.636151705840350
 21
-77.661458738457355
  0
LINE
  8
0
  6
CONTINUOUS
 62
3
 10
-283.291703078539740
 20
-50.159485746104934
 11
-308.346545405291180
 21
-75.214328072856489
  0
LINE
  8
0
  6
CONTINUOUS
 62
3
 10
-279.049062391420190
 20
-54.402126433224140
 11
-302.308394696653520
 21
-77.661458738457355
  0
ARC
  8
0
  6
CONTINUOUS
 62
3
 10
-387.972273201246940
 20
-195.444879999209690
 40
3.000000000000000
 50
0.000000000000000
 51
51.799077169161414
  0
ARC
  8
0
  6
CONTINUOUS
 62
3
 10
-377.972273201246940
 20
-201.103817033754380
 40
3.000000000000057
 50
69.190426422325032
 51
180.000000000000000
  0
ARC
  8
0
  6
CONTINUOUS
 62
3
 10
-350.972273201246940
 20
-201.103817033754380
 40
3.000000000000000
 50
0.000000000000000
 51
110.809573577674960
  0
ARC
  8
0
  6
CONTINUOUS
 62
3
 10
-340.972273201246940
 20
-195.444879999209690
 40
2.999999999999890
 50
128.200922830838580
 51
180.000000000000000
  0
ARC
  8
0
  6
CONTINUOUS
 62
3
 10
-364.472273201246940
 20
-165.582696555931450
 40
35.000000000000036
 50
219.109992212757730
 51
270.000000000000000
  0
ARC
  8
0
  6
CONTINUOUS
 62
3
 10
-364.472273201246940
 20
-165.582696555931450
 40
35.000000000000000
 50
270.000000000000000
 51
320.890007787242040
  0
ARC
  8
0
  6
CONTINUOUS
 62
3
 10
-364.472273201246940
 20
-165.582696555931450
 40
60.000000000000142
 50
257.161431859015810
 51
282.838568140984190
  0
ARC
  8
0
  6
CONTINUOUS
 62
3
 10
-410.857211489445490
 20
-205.582696555931560
 40
5.000000000000076
 50
40.772804694042925
 51
90.000000000000000
  0
ARC
  8
0
  6
CONTINUOUS
 62
3
 10
-415.631870334733780
 20
-195.582696555931450
 40
4.999999999999669
 50
190.000000000001850
 51
270.000000000000000
  0
ARC
  8
0
  6
CONTINUOUS
 62
3
 10
-389.972273201246940
 20
-221.272125534868140
 40
5.000000000000000
 50
0.000000000000000
 51
65.397117751181796
  0
ARC
  8
0
  6
CONTINUOUS
 62
3
 10
-338.972273201246940
 20
-221.272125534868140
 40
5.000000000000226
 50
114.602882248818190
 51
180.000000000000000
  0
ARC
  8
0
  6
CONTINUOUS
 62
3
 10
-313.312676067760090
 20
-195.582696555931450
 40
5.000000000000000
 50
270.000000000000000
 51
349.999999999998120
  0
ARC
  8
0
  6
CONTINUOUS
 62
3
 10
-404.783815843625230
 20
-199.517365938140780
 40
14.999999999999863
 50
190.000000000000400
 51
225.000000000000600
  0
LINE
  8
0
  6
CONTINUOUS
 62
3
 10
-422.331831990136830
 20
-186.379178243227360
 11
-419.555932138808200
 21
-202.122088603144820
  0
ARC
  8
0
  6
CONTINUOUS
 62
3
 10
-364.472273201246940
 20
-165.582696555931450
 40
56.249999999999901
 50
220.772804694043030
 51
245.397117751180390
  0
LINE
  8
0
  6
CONTINUOUS
 62
3
 10
-415.631870334733780
 20
-200.582696555931450
 11
-410.857211489445490
 21
-200.582696555931450
  0
LINE
  8
0
  6
CONTINUOUS
 62
3
 10
-377.804564827220470
 20
-224.082696555931560
 11
-380.119724045004660
 21
-224.082696555931560
  0
ARC
  8
0
  6
CONTINUOUS
 62
3
 10
-380.119724045004660
 20
-209.082696555931560
 40
14.999999999999908
 50
259.695153531233190
 51
270.000000000000000
  0
LINE
  8
0
  6
CONTINUOUS
 62
3
 10
-401.257047061240880
 20
-220.485464945023320
 11
-382.803005618004590
 21
-223.840745207430050
  0
ARC
  8
0
  6
CONTINUOUS
 62
3
 10
-377.972273201246940
 20
-220.082696555931560
 40
3.000000000000000
 50
180.000000000000000
 51
270.000000000000000
  0
LINE
  8
0
  6
CONTINUOUS
 62
3
 10
-380.972273201246940
 20
-201.103817033754380
 11
-380.972273201246940
 21
-220.082696555931560
  0
LINE
  8
0
  6
CONTINUOUS
 62
3
 10
-384.972273201246940
 20
-195.444879999209690
 11
-384.972273201246940
 21
-223.446332919568050
  0
LINE
  8
0
  6
CONTINUOUS
 62
3
 10
-351.139981575273400
 20
-224.082696555931560
 11
-348.824822357489210
 21
-224.082696555931560
  0
ARC
  8
0
  6
CONTINUOUS
 62
3
 10
-348.824822357489210
 20
-209.082696555931560
 40
15.000000000000000
 50
270.000000000000000
 51
280.304846468766810
  0
LINE
  8
0
  6
CONTINUOUS
 62
3
 10
-327.687499341252990
 20
-220.485464945023320
 11
-346.141540784489280
 21
-223.840745207430050
  0
LINE
  8
0
  6
CONTINUOUS
 62
3
 10
-347.972273201246940
 20
-201.103817033754380
 11
-347.972273201246940
 21
-220.082696555931560
  0
ARC
  8
0
  6
CONTINUOUS
 62
3
 10
-350.972273201246940
 20
-220.082696555931560
 40
3.000000000000000
 50
270.000000000000000
 51
0.000000000000000
  0
LINE
  8
0
  6
CONTINUOUS
 62
3
 10
-343.972273201246940
 20
-195.444879999209690
 11
-343.972273201246940
 21
-223.446332919568050
  0
ARC
  8
0
  6
CONTINUOUS
 62
3
 10
-364.472273201246940
 20
-165.582696555931450
 40
56.250000000000050
 50
294.602882248819640
 51
319.227195305956970
  0
ARC
  8
0
  6
CONTINUOUS
 62
3
 10
-318.087334913048380
 20
-205.582696555931560
 40
5.000000000000114
 50
90.000000000000000
 51
139.227195305957050
  0
LINE
  8
0
  6
CONTINUOUS
 62
3
 10
-313.312676067760090
 20
-200.582696555931450
 11
-318.087334913048380
 21
-200.582696555931450
  0
ARC
  8
0
  6
CONTINUOUS
 62
3
 10
-422.972273201246940
 20
-146.582696555931450
 40
0.999999999999232
 50
107.278261283155030
 51
180.000000000000000
  0
LINE
  8
0
  6
CONTINUOUS
 62
3
 10
-423.972273201246940
 20
-165.582696555931450
 11
-423.972273201246940
 21
-146.582696555931450
  0
ARC
  8
0
  6
CONTINUOUS
 62
3
 10
-423.316639743148700
 20
-186.552826420894260
 40
0.999999999999657
 50
10.000000000002000
 51
80.085216630856323
  0
ARC
  8
0
  6
CONTINUOUS
 62
3
 10
-422.972273201246940
 20
-184.582696555931450
 40
1.000000000000000
 50
180.000000000000000
 51
260.085216630857420
  0
LINE
  8
0
  6
CONTINUOUS
 62
3
 10
-423.972273201246940
 20
-165.582696555931450
 11
-423.972273201246940
 21
-184.582696555931450
  0
LINE
  8
0
  6
CONTINUOUS
 62
3
 10
-415.390417561423420
 20
-210.123967655939200
 11
-409.180367206039140
 21
-216.334018011323020
  0
ARC
  8
0
  6
CONTINUOUS
 62
3
 10
-398.573765488240950
 20
-205.727416293524840
 40
14.999999999999961
 50
225.000000000000000
 51
259.695153531233190
  0
ARC
  8
0
  6
CONTINUOUS
 62
3
 10
-305.627906659345170
 20
-186.552826420894260
 40
0.999999999999916
 50
99.914783369143677
 51
169.999999999998010
  0
ARC
  8
0
  6
CONTINUOUS
 62
3
 10
-305.972273201246940
 20
-184.582696555931450
 40
1.000000000000028
 50
279.914783369142580
 51
0.000000000000000
  0
LINE
  8
0
  6
CONTINUOUS
 62
3
 10
-306.612714412357040
 20
-186.379178243227360
 11
-309.388614263685670
 21
-202.122088603144820
  0
LINE
  8
0
  6
CONTINUOUS
 62
3
 10
-304.972273201246940
 20
-170.582696555931390
 11
-304.972273201246940
 21
-184.582696555931450
  0
ARC
  8
0
  6
CONTINUOUS
 62
3
 10
-324.160730558868640
 20
-199.517365938140780
 40
15.000000000000121
 50
314.999999999999370
 51
349.999999999999600
  0
LINE
  8
0
  6
CONTINUOUS
 62
3
 10
-313.554128841070450
 20
-210.123967655939200
 11
-319.764179196454730
 21
-216.334018011323020
  0
ARC
  8
0
  6
CONTINUOUS
 62
3
 10
-330.370780914252920
 20
-205.727416293524840
 40
14.999999999999908
 50
280.304846468766810
 51
315.000000000000000
  0
LINE
  8
0
  6
CONTINUOUS
 62
3
 10
-343.972273201246940
 20
-40.582696555931449
 11
-343.972273201246940
 21
-81.107566111661100
  0
ARC
  8
0
  6
CONTINUOUS
 62
3
 10
-378.472273201246940
 20
-145.816094740112850
 40
79.999999999999957
 50
94.660419384114789
 51
180.000000000000000
  0
ARC
  8
0
  6
CONTINUOUS
 62
3
 10
-350.472273201246480
 20
-145.816094740112850
 40
80.000000000000000
 50
0.000000000000000
 51
14.758842360306092
  0
LINE
  8
0
  6
DASHDOT
 62
4
 10
-341.304360202365390
 20
-50.582696555931449
 11
-388.326874103900080
 21
-50.582696555931449
  0
CIRCLE
  8
0
  6
CONTINUOUS
 62
3
 10
-364.472273201246940
 20
-50.582696555931449
 40
10.000000000000000
  0
LINE
  8
0
  6
CONTINUOUS
 62
3
 10
-384.972273201246940
 20
-40.582696555931449
 11
-384.972273201246940
 21
-81.107566111661100
  0
ARC
  8
0
  6
CONTINUOUS
 62
3
 10
-374.972273201246940
 20
-40.582696555931449
 40
10.000000000000000
 50
90.000000000000000
 51
180.000000000000000
  0
LINE
  8
0
  6
CONTINUOUS
 62
3
 10
-353.972273201246940
 20
-30.582696555931449
 11
-374.972273201246940
 21
-30.582696555931449
  0
ARC
  8
0
  6
CONTINUOUS
 62
3
 10
-353.972273201246940
 20
-40.582696555931449
 40
10.000000000000000
 50
0.000000000000000
 51
90.000000000000000
  0
ARC
  8
0
  6
CONTINUOUS
 62
3
 10
-426.972273201246940
 20
-175.463540709331620
 40
3.000000000000099
 50
322.203357465591640
 51
0.000000000000000
  0
ARC
  8
0
  6
CONTINUOUS
 62
3
 10
-400.322532729641810
 20
-223.704560247359300
 40
3.000000000000144
 50
79.695153531235519
 51
95.631713938415501
  0
ARC
  8
0
  6
CONTINUOUS
 62
3
 10
-403.266545401605980
 20
-193.849363222597870
 40
26.999999999999869
 50
142.203357465588170
 51
275.631713938414800
  0
ARC
  8
0
  6
CONTINUOUS
 62
3
 10
-327.322493517519430
 20
-223.467425987629010
 40
2.999999999999886
 50
99.749988138587184
 51
139.848912341653910
  0
ARC
  8
0
  6
CONTINUOUS
 62
3
 10
-350.252896481858440
 20
-204.123263563449910
 40
26.999999999999847
 50
232.492357161294190
 51
319.848912341650250
  0
ARC
  8
0
  6
CONTINUOUS
 62
3
 10
-364.472273201246480
 20
-165.582696555931450
 40
101.000000000000120
 50
309.950233661982400
 51
337.984630459603010
  0
ARC
  8
0
  6
CONTINUOUS
 62
3
 10
-364.472273201246940
 20
-165.582696555931450
 40
101.000000000000340
 50
202.015369540396880
 51
230.049766338017630
  0
ARC
  8
0
  6
CONTINUOUS
 62
3
 10
-453.472273201246940
 20
-201.568804986824630
 40
5.000000000000000
 50
180.000000000000000
 51
202.015369540399230
  0
ARC
  8
0
  6
CONTINUOUS
 62
3
 10
-275.472273201246480
 20
-201.568804986824630
 40
4.999999999999920
 50
337.984630459600790
 51
0.000000000000000
  0
ARC
  8
0
  6
CONTINUOUS
 62
3
 10
-434.463570271457680
 20
-249.142365861341430
 40
8.000000000000099
 50
1.781769897911126
 51
50.049766338016113
  0
ARC
  8
0
  6
CONTINUOUS
 62
3
 10
-416.472273201246940
 20
-248.582696555931530
 40
9.999999999999675
 50
181.781769897911860
 51
270.000000000000000
  0
ARC
  8
0
  6
CONTINUOUS
 62
3
 10
-312.472273201246940
 20
-248.582696555931530
 40
10.000000000000000
 50
270.000000000000000
 51
358.218230102088230
  0
ARC
  8
0
  6
CONTINUOUS
 62
3
 10
-294.480976131035730
 20
-249.142365861341430
 40
7.999999999999727
 50
129.950233661983900
 51
178.218230102088850
  0
ARC
  8
0
  6
CONTINUOUS
 62
3
 10
-273.974275974115240
 20
-130.582696555931450
 40
2.000000000000016
 50
311.409622109283650
 51
11.262247925641974
  0
ARC
  8
0
  6
CONTINUOUS
 62
3
 10
-272.472273201246480
 20
-150.582696555931450
 40
2.000000000000000
 50
0.000000000000000
 51
90.000000000000000
  0
ARC
  8
0
  6
CONTINUOUS
 62
3
 10
-454.970270428378170
 20
-130.582696555931450
 40
2.000000000000167
 50
168.737752074358010
 51
270.000000000000000
  0
ARC
  8
0
  6
CONTINUOUS
 62
3
 10
-449.472273201246940
 20
-140.582696555931450
 40
8.000000000000000
 50
270.000000000000000
 51
90.000000000000000
  0
ARC
  8
0
  6
CONTINUOUS
 62
3
 10
-456.472273201246940
 20
-150.582696555931450
 40
2.000000000000000
 50
90.000000000000000
 51
180.000000000000000
  0
LINE
  8
0
  6
CONTINUOUS
 62
4
 10
-364.472273201246940
 20
-165.582696555931450
 11
-364.088867973221570
 21
-165.199291327906310
  0
LINE
  8
0
  6
CONTINUOUS
 62
3
 10
-270.472273201246480
 20
-145.816094740112850
 11
-270.472273201246480
 21
-201.568804986824630
  0
LINE
  8
0
  6
CONTINUOUS
 62
3
 10
-312.472273201246940
 20
-258.582696555931530
 11
-364.472273201246940
 21
-258.582696555931530
  0
LINE
  8
0
  6
CONTINUOUS
 62
3
 10
-416.472273201246940
 20
-258.582696555931530
 11
-364.472273201246940
 21
-258.582696555931530
  0
LINE
  8
0
  6
CONTINUOUS
 62
3
 10
-458.472273201246940
 20
-145.816094740112850
 11
-458.472273201246940
 21
-201.568804986824630
  0
LINE
  8
0
  6
CONTINUOUS
 62
3
 10
-272.472273201246480
 20
-148.582696555931450
 11
-273.299117913690340
 21
-148.582696555931450
  0
LINE
  8
0
  6
CONTINUOUS
 62
3
 10
-454.970270428378170
 20
-132.582696555931450
 11
-449.472273201246940
 21
-132.582696555931450
  0
LINE
  8
0
  6
CONTINUOUS
 62
3
 10
-456.472273201246940
 20
-148.582696555931450
 11
-449.472273201246940
 21
-148.582696555931450
  0
LINE
  8
0
  6
CONTINUOUS
 62
3
 10
-361.472273201246940
 20
-41.043304541761955
 11
-361.472273201246940
 21
-60.122088570100942
  0
LINE
  8
0
  6
CONTINUOUS
 62
3
 10
-367.472273201246940
 20
-41.043304541761955
 11
-367.472273201246940
 21
-60.122088570100942
  0
ARC
  8
0
  6
CONTINUOUS
 62
3
 10
-374.972273201246940
 20
-74.582696555934916
 40
10.000000000000000
 50
180.000000000000000
 51
219.884595310946880
  0
ARC
  8
0
  6
CONTINUOUS
 62
3
 10
-353.972273201246940
 20
-74.582696555934916
 40
9.999999999999719
 50
320.115404689053950
 51
0.000000000000000
  0
LINE
  8
0
  6
CONTINUOUS
 62
3
 10
-306.972273201246940
 20
-98.582696555931619
 11
-279.605608428304550
 21
-98.582696555931619
  0
LINE
  8
0
  6
CONTINUOUS
 62
3
 10
-306.972273201246940
 20
-170.582696555931390
 11
-279.605608428304550
 21
-170.582696555931390
  0
LINE
  8
0
  6
CONTINUOUS
 62
3
 10
-272.472273201246940
 20
-132.082696555931160
 11
-272.982690048764650
 21
-132.082696555931160
  0
LINE
  8
0
  6
CONTINUOUS
 62
3
 10
-272.472273201246940
 20
-137.082696555931390
 11
-272.472273201246940
 21
-132.082696555931390
  0
LINE
  8
0
  6
CONTINUOUS
 62
3
 10
-272.472273201246940
 20
-137.082696555931390
 11
-272.982690048764650
 21
-137.082696555931390
  0
ARC
  8
0
  6
CONTINUOUS
 62
3
 10
-279.605608428304550
 20
-165.582696555931390
 40
5.000000000000000
 50
270.000000000000000
 51
353.967950853629650
  0
ARC
  8
0
  6
CONTINUOUS
 62
3
 10
-279.605608428304550
 20
-103.582696555931610
 40
5.000000000000143
 50
6.032049146370342
 51
90.000000000000000
  0
ARC
  8
0
  6
CONTINUOUS
 62
3
 10
-572.972273201246940
 20
-134.582696555931390
 40
300.000000000000060
 50
353.967950853630210
 51
6.032049146369772
  0
LINE
  8
0
  6
CONTINUOUS
 62
3
 10
-306.972273201246940
 20
-104.594710701501150
 11
-306.972273201246940
 21
-98.582696555931619
  0
LINE
  8
0
  6
CONTINUOUS
 62
3
 10
-308.472312718049120
 20
-98.582696555931619
 11
-306.972273201246940
 21
-98.582696555931619
  0
LINE
  8
0
  6
CONTINUOUS
 62
3
 10
-308.472312718049120
 20
-170.582696555931160
 11
-306.972273201246940
 21
-170.582696555931160
  0
ARC
  8
0
  6
CONTINUOUS
 62
3
 10
-350.472273201246480
 20
-145.816094740112850
 40
80.000000000000014
 50
36.186639254938058
 51
85.339580615885538
  0
LINE
  8
0
  6
CONTINUOUS
 62
3
 10
-306.972273201246940
 20
-170.582696555931390
 11
-306.972273201246940
 21
-164.575195618193760
  0
LINE
  8
0
  6
DASHDOT
 62
4
 10
18.628772911917622
 20
-134.582696555931930
 11
-236.661586679158060
 21
-134.582696555931930
  0
TEXT
  8
0
  6
CONTINUOUS
 62
3
 10
-398.223358154296880
 20
160.336181640625000
 40
7.919999599456787
  1
Ｓ１９４
 50
0.000002504478167
 41
0.984848598876354
  7
STANDARD1
  0
TEXT
  8
0
  6
CONTINUOUS
 62
3
 10
-398.223358154296880
 20
147.616180419921880
 40
7.919999599456787
  1
三菱ギヤードモートル
 50
0.000002504478167
 41
0.984848598876354
  7
STANDARD1
  0
TEXT
  8
0
  6
CONTINUOUS
 62
3
 10
-398.223358154296880
 20
134.896179199218750
 40
7.919999599456787
  1
ＧＭ－ＳＦＳＢ
 50
0.000002504478167
 41
0.984848598876354
  7
STANDARD1
  0
TEXT
  8
0
  6
CONTINUOUS
 62
3
 10
-398.223358154296880
 20
122.176185607910150
 40
7.919999599456787
  1
０．１ｋＷ
 50
0.000002504478167
 41
0.984848598876354
  7
STANDARD1
  0
TEXT
  8
0
  6
CONTINUOUS
 62
3
 10
-398.223358154296880
 20
109.456184387207030
 40
7.919999599456787
  1
１／１２００
 50
0.000002504478167
 41
0.984848598876354
  7
STANDARD1
  0
TEXT
  8
0
  6
CONTINUOUS
 62
3
 10
-398.223358154296880
 20
96.736183166503906
 40
7.919999599456787
  1
ＳＣＡＬＥ１／１
 50
0.000002504478167
 41
0.984848598876354
  7
STANDARD1
  0
ENDSEC
  0
EOF
