  0
SECTION
  2
HEADER
  9
$TEXTSIZE
 40
2.5
  9
$ACADVER
  1
AC1009
  9
$DIMASZ
 40
3.863703297614046
  9
$DIMEXE
 40
2.000000000000000
  9
$DIMEXO
 40
1.000000000000000
  9
$DIMLFAC
 40
1.000000000000000
  9
$DIMSCALE
 40
1.000000000000000
  9
$DIMTAD
 70
1
  9
$DIMTFAC
 40
0.625000000000000
  9
$DIMTXT
 40
3.200000047683716
  9
$LUPREC
 70
3
  9
$REGENMODE
 70
1
  9
$TEXTSTYLE
  7
STANDARD1
  0
ENDSEC
  0
SECTION
  2
TABLES
  0
TABLE
  2
LTYPE
 70
4
  0
LTYPE
  2
CONTINUOUS
 70
64
  3
Solid line
 72
65
 73
0
 40
0.0
  0
LTYPE
  2
DASHED
 70
64
  3
-- -- -- -- -- -- -- -- -- -- -- -- -- -- --
 72
65
 73
2
 40
0.75
 49
0.5
 49
-0.25
  0
LTYPE
  2
DASHDOT
 70
64
  3
__ . __ . __ . __ . __ . __ . __ . __ . __ . __
 72
65
 73
4
 40
1.0
 49
0.5
 49
-0.25
 49
0.0
 49
-0.25
  0
LTYPE
  2
DIVIDE
 70
64
  3
__ . . __ . . __ . . __ . . __ . . __ . . __
 72
65
 73
6
 40
1.25
 49
0.5
 49
-0.25
 49
0.0
 49
-0.25
 49
0.0
 49
-0.25
  0
ENDTAB
  0
TABLE
  2
LAYER
 70
1
  0
LAYER
  2
0
 70
64
 62
2
  6
CONTINUOUS
  0
ENDTAB
  0
TABLE
  2
STYLE
 70
4
  0
STYLE
  2
STANDARD1
 70
64
 40
0.0
 41
1.0
 50
0.0
 71
0
 42
3.200000047683716
  3
MONOTXT
  4
BIGFONT
  0
STYLE
  2
STANDARD2
 70
68
 40
0.0
 41
1.0
 50
0.0
 71
0
 42
3.200000047683716
  3
MONOTXT
  4
BIGFONT
  0
STYLE
  2
STANDARD3
 70
64
 40
0.0
 41
1.0
 50
0.0
 71
0
 42
3.200000047683716
  3
MONOTXT
  4

  0
STYLE
  2
STANDARD4
 70
68
 40
0.0
 41
1.0
 50
0.0
 71
0
 42
3.200000047683716
  3
MONOTXT
  4

  0
ENDTAB
  0
TABLE
  2
VIEW
 70
0
  0
ENDTAB
  0
ENDSEC
  0
SECTION
  2
BLOCKS
  0
BLOCK
  8
0
  2
ZU_SYM_1
 70
64
 10
0.000000000000000
 20
0.000000000000000
  0
ARC
  8
0
  6
CONTINUOUS
 62
256
 10
-0.979025304317474
 20
-2.200000762939453
 40
1.299999237060547
 50
196.601531107481040
 51
270.000000000000000
  0
ARC
  8
0
  6
CONTINUOUS
 62
256
 10
-0.979025304317474
 20
2.200000762939453
 40
1.299999237060547
 50
90.000000000000000
 51
163.398451589674950
  0
LINE
  8
0
  6
CONTINUOUS
 62
256
 10
0.000000000000000
 20
-3.500000000000000
 11
-0.979025304317474
 21
-3.500000000000000
  0
LINE
  8
0
  6
CONTINUOUS
 62
256
 10
0.000000000000000
 20
3.500000000000000
 11
-0.979025304317474
 21
3.500000000000000
  0
LINE
  8
0
  6
CONTINUOUS
 62
256
 10
0.000000000000000
 20
-3.500000000000000
 11
0.000000000000000
 21
3.500000000000000
  0
LINE
  8
0
  6
CONTINUOUS
 62
256
 10
0.000000000000000
 20
-3.500000000000000
 11
0.000000000000000
 21
3.500000000000000
  0
POINT
  8
0
  6
CONTINUOUS
 62
256
 10
0.000000000000000
 20
0.000000000000000
  0
ARC
  8
0
  6
CONTINUOUS
 62
256
 10
6.399999618530273
 20
0.000000000000000
 40
9.000000000000000
 50
163.398451589674950
 51
196.601531107481040
  0
ENDBLK
  8
0
  0
BLOCK
  8
0
  2
ZU_SYM_2
 70
64
 10
0.000000000000000
 20
0.000000000000000
  0
ARC
  8
0
  6
CONTINUOUS
 62
256
 10
-0.979025304317474
 20
-2.200000762939453
 40
1.299999237060547
 50
196.601531107481040
 51
270.000000000000000
  0
ARC
  8
0
  6
CONTINUOUS
 62
256
 10
-0.979025304317474
 20
2.200000762939453
 40
1.299999237060547
 50
90.000000000000000
 51
163.398451589674950
  0
LINE
  8
0
  6
CONTINUOUS
 62
256
 10
0.000000000000000
 20
-3.500000000000000
 11
-0.979025304317474
 21
-3.500000000000000
  0
LINE
  8
0
  6
CONTINUOUS
 62
256
 10
0.000000000000000
 20
3.500000000000000
 11
-0.979025304317474
 21
3.500000000000000
  0
LINE
  8
0
  6
CONTINUOUS
 62
256
 10
0.000000000000000
 20
-3.500000000000000
 11
0.000000000000000
 21
3.500000000000000
  0
LINE
  8
0
  6
CONTINUOUS
 62
256
 10
0.000000000000000
 20
-3.500000000000000
 11
0.000000000000000
 21
3.500000000000000
  0
POINT
  8
0
  6
CONTINUOUS
 62
256
 10
0.000000000000000
 20
0.000000000000000
  0
ARC
  8
0
  6
CONTINUOUS
 62
256
 10
6.399999618530273
 20
0.000000000000000
 40
9.000000000000000
 50
163.398451589674950
 51
196.601531107481040
  0
ENDBLK
  8
0
  0
ENDSEC
  0
SECTION
  2
ENTITIES
  0
LINE
  8
0
  6
CONTINUOUS
 62
256
 10
69.246323605494808
 20
-110.538211560678970
 11
69.246323605494808
 21
-58.038211560678974
  0
LINE
  8
0
  6
CONTINUOUS
 62
256
 10
210.506772886539920
 20
-113.038211560679030
 11
211.017189734057640
 21
-113.038211560679030
  0
LINE
  8
0
  6
CONTINUOUS
 62
256
 10
210.506772886539920
 20
-113.038211560679030
 11
210.506772886539920
 21
-108.038211560679030
  0
LINE
  8
0
  6
CONTINUOUS
 62
256
 10
210.506772886539920
 20
-108.038211560678800
 11
211.017189734057640
 21
-108.038211560678800
  0
LINE
  8
0
  6
CONTINUOUS
 62
256
 10
230.006772886539240
 20
-146.538211560679030
 11
217.640108113597530
 21
-146.538211560679030
  0
LINE
  8
0
  6
CONTINUOUS
 62
256
 10
230.006772886539240
 20
-74.538211560679258
 11
217.640108113597530
 21
-74.538211560679258
  0
LINE
  8
0
  6
CONTINUOUS
 62
256
 10
69.246323605495036
 20
-58.038211560678974
 11
69.246323605494524
 21
-163.564395487825950
  0
ARC
  8
0
  6
CONTINUOUS
 62
256
 10
511.006772886539920
 20
-110.538211560679030
 40
300.000000000000060
 50
173.967950853630210
 51
186.032049146369810
  0
ARC
  8
0
  6
CONTINUOUS
 62
256
 10
217.640108113597530
 20
-79.538211560679258
 40
5.000000000000000
 50
90.000000000000000
 51
173.967950853629670
  0
ARC
  8
0
  6
CONTINUOUS
 62
256
 10
217.640108113597530
 20
-141.538211560679030
 40
5.000000000000143
 50
186.032049146370330
 51
270.000000000000000
  0
LINE
  8
0
  6
CONTINUOUS
 62
256
 10
300.506772886539920
 20
-36.673960949633624
 11
300.506772886539920
 21
-53.353578252900775
  0
LINE
  8
0
  6
CONTINUOUS
 62
256
 10
304.506772886539920
 20
-36.673960949633624
 11
304.506772886539920
 21
-53.353578252900775
  0
LINE
  8
0
  6
DASHDOT
 62
256
 10
302.506772886539920
 20
-16.186306905932838
 11
302.506772886539920
 21
-182.259338429412420
  0
LINE
  8
0
  6
CONTINUOUS
 62
256
 10
241.106465291005410
 20
-51.108466713631174
 11
230.592559324166130
 21
-40.594560746793036
  0
LINE
  8
0
  6
CONTINUOUS
 62
256
 10
258.077028039481090
 20
-34.137903965152077
 11
247.563122072633400
 21
-23.623997998306663
  0
LINE
  8
0
  6
CONTINUOUS
 62
256
 10
238.006772886539240
 20
-23.038211560679088
 11
367.006772886539240
 21
-23.038211560679088
  0
LINE
  8
0
  6
CONTINUOUS
 62
256
 10
375.006772886539240
 20
-31.038211560679088
 11
375.006772886539240
 21
-160.038211560679090
  0
LINE
  8
0
  6
CONTINUOUS
 62
256
 10
363.907080482066250
 20
-51.108466713621169
 11
374.420986448912340
 21
-40.594560746773936
  0
LINE
  8
0
  6
CONTINUOUS
 62
256
 10
346.936517733587830
 20
-34.137903965145711
 11
357.450423700425520
 21
-23.623997998306663
  0
ARC
  8
0
  6
CONTINUOUS
 62
256
 10
306.506772886539920
 20
-53.353578252900775
 40
2.000000000000000
 50
180.000000000000000
 51
269.427325621609500
  0
ARC
  8
0
  6
CONTINUOUS
 62
256
 10
298.506772886539920
 20
-53.353578252900775
 40
2.000000000000305
 50
270.572674378390390
 51
0.000000000000000
  0
ARC
  8
0
  6
CONTINUOUS
 62
256
 10
298.506772886539920
 20
-36.673960949633624
 40
2.000000000000000
 50
0.000000000000000
 51
93.887441542153866
  0
ARC
  8
0
  6
CONTINUOUS
 62
256
 10
306.506772886539920
 20
-36.673960949633624
 40
2.000000000000140
 50
86.112558457846418
 51
180.000000000000000
  0
CIRCLE
  8
0
  6
CONTINUOUS
 62
256
 10
238.867162579745810
 20
-31.898601253895436
 40
5.300000000000011
  0
CIRCLE
  8
0
  6
CONTINUOUS
 62
256
 10
366.146383193323570
 20
-31.898601253885431
 40
5.300000000000011
  0
ARC
  8
0
  6
CONTINUOUS
 62
256
 10
370.978148293932240
 20
-58.179534525486929
 40
10.000000000000563
 50
135.000000000000910
 51
208.617330145903760
  0
ARC
  8
0
  6
CONTINUOUS
 62
256
 10
234.035397479140330
 20
-58.179534525496933
 40
10.000000000000236
 50
331.382669854102570
 51
45.000000000002764
  0
ARC
  8
0
  6
CONTINUOUS
 62
256
 10
238.006772886539240
 20
-31.038211560679088
 40
8.000000000000000
 50
90.000000000000000
 51
180.000000000000000
  0
ARC
  8
0
  6
CONTINUOUS
 62
256
 10
232.006772886528780
 20
-39.180347184413051
 40
2.000000000000000
 50
180.000000000009780
 51
225.000000000023900
  0
ARC
  8
0
  6
CONTINUOUS
 62
256
 10
265.148095851346170
 20
-27.066836153286317
 40
9.999999999999920
 50
225.000000000002760
 51
298.617330145902830
  0
CIRCLE
  8
0
  6
CONTINUOUS
 62
256
 10
302.506772886539240
 20
-95.538211560679088
 40
61.000000000000000
  0
ARC
  8
0
  6
CONTINUOUS
 62
256
 10
339.865449921721620
 20
-27.066836153280860
 40
10.000000000000218
 50
241.382669854105530
 51
315.000000000005570
  0
ARC
  8
0
  6
CONTINUOUS
 62
256
 10
302.506772886539240
 20
-95.538211560679088
 40
67.999999999999289
 50
61.382669854105067
 51
118.617330145903680
  0
ARC
  8
0
  6
CONTINUOUS
 62
256
 10
367.006772886539240
 20
-31.038211560679088
 40
8.000000000000000
 50
0.000000000000000
 51
90.000000000000000
  0
ARC
  8
0
  6
CONTINUOUS
 62
256
 10
373.006772886539240
 20
-39.180347184400603
 40
2.000000000000177
 50
314.999999999995400
 51
0.000000000000000
  0
ARC
  8
0
  6
CONTINUOUS
 62
256
 10
358.864637262798620
 20
-25.038211560679088
 40
2.000000000000000
 50
90.000000000000000
 51
135.000000000014040
  0
ARC
  8
0
  6
CONTINUOUS
 62
256
 10
302.506772886540150
 20
-453.538211560679090
 40
398.204623581088130
 50
87.093615629290085
 51
89.427325621611587
  0
ARC
  8
0
  6
CONTINUOUS
 62
256
 10
302.506772886539920
 20
-453.538211560679090
 40
398.204623581088530
 50
90.572674378388442
 51
92.906384370709887
  0
ARC
  8
0
  6
CONTINUOUS
 62
256
 10
284.506772886540150
 20
-98.994843268449699
 40
43.204623581088974
 50
92.906384370709901
 51
132.696269977174840
  0
ARC
  8
0
  6
CONTINUOUS
 62
256
 10
320.506772886540150
 20
-98.994843268449699
 40
43.204623581089415
 50
47.303730022832184
 51
87.093615629290113
  0
ARC
  8
0
  6
DASHDOT
 62
256
 10
302.506772886540600
 20
-95.538211560679088
 40
89.999999999999602
 50
128.633392784984180
 51
141.366607215004020
  0
CIRCLE
  8
0
  6
CONTINUOUS
 62
256
 10
302.506772886539920
 20
-95.538211560679997
 40
65.000000000000000
  0
ARC
  8
0
  6
DASHDOT
 62
256
 10
302.506772886539240
 20
-95.538211560679088
 40
89.999999999999986
 50
38.855751230988709
 51
51.366607215015797
  0
LINE
  8
0
  6
DASHDOT
 62
256
 10
358.198593419165040
 20
-39.846391028045332
 11
372.197526611083050
 21
-25.847457836125443
  0
LINE
  8
0
  6
DASHDOT
 62
256
 10
233.031581082121190
 20
-26.063019756273718
 11
246.422205986219520
 21
-39.453644660369832
  0
CIRCLE
  8
0
  6
CONTINUOUS
 62
256
 10
302.506772886539690
 20
-95.538211560679997
 40
3.000000000000000
  0
ARC
  8
0
  6
CONTINUOUS
 62
256
 10
302.506765526532490
 20
-95.538211560679997
 40
8.000000000000096
 50
198.209956864282790
 51
161.789968677645760
  0
LINE
  8
0
  6
CONTINUOUS
 62
256
 10
292.506765526532490
 20
-93.038211560679997
 11
297.506765526532490
 21
-93.038211560679997
  0
LINE
  8
0
  6
CONTINUOUS
 62
256
 10
292.506765526532490
 20
-93.038211560679997
 11
292.506765526532490
 21
-98.038211560679997
  0
LINE
  8
0
  6
CONTINUOUS
 62
256
 10
297.506765526532490
 20
-93.038211560679997
 11
297.506765526532490
 21
-98.038211560679997
  0
CIRCLE
  8
0
  6
CONTINUOUS
 62
256
 10
302.506772886539690
 20
-95.538211560679997
 40
2.458500000000015
  0
LINE
  8
0
  6
CONTINUOUS
 62
256
 10
292.506765526532490
 20
-98.038211560679997
 11
297.506765526532490
 21
-98.038211560679997
  0
LINE
  8
0
  6
DASHDOT
 62
256
 10
320.699889676295920
 20
-110.538211560680000
 11
286.957074240540350
 21
-110.538211560680000
  0
LINE
  8
0
  6
CONTINUOUS
 62
256
 10
363.907080482072840
 20
-139.967956407727910
 11
374.420986448912120
 21
-150.481862374566050
  0
LINE
  8
0
  6
CONTINUOUS
 62
256
 10
346.936517733597160
 20
-156.938519156207010
 11
357.450423700444840
 21
-167.452425123052420
  0
LINE
  8
0
  6
CONTINUOUS
 62
256
 10
238.006772886539240
 20
-168.038211560679090
 11
367.006772886539240
 21
-168.038211560679090
  0
LINE
  8
0
  6
CONTINUOUS
 62
256
 10
241.106465291012000
 20
-139.967956407737920
 11
230.592559324165900
 21
-150.481862374585150
  0
LINE
  8
0
  6
CONTINUOUS
 62
256
 10
258.077028039490410
 20
-156.938519156213370
 11
247.563122072652730
 21
-167.452425123052420
  0
ARC
  8
0
  6
CONTINUOUS
 62
256
 10
231.958916788710210
 20
-103.538211560680000
 40
2.999999999999902
 50
6.469601610346050
 51
90.000000000000000
  0
ARC
  8
0
  6
CONTINUOUS
 62
256
 10
231.958916788710210
 20
-87.538211560679997
 40
3.000000000000000
 50
270.000000000000000
 51
353.530398389671120
  0
ARC
  8
0
  6
CONTINUOUS
 62
256
 10
373.006772886540600
 20
-92.538211560679997
 40
2.000000000000000
 50
0.000000000000000
 51
90.000000000000000
  0
ARC
  8
0
  6
CONTINUOUS
 62
256
 10
373.006772886540600
 20
-98.538211560679997
 40
2.000000000000000
 50
270.000000000000000
 51
0.000000000000000
  0
ARC
  8
0
  6
CONTINUOUS
 62
256
 10
373.054628984369630
 20
-103.538211560680000
 40
3.000000000000000
 50
90.000000000000000
 51
173.530398389653950
  0
ARC
  8
0
  6
CONTINUOUS
 62
256
 10
373.054628984369630
 20
-87.538211560679997
 40
2.999999999999799
 50
186.469601610328770
 51
270.000000000000000
  0
CIRCLE
  8
0
  6
CONTINUOUS
 62
256
 10
238.867162579754680
 20
-159.177821867473650
 40
5.300000000000011
  0
CIRCLE
  8
0
  6
CONTINUOUS
 62
256
 10
366.146383193333120
 20
-159.177821867463650
 40
5.300000000000011
  0
ARC
  8
0
  6
CONTINUOUS
 62
256
 10
265.733789102793250
 20
-137.772648500697980
 40
4.999999999999889
 50
228.954327619990690
 51
17.369633808356543
  0
ARC
  8
0
  6
CONTINUOUS
 62
256
 10
295.996301163167120
 20
-151.158475475364070
 40
4.999999999999622
 50
114.908479498619850
 51
263.323785686981860
  0
ARC
  8
0
  6
CONTINUOUS
 62
256
 10
352.133268116143200
 20
-121.484520955776230
 40
5.000000000000225
 50
193.525604501702190
 51
332.398001014701490
  0
ARC
  8
0
  6
CONTINUOUS
 62
256
 10
323.567947156728450
 20
-147.426812797952270
 40
4.999999999999915
 50
292.091845782585780
 51
70.964242295592584
  0
ARC
  8
0
  6
CONTINUOUS
 62
256
 10
276.851332190708260
 20
-113.815201539962910
 40
3.000000000000294
 50
299.601286977152820
 51
35.466151704764755
  0
ARC
  8
0
  6
CONTINUOUS
 62
256
 10
306.243027780687500
 20
-126.815845732177990
 40
2.999999999999606
 50
96.811961602215632
 51
192.676826329818790
  0
ARC
  8
0
  6
CONTINUOUS
 62
256
 10
310.755361867898730
 20
-125.939046743561560
 40
3.000000000000167
 50
358.020519821729640
 51
105.180454711340090
  0
ARC
  8
0
  6
CONTINUOUS
 62
256
 10
331.975084653504840
 20
-106.667838760412560
 40
3.000000000000015
 50
159.309392085947540
 51
266.469326975568260
  0
ARC
  8
0
  6
CONTINUOUS
 62
256
 10
286.730560131608400
 20
-131.204878227346970
 40
17.000000000000071
 50
294.908479498618020
 51
12.676826329814618
  0
ARC
  8
0
  6
CONTINUOUS
 62
256
 10
330.743427103459000
 20
-126.629878227346230
 40
16.999999999999893
 50
13.525604501697238
 51
86.469326975567711
  0
ARC
  8
0
  6
CONTINUOUS
 62
256
 10
286.730560131608400
 20
-131.204878227346970
 40
16.999999999999968
 50
119.601286977159330
 51
197.369633808356040
  0
ARC
  8
0
  6
CONTINUOUS
 62
256
 10
330.743427103459000
 20
-126.629878227346230
 40
16.999999999999861
 50
178.020519821724410
 51
250.964242295592900
  0
ARC
  8
0
  6
CONTINUOUS
 62
256
 10
302.506772886539240
 20
-95.538211560679088
 40
68.000000000000142
 50
186.469601610343260
 51
208.617330145903570
  0
ARC
  8
0
  6
CONTINUOUS
 62
256
 10
302.506772886539240
 20
-95.538211560679088
 40
68.000000000000043
 50
6.469601610342491
 51
28.617330145902912
  0
CIRCLE
  8
0
  6
CONTINUOUS
 62
256
 10
302.506772886539240
 20
-95.538211560679997
 40
28.500000000001705
  0
ARC
  8
0
  6
CONTINUOUS
 62
256
 10
302.506772886539240
 20
-95.538211560679088
 40
68.000000000000426
 50
331.382669854104510
 51
353.530398389656740
  0
ARC
  8
0
  6
CONTINUOUS
 62
256
 10
370.978148293937920
 20
-132.896888595862150
 40
10.000000000000236
 50
151.382669854102600
 51
225.000000000002760
  0
ARC
  8
0
  6
CONTINUOUS
 62
256
 10
373.006772886539240
 20
-151.896075936939380
 40
2.000000000000000
 50
0.000000000000000
 51
45.000000000009209
  0
ARC
  8
0
  6
CONTINUOUS
 62
256
 10
367.006772886539240
 20
-160.038211560679090
 40
8.000000000000000
 50
270.000000000000000
 51
0.000000000000000
  0
ARC
  8
0
  6
CONTINUOUS
 62
256
 10
339.865449921732080
 20
-164.009586968072770
 40
9.999999999999920
 50
45.000000000002764
 51
118.617330145902780
  0
ARC
  8
0
  6
CONTINUOUS
 62
256
 10
358.864637262817950
 20
-166.038211560680000
 40
1.999999999999534
 50
224.999999999986190
 51
270.000000000000000
  0
ARC
  8
0
  6
CONTINUOUS
 62
256
 10
265.148095851356630
 20
-164.009586968078220
 40
10.000000000000218
 50
61.382669854105508
 51
135.000000000005660
  0
ARC
  8
0
  6
CONTINUOUS
 62
256
 10
302.506772886539240
 20
-95.538211560679088
 40
68.000000000000185
 50
241.382669854105220
 51
298.617330145903110
  0
ARC
  8
0
  6
CONTINUOUS
 62
256
 10
238.006772886539240
 20
-160.038211560679090
 40
8.000000000000000
 50
180.000000000000000
 51
270.000000000000000
  0
ARC
  8
0
  6
CONTINUOUS
 62
256
 10
234.035397479146010
 20
-132.896888595872160
 40
10.000000000000563
 50
315.000000000000910
 51
28.617330145899306
  0
ARC
  8
0
  6
CONTINUOUS
 62
256
 10
246.148908510279630
 20
-166.038211560680000
 40
2.000000000000000
 50
270.000000000000000
 51
315.000000000013810
  0
ARC
  8
0
  6
CONTINUOUS
 62
256
 10
302.506772886539240
 20
-95.538211560679088
 40
67.999999999999559
 50
151.382669854105840
 51
173.530398389657510
  0
ARC
  8
0
  6
CONTINUOUS
 62
256
 10
253.174871283899170
 20
-65.036351219588255
 40
2.999999999999679
 50
148.271543901143390
 51
312.696269977175230
  0
ARC
  8
0
  6
CONTINUOUS
 62
256
 10
351.838674489177040
 20
-65.036351219584617
 40
2.999999999999885
 50
227.303730022827890
 51
31.728456098873554
  0
ARC
  8
0
  6
DASHDOT
 62
256
 10
302.506772886539010
 20
-95.538211560679997
 40
89.999999999999602
 50
308.633392784996260
 51
321.222539268991450
  0
ARC
  8
0
  6
DASHDOT
 62
256
 10
302.506772886539010
 20
-95.538211560679088
 40
89.999999999999901
 50
218.798073615281880
 51
231.366607215016130
  0
LINE
  8
0
  6
DASHDOT
 62
256
 10
202.415276371800930
 20
-95.538211560678974
 11
411.002355024916820
 21
-95.538211560680111
  0
LINE
  8
0
  6
DASHDOT
 62
256
 10
232.923601173967650
 20
-165.121383273262610
 11
246.892310694920070
 21
-151.152673752308260
  0
LINE
  8
0
  6
DASHDOT
 62
256
 10
357.820074199748210
 20
-150.851512873880100
 11
372.180998651272830
 21
-165.212437325402850
  0
CIRCLE
  8
0
  6
CONTINUOUS
 62
256
 10
302.506772886539690
 20
-95.538211560680907
 40
15.000000000004434
  0
LINE
  8
0
  6
CONTINUOUS
 62
256
 10
230.006772886539240
 20
-31.038211560679088
 11
230.006772886539240
 21
-160.038211560679090
  0
ARC
  8
0
  6
CONTINUOUS
 62
256
 10
232.006772886539010
 20
-151.896075936958480
 40
2.000000000000177
 50
134.999999999995400
 51
180.000000000000000
  0
LINE
  8
0
  6
CONTINUOUS
 62
256
 10
70.246323605494979
 20
-150.578646967203330
 11
88.746323605506802
 21
-150.578646967203330
  0
LINE
  8
0
  6
CONTINUOUS
 62
256
 10
70.246323605494979
 20
-151.580125331018620
 11
88.746323605506802
 21
-151.580125331018620
  0
LINE
  8
0
  6
CONTINUOUS
 62
256
 10
70.246323605494979
 20
-161.538211560678970
 11
85.746324368446309
 21
-161.538211560678970
  0
LINE
  8
0
  6
CONTINUOUS
 62
256
 10
70.246323605494979
 20
-161.038211560678970
 11
85.746324368446309
 21
-161.038211560678970
  0
LINE
  8
0
  6
CONTINUOUS
 62
256
 10
70.246323605494979
 20
-156.671294155561670
 11
88.746323605506802
 21
-156.671294155561670
  0
LINE
  8
0
  6
CONTINUOUS
 62
256
 10
70.246323605494979
 20
-155.042867087783890
 11
88.746323605506802
 21
-155.042867087783860
  0
LINE
  8
0
  6
CONTINUOUS
 62
256
 10
70.246323605494979
 20
-143.841812512187660
 11
88.746323605506802
 21
-143.841812512187630
  0
LINE
  8
0
  6
CONTINUOUS
 62
256
 10
70.246323605494979
 20
-142.252602719448990
 11
88.746323605506802
 21
-142.252602719448990
  0
LINE
  8
0
  6
CONTINUOUS
 62
256
 10
70.246323605494979
 20
-139.294607111316050
 11
88.746323605506802
 21
-139.294607111316050
  0
LINE
  8
0
  6
CONTINUOUS
 62
256
 10
70.246323605494979
 20
-137.815583957838950
 11
88.746323605506802
 21
-137.815583957838950
  0
LINE
  8
0
  6
CONTINUOUS
 62
256
 10
70.246323605494979
 20
-134.722852966173720
 11
88.746323605506802
 21
-134.722852966173720
  0
LINE
  8
0
  6
CONTINUOUS
 62
256
 10
70.246323605494979
 20
-133.376451240675120
 11
88.746323605506802
 21
-133.376451240675120
  0
LINE
  8
0
  6
CONTINUOUS
 62
256
 10
70.246323605494979
 20
-130.538211560678970
 11
88.746323605506802
 21
-130.538211560678970
  0
LINE
  8
0
  6
CONTINUOUS
 62
256
 10
70.246323605494979
 20
-90.538211560678974
 11
85.746323605506859
 21
-90.538211560678974
  0
LINE
  8
0
  6
CONTINUOUS
 62
256
 10
70.246323605494979
 20
-87.699971880682824
 11
85.746323605506859
 21
-87.699971880682824
  0
LINE
  8
0
  6
CONTINUOUS
 62
256
 10
70.246323605494979
 20
-86.353570155184229
 11
85.746323605506859
 21
-86.353570155184229
  0
LINE
  8
0
  6
CONTINUOUS
 62
256
 10
70.246323605494979
 20
-83.260839163518995
 11
88.746323605506802
 21
-83.260839163518995
  0
LINE
  8
0
  6
CONTINUOUS
 62
256
 10
70.246323605494979
 20
-81.781816010041894
 11
88.746323605506802
 21
-81.781816010041894
  0
LINE
  8
0
  6
CONTINUOUS
 62
256
 10
70.246323605494979
 20
-78.823820401908961
 11
88.746323605506802
 21
-78.823820401908961
  0
LINE
  8
0
  6
CONTINUOUS
 62
256
 10
70.246323605494979
 20
-77.234610609170204
 11
88.746323605506802
 21
-77.234610609170204
  0
LINE
  8
0
  6
CONTINUOUS
 62
256
 10
70.246323605494979
 20
-70.497776154154508
 11
88.746323605506802
 21
-70.497776154154508
  0
LINE
  8
0
  6
CONTINUOUS
 62
256
 10
70.246323605494979
 20
-69.496297790339213
 11
88.746323605506802
 21
-69.496297790339213
  0
LINE
  8
0
  6
CONTINUOUS
 62
256
 10
70.246323605494979
 20
-66.033556033574087
 11
88.746323605506802
 21
-66.033556033574087
  0
LINE
  8
0
  6
CONTINUOUS
 62
256
 10
70.246323605494979
 20
-64.405128965796280
 11
85.746324368446309
 21
-64.405128965796280
  0
LINE
  8
0
  6
DASHDOT
 62
256
 10
151.956267295724050
 20
-31.898601253898960
 11
122.949010304897910
 21
-31.898601253898960
  0
LINE
  8
0
  6
DASHDOT
 62
256
 10
150.956267295724050
 20
-159.177821867476270
 11
122.949010304897910
 21
-159.177821867476270
  0
LINE
  8
0
  6
CONTINUOUS
 62
256
 10
90.746324368446309
 20
-165.288210607004660
 11
85.746324368446309
 21
-165.288210607004660
  0
LINE
  8
0
  6
CONTINUOUS
 62
256
 10
88.746323605506859
 20
-156.788212514353290
 11
85.746324368446309
 21
-156.788212514353290
  0
LINE
  8
0
  6
CONTINUOUS
 62
256
 10
85.746324368446309
 20
-165.288210607004660
 11
85.746324368446309
 21
-156.788212514353290
  0
POINT
  8
0
  6
CONTINUOUS
 62
256
 10
90.746323605506859
 20
-161.038211560678970
  0
LINE
  8
0
  6
CONTINUOUS
 62
256
 10
95.746323605506859
 20
-165.546939093146650
 11
89.615765417723807
 21
-165.493438522358330
  0
ARC
  8
0
  6
CONTINUOUS
 62
256
 10
91.246323605506859
 20
-165.007649148895330
 40
0.500000000000000
 50
180.000000000000000
 51
269.500000000008470
  0
LINE
  8
0
  6
CONTINUOUS
 62
256
 10
89.746323605506859
 20
-160.680089956548730
 11
90.346323605506768
 21
-160.680089956548730
  0
ARC
  8
0
  6
CONTINUOUS
 62
256
 10
90.346323605506768
 20
-161.080089956549270
 40
0.400000000000091
 50
0.000000000000000
 51
90.000000000000000
  0
ARC
  8
0
  6
CONTINUOUS
 62
256
 10
89.746323605506859
 20
-159.680089956548730
 40
1.000000000000000
 50
180.000000000000000
 51
270.000000000000000
  0
ARC
  8
0
  6
CONTINUOUS
 62
256
 10
137.746323605506860
 20
-102.538211560682610
 40
2.000000000000000
 50
90.000000000000000
 51
180.000000000000000
  0
ARC
  8
0
  6
CONTINUOUS
 62
256
 10
137.746323605506860
 20
-88.538211560682612
 40
2.000000000000000
 50
180.000000000000000
 51
270.000000000000000
  0
LINE
  8
0
  6
CONTINUOUS
 62
256
 10
142.746323605506630
 20
-100.538211560682610
 11
137.746323605506860
 21
-100.538211560682610
  0
LINE
  8
0
  6
CONTINUOUS
 62
256
 10
142.746323605506630
 20
-90.538211560682612
 11
137.746323605506860
 21
-90.538211560682612
  0
LINE
  8
0
  6
CONTINUOUS
 62
256
 10
175.246323605483210
 20
-98.038211560678974
 11
153.746323605483210
 21
-98.038211560678974
  0
LINE
  8
0
  6
CONTINUOUS
 62
256
 10
175.246323605483210
 20
-93.038211560678974
 11
153.746323605483210
 21
-93.038211560678974
  0
ARC
  8
0
  6
CONTINUOUS
 62
256
 10
153.746323605483210
 20
-95.538211560678974
 40
2.500000000000000
 50
90.000000000000000
 51
270.000000000000000
  0
LINE
  8
0
  6
CONTINUOUS
 62
256
 10
149.946323605483030
 20
-87.038204122017305
 11
150.249931077232300
 21
-87.341811593766579
  0
ARC
  8
0
  6
CONTINUOUS
 62
256
 10
150.646323605482850
 20
-87.288211560678974
 40
0.399999999999814
 50
187.700803502457570
 51
270.000000000000000
  0
LINE
  8
0
  6
CONTINUOUS
 62
256
 10
152.806131226618160
 20
-87.688211560678610
 11
153.365938847753570
 21
-87.538211560678974
  0
LINE
  8
0
  6
CONTINUOUS
 62
256
 10
152.806131226618160
 20
-87.688211560678610
 11
150.646323605482850
 21
-87.688211560678610
  0
ARC
  8
0
  6
CONTINUOUS
 62
256
 10
174.846323605483120
 20
-87.938211560678610
 40
0.400000000000091
 50
0.000000000000000
 51
90.000000000000000
  0
LINE
  8
0
  6
CONTINUOUS
 62
256
 10
147.246323605506860
 20
-87.038204122017305
 11
149.946323605483030
 21
-87.038204122017305
  0
LINE
  8
0
  6
CONTINUOUS
 62
256
 10
174.846323605483120
 20
-87.538211560678974
 11
153.365938847753570
 21
-87.538211560678974
  0
LINE
  8
0
  6
CONTINUOUS
 62
256
 10
150.246323605483210
 20
-95.538211560678974
 11
150.246323605483210
 21
-87.338204122017487
  0
LINE
  8
0
  6
CONTINUOUS
 62
256
 10
147.246323605506860
 20
-104.038218999340640
 11
149.946323605483030
 21
-104.038218999340640
  0
LINE
  8
0
  6
CONTINUOUS
 62
256
 10
149.946323605483030
 20
-104.038218999340640
 11
150.249931077232300
 21
-103.734611527591350
  0
ARC
  8
0
  6
CONTINUOUS
 62
256
 10
150.646323605482850
 20
-103.788211560678970
 40
0.399999999999636
 50
90.000000000000000
 51
172.299196497543190
  0
LINE
  8
0
  6
CONTINUOUS
 62
256
 10
152.806131226618160
 20
-103.388211560679320
 11
153.365938847753570
 21
-103.538211560678970
  0
LINE
  8
0
  6
CONTINUOUS
 62
256
 10
152.806131226618160
 20
-103.388211560679320
 11
150.646323605482850
 21
-103.388211560679320
  0
ARC
  8
0
  6
CONTINUOUS
 62
256
 10
174.846323605483120
 20
-103.138211560679320
 40
0.399999999999636
 50
270.000000000000000
 51
0.000000000000000
  0
LINE
  8
0
  6
CONTINUOUS
 62
256
 10
174.846323605483120
 20
-103.538211560678970
 11
153.365938847753570
 21
-103.538211560678970
  0
LINE
  8
0
  6
CONTINUOUS
 62
256
 10
150.246323605483210
 20
-95.538211560678974
 11
150.246323605483210
 21
-103.738218999340460
  0
LINE
  8
0
  6
CONTINUOUS
 62
256
 10
175.246323605483210
 20
-95.538211560678974
 11
175.246323605483210
 21
-103.138211560679320
  0
LINE
  8
0
  6
CONTINUOUS
 62
256
 10
175.246323605483210
 20
-95.538211560678974
 11
175.246323605483210
 21
-87.938211560678610
  0
LINE
  8
0
  6
CONTINUOUS
 62
256
 10
90.746323605506859
 20
-165.288210607004660
 11
90.746323605506859
 21
-161.080089956549270
  0
LINE
  8
0
  6
CONTINUOUS
 62
256
 10
85.746324368446309
 20
-163.996463213696330
 11
69.246323605494808
 21
-163.564395487826000
  0
ARC
  8
0
  6
CONTINUOUS
 62
256
 10
89.620128685472991
 20
-164.993457560825850
 40
0.500000000000166
 50
215.467192086431370
 51
269.500000000000510
  0
ARC
  8
0
  6
CONTINUOUS
 62
256
 10
86.246323605506859
 20
-85.038211560678974
 40
0.500000000000000
 50
90.000000000000000
 51
180.000000000000000
  0
ARC
  8
0
  6
CONTINUOUS
 62
256
 10
88.246323605506859
 20
-84.038211560678974
 40
0.500000000000000
 50
270.000000000000000
 51
0.000000000000000
  0
ARC
  8
0
  6
CONTINUOUS
 62
256
 10
88.246323605506859
 20
-95.038211560678974
 40
0.500000000000000
 50
0.000000000000000
 51
90.000000000000000
  0
ARC
  8
0
  6
CONTINUOUS
 62
256
 10
86.246323605506859
 20
-94.038211560678974
 40
0.500000000000000
 50
180.000000000000000
 51
270.000000000000000
  0
LINE
  8
0
  6
CONTINUOUS
 62
256
 10
85.746323605506859
 20
-85.038211560678974
 11
85.746323605506859
 21
-89.538211560678974
  0
LINE
  8
0
  6
CONTINUOUS
 62
256
 10
86.246323605506859
 20
-84.538211560678974
 11
88.246323605506859
 21
-84.538211560678974
  0
LINE
  8
0
  6
CONTINUOUS
 62
256
 10
85.746323605506859
 20
-94.038211560678974
 11
85.746323605506859
 21
-89.538211560678974
  0
LINE
  8
0
  6
CONTINUOUS
 62
256
 10
86.246323605506859
 20
-94.538211560678974
 11
88.246323605506859
 21
-94.538211560678974
  0
ARC
  8
0
  6
CONTINUOUS
 62
256
 10
89.746323605506859
 20
-95.288211560678974
 40
1.000000000000000
 50
180.000000000000000
 51
270.000000000000000
  0
ARC
  8
0
  6
CONTINUOUS
 62
256
 10
90.346323605506768
 20
-96.688211560679520
 40
0.400000000000091
 50
0.000000000000000
 51
90.000000000000000
  0
LINE
  8
0
  6
CONTINUOUS
 62
256
 10
89.746323605506859
 20
-96.288211560678974
 11
90.346323605506768
 21
-96.288211560678974
  0
ARC
  8
0
  6
CONTINUOUS
 62
256
 10
89.746323605506859
 20
-107.788211560678970
 40
1.000000000000000
 50
90.000000000000000
 51
180.000000000000000
  0
ARC
  8
0
  6
CONTINUOUS
 62
256
 10
90.346323605506768
 20
-106.388211560679320
 40
0.399999999999636
 50
270.000000000000000
 51
0.000000000000000
  0
LINE
  8
0
  6
CONTINUOUS
 62
256
 10
89.746323605506859
 20
-106.788211560678970
 11
90.346323605506768
 21
-106.788211560678970
  0
LINE
  8
0
  6
CONTINUOUS
 62
256
 10
90.746323605506859
 20
-96.688211560679520
 11
90.746323605506859
 21
-106.388211560679320
  0
LINE
  8
0
  6
CONTINUOUS
 62
256
 10
88.746323605506859
 20
-105.787836840904670
 11
88.746323605506859
 21
-159.680089956548730
  0
ARC
  8
0
  6
CONTINUOUS
 62
256
 10
89.246323605506859
 20
-54.160099413097669
 40
0.499999999999321
 50
90.999999999977078
 51
180.000000000000000
  0
ARC
  8
0
  6
CONTINUOUS
 62
256
 10
87.746323605506859
 20
-56.540336258373827
 40
0.999999999999819
 50
311.593253995591400
 51
0.000000000000000
  0
LINE
  8
0
  6
CONTINUOUS
 62
256
 10
89.237597402288429
 20
-53.660175565520149
 11
95.746323605506859
 21
-53.546565327043027
  0
LINE
  8
0
  6
CONTINUOUS
 62
256
 10
85.746324368446309
 20
-57.593050874024726
 11
69.246323605495036
 21
-58.025118599894085
  0
LINE
  8
0
  6
CONTINUOUS
 62
256
 10
88.746323605506859
 20
-54.160099413097669
 11
88.746323605506859
 21
-57.288212514353290
  0
LINE
  8
0
  6
CONTINUOUS
 62
256
 10
70.694059373861364
 20
-59.540950612994493
 11
85.746324368446309
 21
-58.752094831448730
  0
LINE
  8
0
  6
CONTINUOUS
 62
256
 10
88.746323605506859
 20
-59.931593275648083
 11
88.746323605506859
 21
-84.038211560678974
  0
ARC
  8
0
  6
CONTINUOUS
 62
256
 10
89.746323605506859
 20
-59.931593275648083
 40
1.000000000000000
 50
90.000000000000000
 51
180.000000000000000
  0
ARC
  8
0
  6
CONTINUOUS
 62
256
 10
90.346323605506768
 20
-58.531593275648447
 40
0.399999999999636
 50
270.000000000000000
 51
0.000000000000000
  0
LINE
  8
0
  6
CONTINUOUS
 62
256
 10
89.746323605506859
 20
-58.931593275648083
 11
90.346323605506768
 21
-58.931593275648083
  0
LINE
  8
0
  6
CONTINUOUS
 62
256
 10
95.746323605506859
 20
-53.546565327043027
 11
95.746323605506859
 21
-165.546939093146650
  0
LINE
  8
0
  6
CONTINUOUS
 62
256
 10
90.746323605506859
 20
-54.125189283241525
 11
90.746323605506859
 21
-58.531593275648447
  0
ARC
  8
0
  6
CONTINUOUS
 62
256
 10
91.246323605506859
 20
-54.125189283241525
 40
0.499999999999321
 50
90.999999999977078
 51
180.000000000000000
  0
LINE
  8
0
  6
CONTINUOUS
 62
256
 10
85.746324368446309
 20
-65.788210607004658
 11
85.746324368446309
 21
-57.288212514353290
  0
LINE
  8
0
  6
CONTINUOUS
 62
256
 10
90.746324368446309
 20
-57.288212514353290
 11
85.746324368446309
 21
-57.288212514353290
  0
LINE
  8
0
  6
CONTINUOUS
 62
256
 10
88.746323605506859
 20
-65.788210607004658
 11
85.746324368446309
 21
-65.788210607004658
  0
LINE
  8
0
  6
CONTINUOUS
 62
256
 10
130.746323605506860
 20
-28.546939093143919
 11
130.746323605506860
 21
-23.920861278290431
  0
LINE
  8
0
  6
DASHDOT
 62
256
 10
188.135236191483270
 20
-95.538211560678974
 11
90.893978654663897
 21
-95.538211560678974
  0
LINE
  8
0
  6
CONTINUOUS
 62
256
 10
96.246323605506859
 20
-163.538211560678970
 11
128.781228418381490
 21
-164.106110436620840
  0
LINE
  8
0
  6
CONTINUOUS
 62
256
 10
96.246323605506859
 20
-53.538211560678974
 11
128.781228418381490
 21
-52.970312684737110
  0
LINE
  8
0
  6
CONTINUOUS
 62
256
 10
96.246323605506859
 20
-165.546939093146650
 11
128.939562478574770
 21
-166.117601700389970
  0
LINE
  8
0
  6
CONTINUOUS
 62
256
 10
142.746323605506860
 20
-23.038211560679883
 11
135.249065005702510
 21
-22.828795974216519
  0
LINE
  8
0
  6
CONTINUOUS
 62
256
 10
131.720146657198940
 20
-22.921203953314944
 11
135.233235131353010
 21
-22.829210494064682
  0
LINE
  8
0
  6
CONTINUOUS
 62
256
 10
130.344399816860230
 20
-29.243091515850210
 11
117.370596160262270
 21
-51.714378616500653
  0
LINE
  8
0
  6
CONTINUOUS
 62
256
 10
142.746323605506860
 20
-168.051304521462950
 11
135.249065005702510
 21
-168.247627147141430
  0
LINE
  8
0
  6
CONTINUOUS
 62
256
 10
130.746323605506860
 20
-166.105805826933650
 11
130.746323605506860
 21
-167.155561843067520
  0
ARC
  8
0
  6
CONTINUOUS
 62
256
 10
114.772519948908890
 20
-50.214378616500653
 40
2.999999999999587
 50
271.000000000001930
 51
330.000000000000630
  0
ARC
  8
0
  6
CONTINUOUS
 62
256
 10
127.746323605506840
 20
-27.743091515850210
 40
3.000000000000060
 50
330.000000000000740
 51
0.000000000000000
  0
ARC
  8
0
  6
CONTINUOUS
 62
256
 10
128.904657665700370
 20
-168.117297090702780
 40
2.000000000000208
 50
18.697908624297707
 51
89.000000000004846
  0
ARC
  8
0
  6
CONTINUOUS
 62
256
 10
128.746323605506860
 20
-50.970617294424301
 40
2.000000000000027
 50
271.000000000001760
 51
0.000000000000000
  0
ARC
  8
0
  6
CONTINUOUS
 62
256
 10
128.746323605506860
 20
-166.105805826933650
 40
2.000000000000000
 50
0.000000000000000
 51
88.999999999998224
  0
ARC
  8
0
  6
CONTINUOUS
 62
256
 10
131.746323605506860
 20
-23.920861278290431
 40
0.999999999999931
 50
91.500000000002828
 51
180.000000000000000
  0
ARC
  8
0
  6
CONTINUOUS
 62
256
 10
131.746323605506860
 20
-167.155561843067520
 40
1.000000000000000
 50
180.000000000000000
 51
268.499999999997210
  0
LINE
  8
0
  6
CONTINUOUS
 62
256
 10
145.746323605506860
 20
-31.338211560680065
 11
144.966998108768420
 21
-30.538211560678974
  0
LINE
  8
0
  6
CONTINUOUS
 62
256
 10
145.746323605506860
 20
-159.738211560677880
 11
144.966998108768450
 21
-160.538211560678970
  0
LINE
  8
0
  6
CONTINUOUS
 62
256
 10
130.746323605506860
 20
-95.538211560678974
 11
130.746323605506860
 21
-28.546939093143919
  0
LINE
  8
0
  6
CONTINUOUS
 62
256
 10
130.746323605506860
 20
-95.538211560678974
 11
130.746323605506860
 21
-167.038211560678060
  0
LINE
  8
0
  6
CONTINUOUS
 62
256
 10
137.693969708891020
 20
-150.935348269337740
 11
142.746323605506860
 21
-151.067648812214430
  0
ARC
  8
0
  6
CONTINUOUS
 62
256
 10
137.746323605506860
 20
-148.936033619386760
 40
2.000000000000000
 50
180.000000000000000
 51
268.499999999997270
  0
LINE
  8
0
  6
CONTINUOUS
 62
256
 10
137.693969708891250
 20
-134.236174947583090
 11
142.746323605506860
 21
-134.381568451244680
  0
ARC
  8
0
  6
CONTINUOUS
 62
256
 10
137.746323605506860
 20
-132.236860297632120
 40
2.000000000000000
 50
180.000000000000000
 51
268.499999999997270
  0
LINE
  8
0
  6
CONTINUOUS
 62
256
 10
135.746323605506860
 20
-42.140389501971185
 11
135.746323605506860
 21
-88.538211560682612
  0
LINE
  8
0
  6
CONTINUOUS
 62
256
 10
131.720146657198940
 20
-168.155219168043000
 11
135.233235131353010
 21
-168.247212627293270
  0
LINE
  8
0
  6
CONTINUOUS
 62
256
 10
137.693969708891020
 20
-40.141074852020211
 11
142.746323605506860
 21
-40.008774309143519
  0
ARC
  8
0
  6
CONTINUOUS
 62
256
 10
137.746323605506860
 20
-42.140389501971185
 40
1.999999999999863
 50
91.500000000002828
 51
180.000000000000000
  0
LINE
  8
0
  6
CONTINUOUS
 62
256
 10
137.693969708891250
 20
-56.840248173774853
 11
142.746323605506860
 21
-56.694854670113273
  0
ARC
  8
0
  6
CONTINUOUS
 62
256
 10
137.746323605506860
 20
-58.839562823725828
 40
1.999999999999863
 50
91.500000000002828
 51
180.000000000000000
  0
ARC
  8
0
  6
CONTINUOUS
 62
256
 10
145.246323605506860
 20
-67.718455454052673
 40
2.000000000000000
 50
0.000000000000000
 51
37.568592028830572
  0
LINE
  8
0
  6
CONTINUOUS
 62
256
 10
146.831571583716140
 20
-66.499033932353086
 11
145.746323605506860
 21
-65.088211560680975
  0
ARC
  8
0
  6
CONTINUOUS
 62
256
 10
145.246323605506860
 20
-123.357967667313460
 40
1.999999999999633
 50
322.431407971189970
 51
0.000000000000000
  0
LINE
  8
0
  6
CONTINUOUS
 62
256
 10
146.831571583716140
 20
-124.577389189012120
 11
145.746323605506860
 21
-125.988211560684230
  0
LINE
  8
0
  6
CONTINUOUS
 62
256
 10
147.246323605506860
 20
-67.718455454052673
 11
147.246323605506860
 21
-95.538211560678974
  0
LINE
  8
0
  6
CONTINUOUS
 62
256
 10
147.246323605506860
 20
-123.357967667313460
 11
147.246323605506860
 21
-95.538211560678974
  0
LINE
  8
0
  6
CONTINUOUS
 62
256
 10
142.746323605506860
 20
-95.538211560678974
 11
142.746323605506860
 21
-168.051304521462950
  0
LINE
  8
0
  6
CONTINUOUS
 62
256
 10
145.746323605506860
 20
-95.538211560678974
 11
145.746323605506860
 21
-159.738211560677880
  0
LINE
  8
0
  6
CONTINUOUS
 62
256
 10
145.746323605506860
 20
-95.538211560678974
 11
145.746323605506860
 21
-31.338211560680065
  0
LINE
  8
0
  6
CONTINUOUS
 62
256
 10
142.746323605506630
 20
-95.538211560678974
 11
142.746323605506860
 21
-23.038211560679883
  0
LINE
  8
0
  6
CONTINUOUS
 62
256
 10
96.246323605506859
 20
-165.546939093146650
 11
96.246323605506859
 21
-95.538211560678974
  0
LINE
  8
0
  6
CONTINUOUS
 62
256
 10
96.246323605506859
 20
-53.546939093143919
 11
96.246323605506859
 21
-95.538211560678974
  0
LINE
  8
0
  6
CONTINUOUS
 62
256
 10
70.246323605495036
 20
-60.038211560678974
 11
70.246323605495036
 21
-163.590581409395780
  0
ARC
  8
0
  6
CONTINUOUS
 62
256
 10
70.746323605495036
 20
-60.038211560678974
 40
0.500000000000000
 50
90.000000000000000
 51
180.000000000000000
  0
ARC
  8
0
  6
CONTINUOUS
 62
256
 10
232.006772886539240
 20
-92.538211560679997
 40
2.000000000000000
 50
90.000000000000000
 51
180.000000000000000
  0
ARC
  8
0
  6
CONTINUOUS
 62
256
 10
232.006772886539240
 20
-98.538211560679997
 40
2.000000000000000
 50
180.000000000000000
 51
270.000000000000000
  0
ARC
  8
0
  6
CONTINUOUS
 62
256
 10
-148.758521343619120
 20
-143.938211560679290
 40
20.599999999999795
 50
235.000000000000260
 51
270.000000000000000
  0
ARC
  8
0
  6
CONTINUOUS
 62
256
 10
-166.653676394526430
 20
-153.381831694308630
 40
2.599999999999909
 50
180.000000000000000
 51
234.999999999994740
  0
LINE
  8
0
  6
CONTINUOUS
 62
256
 10
-169.253676394526340
 20
-153.381831694308630
 11
-169.253676394526340
 21
-110.538211560678970
  0
LINE
  8
0
  6
CONTINUOUS
 62
256
 10
-160.574195932450490
 20
-160.812743673032400
 11
-168.144975129039270
 21
-155.511627009459740
  0
ARC
  8
0
  6
CONTINUOUS
 62
256
 10
-78.253676394526337
 20
-145.538211560678970
 40
3.000000000000000
 50
180.000000000000000
 51
270.000000000000000
  0
LINE
  8
0
  6
CONTINUOUS
 62
256
 10
-74.253676394526337
 20
-148.538211560678970
 11
-78.253676394526337
 21
-148.538211560678970
  0
ARC
  8
0
  6
CONTINUOUS
 62
256
 10
-74.253676394526337
 20
-151.538211560678970
 40
3.000000000000000
 50
0.000000000000000
 51
90.000000000000000
  0
LINE
  8
0
  6
CONTINUOUS
 62
256
 10
-79.053676394504464
 20
-145.538211560678970
 11
-79.053676394505146
 21
-110.538211560678750
  0
ARC
  8
0
  6
CONTINUOUS
 62
256
 10
-78.053676394504691
 20
-145.538211560678970
 40
0.999999999999773
 50
180.000000000000000
 51
270.000000000000000
  0
LINE
  8
0
  6
CONTINUOUS
 62
256
 10
10.946323605495536
 20
-145.538211560678970
 11
10.946323605494854
 21
-110.538211560677380
  0
LINE
  8
0
  6
CONTINUOUS
 62
256
 10
9.946323605495309
 20
-146.538211560678970
 11
-78.053676394504691
 21
-146.538211560678970
  0
ARC
  8
0
  6
CONTINUOUS
 62
256
 10
9.946323605495309
 20
-145.538211560678970
 40
1.000000000000000
 50
270.000000000000000
 51
0.000000000000000
  0
LINE
  8
0
  6
CONTINUOUS
 62
256
 10
-81.253676394526337
 20
-130.538211560678970
 11
-79.053676394504691
 21
-130.538211560678970
  0
LINE
  8
0
  6
CONTINUOUS
 62
256
 10
-81.253676394526337
 20
-133.376451240675120
 11
-79.053676394504691
 21
-133.376451240675120
  0
LINE
  8
0
  6
CONTINUOUS
 62
256
 10
-81.253676394526337
 20
-134.722852966173600
 11
-79.053676394504691
 21
-134.722852966173600
  0
LINE
  8
0
  6
CONTINUOUS
 62
256
 10
-81.253676394526337
 20
-137.815583957838950
 11
-79.053676394504691
 21
-137.815583957838950
  0
LINE
  8
0
  6
CONTINUOUS
 62
256
 10
-81.253676394526337
 20
-139.294607111316050
 11
-79.053676394504691
 21
-139.294607111316050
  0
LINE
  8
0
  6
CONTINUOUS
 62
256
 10
-81.253676394526337
 20
-142.252602719448990
 11
-79.053676394504691
 21
-142.252602719448990
  0
LINE
  8
0
  6
CONTINUOUS
 62
256
 10
-81.253676394526337
 20
-143.841812512187740
 11
-79.053676394504691
 21
-143.841812512187740
  0
LINE
  8
0
  6
CONTINUOUS
 62
256
 10
-81.253676394526337
 20
-110.538211560678970
 11
-81.253676394526337
 21
-145.538211560678970
  0
ARC
  8
0
  6
CONTINUOUS
 62
256
 10
-148.758521343619120
 20
-77.138211560678656
 40
20.599999999999909
 50
90.000000000000000
 51
124.999999999999790
  0
ARC
  8
0
  6
CONTINUOUS
 62
256
 10
-166.653676394526430
 20
-67.694591427049318
 40
2.600000000000037
 50
125.000000000002630
 51
180.000000000000000
  0
LINE
  8
0
  6
CONTINUOUS
 62
256
 10
-169.253676394526340
 20
-67.694591427049318
 11
-169.253676394526340
 21
-110.538211560678970
  0
LINE
  8
0
  6
CONTINUOUS
 62
256
 10
-160.574195932450490
 20
-60.263679448325320
 11
-168.144975129039270
 21
-65.564796111898204
  0
ARC
  8
0
  6
CONTINUOUS
 62
256
 10
-78.253676394526337
 20
-75.538211560678974
 40
3.000000000000000
 50
90.000000000000000
 51
180.000000000000000
  0
LINE
  8
0
  6
CONTINUOUS
 62
256
 10
-74.253676394526337
 20
-72.538211560678974
 11
-78.253676394526337
 21
-72.538211560678974
  0
ARC
  8
0
  6
CONTINUOUS
 62
256
 10
-74.253676394526337
 20
-69.538211560678974
 40
3.000000000000000
 50
270.000000000000000
 51
0.000000000000000
  0
LINE
  8
0
  6
CONTINUOUS
 62
256
 10
-79.053676394504464
 20
-75.538211560678974
 11
-79.053676394505146
 21
-110.538211560679200
  0
ARC
  8
0
  6
CONTINUOUS
 62
256
 10
-78.053676394504691
 20
-75.538211560678974
 40
1.000000000000000
 50
90.000000000000000
 51
180.000000000000000
  0
LINE
  8
0
  6
CONTINUOUS
 62
256
 10
10.946323605495536
 20
-75.538211560678974
 11
10.946323605494854
 21
-110.538211560680570
  0
LINE
  8
0
  6
CONTINUOUS
 62
256
 10
9.946323605495309
 20
-74.538211560678974
 11
-78.053676394504691
 21
-74.538211560678974
  0
ARC
  8
0
  6
CONTINUOUS
 62
256
 10
9.946323605495309
 20
-75.538211560678974
 40
1.000000000000227
 50
0.000000000000000
 51
90.000000000000000
  0
LINE
  8
0
  6
CONTINUOUS
 62
256
 10
-81.253676394526337
 20
-90.538211560678974
 11
-79.053676394504691
 21
-90.538211560678974
  0
LINE
  8
0
  6
CONTINUOUS
 62
256
 10
-81.253676394526337
 20
-87.699971880682824
 11
-79.053676394504691
 21
-87.699971880682824
  0
LINE
  8
0
  6
CONTINUOUS
 62
256
 10
-81.253676394526337
 20
-86.353570155184343
 11
-79.053676394504691
 21
-86.353570155184343
  0
LINE
  8
0
  6
CONTINUOUS
 62
256
 10
-81.253676394526337
 20
-83.260839163518995
 11
-79.053676394504691
 21
-83.260839163518995
  0
LINE
  8
0
  6
CONTINUOUS
 62
256
 10
-81.253676394526337
 20
-81.781816010041894
 11
-79.053676394504691
 21
-81.781816010041894
  0
LINE
  8
0
  6
CONTINUOUS
 62
256
 10
-81.253676394526337
 20
-78.823820401908961
 11
-79.053676394504691
 21
-78.823820401908961
  0
LINE
  8
0
  6
CONTINUOUS
 62
256
 10
-81.253676394526337
 20
-77.234610609170204
 11
-79.053676394504691
 21
-77.234610609170204
  0
LINE
  8
0
  6
CONTINUOUS
 62
256
 10
-81.253676394526337
 20
-110.538211560678970
 11
-81.253676394526337
 21
-75.538211560678974
  0
LINE
  8
0
  6
CONTINUOUS
 62
256
 10
-77.643985576630939
 20
-63.913837572531691
 11
-77.553676394526121
 21
-63.210880606331330
  0
LINE
  8
0
  6
CONTINUOUS
 62
256
 10
-77.911442591723073
 20
-64.589780296743783
 11
-77.643985576630939
 21
-63.913837572531691
  0
LINE
  8
0
  6
CONTINUOUS
 62
256
 10
-78.345769216704156
 20
-65.212732679149184
 11
-77.911442591723073
 21
-64.589780296743783
  0
LINE
  8
0
  6
CONTINUOUS
 62
256
 10
-78.930274522949347
 20
-65.758755009047761
 11
-78.345769216704156
 21
-65.212732679149184
  0
LINE
  8
0
  6
CONTINUOUS
 62
256
 10
-79.642496299333985
 20
-66.206863954514375
 11
-78.930274522949347
 21
-65.758755009047761
  0
LINE
  8
0
  6
CONTINUOUS
 62
256
 10
-80.455064262410190
 20
-66.539838940077146
 11
-79.642496299333985
 21
-66.206863954514375
  0
LINE
  8
0
  6
CONTINUOUS
 62
256
 10
-81.336751881050304
 20
-66.744883923775390
 11
-80.455064262410190
 21
-66.539838940077146
  0
LINE
  8
0
  6
CONTINUOUS
 62
256
 10
-82.253676394526110
 20
-66.814119141876162
 11
-81.336751881050304
 21
-66.744883923775390
  0
LINE
  8
0
  6
CONTINUOUS
 62
256
 10
-83.170600908001916
 20
-66.744883923775390
 11
-82.253676394526110
 21
-66.814119141876162
  0
LINE
  8
0
  6
CONTINUOUS
 62
256
 10
-84.052288526642030
 20
-66.539838940077146
 11
-83.170600908001916
 21
-66.744883923775390
  0
LINE
  8
0
  6
CONTINUOUS
 62
256
 10
-84.864856489718235
 20
-66.206863954514375
 11
-84.052288526642030
 21
-66.539838940077146
  0
LINE
  8
0
  6
CONTINUOUS
 62
256
 10
-85.577078266102873
 20
-65.758755009047761
 11
-84.864856489718235
 21
-66.206863954514375
  0
LINE
  8
0
  6
CONTINUOUS
 62
256
 10
-86.161583572348064
 20
-65.212732679149184
 11
-85.577078266102873
 21
-65.758755009047761
  0
LINE
  8
0
  6
CONTINUOUS
 62
256
 10
-86.595910197329147
 20
-64.589780296743783
 11
-86.161583572348064
 21
-65.212732679149184
  0
LINE
  8
0
  6
CONTINUOUS
 62
256
 10
-86.863367212421281
 20
-63.913837572531691
 11
-86.595910197329147
 21
-64.589780296743783
  0
LINE
  8
0
  6
CONTINUOUS
 62
256
 10
-86.953676394526099
 20
-63.210880606331330
 11
-86.863367212421281
 21
-63.913837572531691
  0
LINE
  8
0
  6
CONTINUOUS
 62
256
 10
-86.863367212421281
 20
-62.507923640130969
 11
-86.953676394526099
 21
-63.210880606331330
  0
LINE
  8
0
  6
CONTINUOUS
 62
256
 10
-86.595910197329147
 20
-61.831980915918876
 11
-86.863367212421281
 21
-62.507923640130969
  0
LINE
  8
0
  6
CONTINUOUS
 62
256
 10
-86.161583572348064
 20
-61.209028533513475
 11
-86.595910197329147
 21
-61.831980915918876
  0
LINE
  8
0
  6
CONTINUOUS
 62
256
 10
-85.577078266102873
 20
-60.663006203614891
 11
-86.161583572348064
 21
-61.209028533513475
  0
LINE
  8
0
  6
CONTINUOUS
 62
256
 10
-84.864856489718235
 20
-60.214897258148277
 11
-85.577078266102873
 21
-60.663006203614891
  0
LINE
  8
0
  6
CONTINUOUS
 62
256
 10
-84.052288526642030
 20
-59.881922272585520
 11
-84.864856489718235
 21
-60.214897258148277
  0
LINE
  8
0
  6
CONTINUOUS
 62
256
 10
-83.170600908001916
 20
-59.676877288887269
 11
-84.052288526642030
 21
-59.881922272585520
  0
LINE
  8
0
  6
CONTINUOUS
 62
256
 10
-82.253676394526110
 20
-59.607642070786497
 11
-83.170600908001916
 21
-59.676877288887269
  0
LINE
  8
0
  6
CONTINUOUS
 62
256
 10
-81.336751881050304
 20
-59.676877288887269
 11
-82.253676394526110
 21
-59.607642070786497
  0
LINE
  8
0
  6
CONTINUOUS
 62
256
 10
-80.455064262410190
 20
-59.881922272585520
 11
-81.336751881050304
 21
-59.676877288887269
  0
LINE
  8
0
  6
CONTINUOUS
 62
256
 10
-79.642496299333985
 20
-60.214897258148277
 11
-80.455064262410190
 21
-59.881922272585520
  0
LINE
  8
0
  6
CONTINUOUS
 62
256
 10
-78.930274522949347
 20
-60.663006203614891
 11
-79.642496299333985
 21
-60.214897258148277
  0
LINE
  8
0
  6
CONTINUOUS
 62
256
 10
-78.345769216704156
 20
-61.209028533513475
 11
-78.930274522949347
 21
-60.663006203614891
  0
LINE
  8
0
  6
CONTINUOUS
 62
256
 10
-77.911442591723073
 20
-61.831980915918876
 11
-78.345769216704156
 21
-61.209028533513475
  0
LINE
  8
0
  6
CONTINUOUS
 62
256
 10
-77.643985576630939
 20
-62.507923640130969
 11
-77.911442591723073
 21
-61.831980915918876
  0
LINE
  8
0
  6
CONTINUOUS
 62
256
 10
-77.553676394526121
 20
-63.210880606331330
 11
-77.643985576630939
 21
-62.507923640130969
  0
LINE
  8
0
  6
CONTINUOUS
 62
256
 10
-84.253676394526337
 20
-60.218505052331011
 11
-82.253676394526337
 21
-61.394290537953793
  0
LINE
  8
0
  6
CONTINUOUS
 62
256
 10
-82.253676394526337
 20
-61.394290537953793
 11
-80.253676394526337
 21
-63.046932177077224
  0
LINE
  8
0
  6
CONTINUOUS
 62
256
 10
-80.253676394526337
 20
-60.218505052331011
 11
-82.253676394526337
 21
-61.394290537953793
  0
LINE
  8
0
  6
CONTINUOUS
 62
256
 10
-82.253676394526337
 20
-61.394290537953793
 11
-84.253676394526337
 21
-63.046932177077224
  0
LINE
  8
0
  6
CONTINUOUS
 62
256
 10
-77.643985576630939
 20
-158.568499481226980
 11
-77.553676394526121
 21
-157.865542515026620
  0
LINE
  8
0
  6
CONTINUOUS
 62
256
 10
-77.911442591723073
 20
-159.244442205439070
 11
-77.643985576630939
 21
-158.568499481226980
  0
LINE
  8
0
  6
CONTINUOUS
 62
256
 10
-78.345769216704156
 20
-159.867394587844470
 11
-77.911442591723073
 21
-159.244442205439070
  0
LINE
  8
0
  6
CONTINUOUS
 62
256
 10
-78.930274522949347
 20
-160.413416917743060
 11
-78.345769216704156
 21
-159.867394587844470
  0
LINE
  8
0
  6
CONTINUOUS
 62
256
 10
-79.642496299333985
 20
-160.861525863209690
 11
-78.930274522949347
 21
-160.413416917743060
  0
LINE
  8
0
  6
CONTINUOUS
 62
256
 10
-80.455064262410190
 20
-161.194500848772440
 11
-79.642496299333985
 21
-160.861525863209690
  0
LINE
  8
0
  6
CONTINUOUS
 62
256
 10
-81.336751881050304
 20
-161.399545832470690
 11
-80.455064262410190
 21
-161.194500848772440
  0
LINE
  8
0
  6
CONTINUOUS
 62
256
 10
-82.253676394526110
 20
-161.468781050571470
 11
-81.336751881050304
 21
-161.399545832470690
  0
LINE
  8
0
  6
CONTINUOUS
 62
256
 10
-83.170600908001916
 20
-161.399545832470690
 11
-82.253676394526110
 21
-161.468781050571470
  0
LINE
  8
0
  6
CONTINUOUS
 62
256
 10
-84.052288526642030
 20
-161.194500848772440
 11
-83.170600908001916
 21
-161.399545832470690
  0
LINE
  8
0
  6
CONTINUOUS
 62
256
 10
-84.864856489718235
 20
-160.861525863209690
 11
-84.052288526642030
 21
-161.194500848772440
  0
LINE
  8
0
  6
CONTINUOUS
 62
256
 10
-85.577078266102873
 20
-160.413416917743060
 11
-84.864856489718235
 21
-160.861525863209690
  0
LINE
  8
0
  6
CONTINUOUS
 62
256
 10
-86.161583572348064
 20
-159.867394587844470
 11
-85.577078266102873
 21
-160.413416917743060
  0
LINE
  8
0
  6
CONTINUOUS
 62
256
 10
-86.595910197329147
 20
-159.244442205439070
 11
-86.161583572348064
 21
-159.867394587844470
  0
LINE
  8
0
  6
CONTINUOUS
 62
256
 10
-86.863367212421281
 20
-158.568499481226980
 11
-86.595910197329147
 21
-159.244442205439070
  0
LINE
  8
0
  6
CONTINUOUS
 62
256
 10
-86.953676394526099
 20
-157.865542515026620
 11
-86.863367212421281
 21
-158.568499481226980
  0
LINE
  8
0
  6
CONTINUOUS
 62
256
 10
-86.863367212421281
 20
-157.162585548826260
 11
-86.953676394526099
 21
-157.865542515026620
  0
LINE
  8
0
  6
CONTINUOUS
 62
256
 10
-86.595910197329147
 20
-156.486642824614170
 11
-86.863367212421281
 21
-157.162585548826260
  0
LINE
  8
0
  6
CONTINUOUS
 62
256
 10
-86.161583572348064
 20
-155.863690442208760
 11
-86.595910197329147
 21
-156.486642824614170
  0
LINE
  8
0
  6
CONTINUOUS
 62
256
 10
-85.577078266102873
 20
-155.317668112310170
 11
-86.161583572348064
 21
-155.863690442208760
  0
LINE
  8
0
  6
CONTINUOUS
 62
256
 10
-84.864856489718235
 20
-154.869559166843540
 11
-85.577078266102873
 21
-155.317668112310170
  0
LINE
  8
0
  6
CONTINUOUS
 62
256
 10
-84.052288526642030
 20
-154.536584181280800
 11
-84.864856489718235
 21
-154.869559166843540
  0
LINE
  8
0
  6
CONTINUOUS
 62
256
 10
-83.170600908001916
 20
-154.331539197582540
 11
-84.052288526642030
 21
-154.536584181280800
  0
LINE
  8
0
  6
CONTINUOUS
 62
256
 10
-82.253676394526110
 20
-154.262303979481770
 11
-83.170600908001916
 21
-154.331539197582540
  0
LINE
  8
0
  6
CONTINUOUS
 62
256
 10
-81.336751881050304
 20
-154.331539197582540
 11
-82.253676394526110
 21
-154.262303979481770
  0
LINE
  8
0
  6
CONTINUOUS
 62
256
 10
-80.455064262410190
 20
-154.536584181280800
 11
-81.336751881050304
 21
-154.331539197582540
  0
LINE
  8
0
  6
CONTINUOUS
 62
256
 10
-79.642496299333985
 20
-154.869559166843540
 11
-80.455064262410190
 21
-154.536584181280800
  0
LINE
  8
0
  6
CONTINUOUS
 62
256
 10
-78.930274522949347
 20
-155.317668112310170
 11
-79.642496299333985
 21
-154.869559166843540
  0
LINE
  8
0
  6
CONTINUOUS
 62
256
 10
-78.345769216704156
 20
-155.863690442208760
 11
-78.930274522949347
 21
-155.317668112310170
  0
LINE
  8
0
  6
CONTINUOUS
 62
256
 10
-77.911442591723073
 20
-156.486642824614170
 11
-78.345769216704156
 21
-155.863690442208760
  0
LINE
  8
0
  6
CONTINUOUS
 62
256
 10
-77.643985576630939
 20
-157.162585548826260
 11
-77.911442591723073
 21
-156.486642824614170
  0
LINE
  8
0
  6
CONTINUOUS
 62
256
 10
-77.553676394526121
 20
-157.865542515026620
 11
-77.643985576630939
 21
-157.162585548826260
  0
LINE
  8
0
  6
CONTINUOUS
 62
256
 10
-84.253676394526337
 20
-160.857918069026940
 11
-82.253676394526337
 21
-159.682132583404150
  0
LINE
  8
0
  6
CONTINUOUS
 62
256
 10
-82.253676394526337
 20
-159.682132583404150
 11
-80.253676394526337
 21
-158.029490944280720
  0
LINE
  8
0
  6
CONTINUOUS
 62
256
 10
-80.253676394526337
 20
-160.857918069026940
 11
-82.253676394526337
 21
-159.682132583404150
  0
LINE
  8
0
  6
CONTINUOUS
 62
256
 10
-82.253676394526337
 20
-159.682132583404150
 11
-84.253676394526337
 21
-158.029490944280720
  0
LINE
  8
0
  6
CONTINUOUS
 62
256
 10
-71.253676394526337
 20
-56.538211560678747
 11
-148.758521343619120
 21
-56.538211560678747
  0
LINE
  8
0
  6
CONTINUOUS
 62
256
 10
-71.253676394526337
 20
-56.538211560678747
 11
-71.253676394526337
 21
-69.538211560678974
  0
LINE
  8
0
  6
CONTINUOUS
 62
256
 10
-71.253676394526337
 20
-164.538211560679200
 11
-71.253676394526337
 21
-151.538211560678970
  0
LINE
  8
0
  6
CONTINUOUS
 62
256
 10
-71.253676394526337
 20
-164.538211560679200
 11
-148.758521343619120
 21
-164.538211560679200
  0
LINE
  8
0
  6
DASHDOT
 62
256
 10
106.320322573763410
 20
-110.538211560678970
 11
-184.577148067000960
 21
-110.538211560678970
  0
LINE
  8
0
  6
CONTINUOUS
 62
256
 10
69.246323605494808
 20
-58.038211560678974
 11
-71.253676394526337
 21
-58.038211560678974
  0
LINE
  8
0
  6
CONTINUOUS
 62
256
 10
-71.253676394526337
 20
-60.038211560678974
 11
69.246323605494808
 21
-60.038211560678974
  0
LINE
  8
0
  6
CONTINUOUS
 62
256
 10
-71.253676394526337
 20
-59.538211560678747
 11
69.246323605494808
 21
-59.538211560678747
  0
LINE
  8
0
  6
CONTINUOUS
 62
256
 10
-71.253676394526337
 20
-64.405128965796166
 11
69.246323605494808
 21
-64.405128965796166
  0
LINE
  8
0
  6
CONTINUOUS
 62
256
 10
-71.253676394526337
 20
-66.033556033574087
 11
69.246323605494808
 21
-66.033556033574087
  0
LINE
  8
0
  6
CONTINUOUS
 62
256
 10
-71.253676394526337
 20
-69.496297790339213
 11
69.246323605494808
 21
-69.496297790339213
  0
LINE
  8
0
  6
CONTINUOUS
 62
256
 10
-71.411276740897620
 20
-70.497776154154508
 11
69.246323605494808
 21
-70.497776154154508
  0
LINE
  8
0
  6
CONTINUOUS
 62
256
 10
10.946323605495309
 20
-81.781816010041894
 11
69.246323605494808
 21
-81.781816010041894
  0
LINE
  8
0
  6
CONTINUOUS
 62
256
 10
10.946323605495309
 20
-83.260839163518995
 11
69.246323605494808
 21
-83.260839163518995
  0
LINE
  8
0
  6
CONTINUOUS
 62
256
 10
10.946323605495309
 20
-86.353570155184343
 11
69.246323605494808
 21
-86.353570155184343
  0
LINE
  8
0
  6
CONTINUOUS
 62
256
 10
10.946323605495309
 20
-87.699971880682824
 11
69.246323605494808
 21
-87.699971880682824
  0
LINE
  8
0
  6
CONTINUOUS
 62
256
 10
10.946323605495309
 20
-90.538211560678974
 11
69.246323605494808
 21
-90.538211560678974
  0
LINE
  8
0
  6
CONTINUOUS
 62
256
 10
10.946323605495309
 20
-78.823820401908961
 11
69.246323605494808
 21
-78.823820401908961
  0
LINE
  8
0
  6
CONTINUOUS
 62
256
 10
10.946323605495309
 20
-77.234610609170204
 11
69.246323605494808
 21
-77.234610609170204
  0
LINE
  8
0
  6
CONTINUOUS
 62
256
 10
69.246323605494581
 20
-163.038211560678970
 11
-71.253676394526337
 21
-163.038211560678970
  0
LINE
  8
0
  6
CONTINUOUS
 62
256
 10
-71.253676394526337
 20
-161.038211560678970
 11
69.246323605494581
 21
-161.038211560678970
  0
LINE
  8
0
  6
CONTINUOUS
 62
256
 10
-71.253676394526337
 20
-161.538211560679200
 11
69.246323605494581
 21
-161.538211560679200
  0
LINE
  8
0
  6
CONTINUOUS
 62
256
 10
-71.253676394526337
 20
-156.671294155561780
 11
69.246323605494581
 21
-156.671294155561780
  0
LINE
  8
0
  6
CONTINUOUS
 62
256
 10
-71.253676394526337
 20
-155.042867087783860
 11
69.246323605494581
 21
-155.042867087783860
  0
LINE
  8
0
  6
CONTINUOUS
 62
256
 10
-71.253676394526337
 20
-151.580125331018510
 11
69.246323605494808
 21
-151.580125331018510
  0
LINE
  8
0
  6
CONTINUOUS
 62
256
 10
-71.411276740897620
 20
-150.578646967203210
 11
69.246323605494808
 21
-150.578646967203210
  0
LINE
  8
0
  6
CONTINUOUS
 62
256
 10
10.946323605495309
 20
-139.294607111316050
 11
69.246323605494808
 21
-139.294607111316050
  0
LINE
  8
0
  6
CONTINUOUS
 62
256
 10
10.946323605495309
 20
-137.815583957838950
 11
69.246323605494808
 21
-137.815583957838950
  0
LINE
  8
0
  6
CONTINUOUS
 62
256
 10
10.946323605495309
 20
-134.722852966173600
 11
69.246323605494808
 21
-134.722852966173600
  0
LINE
  8
0
  6
CONTINUOUS
 62
256
 10
10.946323605495309
 20
-133.376451240675120
 11
69.246323605494808
 21
-133.376451240675120
  0
LINE
  8
0
  6
CONTINUOUS
 62
256
 10
10.946323605495309
 20
-130.538211560678970
 11
69.246323605494808
 21
-130.538211560678970
  0
LINE
  8
0
  6
CONTINUOUS
 62
256
 10
10.946323605495309
 20
-142.252602719448990
 11
69.246323605494808
 21
-142.252602719448990
  0
LINE
  8
0
  6
CONTINUOUS
 62
256
 10
10.946323605495309
 20
-143.841812512187740
 11
69.246323605494808
 21
-143.841812512187740
  0
ARC
  8
0
  6
CONTINUOUS
 62
256
 10
381.806772886539870
 20
-124.580711560680020
 40
20.799999999999990
 50
250.917875196395270
 51
265.808273843992540
  0
ARC
  8
0
  6
CONTINUOUS
 62
256
 10
379.806772886539870
 20
-84.580711560680015
 40
18.799999999999983
 50
100.598785266066060
 51
104.792497041403520
  0
ARC
  8
0
  6
CONTINUOUS
 62
256
 10
375.981018252452940
 20
-64.135575183542301
 40
1.999999999999958
 50
280.598785266065990
 51
2.862405226112642
  0
ARC
  8
0
  6
CONTINUOUS
 62
256
 10
381.574031350168750
 20
-63.855924528656487
 40
1.999999999999927
 50
182.862405226112710
 51
265.126025186159040
  0
LINE
  8
0
  6
CONTINUOUS
 62
256
 10
378.308644378223110
 20
-54.618141394344775
 11
383.402281306500070
 21
-156.490879959884860
  0
ARC
  8
0
  6
CONTINUOUS
 62
256
 10
379.806772886539870
 20
-84.580711560680015
 40
18.799999999999933
 50
35.808626813495742
 51
85.126025186157236
  0
LINE
  8
0
  6
CONTINUOUS
 62
256
 10
379.107646249325400
 20
-54.578191300789626
 11
377.509642507120820
 21
-54.658091487899810
  0
ARC
  8
0
  6
CONTINUOUS
 62
256
 10
372.965319746219850
 20
-59.891553724569917
 40
8.999999999999949
 50
346.260856815786500
 51
19.463936333592208
  0
POINT
  8
0
  6
CONTINUOUS
 62
256
 10
379.357334334044250
 20
-59.571952995178663
  0
LINE
  8
0
  6
CONTINUOUS
 62
256
 10
379.182552674740690
 20
-56.076319809106280
 11
379.532115993347820
 21
-63.067586181251158
  0
LINE
  8
0
  6
CONTINUOUS
 62
256
 10
379.182552674740690
 20
-56.076319809106280
 11
379.532115993347820
 21
-63.067586181251158
  0
LINE
  8
0
  6
CONTINUOUS
 62
256
 10
379.532115993347820
 20
-63.067586181251158
 11
380.509919805855590
 21
-63.018695990625815
  0
LINE
  8
0
  6
CONTINUOUS
 62
256
 10
379.182552674740690
 20
-56.076319809106280
 11
380.160356487248240
 21
-56.027429618480937
  0
ARC
  8
0
  6
CONTINUOUS
 62
256
 10
380.445000941927900
 20
-61.720318712072185
 40
1.299999237060550
 50
272.862387240019760
 51
346.260856815788600
  0
ARC
  8
0
  6
CONTINUOUS
 62
256
 10
380.225275351175920
 20
-57.325806897034454
 40
1.299999237060645
 50
19.463936333587128
 51
92.862405909347800
  0
LINE
  8
0
  6
CONTINUOUS
 62
256
 10
379.107646249325400
 20
-54.578191300789626
 11
384.201283177602360
 21
-156.450929866329600
  0
LINE
  8
0
  6
CONTINUOUS
 62
256
 10
377.509642507120820
 20
-54.658091487899810
 11
382.603279435397780
 21
-156.530830053440580
  0
LINE
  8
0
  6
CONTINUOUS
 62
256
 10
402.503032238160810
 20
-122.505898593099000
 11
398.513007300504800
 21
-82.705399839981737
  0
ARC
  8
0
  6
CONTINUOUS
 62
256
 10
379.806772886539870
 20
-84.580711560680015
 40
18.799999999999837
 50
5.724810452223617
 51
35.808626813495707
  0
ARC
  8
0
  6
CONTINUOUS
 62
256
 10
381.806772886539870
 20
-124.580711560680020
 40
20.799999999999915
 50
334.359929784105190
 51
5.724810452223412
  0
ARC
  8
0
  6
CONTINUOUS
 62
256
 10
381.806772886539870
 20
-124.580711560680020
 40
20.800000000000040
 50
279.916536608230560
 51
334.359929784105190
  0
ARC
  8
0
  6
CONTINUOUS
 62
256
 10
381.806772886539870
 20
-124.580711560680020
 40
20.799999999999915
 50
334.359929784105190
 51
5.724810452223412
  0
ARC
  8
0
  6
CONTINUOUS
 62
256
 10
380.140225620156340
 20
-147.319722537609320
 40
1.999999999999927
 50
2.862405226112724
 51
85.808273843998279
  0
ARC
  8
0
  6
CONTINUOUS
 62
256
 10
385.733238717872150
 20
-147.040071882723510
 40
1.999999999999995
 50
99.916536608232732
 51
182.862405226112630
  0
LINE
  8
0
  6
CONTINUOUS
 62
256
 10
382.603279435397780
 20
-156.530830053440580
 11
384.201283177602360
 21
-156.450929866329600
  0
INSERT
  8
0
  2
ZU_SYM_1
 10
383.951595092883280
 20
-151.457168171940450
 41
-1.000000000000000
 42
1.000000000000000
 43
1.000000000000000
 50
2.862405226113666
  0
ARC
  8
0
  6
CONTINUOUS
 62
256
 10
246.148908510260300
 20
-25.038211560679088
 40
1.999999999999534
 50
44.999999999986180
 51
90.000000000000000
  0
LINE
  8
0
  6
DASHDOT
 62
256
 10
186.789908900891990
 20
108.276554682470310
 11
-188.892020908474250
 21
108.276554682470310
  0
CIRCLE
  8
0
  6
DASHED
 62
256
 10
-67.053676394493124
 20
30.776554682470305
 40
6.000000000000000
  0
ARC
  8
0
  6
DASHED
 62
256
 10
-67.053676394493124
 20
30.776554682470305
 40
7.000000000000000
 50
180.000000000000000
 51
0.000000000000000
  0
LINE
  8
0
  6
DASHED
 62
256
 10
-60.053676394493124
 20
50.776554682470305
 11
-60.053676394493124
 21
30.776554682470305
  0
LINE
  8
0
  6
DASHED
 62
256
 10
-74.053676394493124
 20
50.776554682470305
 11
-74.053676394493124
 21
30.776554682470305
  0
LINE
  8
0
  6
DASHDOT
 62
256
 10
-67.053676394493124
 20
21.776554682470305
 11
-67.053676394493124
 21
48.778154005020042
  0
LINE
  8
0
  6
DASHDOT
 62
256
 10
-58.053676394493124
 20
30.776554682470305
 11
-76.053676394493124
 21
30.776554682470305
  0
ARC
  8
0
  6
CONTINUOUS
 62
256
 10
-65.753676394493169
 20
171.776554682470310
 40
5.000000000000000
 50
180.000000000000000
 51
270.000000000000000
  0
LINE
  8
0
  6
CONTINUOUS
 62
256
 10
-70.753676394493169
 20
161.776554682470310
 11
-70.753676394493169
 21
166.776554682470310
  0
LINE
  8
0
  6
DASHDOT
 62
256
 10
53.246323605506859
 20
161.776554682470310
 11
53.246323605506859
 21
166.776554682470310
  0
LINE
  8
0
  6
DASHDOT
 62
256
 10
53.246323605506859
 20
161.776554682470310
 11
53.246323605506859
 21
166.776554682470310
  0
ARC
  8
0
  6
CONTINUOUS
 62
256
 10
48.246323605506859
 20
171.776554682470310
 40
5.000000000000000
 50
270.000000000000000
 51
0.000000000000000
  0
LINE
  8
0
  6
CONTINUOUS
 62
256
 10
-70.753676394493169
 20
166.776554682470310
 11
53.246323605506859
 21
166.776554682470310
  0
LINE
  8
0
  6
CONTINUOUS
 62
256
 10
42.746323605506859
 20
185.437579742157140
 11
-60.253676394493169
 21
185.437579742157140
  0
ARC
  8
0
  6
CONTINUOUS
 62
256
 10
48.246323605506859
 20
190.437579742157140
 40
5.000000000000074
 50
287.457603123721870
 51
0.000000000000000
  0
ARC
  8
0
  6
CONTINUOUS
 62
256
 10
48.446323605506677
 20
186.114125867899470
 40
1.300000000000182
 50
0.000000000000000
 51
73.398450400977680
  0
ARC
  8
0
  6
CONTINUOUS
 62
256
 10
46.246323605506859
 20
178.735101542150010
 40
9.000000000000123
 50
73.398450400980863
 51
106.601549599019150
  0
ARC
  8
0
  6
CONTINUOUS
 62
256
 10
44.046323605507041
 20
186.114125867899470
 40
1.300000000000019
 50
106.601549599022380
 51
180.000000000000000
  0
LINE
  8
0
  6
CONTINUOUS
 62
256
 10
49.746323605506859
 20
186.114125867899470
 11
49.746323605506859
 21
185.127116129975090
  0
LINE
  8
0
  6
CONTINUOUS
 62
256
 10
49.679072086918161
 20
185.093017919779100
 11
49.746323605506859
 21
185.127116129975090
  0
LINE
  8
0
  6
CONTINUOUS
 62
256
 10
49.479901969296364
 20
185.060230084678470
 11
49.679072086918161
 21
185.093017919779100
  0
LINE
  8
0
  6
CONTINUOUS
 62
256
 10
49.156467248565768
 20
185.030012642788450
 11
49.479901969296364
 21
185.060230084678470
  0
LINE
  8
0
  6
CONTINUOUS
 62
256
 10
48.721197339659774
 20
185.003526833454740
 11
49.156467248565768
 21
185.030012642788450
  0
LINE
  8
0
  6
CONTINUOUS
 62
256
 10
48.190819421075467
 20
184.981790491476660
 11
48.721197339659774
 21
185.003526833454740
  0
LINE
  8
0
  6
CONTINUOUS
 62
256
 10
47.585715618784675
 20
184.965638932286480
 11
48.190819421075467
 21
184.981790491476660
  0
LINE
  8
0
  6
CONTINUOUS
 62
256
 10
46.929139732563307
 20
184.955692851246030
 11
47.585715618784675
 21
184.965638932286480
  0
LINE
  8
0
  6
CONTINUOUS
 62
256
 10
46.246323605506859
 20
184.952334470671870
 11
46.929139732563307
 21
184.955692851246030
  0
LINE
  8
0
  6
CONTINUOUS
 62
256
 10
45.563507478450411
 20
184.955692851246030
 11
46.246323605506859
 21
184.952334470671870
  0
LINE
  8
0
  6
CONTINUOUS
 62
256
 10
44.906931592229043
 20
184.965638932286480
 11
45.563507478450411
 21
184.955692851246030
  0
LINE
  8
0
  6
CONTINUOUS
 62
256
 10
44.301827789938251
 20
184.981790491476660
 11
44.906931592229043
 21
184.965638932286480
  0
LINE
  8
0
  6
CONTINUOUS
 62
256
 10
43.771449871353944
 20
185.003526833454740
 11
44.301827789938251
 21
184.981790491476660
  0
LINE
  8
0
  6
CONTINUOUS
 62
256
 10
43.336179962447950
 20
185.030012642788450
 11
43.771449871353944
 21
185.003526833454740
  0
LINE
  8
0
  6
CONTINUOUS
 62
256
 10
43.012745241717354
 20
185.060230084678470
 11
43.336179962447950
 21
185.030012642788450
  0
LINE
  8
0
  6
CONTINUOUS
 62
256
 10
42.813575124095550
 20
185.093017919779100
 11
43.012745241717354
 21
185.060230084678470
  0
LINE
  8
0
  6
CONTINUOUS
 62
256
 10
42.746323605506859
 20
185.127116129975090
 11
42.813575124095550
 21
185.093017919779100
  0
LINE
  8
0
  6
CONTINUOUS
 62
256
 10
42.746323605506859
 20
186.114125867899470
 11
42.746323605506859
 21
185.127116129975090
  0
ARC
  8
0
  6
CONTINUOUS
 62
256
 10
-65.753676394493169
 20
190.437579742157140
 40
5.000000000000000
 50
180.000000000000000
 51
252.542396876278100
  0
LINE
  8
0
  6
CONTINUOUS
 62
256
 10
-67.253676394493169
 20
186.114125867899470
 11
-67.253676394493169
 21
185.127116129975090
  0
LINE
  8
0
  6
CONTINUOUS
 62
256
 10
-60.253676394493169
 20
186.114125867899470
 11
-60.253676394493169
 21
185.127116129975090
  0
ARC
  8
0
  6
CONTINUOUS
 62
256
 10
-65.953676394492987
 20
186.114125867899470
 40
1.300000000000019
 50
106.601549599022380
 51
180.000000000000000
  0
ARC
  8
0
  6
CONTINUOUS
 62
256
 10
-63.753676394493169
 20
178.735101542150010
 40
9.000000000000123
 50
73.398450400980863
 51
106.601549599019150
  0
ARC
  8
0
  6
CONTINUOUS
 62
256
 10
-61.553676394493351
 20
186.114125867899470
 40
1.300000000000182
 50
0.000000000000000
 51
73.398450400977680
  0
LINE
  8
0
  6
CONTINUOUS
 62
256
 10
-60.320927913081867
 20
185.093017919779100
 11
-60.253676394493169
 21
185.127116129975090
  0
LINE
  8
0
  6
CONTINUOUS
 62
256
 10
-60.520098030703664
 20
185.060230084678470
 11
-60.320927913081867
 21
185.093017919779100
  0
LINE
  8
0
  6
CONTINUOUS
 62
256
 10
-60.843532751434260
 20
185.030012642788450
 11
-60.520098030703664
 21
185.060230084678470
  0
LINE
  8
0
  6
CONTINUOUS
 62
256
 10
-61.278802660340254
 20
185.003526833454740
 11
-60.843532751434260
 21
185.030012642788450
  0
LINE
  8
0
  6
CONTINUOUS
 62
256
 10
-61.809180578924561
 20
184.981790491476660
 11
-61.278802660340254
 21
185.003526833454740
  0
LINE
  8
0
  6
CONTINUOUS
 62
256
 10
-62.414284381215353
 20
184.965638932286480
 11
-61.809180578924561
 21
184.981790491476660
  0
LINE
  8
0
  6
CONTINUOUS
 62
256
 10
-63.070860267436721
 20
184.955692851246030
 11
-62.414284381215353
 21
184.965638932286480
  0
LINE
  8
0
  6
CONTINUOUS
 62
256
 10
-63.753676394493169
 20
184.952334470671870
 11
-63.070860267436721
 21
184.955692851246030
  0
LINE
  8
0
  6
CONTINUOUS
 62
256
 10
-64.436492521549624
 20
184.955692851246030
 11
-63.753676394493169
 21
184.952334470671870
  0
LINE
  8
0
  6
CONTINUOUS
 62
256
 10
-65.093068407770986
 20
184.965638932286480
 11
-64.436492521549624
 21
184.955692851246030
  0
LINE
  8
0
  6
CONTINUOUS
 62
256
 10
-65.698172210061784
 20
184.981790491476660
 11
-65.093068407770986
 21
184.965638932286480
  0
LINE
  8
0
  6
CONTINUOUS
 62
256
 10
-66.228550128646091
 20
185.003526833454740
 11
-65.698172210061784
 21
184.981790491476660
  0
LINE
  8
0
  6
CONTINUOUS
 62
256
 10
-66.663820037552071
 20
185.030012642788450
 11
-66.228550128646091
 21
185.003526833454740
  0
LINE
  8
0
  6
CONTINUOUS
 62
256
 10
-66.987254758282674
 20
185.060230084678470
 11
-66.663820037552071
 21
185.030012642788450
  0
LINE
  8
0
  6
CONTINUOUS
 62
256
 10
-67.186424875904478
 20
185.093017919779100
 11
-66.987254758282674
 21
185.060230084678470
  0
LINE
  8
0
  6
CONTINUOUS
 62
256
 10
-67.253676394493169
 20
185.127116129975090
 11
-67.186424875904478
 21
185.093017919779100
  0
LINE
  8
0
  6
CONTINUOUS
 62
256
 10
53.246323605506859
 20
190.437579742157140
 11
53.246323605506859
 21
203.376554682470210
  0
LINE
  8
0
  6
CONTINUOUS
 62
256
 10
-70.753676394493169
 20
190.437579742157140
 11
-70.753676394493169
 21
203.376554682470210
  0
LINE
  8
0
  6
CONTINUOUS
 62
256
 10
-70.753676394493169
 20
189.971064973532520
 11
-71.753676394493169
 21
189.971064973532520
  0
LINE
  8
0
  6
CONTINUOUS
 62
256
 10
54.246323605506859
 20
184.877428045255330
 11
-71.753676394493169
 21
184.877428045255330
  0
ARC
  8
0
  6
CONTINUOUS
 62
256
 10
-65.753676394493169
 20
203.376554682470210
 40
5.000000000000000
 50
90.000000000000000
 51
180.000000000000000
  0
ARC
  8
0
  6
CONTINUOUS
 62
256
 10
-71.753676394493169
 20
187.971064973532520
 40
2.000000000000000
 50
90.000000000000000
 51
180.000000000000000
  0
ARC
  8
0
  6
CONTINUOUS
 62
256
 10
-71.753676394493169
 20
186.877428045255330
 40
2.000000000000000
 50
180.000000000000000
 51
270.000000000000000
  0
ARC
  8
0
  6
CONTINUOUS
 62
256
 10
-71.753676394493169
 20
186.078426174170090
 40
2.000000000000000
 50
180.000000000000000
 51
270.000000000000000
  0
LINE
  8
0
  6
CONTINUOUS
 62
256
 10
-73.753676394493169
 20
187.971064973532520
 11
-73.753676394493169
 21
185.279424303051200
  0
ARC
  8
0
  6
CONTINUOUS
 62
256
 10
-71.753676394493169
 20
185.279424303051200
 40
2.000000000000000
 50
180.000000000000000
 51
270.000000000000000
  0
LINE
  8
0
  6
CONTINUOUS
 62
256
 10
-70.753676394493169
 20
171.776554682470310
 11
-70.753676394493169
 21
183.279424303051200
  0
ARC
  8
0
  6
CONTINUOUS
 62
256
 10
48.246323605506859
 20
203.376554682470210
 40
5.000000000000000
 50
0.000000000000000
 51
90.000000000000000
  0
LINE
  8
0
  6
CONTINUOUS
 62
256
 10
-65.753676394493169
 20
208.376554682470210
 11
48.246323605506859
 21
208.376554682470210
  0
LINE
  8
0
  6
CONTINUOUS
 62
256
 10
53.246323605506859
 20
171.776554682470310
 11
53.246323605506859
 21
183.078426174170090
  0
LINE
  8
0
  6
CONTINUOUS
 62
256
 10
56.246323605506859
 20
187.971064973532520
 11
56.246323605506859
 21
185.279424303051200
  0
LINE
  8
0
  6
CONTINUOUS
 62
256
 10
54.246323605506859
 20
184.078426174153260
 11
-71.753676394493169
 21
184.078426174153260
  0
LINE
  8
0
  6
CONTINUOUS
 62
256
 10
54.246323605506859
 20
183.279424303051200
 11
-71.753676394493169
 21
183.279424303051200
  0
LINE
  8
0
  6
CONTINUOUS
 62
256
 10
53.246323605506859
 20
189.971064973532520
 11
54.246323605506859
 21
189.971064973532520
  0
ARC
  8
0
  6
CONTINUOUS
 62
256
 10
54.246323605506859
 20
187.971064973532520
 40
2.000000000000000
 50
0.000000000000000
 51
90.000000000000000
  0
ARC
  8
0
  6
CONTINUOUS
 62
256
 10
54.246323605506859
 20
186.877428045255330
 40
2.000000000000000
 50
270.000000000000000
 51
0.000000000000000
  0
ARC
  8
0
  6
CONTINUOUS
 62
256
 10
54.246323605506859
 20
186.078426174170090
 40
2.000000000000000
 50
270.000000000000000
 51
0.000000000000000
  0
ARC
  8
0
  6
CONTINUOUS
 62
256
 10
54.246323605506859
 20
185.279424303051200
 40
2.000000000000000
 50
270.000000000000000
 51
0.000000000000000
  0
ARC
  8
0
  6
CONTINUOUS
 62
256
 10
-148.758521343607100
 20
69.876554682470328
 40
20.599999999999874
 50
235.000000000000450
 51
270.000000000000000
  0
ARC
  8
0
  6
CONTINUOUS
 62
256
 10
-166.653676394514380
 20
60.432934548840990
 40
2.599999999999909
 50
180.000000000000000
 51
234.999999999998520
  0
LINE
  8
0
  6
CONTINUOUS
 62
256
 10
-160.574195932438440
 20
53.002022570117106
 11
-168.144975129027220
 21
58.303139233689649
  0
LINE
  8
0
  6
CONTINUOUS
 62
256
 10
-169.253676394514290
 20
60.432934548840990
 11
-169.253676394514290
 21
108.276554682470310
  0
LINE
  8
0
  6
CONTINUOUS
 62
256
 10
10.946323605506905
 20
55.776554682470305
 11
10.946323605506905
 21
17.776554682470305
  0
ARC
  8
0
  6
CONTINUOUS
 62
256
 10
9.946323605506905
 20
17.776554682470305
 40
1.000000000000000
 50
270.000000000000000
 51
0.000000000000000
  0
LINE
  8
0
  6
CONTINUOUS
 62
256
 10
-78.053676394493124
 20
16.776554682470305
 11
9.946323605506905
 21
16.776554682470305
  0
ARC
  8
0
  6
CONTINUOUS
 62
256
 10
-78.053676394493124
 20
17.776554682470305
 40
1.000000000000000
 50
180.000000000000000
 51
270.000000000000000
  0
LINE
  8
0
  6
CONTINUOUS
 62
256
 10
-72.053676394493124
 20
16.276554682470305
 11
-64.053676394493124
 21
16.276554682470305
  0
LINE
  8
0
  6
CONTINUOUS
 62
256
 10
-4.053676394493095
 20
16.276554682470305
 11
3.946323605506905
 21
16.276554682470305
  0
LINE
  8
0
  6
CONTINUOUS
 62
256
 10
-4.053676394493095
 20
16.776554682470305
 11
-4.053676394493095
 21
16.276554682470305
  0
LINE
  8
0
  6
CONTINUOUS
 62
256
 10
3.946323605506905
 20
16.776554682470305
 11
3.946323605506905
 21
16.276554682470305
  0
LINE
  8
0
  6
CONTINUOUS
 62
256
 10
-64.053676394493124
 20
16.776554682470305
 11
-64.053676394493124
 21
16.276554682470305
  0
LINE
  8
0
  6
CONTINUOUS
 62
256
 10
-72.053676394493124
 20
16.776554682470305
 11
-72.053676394493124
 21
16.276554682470305
  0
LINE
  8
0
  6
CONTINUOUS
 62
256
 10
10.946323605506905
 20
55.776554682470305
 11
-71.253676394514315
 21
55.776554682470305
  0
LINE
  8
0
  6
CONTINUOUS
 62
256
 10
-77.643985576618917
 20
60.246266761922413
 11
-77.553676394514099
 21
60.949223728122774
  0
LINE
  8
0
  6
CONTINUOUS
 62
256
 10
-77.911442591711051
 20
59.570324037710321
 11
-77.643985576618917
 21
60.246266761922413
  0
LINE
  8
0
  6
CONTINUOUS
 62
256
 10
-78.345769216692133
 20
58.947371655304920
 11
-77.911442591711051
 21
59.570324037710321
  0
LINE
  8
0
  6
CONTINUOUS
 62
256
 10
-78.930274522937324
 20
58.401349325406343
 11
-78.345769216692133
 21
58.947371655304920
  0
LINE
  8
0
  6
CONTINUOUS
 62
256
 10
-79.642496299321962
 20
57.953240379939722
 11
-78.930274522937324
 21
58.401349325406343
  0
LINE
  8
0
  6
CONTINUOUS
 62
256
 10
-80.455064262398167
 20
57.620265394376965
 11
-79.642496299321962
 21
57.953240379939722
  0
LINE
  8
0
  6
CONTINUOUS
 62
256
 10
-81.336751881038282
 20
57.415220410678714
 11
-80.455064262398167
 21
57.620265394376965
  0
LINE
  8
0
  6
CONTINUOUS
 62
256
 10
-82.253676394514088
 20
57.345985192577942
 11
-81.336751881038282
 21
57.415220410678714
  0
LINE
  8
0
  6
CONTINUOUS
 62
256
 10
-83.170600907989893
 20
57.415220410678714
 11
-82.253676394514088
 21
57.345985192577942
  0
LINE
  8
0
  6
CONTINUOUS
 62
256
 10
-84.052288526630008
 20
57.620265394376965
 11
-83.170600907989893
 21
57.415220410678714
  0
LINE
  8
0
  6
CONTINUOUS
 62
256
 10
-84.864856489706213
 20
57.953240379939722
 11
-84.052288526630008
 21
57.620265394376965
  0
LINE
  8
0
  6
CONTINUOUS
 62
256
 10
-85.577078266090851
 20
58.401349325406343
 11
-84.864856489706213
 21
57.953240379939722
  0
LINE
  8
0
  6
CONTINUOUS
 62
256
 10
-86.161583572336042
 20
58.947371655304920
 11
-85.577078266090851
 21
58.401349325406343
  0
LINE
  8
0
  6
CONTINUOUS
 62
256
 10
-86.595910197317124
 20
59.570324037710321
 11
-86.161583572336042
 21
58.947371655304920
  0
LINE
  8
0
  6
CONTINUOUS
 62
256
 10
-86.863367212409258
 20
60.246266761922413
 11
-86.595910197317124
 21
59.570324037710321
  0
LINE
  8
0
  6
CONTINUOUS
 62
256
 10
-86.953676394514076
 20
60.949223728122774
 11
-86.863367212409258
 21
60.246266761922413
  0
LINE
  8
0
  6
CONTINUOUS
 62
256
 10
-86.863367212409258
 20
61.652180694323135
 11
-86.953676394514076
 21
60.949223728122774
  0
LINE
  8
0
  6
CONTINUOUS
 62
256
 10
-86.595910197317124
 20
62.328123418535228
 11
-86.863367212409258
 21
61.652180694323135
  0
LINE
  8
0
  6
CONTINUOUS
 62
256
 10
-86.161583572336042
 20
62.951075800940629
 11
-86.595910197317124
 21
62.328123418535228
  0
LINE
  8
0
  6
CONTINUOUS
 62
256
 10
-85.577078266090851
 20
63.497098130839213
 11
-86.161583572336042
 21
62.951075800940629
  0
LINE
  8
0
  6
CONTINUOUS
 62
256
 10
-84.864856489706213
 20
63.945207076305827
 11
-85.577078266090851
 21
63.497098130839213
  0
LINE
  8
0
  6
CONTINUOUS
 62
256
 10
-84.052288526630008
 20
64.278182061868591
 11
-84.864856489706213
 21
63.945207076305827
  0
LINE
  8
0
  6
CONTINUOUS
 62
256
 10
-83.170600907989893
 20
64.483227045566835
 11
-84.052288526630008
 21
64.278182061868591
  0
LINE
  8
0
  6
CONTINUOUS
 62
256
 10
-82.253676394514088
 20
64.552462263667607
 11
-83.170600907989893
 21
64.483227045566835
  0
LINE
  8
0
  6
CONTINUOUS
 62
256
 10
-81.336751881038282
 20
64.483227045566835
 11
-82.253676394514088
 21
64.552462263667607
  0
LINE
  8
0
  6
CONTINUOUS
 62
256
 10
-80.455064262398167
 20
64.278182061868591
 11
-81.336751881038282
 21
64.483227045566835
  0
LINE
  8
0
  6
CONTINUOUS
 62
256
 10
-79.642496299321962
 20
63.945207076305827
 11
-80.455064262398167
 21
64.278182061868591
  0
LINE
  8
0
  6
CONTINUOUS
 62
256
 10
-78.930274522937324
 20
63.497098130839213
 11
-79.642496299321962
 21
63.945207076305827
  0
LINE
  8
0
  6
CONTINUOUS
 62
256
 10
-78.345769216692133
 20
62.951075800940629
 11
-78.930274522937324
 21
63.497098130839213
  0
LINE
  8
0
  6
CONTINUOUS
 62
256
 10
-77.911442591711051
 20
62.328123418535228
 11
-78.345769216692133
 21
62.951075800940629
  0
LINE
  8
0
  6
CONTINUOUS
 62
256
 10
-77.643985576618917
 20
61.652180694323135
 11
-77.911442591711051
 21
62.328123418535228
  0
LINE
  8
0
  6
CONTINUOUS
 62
256
 10
-77.553676394514099
 20
60.949223728122774
 11
-77.643985576618917
 21
61.652180694323135
  0
LINE
  8
0
  6
CONTINUOUS
 62
256
 10
-84.253676394514315
 20
57.956848174122342
 11
-82.253676394514315
 21
59.132633659745238
  0
LINE
  8
0
  6
CONTINUOUS
 62
256
 10
-82.253676394514315
 20
59.132633659745238
 11
-80.253676394514315
 21
60.785275298868555
  0
LINE
  8
0
  6
CONTINUOUS
 62
256
 10
-80.253676394514315
 20
57.956848174122342
 11
-82.253676394514315
 21
59.132633659745238
  0
LINE
  8
0
  6
CONTINUOUS
 62
256
 10
-82.253676394514315
 20
59.132633659745238
 11
-84.253676394514315
 21
60.785275298868555
  0
LINE
  8
0
  6
CONTINUOUS
 62
256
 10
-71.253676394514315
 20
56.936858321661248
 11
-71.253676394514088
 21
108.276554682470310
  0
ARC
  8
0
  6
CONTINUOUS
 62
256
 10
-74.253676394514315
 20
56.936858321661362
 40
3.000000000000000
 50
270.000000000000000
 51
359.999999999997780
  0
LINE
  8
0
  6
CONTINUOUS
 62
256
 10
-78.253676394514315
 20
53.936858321661362
 11
-74.253676394514315
 21
53.936858321661362
  0
ARC
  8
0
  6
CONTINUOUS
 62
256
 10
-78.253676394514315
 20
50.936858321661362
 40
3.000000000000000
 50
90.000000000000000
 51
180.000000000000000
  0
LINE
  8
0
  6
CONTINUOUS
 62
256
 10
-81.253676394514315
 20
49.276554682470305
 11
-148.758521343607100
 21
49.276554682470305
  0
LINE
  8
0
  6
CONTINUOUS
 62
256
 10
-81.253676394514315
 20
49.276554682470305
 11
-81.253676394514315
 21
50.936858321661362
  0
LINE
  8
0
  6
CONTINUOUS
 62
256
 10
-79.053676394493124
 20
53.828224780627352
 11
-79.053676394493124
 21
17.776554682470305
  0
LINE
  8
0
  6
CONTINUOUS
 62
256
 10
-79.053676394493124
 20
50.776554682470305
 11
10.946323605506905
 21
50.776554682470305
  0
LINE
  8
0
  6
CONTINUOUS
 62
256
 10
-77.643985576618917
 20
154.900928670617470
 11
-77.553676394514099
 21
155.603885636817840
  0
LINE
  8
0
  6
CONTINUOUS
 62
256
 10
-77.911442591711051
 20
154.224985946405380
 11
-77.643985576618917
 21
154.900928670617470
  0
LINE
  8
0
  6
CONTINUOUS
 62
256
 10
-78.345769216692133
 20
153.602033563999980
 11
-77.911442591711051
 21
154.224985946405380
  0
LINE
  8
0
  6
CONTINUOUS
 62
256
 10
-78.930274522937324
 20
153.056011234101390
 11
-78.345769216692133
 21
153.602033563999980
  0
LINE
  8
0
  6
CONTINUOUS
 62
256
 10
-79.642496299321962
 20
152.607902288634760
 11
-78.930274522937324
 21
153.056011234101390
  0
LINE
  8
0
  6
CONTINUOUS
 62
256
 10
-80.455064262398167
 20
152.274927303072020
 11
-79.642496299321962
 21
152.607902288634760
  0
LINE
  8
0
  6
CONTINUOUS
 62
256
 10
-81.336751881038282
 20
152.069882319373760
 11
-80.455064262398167
 21
152.274927303072020
  0
LINE
  8
0
  6
CONTINUOUS
 62
256
 10
-82.253676394514088
 20
152.000647101272990
 11
-81.336751881038282
 21
152.069882319373760
  0
LINE
  8
0
  6
CONTINUOUS
 62
256
 10
-83.170600907989893
 20
152.069882319373760
 11
-82.253676394514088
 21
152.000647101272990
  0
LINE
  8
0
  6
CONTINUOUS
 62
256
 10
-84.052288526630008
 20
152.274927303072020
 11
-83.170600907989893
 21
152.069882319373760
  0
LINE
  8
0
  6
CONTINUOUS
 62
256
 10
-84.864856489706213
 20
152.607902288634760
 11
-84.052288526630008
 21
152.274927303072020
  0
LINE
  8
0
  6
CONTINUOUS
 62
256
 10
-85.577078266090851
 20
153.056011234101390
 11
-84.864856489706213
 21
152.607902288634760
  0
LINE
  8
0
  6
CONTINUOUS
 62
256
 10
-86.161583572336042
 20
153.602033563999980
 11
-85.577078266090851
 21
153.056011234101390
  0
LINE
  8
0
  6
CONTINUOUS
 62
256
 10
-86.595910197317124
 20
154.224985946405380
 11
-86.161583572336042
 21
153.602033563999980
  0
LINE
  8
0
  6
CONTINUOUS
 62
256
 10
-86.863367212409258
 20
154.900928670617470
 11
-86.595910197317124
 21
154.224985946405380
  0
LINE
  8
0
  6
CONTINUOUS
 62
256
 10
-86.953676394514076
 20
155.603885636817840
 11
-86.863367212409258
 21
154.900928670617470
  0
LINE
  8
0
  6
CONTINUOUS
 62
256
 10
-86.863367212409258
 20
156.306842603018200
 11
-86.953676394514076
 21
155.603885636817840
  0
LINE
  8
0
  6
CONTINUOUS
 62
256
 10
-86.595910197317124
 20
156.982785327230290
 11
-86.863367212409258
 21
156.306842603018200
  0
LINE
  8
0
  6
CONTINUOUS
 62
256
 10
-86.161583572336042
 20
157.605737709635690
 11
-86.595910197317124
 21
156.982785327230290
  0
LINE
  8
0
  6
CONTINUOUS
 62
256
 10
-85.577078266090851
 20
158.151760039534280
 11
-86.161583572336042
 21
157.605737709635690
  0
LINE
  8
0
  6
CONTINUOUS
 62
256
 10
-84.864856489706213
 20
158.599868985000910
 11
-85.577078266090851
 21
158.151760039534280
  0
LINE
  8
0
  6
CONTINUOUS
 62
256
 10
-84.052288526630008
 20
158.932843970563650
 11
-84.864856489706213
 21
158.599868985000910
  0
LINE
  8
0
  6
CONTINUOUS
 62
256
 10
-83.170600907989893
 20
159.137888954261910
 11
-84.052288526630008
 21
158.932843970563650
  0
LINE
  8
0
  6
CONTINUOUS
 62
256
 10
-82.253676394514088
 20
159.207124172362680
 11
-83.170600907989893
 21
159.137888954261910
  0
LINE
  8
0
  6
CONTINUOUS
 62
256
 10
-81.336751881038282
 20
159.137888954261910
 11
-82.253676394514088
 21
159.207124172362680
  0
LINE
  8
0
  6
CONTINUOUS
 62
256
 10
-80.455064262398167
 20
158.932843970563650
 11
-81.336751881038282
 21
159.137888954261910
  0
LINE
  8
0
  6
CONTINUOUS
 62
256
 10
-79.642496299321962
 20
158.599868985000910
 11
-80.455064262398167
 21
158.932843970563650
  0
LINE
  8
0
  6
CONTINUOUS
 62
256
 10
-78.930274522937324
 20
158.151760039534280
 11
-79.642496299321962
 21
158.599868985000910
  0
LINE
  8
0
  6
CONTINUOUS
 62
256
 10
-78.345769216692133
 20
157.605737709635690
 11
-78.930274522937324
 21
158.151760039534280
  0
LINE
  8
0
  6
CONTINUOUS
 62
256
 10
-77.911442591711051
 20
156.982785327230290
 11
-78.345769216692133
 21
157.605737709635690
  0
LINE
  8
0
  6
CONTINUOUS
 62
256
 10
-77.643985576618917
 20
156.306842603018200
 11
-77.911442591711051
 21
156.982785327230290
  0
LINE
  8
0
  6
CONTINUOUS
 62
256
 10
-77.553676394514099
 20
155.603885636817840
 11
-77.643985576618917
 21
156.306842603018200
  0
LINE
  8
0
  6
CONTINUOUS
 62
256
 10
-84.253676394514315
 20
158.596261190818270
 11
-82.253676394514315
 21
157.420475705195490
  0
LINE
  8
0
  6
CONTINUOUS
 62
256
 10
-82.253676394514315
 20
157.420475705195490
 11
-80.253676394514315
 21
155.767834066072060
  0
LINE
  8
0
  6
CONTINUOUS
 62
256
 10
-80.253676394514315
 20
158.596261190818270
 11
-82.253676394514315
 21
157.420475705195490
  0
LINE
  8
0
  6
CONTINUOUS
 62
256
 10
-82.253676394514315
 20
157.420475705195490
 11
-84.253676394514315
 21
155.767834066072060
  0
LINE
  8
0
  6
CONTINUOUS
 62
256
 10
-71.253676394514315
 20
167.276554682470310
 11
-71.253676394514088
 21
108.276554682470310
  0
ARC
  8
0
  6
CONTINUOUS
 62
256
 10
-148.758521343607100
 20
146.676554682470280
 40
20.600000000000023
 50
90.000000000000000
 51
124.999999999999560
  0
ARC
  8
0
  6
CONTINUOUS
 62
256
 10
-166.653676394514380
 20
156.120174816099620
 40
2.600000000000131
 50
125.000000000001180
 51
180.000000000000000
  0
LINE
  8
0
  6
CONTINUOUS
 62
256
 10
-169.253676394514290
 20
156.120174816099620
 11
-169.253676394514290
 21
108.276554682470310
  0
LINE
  8
0
  6
CONTINUOUS
 62
256
 10
-160.574195932438440
 20
163.551086794823500
 11
-168.144975129027220
 21
158.249970131250960
  0
LINE
  8
0
  6
CONTINUOUS
 62
256
 10
-71.253676394514315
 20
167.276554682470310
 11
-148.758521343607100
 21
167.276554682470310
  0
LINE
  8
0
  6
CONTINUOUS
 62
256
 10
69.246323605506859
 20
161.776554682470310
 11
-71.253676394514315
 21
161.776554682470310
  0
LINE
  8
0
  6
CONTINUOUS
 62
256
 10
-71.253676394514315
 20
122.276554682470310
 11
69.246323605506859
 21
122.276554682470290
  0
LINE
  8
0
  6
CONTINUOUS
 62
256
 10
-71.253676394514315
 20
127.904589339108160
 11
69.246323605506859
 21
127.904589339108160
  0
LINE
  8
0
  6
CONTINUOUS
 62
256
 10
-71.253676394514315
 20
126.662669474220250
 11
69.246323605506859
 21
126.662669474220220
  0
LINE
  8
0
  6
CONTINUOUS
 62
256
 10
-71.253676394514315
 20
131.114794362466450
 11
69.246323605506859
 21
131.114794362466450
  0
LINE
  8
0
  6
CONTINUOUS
 62
256
 10
-71.253676394514315
 20
132.461196087965050
 11
69.246323605506859
 21
132.461196087965050
  0
LINE
  8
0
  6
CONTINUOUS
 62
256
 10
-71.253676394514315
 20
135.553927079630280
 11
69.246323605506859
 21
135.553927079630280
  0
LINE
  8
0
  6
CONTINUOUS
 62
256
 10
-71.253676394514315
 20
137.032950233107390
 11
69.246323605506859
 21
137.032950233107390
  0
LINE
  8
0
  6
CONTINUOUS
 62
256
 10
-71.253676394514315
 20
139.990945841240320
 11
69.246323605506859
 21
139.990945841240320
  0
LINE
  8
0
  6
CONTINUOUS
 62
256
 10
-71.253676394514315
 20
141.580155633979070
 11
69.246323605506859
 21
141.580155633979070
  0
LINE
  8
0
  6
CONTINUOUS
 62
256
 10
-71.253676394514315
 20
149.318468452810070
 11
69.246323605506859
 21
149.318468452810070
  0
LINE
  8
0
  6
CONTINUOUS
 62
256
 10
-71.253676394514315
 20
154.409637277353000
 11
69.246323605506859
 21
154.409637277353000
  0
LINE
  8
0
  6
CONTINUOUS
 62
256
 10
-71.253676394514315
 20
158.776554682470310
 11
69.246323605506859
 21
158.776554682470310
  0
LINE
  8
0
  6
CONTINUOUS
 62
256
 10
-71.253676394514315
 20
159.276554682470310
 11
69.246323605506859
 21
159.276554682470310
  0
LINE
  8
0
  6
CONTINUOUS
 62
256
 10
-71.253676394514315
 20
74.972953730961535
 11
69.246323605506859
 21
74.972953730961535
  0
LINE
  8
0
  6
CONTINUOUS
 62
256
 10
-71.253676394514315
 20
76.562163523700292
 11
69.246323605506859
 21
76.562163523700292
  0
LINE
  8
0
  6
CONTINUOUS
 62
256
 10
-71.253676394514315
 20
79.520159131833225
 11
69.246323605506859
 21
79.520159131833225
  0
LINE
  8
0
  6
CONTINUOUS
 62
256
 10
-71.253676394514315
 20
80.999182285310326
 11
69.246323605506859
 21
80.999182285310326
  0
LINE
  8
0
  6
CONTINUOUS
 62
256
 10
-71.253676394514315
 20
84.091913276975561
 11
69.246323605506859
 21
84.091913276975561
  0
LINE
  8
0
  6
CONTINUOUS
 62
256
 10
-71.253676394514088
 20
85.438315002474155
 11
69.246323605506859
 21
85.438315002474155
  0
LINE
  8
0
  6
CONTINUOUS
 62
256
 10
-71.253676394514088
 20
88.648520025832454
 11
69.246323605506859
 21
88.648520025832454
  0
LINE
  8
0
  6
CONTINUOUS
 62
256
 10
-71.253676394514088
 20
89.890439890720359
 11
69.246323605506859
 21
89.890439890720359
  0
LINE
  8
0
  6
CONTINUOUS
 62
256
 10
-71.253676394514315
 20
94.276554682470305
 11
69.246323605506859
 21
94.276554682470305
  0
LINE
  8
0
  6
CONTINUOUS
 62
256
 10
69.246323605506859
 20
54.776554682470305
 11
10.946323605506905
 21
54.776554682470305
  0
LINE
  8
0
  6
CONTINUOUS
 62
256
 10
-71.253676394514315
 20
57.276554682470305
 11
69.246323605506859
 21
57.276554682470305
  0
LINE
  8
0
  6
CONTINUOUS
 62
256
 10
-71.253676394514315
 20
57.776554682470305
 11
69.246323605506859
 21
57.776554682470305
  0
LINE
  8
0
  6
CONTINUOUS
 62
256
 10
-71.253676394514315
 20
62.143472087587611
 11
69.246323605506859
 21
62.143472087587611
  0
LINE
  8
0
  6
CONTINUOUS
 62
256
 10
-71.253676394514315
 20
67.234640912130544
 11
69.246323605506859
 21
67.234640912130544
  0
LINE
  8
0
  6
CONTINUOUS
 62
256
 10
69.246323605506859
 20
161.776554682470310
 11
69.246323605506859
 21
108.276554682470310
  0
LINE
  8
0
  6
CONTINUOUS
 62
256
 10
69.246323605506859
 20
54.776554682470305
 11
69.246323605506859
 21
108.276554682470310
  0
LINE
  8
0
  6
CONTINUOUS
 62
256
 10
88.746323605506859
 20
144.526553728795990
 11
88.746323605506859
 21
170.776554682470310
  0
LINE
  8
0
  6
CONTINUOUS
 62
256
 10
89.746323605506859
 20
145.526554682470310
 11
90.346323605507223
 21
145.526554682470310
  0
LINE
  8
0
  6
CONTINUOUS
 62
256
 10
90.746323605506859
 20
145.126554682470670
 11
90.746323605506859
 21
135.426554682470850
  0
ARC
  8
0
  6
CONTINUOUS
 62
256
 10
90.346323605507223
 20
145.126554682470670
 40
0.399999999999636
 50
0.000000000000000
 51
90.000000000000000
  0
ARC
  8
0
  6
CONTINUOUS
 62
256
 10
89.746323605506859
 20
146.526554682470310
 40
1.000000000000000
 50
180.000000000000000
 51
270.000000000000000
  0
LINE
  8
0
  6
CONTINUOUS
 62
256
 10
89.746323605506859
 20
135.026554682470310
 11
90.346323605507223
 21
135.026554682470310
  0
ARC
  8
0
  6
CONTINUOUS
 62
256
 10
90.346323605507223
 20
135.426554682470850
 40
0.400000000000546
 50
270.000000000000000
 51
0.000000000000000
  0
ARC
  8
0
  6
CONTINUOUS
 62
256
 10
89.746323605506859
 20
134.026554682470310
 40
1.000000000000000
 50
90.000000000000000
 51
180.000000000000000
  0
ARC
  8
0
  6
CONTINUOUS
 62
256
 10
87.746323605506859
 20
158.276554682470310
 40
1.000000000000000
 50
270.000000000000000
 51
0.000000000000000
  0
ARC
  8
0
  6
CONTINUOUS
 62
256
 10
89.246323605506859
 20
170.776554682470310
 40
0.500000000000000
 50
90.000000000000000
 51
180.000000000000000
  0
ARC
  8
0
  6
CONTINUOUS
 62
256
 10
78.246323605506859
 20
165.276554682470310
 40
7.999999999999964
 50
207.975174367152760
 51
270.000000000000000
  0
ARC
  8
0
  6
CONTINUOUS
 62
256
 10
70.739540727285657
 20
161.289298631092610
 40
0.500000000000217
 50
27.975174367227915
 51
91.499999999989043
  0
ARC
  8
0
  6
CONTINUOUS
 62
256
 10
70.746323605506859
 20
161.289476247009590
 40
0.500000000000872
 50
91.499999999987068
 51
180.000000000000000
  0
ARC
  8
0
  6
CONTINUOUS
 62
256
 10
69.746323605506859
 20
161.302912000284780
 40
0.499999999999054
 50
271.499999999992550
 51
0.000000000000000
  0
LINE
  8
0
  6
CONTINUOUS
 62
256
 10
95.746323605506859
 20
171.276554682470310
 11
95.746323605506859
 21
108.276554682470310
  0
LINE
  8
0
  6
CONTINUOUS
 62
256
 10
88.746323605506859
 20
108.276554682470310
 11
88.746323605506859
 21
136.026555636144620
  0
LINE
  8
0
  6
CONTINUOUS
 62
256
 10
87.746323605506859
 20
157.276554682470310
 11
78.246323605506859
 21
157.276554682470310
  0
LINE
  8
0
  6
CONTINUOUS
 62
256
 10
95.746323605506859
 20
171.276554682470310
 11
89.246323605506859
 21
171.276554682470310
  0
LINE
  8
0
  6
CONTINUOUS
 62
256
 10
69.246323605506859
 20
108.276554682470310
 11
69.246323605506859
 21
160.776554682470310
  0
LINE
  8
0
  6
CONTINUOUS
 62
256
 10
69.759412079660706
 20
160.803083337797940
 11
69.246323605506859
 21
160.776554682470310
  0
LINE
  8
0
  6
CONTINUOUS
 62
256
 10
70.246323605506859
 20
161.289476247009590
 11
70.246323605506859
 21
108.276554682470310
  0
LINE
  8
0
  6
CONTINUOUS
 62
256
 10
85.746323605506859
 20
167.776554682470310
 11
85.746323605506859
 21
159.276554682470310
  0
ARC
  8
0
  6
CONTINUOUS
 62
256
 10
83.746323605506859
 20
159.276554682470310
 40
2.000000000000000
 50
270.000000000000000
 51
0.000000000000000
  0
LINE
  8
0
  6
CONTINUOUS
 62
256
 10
88.246323605506859
 20
168.276554682470310
 11
86.246323605506859
 21
168.276554682470310
  0
ARC
  8
0
  6
CONTINUOUS
 62
256
 10
86.246323605506859
 20
167.776554682470310
 40
0.500000000000000
 50
90.000000000000000
 51
180.000000000000000
  0
ARC
  8
0
  6
CONTINUOUS
 62
256
 10
88.246323605506859
 20
168.776554682470310
 40
0.500000000000000
 50
270.000000000000000
 51
0.000000000000000
  0
LINE
  8
0
  6
CONTINUOUS
 62
256
 10
85.746324368446309
 20
162.026539657384090
 11
85.746324368446309
 21
170.526537750035460
  0
LINE
  8
0
  6
CONTINUOUS
 62
256
 10
88.746323605506859
 20
170.526537750035460
 11
85.746324368446309
 21
170.526537750035460
  0
LINE
  8
0
  6
CONTINUOUS
 62
256
 10
88.746323605506859
 20
72.026555636144622
 11
88.746323605506859
 21
45.776554682470305
  0
LINE
  8
0
  6
CONTINUOUS
 62
256
 10
89.746323605506859
 20
71.026554682470305
 11
90.346323605507223
 21
71.026554682470305
  0
LINE
  8
0
  6
CONTINUOUS
 62
256
 10
90.746323605506859
 20
71.426554682470851
 11
90.746323605506859
 21
81.126554682470669
  0
ARC
  8
0
  6
CONTINUOUS
 62
256
 10
90.346323605507223
 20
71.426554682470851
 40
0.400000000000546
 50
270.000000000000000
 51
0.000000000000000
  0
ARC
  8
0
  6
CONTINUOUS
 62
256
 10
89.746323605506859
 20
70.026554682470305
 40
1.000000000000000
 50
90.000000000000000
 51
180.000000000000000
  0
LINE
  8
0
  6
CONTINUOUS
 62
256
 10
89.746323605506859
 20
81.526554682470305
 11
90.346323605507223
 21
81.526554682470305
  0
ARC
  8
0
  6
CONTINUOUS
 62
256
 10
90.346323605507223
 20
81.126554682470669
 40
0.399999999999636
 50
0.000000000000000
 51
90.000000000000000
  0
ARC
  8
0
  6
CONTINUOUS
 62
256
 10
89.746323605506859
 20
82.526554682470305
 40
1.000000000000000
 50
180.000000000000000
 51
270.000000000000000
  0
ARC
  8
0
  6
CONTINUOUS
 62
256
 10
87.746323605506859
 20
58.276554682470305
 40
1.000000000000000
 50
0.000000000000000
 51
90.000000000000000
  0
ARC
  8
0
  6
CONTINUOUS
 62
256
 10
89.246323605506859
 20
45.776554682470305
 40
0.500000000000000
 50
180.000000000000000
 51
270.000000000000000
  0
ARC
  8
0
  6
CONTINUOUS
 62
256
 10
78.246323605506859
 20
51.276554682470305
 40
8.000000000000000
 50
90.000000000000000
 51
152.024825632841500
  0
ARC
  8
0
  6
CONTINUOUS
 62
256
 10
70.739540727285657
 20
55.263810733848914
 40
0.499999999999963
 50
268.500000000010170
 51
332.024825632772090
  0
ARC
  8
0
  6
CONTINUOUS
 62
256
 10
70.746323605506859
 20
55.263633117931022
 40
0.500000000000000
 50
180.000000000000000
 51
268.500000000010350
  0
ARC
  8
0
  6
CONTINUOUS
 62
256
 10
69.746323605506859
 20
55.250197364655833
 40
0.500000000000000
 50
0.000000000000000
 51
88.500000000010303
  0
LINE
  8
0
  6
CONTINUOUS
 62
256
 10
95.746323605506859
 20
45.276554682470305
 11
95.746323605506859
 21
108.276554682470310
  0
LINE
  8
0
  6
CONTINUOUS
 62
256
 10
88.746323605506859
 20
108.276554682470310
 11
88.746323605506859
 21
80.526553728795989
  0
LINE
  8
0
  6
CONTINUOUS
 62
256
 10
87.746323605506859
 20
59.276554682470305
 11
78.246323605506859
 21
59.276554682470305
  0
LINE
  8
0
  6
CONTINUOUS
 62
256
 10
95.746323605506859
 20
45.276554682470305
 11
89.246323605506859
 21
45.276554682470305
  0
LINE
  8
0
  6
CONTINUOUS
 62
256
 10
69.246323605506859
 20
108.276554682471210
 11
69.246323605506859
 21
55.776554682470305
  0
LINE
  8
0
  6
CONTINUOUS
 62
256
 10
69.759412079660706
 20
55.750026027143576
 11
69.246323605506859
 21
55.776554682470305
  0
LINE
  8
0
  6
CONTINUOUS
 62
256
 10
70.246323605506859
 20
55.263633117931022
 11
70.246323605506859
 21
108.276554682470310
  0
LINE
  8
0
  6
CONTINUOUS
 62
256
 10
85.746323605506859
 20
48.776554682470305
 11
85.746323605506859
 21
57.276554682470305
  0
ARC
  8
0
  6
CONTINUOUS
 62
256
 10
83.746323605506859
 20
57.276554682470305
 40
2.000000000000000
 50
0.000000000000000
 51
90.000000000000000
  0
LINE
  8
0
  6
CONTINUOUS
 62
256
 10
88.246323605506859
 20
48.276554682470305
 11
86.246323605506859
 21
48.276554682470305
  0
ARC
  8
0
  6
CONTINUOUS
 62
256
 10
86.246323605506859
 20
48.776554682470305
 40
0.500000000000000
 50
180.000000000000000
 51
270.000000000000000
  0
ARC
  8
0
  6
CONTINUOUS
 62
256
 10
88.246323605506859
 20
47.776554682470305
 40
0.500000000000000
 50
0.000000000000000
 51
90.000000000000000
  0
LINE
  8
0
  6
CONTINUOUS
 62
256
 10
85.746324368446309
 20
54.526569707557428
 11
85.746324368446309
 21
46.026571614906061
  0
LINE
  8
0
  6
CONTINUOUS
 62
256
 10
88.746323605506859
 20
46.026571614906061
 11
85.746324368446309
 21
46.026571614906061
  0
LINE
  8
0
  6
DASHDOT
 62
256
 10
150.956267295724050
 20
171.916164989250320
 11
122.949010304897910
 21
171.916164989250320
  0
LINE
  8
0
  6
DASHDOT
 62
256
 10
150.956267295724050
 20
44.636944375673011
 11
122.949010304897910
 21
44.636944375673011
  0
ARC
  8
0
  6
CONTINUOUS
 62
256
 10
174.846323605483120
 20
115.876554682470650
 40
0.400000000000091
 50
0.000000000000000
 51
90.000000000000000
  0
LINE
  8
0
  6
CONTINUOUS
 62
256
 10
151.246323605483210
 20
100.426554682469940
 11
151.246323605483210
 21
98.276554682470120
  0
LINE
  8
0
  6
CONTINUOUS
 62
256
 10
152.806131226618160
 20
100.426554682469940
 11
153.365938847753570
 21
100.276554682470310
  0
LINE
  8
0
  6
CONTINUOUS
 62
256
 10
152.806131226618160
 20
100.426554682469940
 11
150.646323605482850
 21
100.426554682469940
  0
LINE
  8
0
  6
CONTINUOUS
 62
256
 10
149.946323605483030
 20
116.776562121131970
 11
150.249931077232300
 21
116.472954649381790
  0
ARC
  8
0
  6
CONTINUOUS
 62
256
 10
150.646323605482850
 20
116.526554682470310
 40
0.399999999999936
 50
187.700803502586670
 51
270.000000000000000
  0
LINE
  8
0
  6
CONTINUOUS
 62
256
 10
150.246323605483210
 20
108.276554682470310
 11
150.246323605483210
 21
116.476562121131790
  0
LINE
  8
0
  6
CONTINUOUS
 62
256
 10
147.246323605506860
 20
116.776562121131970
 11
149.946323605483030
 21
116.776562121131970
  0
LINE
  8
0
  6
CONTINUOUS
 62
256
 10
147.246323605506860
 20
99.776547243808636
 11
149.946323605483030
 21
99.776547243808636
  0
LINE
  8
0
  6
CONTINUOUS
 62
256
 10
149.946323605483030
 20
99.776547243808636
 11
150.249931077232300
 21
100.080154715558820
  0
ARC
  8
0
  6
CONTINUOUS
 62
256
 10
150.646323605482850
 20
100.026554682470310
 40
0.399999999999636
 50
90.000000000000000
 51
172.299196497413900
  0
LINE
  8
0
  6
CONTINUOUS
 62
256
 10
152.806131226618160
 20
116.126554682470650
 11
153.365938847753570
 21
116.276554682470310
  0
LINE
  8
0
  6
CONTINUOUS
 62
256
 10
152.806131226618160
 20
116.126554682470650
 11
150.646323605482850
 21
116.126554682470650
  0
LINE
  8
0
  6
CONTINUOUS
 62
256
 10
150.246323605483210
 20
108.276554682470310
 11
150.246323605483210
 21
100.076547243808800
  0
LINE
  8
0
  6
CONTINUOUS
 62
256
 10
175.246323605483210
 20
108.276554682470310
 11
175.246323605483210
 21
115.876554682470650
  0
LINE
  8
0
  6
CONTINUOUS
 62
256
 10
174.846323605483120
 20
116.276554682470310
 11
153.365938847753570
 21
116.276554682470310
  0
LINE
  8
0
  6
CONTINUOUS
 62
256
 10
175.246323605483210
 20
98.276554682470120
 11
151.246323605483210
 21
98.276554682470120
  0
LINE
  8
0
  6
CONTINUOUS
 62
256
 10
175.246323605483210
 20
98.276554682470120
 11
175.246323605483210
 21
100.676554682469940
  0
ARC
  8
0
  6
CONTINUOUS
 62
256
 10
174.846323605483120
 20
100.676554682469940
 40
0.399999999999636
 50
270.000000000000000
 51
0.000000000000000
  0
LINE
  8
0
  6
CONTINUOUS
 62
256
 10
174.846323605483120
 20
100.276554682470310
 11
153.365938847753570
 21
100.276554682470310
  0
LINE
  8
0
  6
CONTINUOUS
 62
256
 10
175.246323605483210
 20
108.276554682470310
 11
175.246323605483210
 21
100.676554682469940
  0
ARC
  8
0
  6
CONTINUOUS
 62
256
 10
128.746323605506860
 20
51.248622495339077
 40
2.000000000000000
 50
0.000000000000000
 51
39.285346512634462
  0
ARC
  8
0
  6
CONTINUOUS
 62
256
 10
128.746323605506860
 20
54.905476744831503
 40
2.000000000000000
 50
0.000000000000000
 51
39.285346512634462
  0
LINE
  8
0
  6
CONTINUOUS
 62
256
 10
117.122096301160130
 20
68.616710729250372
 11
130.294327950685100
 21
52.514988377423833
  0
ARC
  8
0
  6
CONTINUOUS
 62
256
 10
115.574091955981880
 20
67.350344847164706
 40
2.000000000000331
 50
39.285346512654776
 51
90.000000000000000
  0
LINE
  8
0
  6
CONTINUOUS
 62
256
 10
117.122096301160130
 20
72.273564978742797
 11
130.294327950685100
 21
56.171842626916259
  0
ARC
  8
0
  6
CONTINUOUS
 62
256
 10
115.574091955981880
 20
71.007199096657132
 40
2.000000000000331
 50
39.285346512654776
 51
90.000000000000000
  0
LINE
  8
0
  6
CONTINUOUS
 62
256
 10
118.521936992980500
 20
73.007199096657132
 11
128.746323605506860
 21
73.007199096657132
  0
ARC
  8
0
  6
CONTINUOUS
 62
256
 10
115.574091955981880
 20
145.545910268283480
 40
2.000000000000000
 50
270.000000000000000
 51
320.714653487345000
  0
ARC
  8
0
  6
CONTINUOUS
 62
256
 10
115.574091955981880
 20
149.202764517775900
 40
2.000000000000000
 50
270.000000000000000
 51
320.714653487345000
  0
ARC
  8
0
  6
CONTINUOUS
 62
256
 10
128.746323605506860
 20
161.647632620109110
 40
1.999999999999755
 50
320.714653487365410
 51
0.000000000000000
  0
ARC
  8
0
  6
CONTINUOUS
 62
256
 10
128.746323605506860
 20
165.304486869601530
 40
1.999999999999755
 50
320.714653487365410
 51
0.000000000000000
  0
LINE
  8
0
  6
CONTINUOUS
 62
256
 10
118.521936992980500
 20
143.545910268283480
 11
128.746323605506860
 21
143.545910268283480
  0
LINE
  8
0
  6
CONTINUOUS
 62
256
 10
117.122096301160130
 20
147.936398635690240
 11
130.294327950685100
 21
164.038120987516780
  0
LINE
  8
0
  6
CONTINUOUS
 62
256
 10
117.122096301160130
 20
144.279544386197810
 11
130.294327950685100
 21
160.381266738024350
  0
ARC
  8
0
  6
CONTINUOUS
 62
256
 10
118.521936992980500
 20
104.276554682470310
 40
2.000000000000000
 50
90.000000000000000
 51
180.000000000000000
  0
ARC
  8
0
  6
CONTINUOUS
 62
256
 10
118.521936992980500
 20
112.276554682470310
 40
2.000000000000000
 50
180.000000000000000
 51
270.000000000000000
  0
ARC
  8
0
  6
CONTINUOUS
 62
256
 10
128.746323605506860
 20
104.276554682470310
 40
2.000000000000000
 50
0.000000000000000
 51
90.000000000000000
  0
ARC
  8
0
  6
CONTINUOUS
 62
256
 10
128.746323605506860
 20
112.276554682470310
 40
2.000000000000000
 50
270.000000000000000
 51
0.000000000000000
  0
LINE
  8
0
  6
CONTINUOUS
 62
256
 10
128.746323605506860
 20
110.276554682470310
 11
118.521936992980500
 21
110.276554682470310
  0
LINE
  8
0
  6
CONTINUOUS
 62
256
 10
128.746323605506860
 20
106.276554682470310
 11
118.521936992980500
 21
106.276554682470310
  0
LINE
  8
0
  6
CONTINUOUS
 62
256
 10
96.246323605506859
 20
45.276554682470305
 11
128.781228418381490
 21
44.708655806528441
  0
ARC
  8
0
  6
CONTINUOUS
 62
256
 10
128.746323605506860
 20
42.708960416215632
 40
2.000000000000000
 50
0.000000000000000
 51
88.999999999998224
  0
LINE
  8
0
  6
CONTINUOUS
 62
256
 10
96.246323605506859
 20
45.276554682470305
 11
96.246323605506859
 21
108.276554682470310
  0
LINE
  8
0
  6
CONTINUOUS
 62
256
 10
96.246323605506859
 20
171.276554682470310
 11
96.246323605506859
 21
108.276554682470310
  0
LINE
  8
0
  6
CONTINUOUS
 62
256
 10
96.246323605506859
 20
171.276554682470310
 11
128.781228418381490
 21
171.844453558412170
  0
ARC
  8
0
  6
CONTINUOUS
 62
256
 10
128.746323605506860
 20
173.844148948724980
 40
2.000000000000027
 50
271.000000000001760
 51
0.000000000000000
  0
LINE
  8
0
  6
CONTINUOUS
 62
256
 10
130.746323605506860
 20
175.267827150005360
 11
130.746323605506860
 21
179.893904964858850
  0
LINE
  8
0
  6
CONTINUOUS
 62
256
 10
142.746323605506860
 20
180.776554682469400
 11
135.249065005702510
 21
180.985970268932760
  0
LINE
  8
0
  6
CONTINUOUS
 62
256
 10
131.720146657198940
 20
180.893562289834340
 11
135.233235131353010
 21
180.985555749084600
  0
LINE
  8
0
  6
CONTINUOUS
 62
256
 10
142.746323605506860
 20
35.763461721686326
 11
135.249065005702510
 21
35.567139096007850
  0
LINE
  8
0
  6
CONTINUOUS
 62
256
 10
130.746323605506860
 20
37.708960416215632
 11
130.746323605506860
 21
36.659204400081762
  0
ARC
  8
0
  6
CONTINUOUS
 62
256
 10
131.746323605506860
 20
179.893904964858850
 40
0.999999999999931
 50
91.500000000002828
 51
180.000000000000000
  0
ARC
  8
0
  6
CONTINUOUS
 62
256
 10
131.746323605506860
 20
36.659204400081762
 40
1.000000000000000
 50
180.000000000000000
 51
268.499999999997270
  0
LINE
  8
0
  6
CONTINUOUS
 62
256
 10
145.746323605506860
 20
172.476554682469210
 11
144.966998108768450
 21
173.276554682470310
  0
LINE
  8
0
  6
CONTINUOUS
 62
256
 10
145.746323605506860
 20
44.076554682471397
 11
144.966998108768420
 21
43.276554682470305
  0
LINE
  8
0
  6
CONTINUOUS
 62
256
 10
130.746323605506860
 20
108.276554682470310
 11
130.746323605506860
 21
175.267827150005360
  0
LINE
  8
0
  6
CONTINUOUS
 62
256
 10
130.746323605506860
 20
108.276554682470310
 11
130.746323605506860
 21
36.776554682471215
  0
LINE
  8
0
  6
CONTINUOUS
 62
256
 10
137.693969708891020
 20
52.879417973811542
 11
142.746323605506860
 21
52.747117430934850
  0
ARC
  8
0
  6
CONTINUOUS
 62
256
 10
137.746323605506860
 20
54.878732623762517
 40
2.000000000000000
 50
180.000000000000000
 51
268.499999999997210
  0
LINE
  8
0
  6
CONTINUOUS
 62
256
 10
137.693969708891250
 20
69.578591295566184
 11
142.746323605506860
 21
69.433197791904604
  0
ARC
  8
0
  6
CONTINUOUS
 62
256
 10
137.746323605506860
 20
71.577905945517159
 40
2.000000000000000
 50
180.000000000000000
 51
268.499999999997270
  0
LINE
  8
0
  6
CONTINUOUS
 62
256
 10
135.746323605506860
 20
108.276554682470310
 11
135.746323605506860
 21
54.878732623762517
  0
LINE
  8
0
  6
CONTINUOUS
 62
256
 10
131.720146657198940
 20
35.659547075106275
 11
135.233235131353010
 21
35.567553615856013
  0
LINE
  8
0
  6
CONTINUOUS
 62
256
 10
137.693969708891020
 20
163.673691391129070
 11
142.746323605506860
 21
163.805991934005760
  0
ARC
  8
0
  6
CONTINUOUS
 62
256
 10
137.746323605506860
 20
161.674376741178090
 40
1.999999999999863
 50
91.500000000002828
 51
180.000000000000000
  0
LINE
  8
0
  6
CONTINUOUS
 62
256
 10
137.693969708891250
 20
146.974518069374430
 11
142.746323605506860
 21
147.119911573036010
  0
ARC
  8
0
  6
CONTINUOUS
 62
256
 10
137.746323605506860
 20
144.975203419423450
 40
1.999999999999863
 50
91.500000000002828
 51
180.000000000000000
  0
LINE
  8
0
  6
CONTINUOUS
 62
256
 10
135.746323605506860
 20
108.276554682470310
 11
135.746323605506860
 21
161.674376741178090
  0
ARC
  8
0
  6
CONTINUOUS
 62
256
 10
145.246323605506860
 20
136.096310789096610
 40
2.000000000000000
 50
0.000000000000000
 51
37.568592028830572
  0
LINE
  8
0
  6
CONTINUOUS
 62
256
 10
146.831571583716140
 20
137.315732310796190
 11
145.746323605506860
 21
138.726554682468300
  0
ARC
  8
0
  6
CONTINUOUS
 62
256
 10
145.246323605506860
 20
80.456798575835819
 40
2.000000000000188
 50
322.431407971169340
 51
0.000000000000000
  0
LINE
  8
0
  6
CONTINUOUS
 62
256
 10
146.831571583716140
 20
79.237377054136232
 11
145.746323605506860
 21
77.826554682465030
  0
LINE
  8
0
  6
CONTINUOUS
 62
256
 10
147.246323605506860
 20
136.096310789096610
 11
147.246323605506860
 21
108.276554682470310
  0
LINE
  8
0
  6
CONTINUOUS
 62
256
 10
147.246323605506860
 20
80.456798575835819
 11
147.246323605506860
 21
108.276554682470310
  0
LINE
  8
0
  6
CONTINUOUS
 62
256
 10
142.746323605506860
 20
108.276554682470310
 11
142.746323605506860
 21
35.763461721686326
  0
LINE
  8
0
  6
CONTINUOUS
 62
256
 10
145.746323605506860
 20
108.276554682470310
 11
145.746323605506860
 21
44.076554682471397
  0
LINE
  8
0
  6
CONTINUOUS
 62
256
 10
145.746323605506860
 20
108.276554682470310
 11
145.746323605506860
 21
172.476554682469210
  0
LINE
  8
0
  6
CONTINUOUS
 62
256
 10
142.746323605506630
 20
108.276554682470310
 11
142.746323605506860
 21
180.776554682469400
  0
LINE
  8
0
  6
DASHDOT
 62
256
 10
-301.040843856300800
 20
-13.977567161154866
 11
-301.040843856300910
 21
-180.412588969791390
  0
LINE
  8
0
  6
CONTINUOUS
 62
256
 10
-268.476997674466190
 20
-165.038211560679140
 11
-272.785422481600110
 21
-165.038211560679140
  0
LINE
  8
0
  6
CONTINUOUS
 62
256
 10
-261.296297188524020
 20
-165.038211560679140
 11
-265.604721995657940
 21
-165.038211560679140
  0
ARC
  8
0
  6
CONTINUOUS
 62
256
 10
-267.040859835062070
 20
-161.038211560679030
 40
4.249999046324634
 50
213.421071121225200
 51
336.366468944172710
  0
ARC
  8
0
  6
CONTINUOUS
 62
256
 10
-267.040859835062070
 20
-161.038211560679030
 40
7.000000000000432
 50
201.417537750192510
 51
214.849904579047180
  0
ARC
  8
0
  6
CONTINUOUS
 62
256
 10
-267.040859835062070
 20
-161.038211560679030
 40
7.000000000000076
 50
325.150095420952820
 51
348.763010699953610
  0
LINE
  8
0
  6
CONTINUOUS
 62
256
 10
-267.040862137253730
 20
-163.347608761525920
 11
-267.425788470691490
 21
-163.125370737201480
  0
LINE
  8
0
  6
CONTINUOUS
 62
256
 10
-266.522383904915960
 20
-163.048266461059230
 11
-267.040861778953460
 21
-163.347609085887030
  0
ARC
  8
0
  6
CONTINUOUS
 62
256
 10
-335.040827877539640
 20
-161.038211560679030
 40
7.000000000000076
 50
325.150095420952820
 51
338.582462249807290
  0
ARC
  8
0
  6
CONTINUOUS
 62
256
 10
-335.040827877539640
 20
-161.038211560679030
 40
7.000000000000003
 50
191.236989300046050
 51
214.849904579047060
  0
LINE
  8
0
  6
CONTINUOUS
 62
256
 10
-340.785390524077680
 20
-165.038211560679140
 11
-336.476965716943770
 21
-165.038211560679140
  0
LINE
  8
0
  6
CONTINUOUS
 62
256
 10
-333.604690038135520
 20
-165.038211560679140
 11
-329.296265231001600
 21
-165.038211560679140
  0
ARC
  8
0
  6
CONTINUOUS
 62
256
 10
-335.040827877539640
 20
-161.038211560679030
 40
4.249999046324644
 50
203.633531055827290
 51
326.578928878774780
  0
LINE
  8
0
  6
CONTINUOUS
 62
256
 10
-335.559303807685750
 20
-163.048266461059230
 11
-335.040825933648250
 21
-163.347609085887030
  0
LINE
  8
0
  6
CONTINUOUS
 62
256
 10
-335.040825575347980
 20
-163.347608761525920
 11
-334.655899241910220
 21
-163.125370737201480
  0
LINE
  8
0
  6
CONTINUOUS
 62
256
 10
-357.239747254352610
 20
-146.043783385712030
 11
-358.182979480031690
 21
-145.100551160032980
  0
ARC
  8
0
  6
CONTINUOUS
 62
256
 10
-344.040843856300850
 20
-130.958415536301910
 40
20.000000000000082
 50
195.974204007402360
 51
225.000000000000450
  0
ARC
  8
0
  6
CONTINUOUS
 62
256
 10
-356.040843856300850
 20
-89.538211560679088
 40
4.999999999999961
 50
126.240455740104170
 51
134.427004000805430
  0
ARC
  8
0
  6
CONTINUOUS
 62
256
 10
-319.040843856300850
 20
-98.994843268448733
 40
45.000000000000043
 50
148.490164730418940
 51
155.577054368654640
  0
ARC
  8
0
  6
CONTINUOUS
 62
256
 10
-343.422401161486050
 20
-58.813508504979723
 40
1.999999999999010
 50
6.702562772192431
 51
45.000000000000576
  0
ARC
  8
0
  6
CONTINUOUS
 62
256
 10
-319.040843856300850
 20
-98.994843268448733
 40
44.999999999999915
 50
92.906384370709901
 51
115.154512373013460
  0
LINE
  8
0
  6
CONTINUOUS
 62
256
 10
-327.790843856300850
 20
-57.432322812464633
 11
-327.790843856300850
 21
-55.682749114506009
  0
ARC
  8
0
  6
CONTINUOUS
 62
256
 10
-333.040843856300850
 20
-61.538211560678974
 40
4.249999046325946
 50
65.218555277062109
 51
124.030593798567840
  0
LINE
  8
0
  6
CONTINUOUS
 62
256
 10
-274.290843856300850
 20
-57.432322812464633
 11
-274.290843856300850
 21
-55.682749114506009
  0
ARC
  8
0
  6
CONTINUOUS
 62
256
 10
-269.040843856300850
 20
-61.538211560678974
 40
4.249999046325890
 50
55.969406201432427
 51
114.781444722938160
  0
ARC
  8
0
  6
CONTINUOUS
 62
256
 10
-258.659286551115660
 20
-58.813508504979723
 40
2.000000000000016
 50
135.000000000000000
 51
173.496499837266240
  0
LINE
  8
0
  6
DASHDOT
 62
256
 10
-410.545788255661360
 20
-110.538211560678970
 11
-200.501361603687880
 21
-110.538211560678970
  0
ARC
  8
0
  6
CONTINUOUS
 62
256
 10
-283.040843856300850
 20
-98.994843268448733
 40
44.999999999999901
 50
64.845487626986596
 51
87.093615629290099
  0
LINE
  8
0
  6
CONTINUOUS
 62
256
 10
-373.540843856301990
 20
-144.237771361168400
 11
-373.540843856301990
 21
-160.038211560678750
  0
LINE
  8
0
  6
CONTINUOUS
 62
256
 10
-373.540843856301990
 20
-31.038211560678747
 11
-373.540843856301990
 21
-66.403803132675819
  0
LINE
  8
0
  6
CONTINUOUS
 62
256
 10
-228.540843856301990
 20
-146.538211560678970
 11
-228.540843856301990
 21
-160.038211560678750
  0
LINE
  8
0
  6
CONTINUOUS
 62
256
 10
-228.540843856301990
 20
-31.038211560678747
 11
-228.540843856301990
 21
-74.538211560679201
  0
LINE
  8
0
  6
CONTINUOUS
 62
256
 10
-359.540843856300850
 20
-93.207602800459426
 11
-359.540843856300850
 21
-84.580711560678992
  0
LINE
  8
0
  6
CONTINUOUS
 62
256
 10
-381.137350405158710
 20
-156.530830053439560
 11
-382.735354147363300
 21
-156.450929866328580
  0
ARC
  8
0
  6
CONTINUOUS
 62
256
 10
-380.340843856300810
 20
-124.580711560678960
 40
20.800000000000111
 50
274.191726156007410
 51
354.952683218992150
  0
ARC
  8
0
  6
CONTINUOUS
 62
256
 10
-384.267309687633090
 20
-147.040071882722490
 40
2.000000000000154
 50
357.137594773887600
 51
80.083463391768120
  0
ARC
  8
0
  6
CONTINUOUS
 62
256
 10
-378.674296589917280
 20
-147.319722537608300
 40
1.999999999999962
 50
94.191726156001650
 51
177.137594773887370
  0
ARC
  8
0
  6
CONTINUOUS
 62
256
 10
-380.340843856300810
 20
-124.580711560678960
 40
20.799999999999986
 50
174.275189547776620
 51
205.640070215894870
  0
ARC
  8
0
  6
CONTINUOUS
 62
256
 10
-380.340843856300810
 20
-124.580711560678960
 40
20.799999999999926
 50
205.640070215894870
 51
260.083463391769560
  0
ARC
  8
0
  6
CONTINUOUS
 62
256
 10
-380.340843856300810
 20
-124.580711560678960
 40
20.799999999999986
 50
174.275189547776620
 51
205.640070215894870
  0
ARC
  8
0
  6
CONTINUOUS
 62
256
 10
-378.340843856300810
 20
-84.580711560678992
 40
18.799999999999933
 50
144.191373186504250
 51
174.275189547776420
  0
LINE
  8
0
  6
CONTINUOUS
 62
256
 10
-401.037103207921750
 20
-122.505898593097950
 11
-397.047078270265730
 21
-82.705399839980714
  0
LINE
  8
0
  6
CONTINUOUS
 62
256
 10
-376.043713476881750
 20
-54.658091487898787
 11
-381.137350405158710
 21
-156.530830053439560
  0
LINE
  8
0
  6
CONTINUOUS
 62
256
 10
-377.641717219086330
 20
-54.578191300788603
 11
-382.735354147363300
 21
-156.450929866328580
  0
ARC
  8
0
  6
CONTINUOUS
 62
256
 10
-378.759346320936860
 20
-57.325806897033431
 40
1.299999237060475
 50
87.137594090651845
 51
160.536063666412730
  0
ARC
  8
0
  6
CONTINUOUS
 62
256
 10
-378.979071911688830
 20
-61.720318712071162
 40
1.299999237060493
 50
193.739143184211430
 51
267.137612759980130
  0
LINE
  8
0
  6
CONTINUOUS
 62
256
 10
-377.716623644501620
 20
-56.076319809105257
 11
-378.694427457009170
 21
-56.027429618479914
  0
LINE
  8
0
  6
CONTINUOUS
 62
256
 10
-378.066186963108750
 20
-63.067586181250135
 11
-379.043990775616520
 21
-63.018695990624792
  0
LINE
  8
0
  6
CONTINUOUS
 62
256
 10
-377.716623644501620
 20
-56.076319809105257
 11
-378.066186963108750
 21
-63.067586181250135
  0
LINE
  8
0
  6
CONTINUOUS
 62
256
 10
-377.716623644501620
 20
-56.076319809105257
 11
-378.066186963108750
 21
-63.067586181250135
  0
POINT
  8
0
  6
CONTINUOUS
 62
256
 10
-377.891405303805190
 20
-59.571952995177639
  0
ARC
  8
0
  6
CONTINUOUS
 62
256
 10
-371.499390715980780
 20
-59.891553724568894
 40
9.000000000000060
 50
160.536063666407810
 51
193.739143184213500
  0
LINE
  8
0
  6
CONTINUOUS
 62
256
 10
-377.641717219086330
 20
-54.578191300788603
 11
-376.043713476881750
 21
-54.658091487898787
  0
ARC
  8
0
  6
CONTINUOUS
 62
256
 10
-378.340843856300810
 20
-84.580711560678992
 40
18.800000000000036
 50
94.873974813842736
 51
144.191373186504220
  0
LINE
  8
0
  6
CONTINUOUS
 62
256
 10
-376.842715347984040
 20
-54.618141394343752
 11
-381.936352276261000
 21
-156.490879959883840
  0
ARC
  8
0
  6
CONTINUOUS
 62
256
 10
-380.108102319929690
 20
-63.855924528655464
 40
1.999999999999928
 50
274.873974813840960
 51
357.137594773887320
  0
ARC
  8
0
  6
CONTINUOUS
 62
256
 10
-374.515089222213870
 20
-64.135575183541278
 40
1.999999999999927
 50
177.137594773887290
 51
259.401214733933840
  0
ARC
  8
0
  6
CONTINUOUS
 62
256
 10
-378.340843856300810
 20
-84.580711560678992
 40
18.799999999999955
 50
0.000000000000000
 51
79.401214733933926
  0
ARC
  8
0
  6
CONTINUOUS
 62
256
 10
-509.540843856300850
 20
-110.538211560678950
 40
300.000000000000060
 50
353.967950853630270
 51
6.032049146369768
  0
ARC
  8
0
  6
CONTINUOUS
 62
256
 10
-216.174179083358470
 20
-79.538211560679201
 40
5.000000000000143
 50
6.032049146370343
 51
90.000000000000000
  0
ARC
  8
0
  6
CONTINUOUS
 62
256
 10
-216.174179083358470
 20
-141.538211560678970
 40
5.000000000000000
 50
270.000000000000000
 51
353.967950853629470
  0
LINE
  8
0
  6
CONTINUOUS
 62
256
 10
-209.040843856300850
 20
-113.038211560678950
 11
-209.551260703818570
 21
-113.038211560678950
  0
LINE
  8
0
  6
CONTINUOUS
 62
256
 10
-209.040843856300850
 20
-113.038211560678950
 11
-209.040843856300850
 21
-108.038211560678970
  0
LINE
  8
0
  6
CONTINUOUS
 62
256
 10
-209.040843856300850
 20
-108.038211560678750
 11
-209.551260703818570
 21
-108.038211560678750
  0
LINE
  8
0
  6
CONTINUOUS
 62
256
 10
-243.540843856300800
 20
-146.538211560678970
 11
-216.174179083358470
 21
-146.538211560678970
  0
LINE
  8
0
  6
CONTINUOUS
 62
256
 10
-243.540843856300800
 20
-74.538211560679201
 11
-216.174179083358470
 21
-74.538211560679201
  0
LINE
  8
0
  6
CONTINUOUS
 62
256
 10
-245.040883373102990
 20
-74.538211560679201
 11
-243.540843856300800
 21
-74.538211560679201
  0
LINE
  8
0
  6
CONTINUOUS
 62
256
 10
-243.540843856300800
 20
-146.538211560678970
 11
-243.540843856300800
 21
-140.530710622941340
  0
LINE
  8
0
  6
CONTINUOUS
 62
256
 10
-243.540843856300800
 20
-80.550225706248739
 11
-243.540843856300800
 21
-74.538211560679201
  0
LINE
  8
0
  6
CONTINUOUS
 62
256
 10
-245.040883373102990
 20
-146.538211560678750
 11
-243.540843856300800
 21
-146.538211560678750
  0
ARC
  8
0
  6
CONTINUOUS
 62
256
 10
-59.440843856300717
 20
-110.538211560678950
 40
290.796999999999850
 50
174.998349729065040
 51
180.000000000000000
  0
LINE
  8
0
  6
CONTINUOUS
 62
256
 10
-343.118434172156810
 20
-72.292714174430330
 11
-339.778129138879140
 21
-68.952409141152430
  0
ARC
  8
0
  6
CONTINUOUS
 62
256
 10
-328.412734443820170
 20
-86.998413902766970
 40
20.797000000000015
 50
135.000000000000000
 51
174.998349729064670
  0
ARC
  8
0
  6
CONTINUOUS
 62
256
 10
-301.040843856300800
 20
-457.138211560679110
 40
390.797000000000030
 50
90.000000000000000
 51
95.417963762360529
  0
ARC
  8
0
  6
CONTINUOUS
 62
256
 10
-337.656808795319140
 20
-71.073729484712203
 40
3.000000000000067
 50
95.417963762365673
 51
135.000000000003470
  0
ARC
  8
0
  6
CONTINUOUS
 62
256
 10
-59.440843856300717
 20
-110.538211560678950
 40
290.797000000000200
 50
180.000000000000000
 51
185.001650270934960
  0
LINE
  8
0
  6
CONTINUOUS
 62
256
 10
-343.118434172156810
 20
-148.783708946927620
 11
-339.778129138879140
 21
-152.124013980205520
  0
ARC
  8
0
  6
CONTINUOUS
 62
256
 10
-328.412734443820170
 20
-134.078009218590980
 40
20.796999999999880
 50
185.001650270935300
 51
225.000000000000060
  0
ARC
  8
0
  6
CONTINUOUS
 62
256
 10
-301.040843856300800
 20
236.061788439321160
 40
390.797000000000030
 50
264.582036237639500
 51
270.000000000000000
  0
ARC
  8
0
  6
CONTINUOUS
 62
256
 10
-337.656808795319140
 20
-150.002693636645740
 40
3.000000000000346
 50
224.999999999996930
 51
264.582036237634780
  0
ARC
  8
0
  6
CONTINUOUS
 62
256
 10
-542.640843856301220
 20
-110.538211560678950
 40
290.797000000000140
 50
354.998349729065010
 51
0.000000000000000
  0
LINE
  8
0
  6
CONTINUOUS
 62
256
 10
-258.963253540444780
 20
-148.783708946927620
 11
-262.303558573722460
 21
-152.124013980205520
  0
ARC
  8
0
  6
CONTINUOUS
 62
256
 10
-273.668953268781420
 20
-134.078009218590980
 40
20.797000000000015
 50
315.000000000000000
 51
354.998349729064610
  0
ARC
  8
0
  6
CONTINUOUS
 62
256
 10
-301.040843856300800
 20
236.061788439321160
 40
390.797000000000030
 50
270.000000000000000
 51
275.417963762360500
  0
ARC
  8
0
  6
CONTINUOUS
 62
256
 10
-264.424878917282460
 20
-150.002693636645740
 40
3.000000000000067
 50
275.417963762365730
 51
315.000000000003470
  0
ARC
  8
0
  6
CONTINUOUS
 62
256
 10
-542.640843856301220
 20
-110.538211560678950
 40
290.797000000000540
 50
0.000000000000000
 51
5.752282731536619
  0
ARC
  8
0
  6
CONTINUOUS
 62
256
 10
-264.424878917282460
 20
-71.073729484712203
 40
3.000000000000346
 50
44.999999999996930
 51
84.582036237634838
  0
ARC
  8
0
  6
CONTINUOUS
 62
256
 10
-301.040843856300800
 20
-457.138211560679110
 40
390.797000000000030
 50
84.582036237639471
 51
90.000000000000000
  0
LINE
  8
0
  6
CONTINUOUS
 62
256
 10
-256.416144701683090
 20
-74.839823013192472
 11
-262.303558573722460
 21
-68.952409141152430
  0
ARC
  8
0
  6
CONTINUOUS
 62
256
 10
-340.471710856388140
 20
-65.116264818380614
 40
6.600000000000009
 50
95.743681810995113
 51
135.000000000002930
  0
ARC
  8
0
  6
CONTINUOUS
 62
256
 10
-340.471710856388140
 20
-155.960158302977330
 40
6.600000000000278
 50
224.999999999997190
 51
264.256318189004620
  0
ARC
  8
0
  6
CONTINUOUS
 62
256
 10
-261.609976856213450
 20
-155.960158302977330
 40
6.600000000000009
 50
275.743681810995100
 51
315.000000000002960
  0
ARC
  8
0
  6
CONTINUOUS
 62
256
 10
-261.609976856213450
 20
-65.116264818380614
 40
6.600000000000278
 50
44.999999999997208
 51
84.256318189005128
  0
ARC
  8
0
  6
CONTINUOUS
 62
256
 10
-301.040843856300800
 20
-457.138211560679110
 40
400.599999999999910
 50
90.000000000000000
 51
95.743681810993436
  0
ARC
  8
0
  6
CONTINUOUS
 62
256
 10
-301.040843856300800
 20
236.061788439321160
 40
400.599999999999910
 50
264.256318189006550
 51
270.000000000000000
  0
ARC
  8
0
  6
CONTINUOUS
 62
256
 10
-301.040843856300800
 20
236.061788439321160
 40
400.599999999999910
 50
270.000000000000000
 51
275.743681810993510
  0
ARC
  8
0
  6
CONTINUOUS
 62
256
 10
-301.040843856300800
 20
-457.138211560679110
 40
400.599999999999910
 50
84.256318189006564
 51
90.000000000000000
  0
ARC
  8
0
  6
CONTINUOUS
 62
256
 10
-59.440843856300489
 20
-110.538211560678950
 40
300.599999999999910
 50
174.247717268463390
 51
180.000000000000000
  0
ARC
  8
0
  6
CONTINUOUS
 62
256
 10
-59.440843856300489
 20
-110.538211560678950
 40
300.600000000000360
 50
180.000000000000000
 51
185.752282731536610
  0
ARC
  8
0
  6
CONTINUOUS
 62
256
 10
-542.640843856301220
 20
-110.538211560678950
 40
300.599999999999970
 50
354.247717268463420
 51
0.000000000000000
  0
ARC
  8
0
  6
CONTINUOUS
 62
256
 10
-304.540843856300800
 20
-145.362771859410710
 40
1.000000000000000
 50
0.000000000000000
 51
84.260829522738462
  0
ARC
  8
0
  6
CONTINUOUS
 62
256
 10
-304.540843856300800
 20
-148.376684045704000
 40
1.000000000000042
 50
264.715267045464260
 51
0.000000000000000
  0
ARC
  8
0
  6
CONTINUOUS
 62
256
 10
-304.540843856300800
 20
-139.829848592432650
 40
1.000000000000077
 50
263.186145655820330
 51
0.000000000000000
  0
LINE
  8
0
  6
CONTINUOUS
 62
256
 10
-303.540843856300800
 20
-148.376684045704000
 11
-303.540843856300800
 21
-145.362771859410710
  0
ARC
  8
0
  6
CONTINUOUS
 62
256
 10
-318.081772539673640
 20
-116.335344438938090
 40
0.999999999999885
 50
300.000000000003810
 51
18.787728582347054
  0
LINE
  8
0
  6
CONTINUOUS
 62
256
 10
-320.223007696730240
 20
-118.726287671641980
 11
-317.581772539673640
 21
-117.201369842722410
  0
ARC
  8
0
  6
CONTINUOUS
 62
256
 10
-320.723007696730240
 20
-117.860262267857660
 40
1.000000000000094
 50
200.405931773138660
 51
300.000000000004150
  0
ARC
  8
0
  6
CONTINUOUS
 62
256
 10
-325.539470188455140
 20
-120.641048183997280
 40
1.000000000000082
 50
299.999999999997270
 51
22.410457608146118
  0
ARC
  8
0
  6
CONTINUOUS
 62
256
 10
-332.949797750625240
 20
-124.919402796799180
 40
1.000000000000082
 50
299.999999999997270
 51
24.260829522733705
  0
LINE
  8
0
  6
CONTINUOUS
 62
256
 10
-327.658145644232660
 20
-123.018966567094790
 11
-325.039470188455140
 21
-121.507073587781830
  0
ARC
  8
0
  6
CONTINUOUS
 62
256
 10
-328.158145644232660
 20
-122.152941163310260
 40
0.999999999999730
 50
203.186145655819840
 51
299.999999999997390
  0
LINE
  8
0
  6
CONTINUOUS
 62
256
 10
-335.059922268730990
 20
-127.292384293730240
 11
-332.449797750625240
 21
-125.785428200583700
  0
ARC
  8
0
  6
CONTINUOUS
 62
256
 10
-335.559922268730990
 20
-126.426358889945930
 40
1.000000000000249
 50
204.715267045455480
 51
300.000000000003300
  0
ARC
  8
0
  6
CONTINUOUS
 62
256
 10
-332.059922268730990
 20
-132.488536716437210
 40
1.000000000000082
 50
119.999999999997300
 51
215.284732954534750
  0
ARC
  8
0
  6
CONTINUOUS
 62
256
 10
-329.449797750625240
 20
-130.981580623290230
 40
0.999999999999807
 50
35.739170477263514
 51
120.000000000002610
  0
ARC
  8
0
  6
CONTINUOUS
 62
256
 10
-304.540843856300800
 20
-136.806062633806280
 40
1.000000000000000
 50
0.000000000000000
 51
82.410457608145990
  0
ARC
  8
0
  6
CONTINUOUS
 62
256
 10
-324.658145644232660
 20
-128.215118989801080
 40
0.999999999999885
 50
120.000000000003810
 51
216.813854344195820
  0
ARC
  8
0
  6
CONTINUOUS
 62
256
 10
-322.039470188455600
 20
-126.703226010488120
 40
1.000000000000194
 50
37.589542391851786
 51
119.999999999997270
  0
ARC
  8
0
  6
CONTINUOUS
 62
256
 10
-304.540843856300800
 20
-131.244490801527460
 40
1.000000000000268
 50
260.405931773124510
 51
0.000000000000000
  0
ARC
  8
0
  6
CONTINUOUS
 62
256
 10
-304.540843856300800
 20
-128.194655143688550
 40
1.000000000000000
 50
0.000000000000000
 51
78.787728582356166
  0
ARC
  8
0
  6
CONTINUOUS
 62
256
 10
-317.223007696729780
 20
-123.922440094348730
 40
0.999999999999885
 50
120.000000000003810
 51
219.594068226860970
  0
ARC
  8
0
  6
CONTINUOUS
 62
256
 10
-314.581772539673640
 20
-122.397522265429370
 40
1.000000000000165
 50
41.212271417643834
 51
119.999999999998080
  0
ARC
  8
0
  6
CONTINUOUS
 62
256
 10
-309.683148701714290
 20
-119.569300473924340
 40
0.999999999999885
 50
120.000000000003810
 51
226.260204708329240
  0
ARC
  8
0
  6
CONTINUOUS
 62
256
 10
-304.540843856300800
 20
-122.538211560678950
 40
0.999999999999964
 50
253.739795291702650
 51
0.000000000000000
  0
ARC
  8
0
  6
CONTINUOUS
 62
256
 10
-304.540843856300800
 20
-119.369972427006790
 40
1.000000000000000
 50
0.000000000000000
 51
68.381727577839243
  0
ARC
  8
0
  6
CONTINUOUS
 62
256
 10
-306.939373126689990
 20
-117.985180907088260
 40
0.999999999999961
 50
51.618272422159770
 51
120.000000000004590
  0
ARC
  8
0
  6
CONTINUOUS
 62
256
 10
-301.040843856300800
 20
-110.538211560678950
 40
38.999999999999865
 50
215.284732954534800
 51
264.715267045465400
  0
ARC
  8
0
  6
CONTINUOUS
 62
256
 10
-301.040843856300800
 20
-110.538211560678950
 40
30.499999999999964
 50
216.813854344181040
 51
263.186145655819020
  0
ARC
  8
0
  6
CONTINUOUS
 62
256
 10
-301.040843856300800
 20
-110.538211560678950
 40
33.999999999999964
 50
215.739170477266950
 51
264.260829522733050
  0
ARC
  8
0
  6
CONTINUOUS
 62
256
 10
-301.040843856300800
 20
-110.538211560678950
 40
25.499999999999890
 50
217.589542391857950
 51
262.410457608141770
  0
ARC
  8
0
  6
CONTINUOUS
 62
256
 10
-301.040843856300800
 20
-110.538211560678950
 40
22.000000000000025
 50
219.594068226860800
 51
260.405931773138780
  0
ARC
  8
0
  6
CONTINUOUS
 62
256
 10
-301.040843856300800
 20
-110.538211560678950
 40
16.999999999999773
 50
221.212271417650750
 51
258.787728582349980
  0
ARC
  8
0
  6
CONTINUOUS
 62
256
 10
-301.040843856300800
 20
-110.538211560678950
 40
13.499999999999927
 50
226.260204708312130
 51
253.739795291689090
  0
ARC
  8
0
  6
CONTINUOUS
 62
256
 10
-301.040843856300800
 20
-110.538211560678950
 40
8.499999999999949
 50
231.618272422157330
 51
248.381727577842410
  0
LINE
  8
0
  6
CONTINUOUS
 62
256
 10
-325.158145644232660
 20
-127.349093586016760
 11
-322.539470188455600
 21
-125.837200606703590
  0
LINE
  8
0
  6
CONTINUOUS
 62
256
 10
-332.559922268730990
 20
-131.622511312652680
 11
-329.949797750625240
 21
-130.115555219505920
  0
LINE
  8
0
  6
CONTINUOUS
 62
256
 10
-317.723007696729780
 20
-123.056414690564420
 11
-315.081772539673640
 21
-121.531496861644850
  0
LINE
  8
0
  6
CONTINUOUS
 62
256
 10
-310.183148701714290
 20
-118.703275070140050
 11
-307.439373126689990
 21
-117.119155503303970
  0
LINE
  8
0
  6
CONTINUOUS
 62
256
 10
-303.540843856300800
 20
-122.538211560678950
 11
-303.540843856300800
 21
-119.369972427006790
  0
LINE
  8
0
  6
CONTINUOUS
 62
256
 10
-303.540843856300800
 20
-131.244490801527460
 11
-303.540843856300800
 21
-128.194655143688550
  0
LINE
  8
0
  6
CONTINUOUS
 62
256
 10
-303.540843856300800
 20
-139.829848592432650
 11
-303.540843856300800
 21
-136.806062633806280
  0
ARC
  8
0
  6
CONTINUOUS
 62
256
 10
-310.439373126689990
 20
-111.923003080597450
 40
0.999999999999885
 50
300.000000000003810
 51
8.381727577845361
  0
ARC
  8
0
  6
CONTINUOUS
 62
256
 10
-301.040843856300800
 20
-110.538211560678950
 40
8.499999999999972
 50
171.618272422157790
 51
188.381727577842210
  0
LINE
  8
0
  6
CONTINUOUS
 62
256
 10
-312.683148701714290
 20
-114.373148051217830
 11
-309.939373126689990
 21
-112.789028484381760
  0
ARC
  8
0
  6
CONTINUOUS
 62
256
 10
-313.183148701714290
 20
-113.507122647433530
 40
0.999999999999879
 50
193.739795291686020
 51
300.000000000003810
  0
ARC
  8
0
  6
CONTINUOUS
 62
256
 10
-304.540843856300800
 20
-92.881767977669369
 40
0.999999999999982
 50
281.212271417643990
 51
0.000000000000000
  0
LINE
  8
0
  6
CONTINUOUS
 62
256
 10
-303.540843856300800
 20
-89.831932319830457
 11
-303.540843856300800
 21
-92.881767977669369
  0
ARC
  8
0
  6
CONTINUOUS
 62
256
 10
-304.540843856300800
 20
-89.831932319830457
 40
1.000000000000000
 50
0.000000000000000
 51
99.594068226874853
  0
ARC
  8
0
  6
CONTINUOUS
 62
256
 10
-304.540843856300800
 20
-84.270360487551670
 40
0.999999999999749
 50
277.589542391855960
 51
0.000000000013028
  0
LINE
  8
0
  6
CONTINUOUS
 62
256
 10
-303.540843856300800
 20
-81.246574528925294
 11
-303.540843856300800
 21
-84.270360487551443
  0
ARC
  8
0
  6
CONTINUOUS
 62
256
 10
-304.540843856300800
 20
-81.246574528925294
 40
1.000000000000000
 50
0.000000000000000
 51
96.813854344180172
  0
ARC
  8
0
  6
CONTINUOUS
 62
256
 10
-304.540843856300800
 20
-75.713651261947234
 40
0.999999999999973
 50
275.739170477261670
 51
0.000000000000000
  0
LINE
  8
0
  6
CONTINUOUS
 62
256
 10
-303.540843856300800
 20
-72.699739075653952
 11
-303.540843856300800
 21
-75.713651261947234
  0
ARC
  8
0
  6
CONTINUOUS
 62
256
 10
-304.540843856300800
 20
-72.699739075653952
 40
1.000000000000000
 50
0.000000000000000
 51
95.284732954535926
  0
ARC
  8
0
  6
CONTINUOUS
 62
256
 10
-324.658145644232660
 20
-92.861304131556608
 40
0.999999999999774
 50
143.186145655813330
 51
240.000000000003440
  0
LINE
  8
0
  6
CONTINUOUS
 62
256
 10
-325.158145644232660
 20
-93.727329535341141
 11
-322.539470188455140
 21
-95.239222514654330
  0
ARC
  8
0
  6
CONTINUOUS
 62
256
 10
-322.039470188455140
 20
-94.373197110869796
 40
1.000000000000082
 50
240.000000000002670
 51
322.410457608131140
  0
ARC
  8
0
  6
CONTINUOUS
 62
256
 10
-332.059922268730990
 20
-88.587886404920937
 40
0.999999999999908
 50
144.715267045455050
 51
239.999999999996560
  0
LINE
  8
0
  6
CONTINUOUS
 62
256
 10
-332.559922268730990
 20
-89.453911808705243
 11
-329.949797750625240
 21
-90.960867901851998
  0
ARC
  8
0
  6
CONTINUOUS
 62
256
 10
-329.449797750625240
 20
-90.094842498067692
 40
0.999999999999885
 50
239.999999999996160
 51
324.260829522725320
  0
ARC
  8
0
  6
CONTINUOUS
 62
256
 10
-306.939373126689990
 20
-103.091242214269410
 40
1.000000000000082
 50
240.000000000002670
 51
308.381727577839230
  0
LINE
  8
0
  6
CONTINUOUS
 62
256
 10
-310.183148701714290
 20
-102.373148051217850
 11
-307.439373126689990
 21
-103.957267618053930
  0
ARC
  8
0
  6
CONTINUOUS
 62
256
 10
-314.581772539673640
 20
-98.678900855928759
 40
0.999999999999885
 50
239.999999999996160
 51
318.787728582349130
  0
LINE
  8
0
  6
CONTINUOUS
 62
256
 10
-317.723007696729780
 20
-98.020008430793496
 11
-315.081772539673640
 21
-99.544926259713066
  0
ARC
  8
0
  6
CONTINUOUS
 62
256
 10
-317.223007696729780
 20
-97.153983027008962
 40
1.000000000000173
 50
140.405931773149600
 51
240.000000000002330
  0
ARC
  8
0
  6
CONTINUOUS
 62
256
 10
-304.540843856300800
 20
-101.706450694351130
 40
1.000000000000090
 50
291.618272422162020
 51
0.000000000000000
  0
ARC
  8
0
  6
CONTINUOUS
 62
256
 10
-301.040843856300800
 20
-110.538211560678950
 40
8.499999999999877
 50
111.618272422157790
 51
128.381727577841620
  0
ARC
  8
0
  6
CONTINUOUS
 62
256
 10
-309.683148701714290
 20
-101.507122647433560
 40
0.999999999999858
 50
133.739795291671330
 51
239.999999999995340
  0
LINE
  8
0
  6
CONTINUOUS
 62
256
 10
-303.540843856300800
 20
-98.538211560678974
 11
-303.540843856300800
 21
-101.706450694351130
  0
ARC
  8
0
  6
CONTINUOUS
 62
256
 10
-304.540843856300800
 20
-98.538211560678974
 40
1.000000000000000
 50
0.000000000000000
 51
106.260204708296920
  0
ARC
  8
0
  6
CONTINUOUS
 62
256
 10
-301.040843856300800
 20
-110.538211560678950
 40
13.499999999999936
 50
106.260204708310910
 51
133.739795291687870
  0
ARC
  8
0
  6
CONTINUOUS
 62
256
 10
-301.040843856300800
 20
-110.538211560678950
 40
17.000000000000021
 50
101.212271417650030
 51
138.787728582350330
  0
ARC
  8
0
  6
CONTINUOUS
 62
256
 10
-301.040843856300800
 20
-110.538211560678950
 40
22.000000000000103
 50
99.594068226861225
 51
140.405931773139230
  0
ARC
  8
0
  6
CONTINUOUS
 62
256
 10
-301.040843856300800
 20
-110.538211560678950
 40
30.500000000000107
 50
96.813854344181053
 51
143.186145655818960
  0
ARC
  8
0
  6
CONTINUOUS
 62
256
 10
-301.040843856300800
 20
-110.538211560678950
 40
25.500000000000135
 50
97.589542391858132
 51
142.410457608142140
  0
ARC
  8
0
  6
CONTINUOUS
 62
256
 10
-301.040843856300800
 20
-110.538211560678950
 40
34.000000000000043
 50
95.739170477266939
 51
144.260829522733390
  0
ARC
  8
0
  6
CONTINUOUS
 62
256
 10
-301.040843856300800
 20
-110.538211560678950
 40
38.999999999999957
 50
95.284732954534590
 51
144.715267045465200
  0
ARC
  8
0
  6
CONTINUOUS
 62
256
 10
-328.158145644232660
 20
-98.923481958047660
 40
1.000000000000082
 50
60.000000000002721
 51
156.813854344180360
  0
LINE
  8
0
  6
CONTINUOUS
 62
256
 10
-327.658145644232660
 20
-98.057456554263126
 11
-325.039470188455140
 21
-99.569349533576315
  0
ARC
  8
0
  6
CONTINUOUS
 62
256
 10
-325.539470188455140
 20
-100.435374937360830
 40
0.999999999999701
 50
337.589542391853970
 51
60.000000000001812
  0
ARC
  8
0
  6
CONTINUOUS
 62
256
 10
-335.559922268730990
 20
-94.650064231411989
 40
1.000000000000082
 50
60.000000000002721
 51
155.284732954544150
  0
LINE
  8
0
  6
CONTINUOUS
 62
256
 10
-335.059922268730990
 20
-93.784038827627455
 11
-332.449797750625240
 21
-95.290994920774210
  0
ARC
  8
0
  6
CONTINUOUS
 62
256
 10
-332.949797750625240
 20
-96.157020324558516
 40
0.999999999999863
 50
335.739170477254390
 51
59.999999999995801
  0
ARC
  8
0
  6
CONTINUOUS
 62
256
 10
-310.439373126689990
 20
-109.153420040760660
 40
1.000000000000026
 50
351.618272422167310
 51
60.000000000001087
  0
LINE
  8
0
  6
CONTINUOUS
 62
256
 10
-312.683148701714290
 20
-106.703275070140080
 11
-309.939373126689990
 21
-108.287394636976160
  0
ARC
  8
0
  6
CONTINUOUS
 62
256
 10
-318.081772539673640
 20
-104.741078682419810
 40
1.000000000000076
 50
341.212271417653030
 51
60.000000000002721
  0
LINE
  8
0
  6
CONTINUOUS
 62
256
 10
-320.223007696730240
 20
-102.350135449715940
 11
-317.581772539673640
 21
-103.875053278635260
  0
ARC
  8
0
  6
CONTINUOUS
 62
256
 10
-320.723007696730240
 20
-103.216160853500240
 40
0.999999999999885
 50
59.999999999996206
 51
159.594068226861740
  0
ARC
  8
0
  6
CONTINUOUS
 62
256
 10
-313.183148701714290
 20
-107.569300473924390
 40
0.999999999999885
 50
59.999999999996206
 51
166.260204708308440
  0
ARC
  8
0
  6
CONTINUOUS
 62
256
 10
-301.040843856300800
 20
-110.538211560678950
 40
13.499999999999680
 50
166.260204708311510
 51
193.739795291688150
  0
ARC
  8
0
  6
CONTINUOUS
 62
256
 10
-301.040843856300800
 20
-110.538211560678950
 40
16.999999999999709
 50
161.212271417649670
 51
198.787728582350410
  0
ARC
  8
0
  6
CONTINUOUS
 62
256
 10
-301.040843856300800
 20
-110.538211560678950
 40
22.000000000000195
 50
159.594068226860860
 51
200.405931773139230
  0
ARC
  8
0
  6
CONTINUOUS
 62
256
 10
-301.040843856300800
 20
-110.538211560678950
 40
30.499999999999943
 50
156.813854344181180
 51
203.186145655818820
  0
ARC
  8
0
  6
CONTINUOUS
 62
256
 10
-301.040843856300800
 20
-110.538211560678950
 40
25.499999999999989
 50
157.589542391858030
 51
202.410457608142480
  0
ARC
  8
0
  6
CONTINUOUS
 62
256
 10
-301.040843856300800
 20
-110.538211560678950
 40
34.000000000000000
 50
155.739170477266810
 51
204.260829522733220
  0
ARC
  8
0
  6
CONTINUOUS
 62
256
 10
-301.040843856300800
 20
-110.538211560678950
 40
39.000000000000213
 50
155.284732954534830
 51
204.715267045465200
  0
LINE
  8
0
  6
CONTINUOUS
 62
256
 10
-298.540843856300800
 20
-139.829848592432650
 11
-298.540843856300800
 21
-136.806062633806280
  0
LINE
  8
0
  6
CONTINUOUS
 62
256
 10
-298.540843856300800
 20
-131.244490801527460
 11
-298.540843856300800
 21
-128.194655143688550
  0
LINE
  8
0
  6
CONTINUOUS
 62
256
 10
-298.540843856300800
 20
-122.538211560678950
 11
-298.540843856300800
 21
-119.369972427006790
  0
LINE
  8
0
  6
CONTINUOUS
 62
256
 10
-291.898539010887300
 20
-118.703275070140050
 11
-294.642314585911610
 21
-117.119155503303970
  0
LINE
  8
0
  6
CONTINUOUS
 62
256
 10
-284.358680015871810
 20
-123.056414690564420
 11
-286.999915172927960
 21
-121.531496861644850
  0
LINE
  8
0
  6
CONTINUOUS
 62
256
 10
-269.521765443870610
 20
-131.622511312652680
 11
-272.131889961976360
 21
-130.115555219505920
  0
LINE
  8
0
  6
CONTINUOUS
 62
256
 10
-298.540843856300800
 20
-148.376684045704000
 11
-298.540843856300800
 21
-145.362771859410710
  0
LINE
  8
0
  6
CONTINUOUS
 62
256
 10
-276.923542068368930
 20
-127.349093586016760
 11
-279.542217524146000
 21
-125.837200606703590
  0
ARC
  8
0
  6
CONTINUOUS
 62
256
 10
-301.040843856300800
 20
-110.538211560678950
 40
8.499999999999904
 50
291.618272422157700
 51
308.381727577842750
  0
ARC
  8
0
  6
CONTINUOUS
 62
256
 10
-301.040843856300800
 20
-110.538211560678950
 40
13.499999999999963
 50
286.260204708310820
 51
313.739795291687760
  0
ARC
  8
0
  6
CONTINUOUS
 62
256
 10
-301.040843856300800
 20
-110.538211560678950
 40
17.000000000000046
 50
281.212271417650020
 51
318.787728582350210
  0
ARC
  8
0
  6
CONTINUOUS
 62
256
 10
-301.040843856300800
 20
-110.538211560678950
 40
22.000000000000131
 50
279.594068226861170
 51
320.405931773139120
  0
ARC
  8
0
  6
CONTINUOUS
 62
256
 10
-301.040843856300800
 20
-110.538211560678950
 40
25.499999999999964
 50
277.589542391858170
 51
322.410457608142050
  0
ARC
  8
0
  6
CONTINUOUS
 62
256
 10
-301.040843856300800
 20
-110.538211560678950
 40
34.000000000000099
 50
275.739170477266950
 51
324.260829522733050
  0
ARC
  8
0
  6
CONTINUOUS
 62
256
 10
-301.040843856300800
 20
-110.538211560678950
 40
30.500000000000163
 50
276.813854344180980
 51
323.186145655818900
  0
ARC
  8
0
  6
CONTINUOUS
 62
256
 10
-301.040843856300800
 20
-110.538211560678950
 40
39.000000000000014
 50
275.284732954534600
 51
324.715267045465170
  0
ARC
  8
0
  6
CONTINUOUS
 62
256
 10
-295.142314585911610
 20
-117.985180907088260
 40
0.999999999999885
 50
59.999999999996206
 51
128.381727577839710
  0
ARC
  8
0
  6
CONTINUOUS
 62
256
 10
-297.540843856300800
 20
-119.369972427006790
 40
1.000000000000090
 50
111.618272422161990
 51
180.000000000000000
  0
ARC
  8
0
  6
CONTINUOUS
 62
256
 10
-297.540843856300800
 20
-122.538211560678950
 40
1.000000000000000
 50
180.000000000000000
 51
286.260204708296900
  0
ARC
  8
0
  6
CONTINUOUS
 62
256
 10
-292.398539010887300
 20
-119.569300473924340
 40
0.999999999999858
 50
313.739795291671330
 51
59.999999999995389
  0
ARC
  8
0
  6
CONTINUOUS
 62
256
 10
-287.499915172927960
 20
-122.397522265429370
 40
1.000000000000082
 50
60.000000000002721
 51
138.787728582338080
  0
ARC
  8
0
  6
CONTINUOUS
 62
256
 10
-284.858680015871810
 20
-123.922440094348730
 40
1.000000000000318
 50
320.405931773139570
 51
59.999999999995502
  0
ARC
  8
0
  6
CONTINUOUS
 62
256
 10
-297.540843856300800
 20
-128.194655143688550
 40
0.999999999999982
 50
101.212271417644000
 51
180.000000000000000
  0
ARC
  8
0
  6
CONTINUOUS
 62
256
 10
-297.540843856300800
 20
-131.244490801527460
 40
1.000000000000000
 50
180.000000000000000
 51
279.594068226874700
  0
ARC
  8
0
  6
CONTINUOUS
 62
256
 10
-297.540843856300800
 20
-139.829848592432650
 40
1.000000000000000
 50
180.000000000000000
 51
276.813854344180240
  0
ARC
  8
0
  6
CONTINUOUS
 62
256
 10
-280.042217524146000
 20
-126.703226010488120
 40
1.000000000000082
 50
60.000000000002721
 51
142.410457608147480
  0
ARC
  8
0
  6
CONTINUOUS
 62
256
 10
-277.423542068368930
 20
-128.215118989801080
 40
0.999999999999911
 50
323.186145655802870
 51
59.999999999997016
  0
ARC
  8
0
  6
CONTINUOUS
 62
256
 10
-297.540843856300800
 20
-136.806062633806280
 40
0.999999999999975
 50
97.589542391854238
 51
180.000000000000000
  0
ARC
  8
0
  6
CONTINUOUS
 62
256
 10
-297.540843856300800
 20
-148.376684045704000
 40
1.000000000000000
 50
180.000000000000000
 51
275.284732954535800
  0
ARC
  8
0
  6
CONTINUOUS
 62
256
 10
-297.540843856300800
 20
-145.362771859410710
 40
0.999999999999973
 50
95.739170477261709
 51
180.000000000000000
  0
ARC
  8
0
  6
CONTINUOUS
 62
256
 10
-272.631889961976360
 20
-130.981580623290230
 40
0.999999999999885
 50
59.999999999996206
 51
144.260829522735750
  0
ARC
  8
0
  6
CONTINUOUS
 62
256
 10
-270.021765443870610
 20
-132.488536716437210
 40
0.999999999999776
 50
324.715267045465680
 51
60.000000000003851
  0
CIRCLE
  8
0
  6
CONTINUOUS
 62
256
 10
-301.040843856300800
 20
-110.538211560678950
 40
5.000000000000000
  0
ARC
  8
0
  6
CONTINUOUS
 62
256
 10
-266.521765443870610
 20
-126.426358889945930
 40
0.999999999999885
 50
239.999999999996160
 51
335.284732954544490
  0
LINE
  8
0
  6
CONTINUOUS
 62
256
 10
-267.021765443870610
 20
-127.292384293730240
 11
-269.631889961976360
 21
-125.785428200583700
  0
ARC
  8
0
  6
CONTINUOUS
 62
256
 10
-301.040843856300800
 20
-110.538211560678950
 40
39.000000000000220
 50
335.284732954534830
 51
24.715267045465168
  0
ARC
  8
0
  6
CONTINUOUS
 62
256
 10
-301.040843856300800
 20
-110.538211560678950
 40
34.000000000000007
 50
335.739170477266780
 51
24.260829522733172
  0
ARC
  8
0
  6
CONTINUOUS
 62
256
 10
-301.040843856300800
 20
-110.538211560678950
 40
25.500000000000085
 50
337.589542391857490
 51
22.410457608141950
  0
ARC
  8
0
  6
CONTINUOUS
 62
256
 10
-301.040843856300800
 20
-110.538211560678950
 40
30.499999999999954
 50
336.813854344181150
 51
23.186145655818791
  0
ARC
  8
0
  6
CONTINUOUS
 62
256
 10
-273.923542068368930
 20
-122.152941163310260
 40
1.000000000000082
 50
240.000000000002670
 51
336.813854344180360
  0
LINE
  8
0
  6
CONTINUOUS
 62
256
 10
-274.423542068368930
 20
-123.018966567094790
 11
-277.042217524146450
 21
-121.507073587781830
  0
ARC
  8
0
  6
CONTINUOUS
 62
256
 10
-301.040843856300800
 20
-110.538211560678950
 40
22.000000000000206
 50
339.594068226860770
 51
20.405931773139152
  0
ARC
  8
0
  6
CONTINUOUS
 62
256
 10
-269.131889961976360
 20
-124.919402796799180
 40
0.999999999999769
 50
155.739170477266270
 51
240.000000000003440
  0
ARC
  8
0
  6
CONTINUOUS
 62
256
 10
-276.542217524146450
 20
-120.641048183997280
 40
0.999999999999701
 50
157.589542391853970
 51
240.000000000001820
  0
ARC
  8
0
  6
CONTINUOUS
 62
256
 10
-281.358680015871360
 20
-117.860262267857660
 40
0.999999999999885
 50
239.999999999996160
 51
339.594068226861740
  0
ARC
  8
0
  6
CONTINUOUS
 62
256
 10
-301.040843856300800
 20
-110.538211560678950
 40
17.000000000000146
 50
341.212271417650070
 51
18.787728582350347
  0
LINE
  8
0
  6
CONTINUOUS
 62
256
 10
-281.858680015871360
 20
-118.726287671641980
 11
-284.499915172927960
 21
-117.201369842722410
  0
ARC
  8
0
  6
CONTINUOUS
 62
256
 10
-283.999915172927960
 20
-116.335344438938090
 40
0.999999999999646
 50
161.212271417644640
 51
239.999999999995770
  0
ARC
  8
0
  6
CONTINUOUS
 62
256
 10
-301.040843856300800
 20
-110.538211560678950
 40
13.500000000000130
 50
346.260204708311850
 51
13.739795291688054
  0
ARC
  8
0
  6
CONTINUOUS
 62
256
 10
-288.898539010887300
 20
-113.507122647433530
 40
0.999999999999885
 50
239.999999999996160
 51
346.260204708314010
  0
LINE
  8
0
  6
CONTINUOUS
 62
256
 10
-289.398539010887300
 20
-114.373148051217830
 11
-292.142314585911610
 21
-112.789028484381760
  0
ARC
  8
0
  6
CONTINUOUS
 62
256
 10
-288.898539010887300
 20
-107.569300473924390
 40
0.999999999999879
 50
13.739795291686027
 51
120.000000000003810
  0
ARC
  8
0
  6
CONTINUOUS
 62
256
 10
-301.040843856300800
 20
-110.538211560678950
 40
8.499999999999972
 50
351.618272422157820
 51
8.381727577842204
  0
ARC
  8
0
  6
CONTINUOUS
 62
256
 10
-291.642314585911610
 20
-111.923003080597450
 40
1.000000000000059
 50
171.618272422154460
 51
239.999999999995050
  0
ARC
  8
0
  6
CONTINUOUS
 62
256
 10
-281.358680015871360
 20
-103.216160853500240
 40
1.000000000000094
 50
20.405931773138683
 51
120.000000000004160
  0
LINE
  8
0
  6
CONTINUOUS
 62
256
 10
-281.858680015871360
 20
-102.350135449715940
 11
-284.499915172927960
 21
-103.875053278635260
  0
ARC
  8
0
  6
CONTINUOUS
 62
256
 10
-283.999915172927960
 20
-104.741078682419810
 40
1.000000000000082
 50
119.999999999997300
 51
198.787728582347000
  0
LINE
  8
0
  6
CONTINUOUS
 62
256
 10
-289.398539010887300
 20
-106.703275070140080
 11
-292.142314585911610
 21
-108.287394636976160
  0
ARC
  8
0
  6
CONTINUOUS
 62
256
 10
-291.642314585911610
 20
-109.153420040760660
 40
1.000000000000058
 50
119.999999999998110
 51
188.381727577832180
  0
ARC
  8
0
  6
CONTINUOUS
 62
256
 10
-269.131889961976360
 20
-96.157020324558516
 40
0.999999999999885
 50
120.000000000003810
 51
204.260829522746350
  0
LINE
  8
0
  6
CONTINUOUS
 62
256
 10
-267.021765443870610
 20
-93.784038827627455
 11
-269.631889961976360
 21
-95.290994920774210
  0
ARC
  8
0
  6
CONTINUOUS
 62
256
 10
-266.521765443870610
 20
-94.650064231411989
 40
1.000000000000249
 50
24.715267045455473
 51
119.999999999996050
  0
ARC
  8
0
  6
CONTINUOUS
 62
256
 10
-276.542217524146450
 20
-100.435374937360830
 40
1.000000000000082
 50
119.999999999997300
 51
202.410457608146120
  0
LINE
  8
0
  6
CONTINUOUS
 62
256
 10
-274.423542068368930
 20
-98.057456554263126
 11
-277.042217524146450
 21
-99.569349533576315
  0
ARC
  8
0
  6
CONTINUOUS
 62
256
 10
-273.923542068368930
 20
-98.923481958047660
 40
0.999999999999730
 50
23.186145655819846
 51
119.999999999997370
  0
ARC
  8
0
  6
CONTINUOUS
 62
256
 10
-301.040843856300800
 20
-110.538211560678950
 40
38.999999999999851
 50
35.284732954534753
 51
84.715267045465410
  0
ARC
  8
0
  6
CONTINUOUS
 62
256
 10
-301.040843856300800
 20
-110.538211560678950
 40
33.999999999999815
 50
35.739170477266605
 51
84.260829522733019
  0
ARC
  8
0
  6
CONTINUOUS
 62
256
 10
-301.040843856300800
 20
-110.538211560678950
 40
25.499999999999872
 50
37.589542391857911
 51
82.410457608141925
  0
ARC
  8
0
  6
CONTINUOUS
 62
256
 10
-301.040843856300800
 20
-110.538211560678950
 40
30.499999999999947
 50
36.813854344181017
 51
83.186145655818933
  0
ARC
  8
0
  6
CONTINUOUS
 62
256
 10
-301.040843856300800
 20
-110.538211560678950
 40
22.000000000000007
 50
39.594068226860763
 51
80.405931773138732
  0
ARC
  8
0
  6
CONTINUOUS
 62
256
 10
-301.040843856300800
 20
-110.538211560678950
 40
17.000000000000096
 50
41.212271417649681
 51
78.787728582350013
  0
ARC
  8
0
  6
CONTINUOUS
 62
256
 10
-301.040843856300800
 20
-110.538211560678950
 40
13.499999999999906
 50
46.260204708312052
 51
73.739795291689063
  0
ARC
  8
0
  6
CONTINUOUS
 62
256
 10
-297.540843856300800
 20
-98.538211560678974
 40
0.999999999999964
 50
73.739795291702634
 51
180.000000000000000
  0
LINE
  8
0
  6
CONTINUOUS
 62
256
 10
-298.540843856300800
 20
-98.538211560678974
 11
-298.540843856300800
 21
-101.706450694351130
  0
ARC
  8
0
  6
CONTINUOUS
 62
256
 10
-292.398539010887300
 20
-101.507122647433560
 40
0.999999999999885
 50
300.000000000003810
 51
46.260204708329255
  0
ARC
  8
0
  6
CONTINUOUS
 62
256
 10
-301.040843856300800
 20
-110.538211560678950
 40
8.500000000000103
 50
51.618272422158199
 51
68.381727577842398
  0
ARC
  8
0
  6
CONTINUOUS
 62
256
 10
-297.540843856300800
 20
-101.706450694351130
 40
1.000000000000000
 50
180.000000000000000
 51
248.381727577839200
  0
ARC
  8
0
  6
CONTINUOUS
 62
256
 10
-284.858680015871810
 20
-97.153983027008962
 40
1.000000000000082
 50
299.999999999997270
 51
39.594068226849963
  0
LINE
  8
0
  6
CONTINUOUS
 62
256
 10
-284.358680015871810
 20
-98.020008430793496
 11
-286.999915172927960
 21
-99.544926259713066
  0
ARC
  8
0
  6
CONTINUOUS
 62
256
 10
-287.499915172927960
 20
-98.678900855928759
 40
0.999999999999673
 50
221.212271417651180
 51
300.000000000003410
  0
LINE
  8
0
  6
CONTINUOUS
 62
256
 10
-291.898539010887300
 20
-102.373148051217850
 11
-294.642314585911610
 21
-103.957267618053930
  0
ARC
  8
0
  6
CONTINUOUS
 62
256
 10
-295.142314585911610
 20
-103.091242214269410
 40
0.999999999999961
 50
231.618272422159780
 51
299.999999999997330
  0
ARC
  8
0
  6
CONTINUOUS
 62
256
 10
-272.631889961976360
 20
-90.094842498067692
 40
0.999999999999940
 50
215.739170477274090
 51
300.000000000002560
  0
LINE
  8
0
  6
CONTINUOUS
 62
256
 10
-269.521765443870610
 20
-89.453911808705243
 11
-272.131889961976360
 21
-90.960867901851998
  0
ARC
  8
0
  6
CONTINUOUS
 62
256
 10
-270.021765443870610
 20
-88.587886404920937
 40
0.999999999999885
 50
300.000000000003810
 51
35.284732954544275
  0
ARC
  8
0
  6
CONTINUOUS
 62
256
 10
-280.042217524146450
 20
-94.373197110869796
 40
0.999999999999834
 50
217.589542391867670
 51
299.999999999997730
  0
LINE
  8
0
  6
CONTINUOUS
 62
256
 10
-276.923542068368930
 20
-93.727329535341141
 11
-279.542217524146450
 21
-95.239222514654330
  0
ARC
  8
0
  6
CONTINUOUS
 62
256
 10
-277.423542068368930
 20
-92.861304131556608
 40
1.000000000000082
 50
299.999999999997270
 51
36.813854344187355
  0
ARC
  8
0
  6
CONTINUOUS
 62
256
 10
-297.540843856300800
 20
-72.699739075653952
 40
1.000000000000042
 50
84.715267045464316
 51
180.000000000000000
  0
LINE
  8
0
  6
CONTINUOUS
 62
256
 10
-298.540843856300800
 20
-72.699739075653952
 11
-298.540843856300800
 21
-75.713651261947234
  0
ARC
  8
0
  6
CONTINUOUS
 62
256
 10
-297.540843856300800
 20
-75.713651261947234
 40
1.000000000000000
 50
180.000000000000000
 51
264.260829522738450
  0
ARC
  8
0
  6
CONTINUOUS
 62
256
 10
-297.540843856300800
 20
-81.246574528925294
 40
1.000000000000077
 50
83.186145655820326
 51
180.000000000000000
  0
LINE
  8
0
  6
CONTINUOUS
 62
256
 10
-298.540843856300800
 20
-81.246574528925294
 11
-298.540843856300800
 21
-84.270360487551443
  0
ARC
  8
0
  6
CONTINUOUS
 62
256
 10
-297.540843856300800
 20
-84.270360487551670
 40
1.000000000000000
 50
179.999999999986980
 51
262.410457608142620
  0
ARC
  8
0
  6
CONTINUOUS
 62
256
 10
-297.540843856300800
 20
-89.831932319830457
 40
1.000000000000268
 50
80.405931773124522
 51
180.000000000000000
  0
LINE
  8
0
  6
CONTINUOUS
 62
256
 10
-298.540843856300800
 20
-89.831932319830457
 11
-298.540843856300800
 21
-92.881767977669369
  0
ARC
  8
0
  6
CONTINUOUS
 62
256
 10
-297.540843856300800
 20
-92.881767977669369
 40
1.000000000000000
 50
180.000000000000000
 51
258.787728582356180
  0
LINE
  8
0
  6
CONTINUOUS
 62
256
 10
-352.597310786890770
 20
-67.908055237221106
 11
-345.138615612219780
 21
-60.449360062549431
  0
LINE
  8
0
  6
CONTINUOUS
 62
256
 10
-352.597310786890770
 20
-153.168367884136840
 11
-345.138615612219780
 21
-160.627063058808520
  0
LINE
  8
0
  6
CONTINUOUS
 62
256
 10
-249.484376925710820
 20
-153.168367884136840
 11
-256.943072100381810
 21
-160.627063058808520
  0
LINE
  8
0
  6
CONTINUOUS
 62
256
 10
-249.484376925710820
 20
-67.908055237221106
 11
-256.943072100381810
 21
-60.449360062549431
  0
ARC
  8
0
  6
CONTINUOUS
 62
256
 10
-338.030911094447160
 20
-82.474454929663352
 40
20.600000000000069
 50
135.000000000002700
 51
174.247717268463530
  0
ARC
  8
0
  6
CONTINUOUS
 62
256
 10
-338.030911094447160
 20
-138.601968191694600
 40
20.599999999999973
 50
185.752282731536470
 51
224.999999999997300
  0
ARC
  8
0
  6
CONTINUOUS
 62
256
 10
-264.050776618154430
 20
-138.601968191694600
 40
20.600000000000069
 50
315.000000000002670
 51
354.247717268463480
  0
ARC
  8
0
  6
CONTINUOUS
 62
256
 10
-264.050776618154430
 20
-82.474454929663352
 40
20.599999999999916
 50
5.752282731536487
 51
44.999999999997314
  0
ARC
  8
0
  6
CONTINUOUS
 62
256
 10
-264.050776618154430
 20
-82.474454929663352
 40
10.797000000000011
 50
5.752282731536912
 51
44.999999999998295
  0
ARC
  8
0
  6
CONTINUOUS
 62
256
 10
-542.640843856301220
 20
-110.538211560678950
 40
300.600000000000420
 50
0.000000000000000
 51
5.752282731536598
  0
INSERT
  8
0
  2
ZU_SYM_2
 10
-382.485666062644210
 20
-151.457168171939430
 50
357.137594773886350
  0
LINE
  8
0
  6
DASHDOT
 62
256
 10
-281.401312013858160
 20
-95.538211560678860
 11
-320.482864561217180
 21
-95.538211560678974
  0
LINE
  8
0
  6
DASHDOT
 62
256
 10
-245.349023323675740
 20
-39.846391028044764
 11
-231.350090131757720
 21
-25.847457836124875
  0
LINE
  8
0
  6
DASHDOT
 62
256
 10
-370.516035660719580
 20
-26.063019756273150
 11
-357.125410756621250
 21
-39.453644660369264
  0
LINE
  8
0
  6
DASHDOT
 62
256
 10
-370.624015568873120
 20
-165.121383273262010
 11
-356.655306047920700
 21
-151.152673752307660
  0
LINE
  8
0
  6
DASHDOT
 62
256
 10
-245.727542543092570
 20
-150.851512873879500
 11
-231.366618091567940
 21
-165.212437325402250
  0
ARC
  8
0
  6
CONTINUOUS
 62
256
 10
-275.290843856300850
 20
-55.682749114506009
 40
1.000000000000000
 50
0.000000000000000
 51
79.855205773680638
  0
ARC
  8
0
  6
CONTINUOUS
 62
256
 10
-326.790843856300850
 20
-55.682749114506009
 40
1.000000000000064
 50
100.144794226318720
 51
180.000000000000000
  0
ARC
  8
0
  6
CONTINUOUS
 62
256
 10
-301.040843856300850
 20
-453.538211560678970
 40
400.000000000000000
 50
90.000000000000000
 51
92.906384370709901
  0
ARC
  8
0
  6
CONTINUOUS
 62
256
 10
-301.040843856300850
 20
-453.538211560678970
 40
399.999999999999940
 50
87.093615629290099
 51
90.000000000000000
  0
CIRCLE
  8
0
  6
CONTINUOUS
 62
256
 10
-237.401233549507880
 20
-159.177821867463080
 40
5.000000000000000
  0
CIRCLE
  8
0
  6
CONTINUOUS
 62
256
 10
-364.680454163086320
 20
-159.177821867472860
 40
5.000000000000000
  0
CIRCLE
  8
0
  6
CONTINUOUS
 62
256
 10
-364.680454163096100
 20
-31.898601253894412
 40
5.000000000000000
  0
ARC
  8
0
  6
DASHDOT
 62
256
 10
-301.040843856301990
 20
-95.538211560678747
 40
89.999999999999815
 50
38.633392784995969
 51
51.366607215015975
  0
CIRCLE
  8
0
  6
CONTINUOUS
 62
256
 10
-237.401233549517660
 20
-31.898601253884635
 40
5.000000000000000
  0
ARC
  8
0
  6
CONTINUOUS
 62
256
 10
-236.540843856301990
 20
-31.038211560678747
 40
8.000000000000000
 50
0.000000000000000
 51
90.000000000000000
  0
ARC
  8
0
  6
DASHDOT
 62
256
 10
-301.040843856302220
 20
-95.538211560678974
 40
89.999999999999957
 50
308.633392784996090
 51
321.366607215015960
  0
ARC
  8
0
  6
CONTINUOUS
 62
256
 10
-236.540843856301990
 20
-160.038211560678750
 40
8.000000000000000
 50
270.000000000000000
 51
0.000000000000000
  0
ARC
  8
0
  6
DASHDOT
 62
256
 10
-301.040843856302220
 20
-95.538211560678747
 40
89.999999999999972
 50
218.633392784996090
 51
231.366607215015930
  0
ARC
  8
0
  6
CONTINUOUS
 62
256
 10
-365.540843856301990
 20
-160.038211560678750
 40
8.000000000000000
 50
180.000000000000000
 51
270.000000000000000
  0
ARC
  8
0
  6
DASHDOT
 62
256
 10
-301.040843856301990
 20
-95.538211560678747
 40
89.999999999999943
 50
128.633392784996090
 51
141.366607215015960
  0
ARC
  8
0
  6
CONTINUOUS
 62
256
 10
-365.540843856301990
 20
-31.038211560678747
 40
8.000000000000000
 50
90.000000000000000
 51
180.000000000000000
  0
ARC
  8
0
  6
CONTINUOUS
 62
256
 10
-297.040843856300630
 20
-30.546939093143067
 40
2.000000000000000
 50
90.000000000000000
 51
180.000000000000000
  0
ARC
  8
0
  6
CONTINUOUS
 62
256
 10
-305.040843856300630
 20
-30.546939093143067
 40
2.000000000000000
 50
0.000000000000000
 51
90.000000000000000
  0
ARC
  8
0
  6
CONTINUOUS
 62
256
 10
-305.040843856300630
 20
-51.558112550790156
 40
2.000000000000030
 50
270.570116666734690
 51
0.000000000000000
  0
ARC
  8
0
  6
CONTINUOUS
 62
256
 10
-297.040843856300630
 20
-51.558112550790156
 40
2.000000000000000
 50
180.000000000000000
 51
269.429883333265310
  0
ARC
  8
0
  6
CONTINUOUS
 62
256
 10
-244.726758530042620
 20
-44.880980483906569
 40
1.999999999999976
 50
44.999999999998849
 51
135.000000000001140
  0
ARC
  8
0
  6
CONTINUOUS
 62
256
 10
-250.383612779534810
 20
-39.224126234414257
 40
1.999999999999815
 50
314.999999999996530
 51
45.000000000004604
  0
ARC
  8
0
  6
CONTINUOUS
 62
256
 10
-266.254305538884640
 20
-55.094818993763909
 40
2.000000000000053
 50
249.074092097575060
 51
314.999999999999430
  0
ARC
  8
0
  6
CONTINUOUS
 62
256
 10
-357.354929182559320
 20
-44.880980483906626
 40
2.000000000000177
 50
44.999999999995396
 51
134.999999999995400
  0
ARC
  8
0
  6
CONTINUOUS
 62
256
 10
-351.698074933066890
 20
-39.224126234414257
 40
1.999999999999855
 50
134.999999999995400
 51
225.000000000004010
  0
ARC
  8
0
  6
CONTINUOUS
 62
256
 10
-335.827382173717070
 20
-55.094818993763965
 40
2.000000000000016
 50
225.000000000000000
 51
290.925907902425370
  0
LINE
  8
0
  6
CONTINUOUS
 62
256
 10
-365.540843856301990
 20
-168.038211560678750
 11
-236.540843856301990
 21
-168.038211560678750
  0
LINE
  8
0
  6
CONTINUOUS
 62
256
 10
-365.540843856301990
 20
-23.038211560678747
 11
-236.040843856301990
 21
-23.038211560678747
  0
LINE
  8
0
  6
CONTINUOUS
 62
256
 10
-299.040843856300630
 20
-30.546939093143067
 11
-299.040843856300630
 21
-51.558112550790156
  0
LINE
  8
0
  6
CONTINUOUS
 62
256
 10
-303.040843856300630
 20
-30.546939093143067
 11
-303.040843856300630
 21
-51.558112550790156
  0
LINE
  8
0
  6
CONTINUOUS
 62
256
 10
-246.140972092415720
 20
-43.466766921533520
 11
-260.073500113488760
 21
-57.399294942606616
  0
LINE
  8
0
  6
CONTINUOUS
 62
256
 10
-248.969399217161940
 20
-40.638339796787307
 11
-264.840091976511530
 21
-56.509032556137015
  0
LINE
  8
0
  6
CONTINUOUS
 62
256
 10
-355.940715620185980
 20
-43.466766921533520
 11
-342.008187599112940
 21
-57.399294942606616
  0
LINE
  8
0
  6
CONTINUOUS
 62
256
 10
-353.112288495439770
 20
-40.638339796787307
 11
-337.241595736090180
 21
-56.509032556137072
  0
LINE
  8
0
  6
CONTINUOUS
 62
256
 10
85.746324368446309
 20
136.026555636144620
 11
85.746324368446309
 21
144.526553728795990
  0
LINE
  8
0
  6
CONTINUOUS
 62
256
 10
90.746324368446309
 20
144.526553728795990
 11
85.746324368446309
 21
144.526553728795990
  0
LINE
  8
0
  6
CONTINUOUS
 62
256
 10
90.746324368446309
 20
136.026555636144620
 11
85.746324368446309
 21
136.026555636144620
  0
LINE
  8
0
  6
CONTINUOUS
 62
256
 10
85.746324368446309
 20
80.526553728795989
 11
85.746324368446309
 21
72.026555636144622
  0
LINE
  8
0
  6
CONTINUOUS
 62
256
 10
90.746324368446309
 20
72.026555636144622
 11
85.746324368446309
 21
72.026555636144622
  0
LINE
  8
0
  6
CONTINUOUS
 62
256
 10
90.746324368446309
 20
80.526553728795989
 11
85.746324368446309
 21
80.526553728795989
  0
LINE
  8
0
  6
CONTINUOUS
 62
256
 10
90.746324368446309
 20
-105.787836840904670
 11
85.746324368446309
 21
-105.787836840904670
  0
LINE
  8
0
  6
CONTINUOUS
 62
256
 10
90.746324368446309
 20
-97.287838748253307
 11
85.746324368446309
 21
-97.287838748253307
  0
LINE
  8
0
  6
CONTINUOUS
 62
256
 10
85.746324368446309
 20
-105.787836840904670
 11
85.746324368446309
 21
-97.287838748253307
  0
LINE
  8
0
  6
CONTINUOUS
 62
256
 10
70.246323605506859
 20
154.409637277353000
 11
88.746323605506859
 21
154.409637277353000
  0
LINE
  8
0
  6
CONTINUOUS
 62
256
 10
70.246323605506859
 20
149.318468452810070
 11
88.746323605506859
 21
149.318468452810070
  0
LINE
  8
0
  6
CONTINUOUS
 62
256
 10
70.246323605506859
 20
141.580155633979070
 11
85.746324368446309
 21
141.580155633979070
  0
LINE
  8
0
  6
CONTINUOUS
 62
256
 10
70.246323605506859
 20
139.990945841240320
 11
85.746324368446309
 21
139.990945841240320
  0
LINE
  8
0
  6
CONTINUOUS
 62
256
 10
70.246323605506859
 20
135.553927079630280
 11
88.746323605506859
 21
135.553927079630280
  0
LINE
  8
0
  6
CONTINUOUS
 62
256
 10
70.246323605506859
 20
137.032950233107390
 11
85.746324368446309
 21
137.032950233107390
  0
LINE
  8
0
  6
CONTINUOUS
 62
256
 10
70.246323605506859
 20
132.461196087965050
 11
88.746323605506859
 21
132.461196087965050
  0
LINE
  8
0
  6
CONTINUOUS
 62
256
 10
70.246323605506859
 20
131.114794362466450
 11
88.746323605506859
 21
131.114794362466450
  0
LINE
  8
0
  6
CONTINUOUS
 62
256
 10
70.246323605506859
 20
126.662669474220270
 11
88.746323605506859
 21
126.662669474220250
  0
LINE
  8
0
  6
CONTINUOUS
 62
256
 10
70.246323605506859
 20
127.904589339108160
 11
88.746323605506859
 21
127.904589339108160
  0
LINE
  8
0
  6
CONTINUOUS
 62
256
 10
70.246323605506859
 20
122.276554682470310
 11
88.746323605506859
 21
122.276554682470310
  0
LINE
  8
0
  6
CONTINUOUS
 62
256
 10
70.246323605506859
 20
94.276554682470305
 11
88.746323605506859
 21
94.276554682470305
  0
LINE
  8
0
  6
CONTINUOUS
 62
256
 10
70.246323605506859
 20
89.890439890720359
 11
88.746323605506859
 21
89.890439890720359
  0
LINE
  8
0
  6
CONTINUOUS
 62
256
 10
70.246323605506859
 20
88.648520025832454
 11
88.746323605506859
 21
88.648520025832454
  0
LINE
  8
0
  6
CONTINUOUS
 62
256
 10
70.246323605506859
 20
85.438315002474170
 11
88.746323605506859
 21
85.438315002474155
  0
LINE
  8
0
  6
CONTINUOUS
 62
256
 10
70.246323605506859
 20
84.091913276975561
 11
88.746323605506859
 21
84.091913276975561
  0
LINE
  8
0
  6
CONTINUOUS
 62
256
 10
70.246323605506859
 20
80.999182285310326
 11
88.746323605506859
 21
80.999182285310326
  0
LINE
  8
0
  6
CONTINUOUS
 62
256
 10
70.246323605506859
 20
79.520159131833225
 11
85.746324368446309
 21
79.520159131833225
  0
LINE
  8
0
  6
CONTINUOUS
 62
256
 10
70.246323605506859
 20
76.562163523700292
 11
85.746324368446309
 21
76.562163523700292
  0
LINE
  8
0
  6
CONTINUOUS
 62
256
 10
70.246323605506859
 20
74.972953730961535
 11
85.746324368446309
 21
74.972953730961535
  0
LINE
  8
0
  6
CONTINUOUS
 62
256
 10
70.246323605506859
 20
67.234640912130544
 11
88.746323605506859
 21
67.234640912130544
  0
LINE
  8
0
  6
CONTINUOUS
 62
256
 10
70.246323605506859
 20
62.143472087587625
 11
88.746323605506859
 21
62.143472087587618
  0
LINE
  8
0
  6
CONTINUOUS
 62
256
 10
88.746323605506859
 20
-95.038211560678974
 11
88.746323605506859
 21
-97.287838748253307
  0
LINE
  8
0
  6
CONTINUOUS
 62
256
 10
135.746323605506860
 20
-102.538211560682610
 11
135.746323605506860
 21
-148.936033619386760
  0
TEXT
  8
0
  6
CONTINUOUS
 62
256
 10
-331.250000000000000
 20
57.765174865722656
 40
7.919999599456787
  1
ＳＣＡＬＥ１／１
 50
0.000002504478167
 41
0.984848598876354
  7
STANDARD1
  0
TEXT
  8
0
  6
CONTINUOUS
 62
256
 10
-331.250000000000000
 20
70.485176086425781
 40
7.919999599456787
  1
１／３～１／３０
 50
0.000002504478167
 41
0.984848598876354
  7
STANDARD1
  0
TEXT
  8
0
  6
CONTINUOUS
 62
256
 10
-331.250000000000000
 20
83.205177307128906
 40
7.919999599456787
  1
０．２ｋＷ
 50
0.000002504478167
 41
0.984848598876354
  7
STANDARD1
  0
TEXT
  8
0
  6
CONTINUOUS
 62
256
 10
-331.250000000000000
 20
95.925178527832031
 40
7.919999599456787
  1
ＧＭ－ＳＦＳＢ
 50
0.000002504478167
 41
0.984848598876354
  7
STANDARD1
  0
TEXT
  8
0
  6
CONTINUOUS
 62
256
 10
-331.250000000000000
 20
108.645179748535160
 40
7.919999599456787
  1
三菱ギヤードモートル
 50
0.000002504478167
 41
0.984848598876354
  7
STANDARD1
  0
TEXT
  8
0
  6
CONTINUOUS
 62
256
 10
-331.250000000000000
 20
121.365180969238280
 40
7.919999599456787
  1
Ｓ１９５
 50
0.000002504478167
 41
0.984848598876354
  7
STANDARD1
  0
LINE
  8
0
  6
CONTINUOUS
 62
256
 10
-250.624130492570000
 20
-66.768301670361680
 11
-250.137327100864410
 21
-66.281498278656059
  0
LINE
  8
0
  6
CONTINUOUS
 62
256
 10
-257.270933965983720
 20
-60.121498196947968
 11
-256.784130574278090
 21
-59.634694805242347
  0
LINE
  8
0
  6
CONTINUOUS
 62
256
 10
-250.310991883601250
 20
-66.515754719511307
 11
-256.988091186074140
 21
-59.838655417038389
  0
LINE
  8
0
  6
CONTINUOUS
 62
256
 10
-250.624130492570000
 20
-66.768301670361680
 11
-257.270933965983720
 21
-60.121498196947968
  0
POINT
  8
0
  6
CONTINUOUS
 62
256
 10
-253.947532229276870
 20
-63.444899933654824
  0
ARC
  8
0
  6
CONTINUOUS
 62
256
 10
-256.210273794203890
 20
-65.707641498581864
 40
6.099999427795368
 50
354.601910595264880
 51
95.398072101891557
  0
LINE
  8
0
  6
CONTINUOUS
 62
256
 10
-351.457557220031560
 20
-66.768301670361680
 11
-351.944360611737180
 21
-66.281498278656059
  0
LINE
  8
0
  6
CONTINUOUS
 62
256
 10
-344.810753746617880
 20
-60.121498196947968
 11
-345.297557138323500
 21
-59.634694805242347
  0
LINE
  8
0
  6
CONTINUOUS
 62
256
 10
-351.770695829000370
 20
-66.515754719511307
 11
-345.093596526527450
 21
-59.838655417038389
  0
LINE
  8
0
  6
CONTINUOUS
 62
256
 10
-351.457557220031560
 20
-66.768301670361680
 11
-344.810753746617880
 21
-60.121498196947968
  0
POINT
  8
0
  6
CONTINUOUS
 62
256
 10
-348.134155483324720
 20
-63.444899933654824
  0
ARC
  8
0
  6
CONTINUOUS
 62
256
 10
-345.871413918397710
 20
-65.707641498581864
 40
6.099999427795413
 50
84.601927898108485
 51
185.398089404735090
  0
LINE
  8
0
  6
CONTINUOUS
 62
256
 10
-351.457557220031560
 20
-154.308121450996030
 11
-351.944360611737180
 21
-154.794924842701650
  0
LINE
  8
0
  6
CONTINUOUS
 62
256
 10
-344.810753746617880
 20
-160.954924924409770
 11
-345.297557138323500
 21
-161.441728316115360
  0
LINE
  8
0
  6
CONTINUOUS
 62
256
 10
-351.770695829000370
 20
-154.560668401846410
 11
-345.093596526527450
 21
-161.237767704319340
  0
LINE
  8
0
  6
CONTINUOUS
 62
256
 10
-351.457557220031560
 20
-154.308121450996030
 11
-344.810753746617880
 21
-160.954924924409770
  0
POINT
  8
0
  6
CONTINUOUS
 62
256
 10
-348.134155483324720
 20
-157.631523187702900
  0
ARC
  8
0
  6
CONTINUOUS
 62
256
 10
-345.871413918397710
 20
-155.368781622775860
 40
6.099999427795398
 50
174.601910595264910
 51
275.398072101891500
  0
LINE
  8
0
  6
CONTINUOUS
 62
256
 10
-250.624130492570000
 20
-154.308121450996030
 11
-250.137327100864410
 21
-154.794924842701650
  0
LINE
  8
0
  6
CONTINUOUS
 62
256
 10
-257.270933965983720
 20
-160.954924924409770
 11
-256.784130574278090
 21
-161.441728316115360
  0
LINE
  8
0
  6
CONTINUOUS
 62
256
 10
-250.310991883601250
 20
-154.560668401846410
 11
-256.988091186074140
 21
-161.237767704319340
  0
LINE
  8
0
  6
CONTINUOUS
 62
256
 10
-250.624130492570000
 20
-154.308121450996030
 11
-257.270933965983720
 21
-160.954924924409770
  0
POINT
  8
0
  6
CONTINUOUS
 62
256
 10
-253.947532229276870
 20
-157.631523187702900
  0
ARC
  8
0
  6
CONTINUOUS
 62
256
 10
-256.210273794203890
 20
-155.368781622775860
 40
6.099999427795406
 50
264.601927898108500
 51
5.398089404735109
  0
LINE
  8
0
  6
CONTINUOUS
 62
256
 10
144.966998108768420
 20
-30.538211560678974
 11
142.746323605506830
 21
-30.538211560678974
  0
LINE
  8
0
  6
CONTINUOUS
 62
256
 10
144.966998108768420
 20
-160.538211560678970
 11
142.746323605506830
 21
-160.538211560678970
  0
LINE
  8
0
  6
CONTINUOUS
 62
256
 10
144.966998108768450
 20
173.276554682470310
 11
142.746323605506800
 21
173.276554682470310
  0
LINE
  8
0
  6
CONTINUOUS
 62
256
 10
144.966998108768450
 20
43.276554682470305
 11
142.746323605506800
 21
43.276554682470305
  0
ENDSEC
  0
EOF
