  0
SECTION
  2
HEADER
  9
$TEXTSIZE
 40
2.5
  9
$ACADVER
  1
AC1009
  9
$DIMASZ
 40
3.863703297614046
  9
$DIMEXE
 40
2.000000000000000
  9
$DIMEXO
 40
1.000000000000000
  9
$DIMLFAC
 40
1.000000000000000
  9
$DIMSCALE
 40
1.000000000000000
  9
$DIMTAD
 70
1
  9
$DIMTFAC
 40
0.625000000000000
  9
$DIMTXT
 40
3.200000047683716
  9
$LUPREC
 70
3
  9
$REGENMODE
 70
1
  9
$TEXTSTYLE
  7
STANDARD1
  0
ENDSEC
  0
SECTION
  2
TABLES
  0
TABLE
  2
LTYPE
 70
4
  0
LTYPE
  2
CONTINUOUS
 70
64
  3
Solid line
 72
65
 73
0
 40
0.0
  0
LTYPE
  2
DASHED
 70
64
  3
-- -- -- -- -- -- -- -- -- -- -- -- -- -- --
 72
65
 73
2
 40
0.75
 49
0.5
 49
-0.25
  0
LTYPE
  2
DASHDOT
 70
64
  3
__ . __ . __ . __ . __ . __ . __ . __ . __ . __
 72
65
 73
4
 40
1.0
 49
0.5
 49
-0.25
 49
0.0
 49
-0.25
  0
LTYPE
  2
DIVIDE
 70
64
  3
__ . . __ . . __ . . __ . . __ . . __ . . __
 72
65
 73
6
 40
1.25
 49
0.5
 49
-0.25
 49
0.0
 49
-0.25
 49
0.0
 49
-0.25
  0
ENDTAB
  0
TABLE
  2
LAYER
 70
1
  0
LAYER
  2
0
 70
64
 62
2
  6
CONTINUOUS
  0
ENDTAB
  0
TABLE
  2
STYLE
 70
4
  0
STYLE
  2
STANDARD1
 70
64
 40
0.0
 41
1.0
 50
0.0
 71
0
 42
3.200000047683716
  3
MONOTXT
  4
BIGFONT
  0
STYLE
  2
STANDARD2
 70
68
 40
0.0
 41
1.0
 50
0.0
 71
0
 42
3.200000047683716
  3
MONOTXT
  4
BIGFONT
  0
STYLE
  2
STANDARD3
 70
64
 40
0.0
 41
1.0
 50
0.0
 71
0
 42
3.200000047683716
  3
MONOTXT
  4

  0
STYLE
  2
STANDARD4
 70
68
 40
0.0
 41
1.0
 50
0.0
 71
0
 42
3.200000047683716
  3
MONOTXT
  4

  0
ENDTAB
  0
TABLE
  2
VIEW
 70
0
  0
ENDTAB
  0
ENDSEC
  0
SECTION
  2
BLOCKS
  0
BLOCK
  8
0
  2
ZU_SYM_1
 70
64
 10
0.000000000000000
 20
0.000000000000000
  0
ARC
  8
0
  6
CONTINUOUS
 62
256
 10
-0.979025304317474
 20
-2.200000762939453
 40
1.299999237060547
 50
196.601531107481040
 51
270.000000000000000
  0
ARC
  8
0
  6
CONTINUOUS
 62
256
 10
-0.979025304317474
 20
2.200000762939453
 40
1.299999237060547
 50
90.000000000000000
 51
163.398451589674950
  0
LINE
  8
0
  6
CONTINUOUS
 62
256
 10
0.000000000000000
 20
-3.500000000000000
 11
-0.979025304317474
 21
-3.500000000000000
  0
LINE
  8
0
  6
CONTINUOUS
 62
256
 10
0.000000000000000
 20
3.500000000000000
 11
-0.979025304317474
 21
3.500000000000000
  0
LINE
  8
0
  6
CONTINUOUS
 62
256
 10
0.000000000000000
 20
-3.500000000000000
 11
0.000000000000000
 21
3.500000000000000
  0
LINE
  8
0
  6
CONTINUOUS
 62
256
 10
0.000000000000000
 20
-3.500000000000000
 11
0.000000000000000
 21
3.500000000000000
  0
POINT
  8
0
  6
CONTINUOUS
 62
256
 10
0.000000000000000
 20
0.000000000000000
  0
ARC
  8
0
  6
CONTINUOUS
 62
256
 10
6.399999618530273
 20
0.000000000000000
 40
9.000000000000000
 50
163.398451589674950
 51
196.601531107481040
  0
ENDBLK
  8
0
  0
BLOCK
  8
0
  2
ZU_SYM_2
 70
64
 10
0.000000000000000
 20
0.000000000000000
  0
ARC
  8
0
  6
CONTINUOUS
 62
256
 10
-0.979025304317474
 20
-2.200000762939453
 40
1.299999237060547
 50
196.601531107481040
 51
270.000000000000000
  0
ARC
  8
0
  6
CONTINUOUS
 62
256
 10
-0.979025304317474
 20
2.200000762939453
 40
1.299999237060547
 50
90.000000000000000
 51
163.398451589674950
  0
LINE
  8
0
  6
CONTINUOUS
 62
256
 10
0.000000000000000
 20
-3.500000000000000
 11
-0.979025304317474
 21
-3.500000000000000
  0
LINE
  8
0
  6
CONTINUOUS
 62
256
 10
0.000000000000000
 20
3.500000000000000
 11
-0.979025304317474
 21
3.500000000000000
  0
LINE
  8
0
  6
CONTINUOUS
 62
256
 10
0.000000000000000
 20
-3.500000000000000
 11
0.000000000000000
 21
3.500000000000000
  0
LINE
  8
0
  6
CONTINUOUS
 62
256
 10
0.000000000000000
 20
-3.500000000000000
 11
0.000000000000000
 21
3.500000000000000
  0
POINT
  8
0
  6
CONTINUOUS
 62
256
 10
0.000000000000000
 20
0.000000000000000
  0
ARC
  8
0
  6
CONTINUOUS
 62
256
 10
6.399999618530273
 20
0.000000000000000
 40
9.000000000000000
 50
163.398451589674950
 51
196.601531107481040
  0
ENDBLK
  8
0
  0
ENDSEC
  0
SECTION
  2
ENTITIES
  0
ARC
  8
0
  6
CONTINUOUS
 62
256
 10
151.177862505694180
 20
-91.127604071527443
 40
0.399999999999636
 50
180.000000000000000
 51
270.000000000000000
  0
LINE
  8
0
  6
CONTINUOUS
 62
256
 10
153.337670126829490
 20
-91.377604071527443
 11
152.777862505694090
 21
-91.527604071527065
  0
LINE
  8
0
  6
CONTINUOUS
 62
256
 10
152.777862505694090
 20
-91.527604071527065
 11
151.177862505694180
 21
-91.527604071527065
  0
LINE
  8
0
  6
CONTINUOUS
 62
256
 10
178.377862505694000
 20
-91.377604071527443
 11
153.337670126829490
 21
-91.377604071527443
  0
ARC
  8
0
  6
CONTINUOUS
 62
256
 10
178.377862505694000
 20
-91.777604071527065
 40
0.399999999999636
 50
0.000000000000000
 51
90.000000000000000
  0
LINE
  8
0
  6
CONTINUOUS
 62
256
 10
178.777862505694090
 20
-100.877604071527440
 11
178.777862505694090
 21
-91.777604071527065
  0
LINE
  8
0
  6
CONTINUOUS
 62
256
 10
150.577862505694270
 20
98.820537849012894
 11
150.777862505694090
 21
99.020537849012712
  0
LINE
  8
0
  6
CONTINUOUS
 62
256
 10
150.777862505694090
 20
109.820537849012890
 11
150.777862505694090
 21
99.020537849012712
  0
LINE
  8
0
  6
CONTINUOUS
 62
256
 10
150.577862505694270
 20
98.820537849012894
 11
148.277845612985970
 21
98.820537849012894
  0
ARC
  8
0
  6
CONTINUOUS
 62
256
 10
178.377862505693970
 20
100.720537849012530
 40
0.400000000000091
 50
270.000000000000000
 51
0.000000000000000
  0
ARC
  8
0
  6
CONTINUOUS
 62
256
 10
151.177862505694150
 20
100.070537849012440
 40
0.400000000000091
 50
90.000000000000000
 51
180.000000000000000
  0
LINE
  8
0
  6
CONTINUOUS
 62
256
 10
178.377862505693970
 20
100.320537849012890
 11
153.337670126829470
 21
100.320537849012890
  0
LINE
  8
0
  6
CONTINUOUS
 62
256
 10
152.777862505694060
 20
100.470537849012530
 11
151.177862505694150
 21
100.470537849012530
  0
LINE
  8
0
  6
CONTINUOUS
 62
256
 10
153.337670126829470
 20
100.320537849012890
 11
152.777862505694060
 21
100.470537849012530
  0
LINE
  8
0
  6
CONTINUOUS
 62
256
 10
153.777862505694060
 20
100.320537849012910
 11
153.777862505694060
 21
97.820537849012908
  0
LINE
  8
0
  6
CONTINUOUS
 62
256
 10
178.777862505694060
 20
97.820537849012908
 11
153.777863519558740
 21
97.820537849012908
  0
LINE
  8
0
  6
CONTINUOUS
 62
256
 10
178.777862505694060
 20
109.820537849012890
 11
178.777862505694060
 21
97.820537849012908
  0
LINE
  8
0
  6
CONTINUOUS
 62
256
 10
156.665907614282450
 20
-97.877359930902443
 11
178.777862505694090
 21
-97.877359930902443
  0
ARC
  8
0
  6
CONTINUOUS
 62
256
 10
156.665907614282450
 20
-100.765405039490330
 40
2.888045108587903
 50
90.000000000000000
 51
182.226471171998360
  0
LINE
  8
0
  6
CONTINUOUS
 62
256
 10
57.777845612985971
 20
-118.877604071527440
 11
57.777845612985971
 21
-66.377604071527458
  0
LINE
  8
0
  6
CONTINUOUS
 62
256
 10
211.176562212885980
 20
-121.377604071527440
 11
211.686979060403700
 21
-121.377604071527440
  0
LINE
  8
0
  6
CONTINUOUS
 62
256
 10
211.176562212885980
 20
-121.377604071527440
 11
211.176562212885980
 21
-116.377604071527440
  0
LINE
  8
0
  6
CONTINUOUS
 62
256
 10
211.176562212885980
 20
-116.377604071527230
 11
211.686979060403700
 21
-116.377604071527230
  0
LINE
  8
0
  6
CONTINUOUS
 62
256
 10
230.676562212885980
 20
-154.877604071527460
 11
218.309897439943600
 21
-154.877604071527460
  0
LINE
  8
0
  6
CONTINUOUS
 62
256
 10
230.676562212885980
 20
-82.877604071527685
 11
218.309897439943600
 21
-82.877604071527685
  0
LINE
  8
0
  6
CONTINUOUS
 62
256
 10
57.777845612986482
 20
-171.377604071527460
 11
57.777845612985971
 21
-118.877604071527440
  0
LINE
  8
0
  6
CONTINUOUS
 62
256
 10
57.777845612985971
 20
-66.377604071527458
 11
57.777845612985971
 21
-118.877604071527440
  0
ARC
  8
0
  6
CONTINUOUS
 62
256
 10
511.676562212885980
 20
-118.877604071527490
 40
300.000000000000060
 50
173.967950853630210
 51
186.032049146369810
  0
ARC
  8
0
  6
CONTINUOUS
 62
256
 10
218.309897439943600
 20
-87.877604071527685
 40
5.000000000000000
 50
90.000000000000000
 51
173.967950853629670
  0
ARC
  8
0
  6
CONTINUOUS
 62
256
 10
218.309897439943600
 20
-149.877604071527460
 40
5.000000000000143
 50
186.032049146370330
 51
270.000000000000000
  0
CIRCLE
  8
0
  6
CONTINUOUS
 62
256
 10
303.176562212885980
 20
-100.877604071527440
 40
17.500000000000000
  0
CIRCLE
  8
0
  6
CONTINUOUS
 62
256
 10
303.176562212885980
 20
-100.877604071527440
 40
61.000000000000000
  0
CIRCLE
  8
0
  6
CONTINUOUS
 62
256
 10
303.176562212885980
 20
-100.877604071527440
 40
22.000000000000000
  0
ARC
  8
0
  6
CONTINUOUS
 62
256
 10
303.176562212885980
 20
-100.877604071527440
 40
68.000000000000369
 50
151.382669854100980
 51
174.260829522733080
  0
ARC
  8
0
  6
CONTINUOUS
 62
256
 10
303.176562212885980
 20
-100.877604071527440
 40
68.000000000000185
 50
241.382669854100440
 51
298.617330145899530
  0
ARC
  8
0
  6
CONTINUOUS
 62
256
 10
371.647937620281940
 20
-138.236281106715070
 40
9.999999999999638
 50
151.382669854100730
 51
225.000000000001960
  0
ARC
  8
0
  6
CONTINUOUS
 62
256
 10
340.535239248074050
 20
-169.348979478922960
 40
10.000000000000082
 50
45.000000000001847
 51
118.617330145899320
  0
ARC
  8
0
  6
CONTINUOUS
 62
256
 10
359.534426589155830
 20
-171.377604071527460
 40
2.000000000000338
 50
225.000000000000000
 51
270.000000000000000
  0
ARC
  8
0
  6
CONTINUOUS
 62
256
 10
373.676562212885980
 20
-157.235468447795940
 40
2.000000000000000
 50
0.000000000000000
 51
45.000000000009209
  0
ARC
  8
0
  6
CONTINUOUS
 62
256
 10
234.705186805490030
 20
-138.236281106715070
 40
10.000000000000082
 50
314.999999999998180
 51
28.617330145899331
  0
ARC
  8
0
  6
CONTINUOUS
 62
256
 10
265.817885177697920
 20
-169.348979478922960
 40
9.999999999999638
 50
61.382669854100726
 51
134.999999999999890
  0
ARC
  8
0
  6
CONTINUOUS
 62
256
 10
246.818697836616140
 20
-171.377604071527460
 40
2.000000000000000
 50
270.000000000000000
 51
315.000000000000000
  0
ARC
  8
0
  6
CONTINUOUS
 62
256
 10
359.534426589155830
 20
-30.377604071527458
 40
2.000000000000000
 50
90.000000000000000
 51
135.000000000000230
  0
ARC
  8
0
  6
CONTINUOUS
 62
256
 10
234.705186805490030
 20
-63.518927036339846
 40
9.999999999999638
 50
331.382669854100700
 51
45.000000000001847
  0
ARC
  8
0
  6
CONTINUOUS
 62
256
 10
265.817885177697920
 20
-32.406228664131959
 40
10.000000000000401
 50
225.000000000000000
 51
298.617330145899130
  0
ARC
  8
0
  6
CONTINUOUS
 62
256
 10
303.176562212885980
 20
-100.877604071527440
 40
68.000000000000369
 50
331.382669854100980
 51
354.260829522733050
  0
ARC
  8
0
  6
CONTINUOUS
 62
256
 10
246.818697836616140
 20
-30.377604071527458
 40
2.000000000000338
 50
45.000000000000000
 51
90.000000000000000
  0
ARC
  8
0
  6
CONTINUOUS
 62
256
 10
371.647937620281940
 20
-63.518927036339846
 40
10.000000000000082
 50
134.999999999998180
 51
208.617330145899250
  0
ARC
  8
0
  6
CONTINUOUS
 62
256
 10
340.535239248074050
 20
-32.406228664131959
 40
9.999999999999638
 50
241.382669854100750
 51
314.999999999998010
  0
ARC
  8
0
  6
CONTINUOUS
 62
256
 10
373.676562212885980
 20
-44.519739695258977
 40
2.000000000000016
 50
314.999999999990790
 51
0.000000000000000
  0
ARC
  8
0
  6
CONTINUOUS
 62
256
 10
348.676562212885980
 20
-176.377604071527460
 40
3.000000000000000
 50
90.000000000000000
 51
180.000000000000000
  0
ARC
  8
0
  6
CONTINUOUS
 62
256
 10
262.676562212885980
 20
-178.877604071527460
 40
2.000000000000000
 50
180.000000000000000
 51
270.000000000000000
  0
ARC
  8
0
  6
CONTINUOUS
 62
256
 10
343.676562212885980
 20
-178.877604071527460
 40
2.000000000000000
 50
270.000000000000000
 51
0.000000000000000
  0
ARC
  8
0
  6
CONTINUOUS
 62
256
 10
239.176562212885980
 20
-36.877604071527458
 40
8.500000000000000
 50
90.000000000000000
 51
180.000000000000000
  0
ARC
  8
0
  6
CONTINUOUS
 62
256
 10
257.676562212885980
 20
-176.377604071527460
 40
3.000000000000000
 50
0.000000000000000
 51
90.000000000000000
  0
ARC
  8
0
  6
CONTINUOUS
 62
256
 10
303.176562212885980
 20
-100.877604071527440
 40
68.000000000000185
 50
61.382669854100463
 51
118.617330145899560
  0
ARC
  8
0
  6
CONTINUOUS
 62
256
 10
239.176562212885980
 20
-164.877604071527460
 40
8.500000000000000
 50
180.000000000000000
 51
270.000000000000000
  0
ARC
  8
0
  6
CONTINUOUS
 62
256
 10
367.176562212885980
 20
-36.877604071527458
 40
8.500000000000000
 50
0.000000000000000
 51
90.000000000000000
  0
CIRCLE
  8
0
  6
CONTINUOUS
 62
256
 10
303.176562212885980
 20
-100.877604071527440
 40
26.956362337679252
  0
ARC
  8
0
  6
CONTINUOUS
 62
256
 10
367.176562212885980
 20
-164.877604071527460
 40
8.500000000000000
 50
270.000000000000000
 51
0.000000000000000
  0
ARC
  8
0
  6
DASHDOT
 62
256
 10
303.176562212885980
 20
-100.877604071527440
 40
89.999999999999972
 50
309.583655973903380
 51
320.635271595136600
  0
ARC
  8
0
  6
DASHDOT
 62
256
 10
303.176562212885980
 20
-100.877604071527440
 40
89.999999999999957
 50
219.584070799941570
 51
230.681122034707240
  0
ARC
  8
0
  6
DASHDOT
 62
256
 10
303.176562212885980
 20
-100.877604071527440
 40
89.999999999999972
 50
129.022676265163310
 51
140.719583320906050
  0
ARC
  8
0
  6
DASHDOT
 62
256
 10
303.176562212885980
 20
-100.877604071527440
 40
90.000000000000028
 50
39.250344250539101
 51
50.323016356944919
  0
ARC
  8
0
  6
CONTINUOUS
 62
256
 10
267.829717797507780
 20
-54.892817566912527
 40
3.000000000000072
 50
127.548180560597600
 51
287.911740528475380
  0
ARC
  8
0
  6
CONTINUOUS
 62
256
 10
338.523406628264180
 20
-54.892817566912527
 40
3.000000000000047
 50
252.088259471516470
 51
52.451819439402151
  0
ARC
  8
0
  6
CONTINUOUS
 62
256
 10
322.676562212885980
 20
-103.921240558141090
 40
48.525806533542294
 50
72.088259471517517
 51
86.806152787378920
  0
ARC
  8
0
  6
CONTINUOUS
 62
256
 10
283.676562212885530
 20
-103.921240558141090
 40
48.525806533542799
 50
93.193847212620526
 51
107.911740528482510
  0
ARC
  8
0
  6
CONTINUOUS
 62
256
 10
303.176562212885980
 20
-453.377604071527460
 40
398.525806533542890
 50
90.000000000000000
 51
93.193847212620952
  0
ARC
  8
0
  6
CONTINUOUS
 62
256
 10
303.176562212885980
 20
-453.377604071527460
 40
398.525806533542830
 50
86.806152787379048
 51
90.000000000000000
  0
CIRCLE
  8
0
  6
CONTINUOUS
 62
256
 10
366.816172519675550
 20
-37.237993764738349
 40
5.300000000000011
  0
CIRCLE
  8
0
  6
CONTINUOUS
 62
256
 10
239.536951906096420
 20
-37.237993764738349
 40
5.300000000000011
  0
CIRCLE
  8
0
  6
CONTINUOUS
 62
256
 10
239.536951906096420
 20
-164.517214378316570
 40
5.300000000000011
  0
CIRCLE
  8
0
  6
CONTINUOUS
 62
256
 10
366.816172519675550
 20
-164.517214378316570
 40
5.300000000000011
  0
ARC
  8
0
  6
CONTINUOUS
 62
256
 10
303.176562212885980
 20
-100.877604071527440
 40
68.000000000000142
 50
185.739170477266900
 51
208.617330145898990
  0
ARC
  8
0
  6
CONTINUOUS
 62
256
 10
303.176562212885980
 20
-100.877604071527440
 40
68.000000000000142
 50
5.739170477266929
 51
28.617330145899039
  0
ARC
  8
0
  6
CONTINUOUS
 62
256
 10
372.825682810349460
 20
-93.877604071527458
 40
1.999999999999945
 50
185.739170477261690
 51
270.000000000000000
  0
ARC
  8
0
  6
CONTINUOUS
 62
256
 10
373.676562212885980
 20
-97.877604071527458
 40
2.000000000000000
 50
0.000000000000000
 51
90.000000000000000
  0
ARC
  8
0
  6
CONTINUOUS
 62
256
 10
372.825682810349460
 20
-107.877604071527440
 40
2.000000000000000
 50
90.000000000000000
 51
174.260829522738450
  0
ARC
  8
0
  6
CONTINUOUS
 62
256
 10
373.676562212885980
 20
-103.877604071527440
 40
2.000000000000000
 50
270.000000000000000
 51
0.000000000000000
  0
LINE
  8
0
  6
CONTINUOUS
 62
256
 10
347.606307059939350
 20
-162.277911667057200
 11
358.120213026782490
 21
-172.791817633900790
  0
LINE
  8
0
  6
CONTINUOUS
 62
256
 10
364.576869808416630
 20
-145.307348918580830
 11
375.090775775258860
 21
-155.821254885422600
  0
LINE
  8
0
  6
CONTINUOUS
 62
256
 10
258.746817365832160
 20
-162.277911667057200
 11
248.232911398989470
 21
-172.791817633900790
  0
LINE
  8
0
  6
CONTINUOUS
 62
256
 10
241.776254617355330
 20
-145.307348918580830
 11
231.262348650513100
 21
-155.821254885422600
  0
LINE
  8
0
  6
CONTINUOUS
 62
256
 10
258.746817365832160
 20
-39.477296475997719
 11
248.232911398989470
 21
-28.963390509154124
  0
LINE
  8
0
  6
CONTINUOUS
 62
256
 10
241.776254617355330
 20
-56.447859224474087
 11
231.262348650513100
 21
-45.933953257632311
  0
LINE
  8
0
  6
DASHDOT
 62
256
 10
321.760644972104730
 20
-118.877604071527440
 11
285.331268033419290
 21
-118.877604071527440
  0
LINE
  8
0
  6
CONTINUOUS
 62
256
 10
348.676562212885980
 20
-173.377604071527460
 11
367.176562212885980
 21
-173.377604071527460
  0
LINE
  8
0
  6
CONTINUOUS
 62
256
 10
260.676562212885980
 20
-178.877604071527460
 11
260.676562212885980
 21
-176.377604071527460
  0
LINE
  8
0
  6
CONTINUOUS
 62
256
 10
303.176562212885980
 20
-180.877604071527460
 11
262.676562212885980
 21
-180.877604071527460
  0
LINE
  8
0
  6
CONTINUOUS
 62
256
 10
303.176562212885980
 20
-180.877604071527460
 11
343.676562212885980
 21
-180.877604071527460
  0
LINE
  8
0
  6
CONTINUOUS
 62
256
 10
345.676562212885980
 20
-178.877604071527460
 11
345.676562212885980
 21
-176.377604071527460
  0
LINE
  8
0
  6
CONTINUOUS
 62
256
 10
257.676562212885980
 20
-173.377604071527460
 11
239.176562212885980
 21
-173.377604071527460
  0
LINE
  8
0
  6
CONTINUOUS
 62
256
 10
375.676562212885980
 20
-164.877604071527460
 11
375.676562212885980
 21
-36.877604071527458
  0
LINE
  8
0
  6
CONTINUOUS
 62
256
 10
364.576869808416630
 20
-56.447859224474087
 11
375.090775775258860
 21
-45.933953257632311
  0
LINE
  8
0
  6
CONTINUOUS
 62
256
 10
347.606307059939350
 20
-39.477296475997719
 11
358.120213026782490
 21
-28.963390509154124
  0
LINE
  8
0
  6
CONTINUOUS
 62
256
 10
239.176562212885980
 20
-28.377604071527458
 11
367.176562212885980
 21
-28.377604071527458
  0
LINE
  8
0
  6
DASHDOT
 62
256
 10
360.626982430262390
 20
-158.328024288903410
 11
372.704335191267770
 21
-170.405377049908790
  0
LINE
  8
0
  6
DASHDOT
 62
256
 10
245.662157404849720
 20
-158.392008879563260
 11
233.673586951705370
 21
-170.380579332707610
  0
LINE
  8
0
  6
DASHDOT
 62
256
 10
245.614553088462570
 20
-43.315594947104501
 11
233.880097656603990
 21
-31.581139515245923
  0
LINE
  8
0
  6
DASHDOT
 62
256
 10
360.744085200004290
 20
-43.310081084409603
 11
372.602077410600710
 21
-31.452088873813182
  0
LINE
  8
0
  6
DASHDOT
 62
256
 10
199.502430391428790
 20
-100.877604071527440
 11
409.571625590410800
 21
-100.877604071527440
  0
LINE
  8
0
  6
DASHDOT
 62
256
 10
303.176562212885980
 20
-189.853449149024530
 11
303.176562212885980
 21
-20.312696266406419
  0
LINE
  8
0
  6
CONTINUOUS
 62
256
 10
373.676562212885980
 20
-95.877604071527458
 11
372.825682810349460
 21
-95.877604071527458
  0
LINE
  8
0
  6
CONTINUOUS
 62
256
 10
373.676562212885980
 20
-105.877604071527440
 11
372.825682810349460
 21
-105.877604071527440
  0
LINE
  8
0
  6
CONTINUOUS
 62
256
 10
297.176562212885980
 20
-97.877604071527458
 11
291.176562212885980
 21
-97.877604071527458
  0
LINE
  8
0
  6
CONTINUOUS
 62
256
 10
297.176562212885980
 20
-103.877604071527440
 11
291.176562212885980
 21
-103.877604071527440
  0
LINE
  8
0
  6
CONTINUOUS
 62
256
 10
291.176562212885980
 20
-103.877604071527440
 11
291.176562212885980
 21
-97.877604071527458
  0
LINE
  8
0
  6
CONTINUOUS
 62
256
 10
297.176562212885980
 20
-103.877604071527440
 11
297.176562212885980
 21
-97.877604071527458
  0
ARC
  8
0
  6
CONTINUOUS
 62
256
 10
303.176562212885980
 20
-100.877604071527440
 40
9.500000000000016
 50
198.434948822922880
 51
161.591512067616610
  0
CIRCLE
  8
0
  6
CONTINUOUS
 62
256
 10
303.176562212885980
 20
-100.877604071527440
 40
3.000000000000000
  0
CIRCLE
  8
0
  6
CONTINUOUS
 62
256
 10
303.176562212885980
 20
-100.877604071527440
 40
2.458500000000015
  0
LINE
  8
0
  6
CONTINUOUS
 62
256
 10
230.676562212885980
 20
-164.877604071527460
 11
230.676562212885980
 21
-36.877604071527458
  0
ARC
  8
0
  6
CONTINUOUS
 62
256
 10
232.676562212885980
 20
-97.877604071527458
 40
2.000000000000000
 50
90.000000000000000
 51
180.000000000000000
  0
ARC
  8
0
  6
CONTINUOUS
 62
256
 10
232.676562212885980
 20
-103.877604071527440
 40
2.000000000000000
 50
180.000000000000000
 51
270.000000000000000
  0
ARC
  8
0
  6
CONTINUOUS
 62
256
 10
233.527441615422500
 20
-107.877604071527440
 40
1.999999999999945
 50
5.739170477261706
 51
90.000000000000000
  0
ARC
  8
0
  6
CONTINUOUS
 62
256
 10
233.527441615422500
 20
-93.877604071527458
 40
2.000000000000000
 50
270.000000000000000
 51
354.260829522738450
  0
LINE
  8
0
  6
CONTINUOUS
 62
256
 10
232.676562212885980
 20
-95.877604071527458
 11
233.527441615422500
 21
-95.877604071527458
  0
LINE
  8
0
  6
CONTINUOUS
 62
256
 10
232.676562212885980
 20
-105.877604071527440
 11
233.527441615422500
 21
-105.877604071527440
  0
ARC
  8
0
  6
CONTINUOUS
 62
256
 10
232.676562212885980
 20
-44.519739695258977
 40
2.000000000000000
 50
180.000000000000000
 51
225.000000000008920
  0
LINE
  8
0
  6
CONTINUOUS
 62
256
 10
57.777845612986425
 20
-169.877604071527460
 11
75.277845612985971
 21
-169.877604071527460
  0
LINE
  8
0
  6
CONTINUOUS
 62
256
 10
57.777845612986425
 20
-169.377604071527460
 11
75.277845612985971
 21
-169.377604071527460
  0
LINE
  8
0
  6
CONTINUOUS
 62
256
 10
57.777845612986425
 20
-165.010686666410150
 11
75.277845612985971
 21
-165.010686666410150
  0
LINE
  8
0
  6
CONTINUOUS
 62
256
 10
57.777845612986425
 20
-163.382259598632340
 11
75.277845612985971
 21
-163.382259598632340
  0
LINE
  8
0
  6
CONTINUOUS
 62
256
 10
57.777845612986368
 20
-159.919517841867100
 11
75.277845612985971
 21
-159.919517841867100
  0
LINE
  8
0
  6
CONTINUOUS
 62
256
 10
57.777845612986368
 20
-158.918039478051810
 11
75.277845612985971
 21
-158.918039478051810
  0
LINE
  8
0
  6
CONTINUOUS
 62
256
 10
57.777845612986312
 20
-152.181205023036110
 11
75.277845612985971
 21
-152.181205023036110
  0
LINE
  8
0
  6
CONTINUOUS
 62
256
 10
57.777845612986312
 20
-150.591995230297470
 11
75.277845612985971
 21
-150.591995230297470
  0
LINE
  8
0
  6
CONTINUOUS
 62
256
 10
57.777845612986255
 20
-147.633999622164540
 11
75.277845612985971
 21
-147.633999622164540
  0
LINE
  8
0
  6
CONTINUOUS
 62
256
 10
57.777845612986255
 20
-146.154976468687440
 11
75.277845612985971
 21
-146.154976468687440
  0
LINE
  8
0
  6
CONTINUOUS
 62
256
 10
57.777845612986198
 20
-143.062245477022200
 11
75.277845612985971
 21
-143.062245477022200
  0
LINE
  8
0
  6
CONTINUOUS
 62
256
 10
57.777845612986198
 20
-141.715843751523610
 11
75.277845612985971
 21
-141.715843751523610
  0
LINE
  8
0
  6
CONTINUOUS
 62
256
 10
57.777845612986198
 20
-138.877604071527460
 11
75.277845612985971
 21
-138.877604071527460
  0
LINE
  8
0
  6
CONTINUOUS
 62
256
 10
58.014958620205221
 20
-98.877604071527458
 11
75.277845612985971
 21
-98.877604071527458
  0
LINE
  8
0
  6
CONTINUOUS
 62
256
 10
57.828534656454508
 20
-96.039364391531308
 11
75.277845612985971
 21
-96.039364391531308
  0
LINE
  8
0
  6
CONTINUOUS
 62
256
 10
58.014958620205221
 20
-94.692962666032713
 11
75.277845612985971
 21
-94.692962666032713
  0
LINE
  8
0
  6
CONTINUOUS
 62
256
 10
58.201382583955933
 20
-91.600231674367478
 11
75.277845612985971
 21
-91.600231674367478
  0
LINE
  8
0
  6
CONTINUOUS
 62
256
 10
58.201382583955933
 20
-90.121208520890377
 11
75.277845612985971
 21
-90.121208520890377
  0
LINE
  8
0
  6
CONTINUOUS
 62
256
 10
58.387806547706646
 20
-87.163212912757444
 11
75.277845612985971
 21
-87.163212912757444
  0
LINE
  8
0
  6
CONTINUOUS
 62
256
 10
58.014958620205221
 20
-85.574003120018688
 11
75.277845612985971
 21
-85.574003120018688
  0
LINE
  8
0
  6
CONTINUOUS
 62
256
 10
57.828534656454508
 20
-78.837168665002991
 11
75.277845612985971
 21
-78.837168665002991
  0
LINE
  8
0
  6
CONTINUOUS
 62
256
 10
58.014958620205221
 20
-77.835690301187697
 11
75.277845612985971
 21
-77.835690301187697
  0
LINE
  8
0
  6
CONTINUOUS
 62
256
 10
58.014958620205221
 20
-74.372948544422570
 11
75.277845612985971
 21
-74.372948544422570
  0
LINE
  8
0
  6
CONTINUOUS
 62
256
 10
57.828534656454508
 20
-72.744521476644763
 11
75.277845612985971
 21
-72.744521476644763
  0
LINE
  8
0
  6
CONTINUOUS
 62
256
 10
57.828534656454508
 20
-68.377604071527458
 11
75.277845612985971
 21
-68.377604071527458
  0
LINE
  8
0
  6
CONTINUOUS
 62
256
 10
58.014958620205221
 20
-67.877604071527344
 11
75.277845612985971
 21
-67.877604071527344
  0
LINE
  8
0
  6
CONTINUOUS
 62
256
 10
134.277845612985970
 20
-173.560905522511350
 11
134.277845612985970
 21
-180.367188523249750
  0
LINE
  8
0
  6
CONTINUOUS
 62
256
 10
129.277845612985970
 20
-172.482004965313540
 11
129.277845612985970
 21
-29.273203177741379
  0
LINE
  8
0
  6
CONTINUOUS
 62
256
 10
133.777845613001430
 20
-173.573998483296240
 11
141.277845612985970
 21
-173.377604071527460
  0
LINE
  8
0
  6
CONTINUOUS
 62
256
 10
144.277845612985970
 20
-100.877604071527440
 11
144.277845612985970
 21
-165.077604071527280
  0
LINE
  8
0
  6
CONTINUOUS
 62
256
 10
144.277845612985970
 20
-100.877604071527440
 11
144.277845612985970
 21
-36.677604071527639
  0
LINE
  8
0
  6
CONTINUOUS
 62
256
 10
141.277845612985970
 20
-100.877604071527440
 11
141.277845612985970
 21
-173.377604071527460
  0
LINE
  8
0
  6
CONTINUOUS
 62
256
 10
147.804618183724070
 20
-78.318335291491167
 11
144.277845612985970
 21
-74.150331344254482
  0
LINE
  8
0
  6
CONTINUOUS
 62
256
 10
147.804618183724070
 20
-123.436872851563730
 11
144.277845612985970
 21
-127.604876798800430
  0
LINE
  8
0
  6
CONTINUOUS
 62
256
 10
141.277845612985970
 20
-100.877604071527440
 11
141.277845612985970
 21
-28.377604071527458
  0
LINE
  8
0
  6
CONTINUOUS
 62
256
 10
85.277845612985971
 20
-179.867294793177280
 11
85.277845612985971
 21
-100.877604071527440
  0
LINE
  8
0
  6
CONTINUOUS
 62
256
 10
143.498520116248640
 20
-165.877604071527460
 11
141.277845612985970
 21
-165.877604071527460
  0
LINE
  8
0
  6
CONTINUOUS
 62
256
 10
143.498520116248640
 20
-35.877604071527458
 11
141.277845612985970
 21
-35.877604071527458
  0
LINE
  8
0
  6
CONTINUOUS
 62
256
 10
85.277845612985971
 20
-100.877604071527440
 11
85.277845612985971
 21
-53.386331603991493
  0
ARC
  8
0
  6
CONTINUOUS
 62
256
 10
116.311803760585120
 20
-49.844174865414061
 40
3.000000000000496
 50
271.000000000001590
 51
330.000000000002610
  0
ARC
  8
0
  6
CONTINUOUS
 62
256
 10
126.277845612985970
 20
-32.582484026697784
 40
3.000000000000247
 50
330.000000000002730
 51
0.000000000000000
  0
ARC
  8
0
  6
CONTINUOUS
 62
256
 10
146.277845612985970
 20
-122.144988368631840
 40
1.999999999999609
 50
319.763641690733830
 51
0.000000000000000
  0
ARC
  8
0
  6
CONTINUOUS
 62
256
 10
146.277845612985970
 20
-79.610219774423058
 40
2.000000000000000
 50
0.000000000000000
 51
40.236358309266507
  0
ARC
  8
0
  6
CONTINUOUS
 62
256
 10
130.277845612985970
 20
-29.273203177741379
 40
0.999999999999937
 50
91.500000000015845
 51
180.000000000000000
  0
ARC
  8
0
  6
CONTINUOUS
 62
256
 10
133.777845612985970
 20
-180.367188523249750
 40
0.500000000000239
 50
268.818811086687840
 51
0.000000000000000
  0
ARC
  8
0
  6
CONTINUOUS
 62
256
 10
137.277845612990060
 20
-65.140019244719042
 40
3.000000000000686
 50
91.499999999989342
 51
180.000000000000000
  0
LINE
  8
0
  6
CONTINUOUS
 62
256
 10
148.277845612985970
 20
-100.877604071527440
 11
148.277845612985970
 21
-122.144988368631840
  0
LINE
  8
0
  6
CONTINUOUS
 62
256
 10
144.277845612985970
 20
-165.077604071527280
 11
143.498520116248640
 21
-165.877604071527460
  0
LINE
  8
0
  6
CONTINUOUS
 62
256
 10
144.277845612985970
 20
-36.677604071527639
 11
143.498520116248640
 21
-35.877604071527458
  0
LINE
  8
0
  6
CONTINUOUS
 62
256
 10
148.277845612985970
 20
-100.877604071527440
 11
148.277845612985970
 21
-79.610219774423058
  0
LINE
  8
0
  6
CONTINUOUS
 62
256
 10
118.909879971938720
 20
-51.344174865414061
 11
128.875921824339570
 21
-34.082484026697784
  0
LINE
  8
0
  6
DASHDOT
 62
256
 10
189.392063524638730
 20
-100.877604071527440
 11
99.736786851724105
 21
-100.877604071527440
  0
LINE
  8
0
  6
CONTINUOUS
 62
256
 10
130.251668664677820
 20
-28.273545852765892
 11
133.764757138831670
 21
-28.181552393516540
  0
LINE
  8
0
  6
CONTINUOUS
 62
256
 10
121.285294331873370
 20
-52.757819248705346
 11
85.777845612985971
 21
-53.377604071527458
  0
LINE
  8
0
  6
CONTINUOUS
 62
256
 10
133.767538525302480
 20
-180.867082275904980
 11
85.777845612985971
 21
-179.877604071527460
  0
LINE
  8
0
  6
CONTINUOUS
 62
256
 10
133.777845612985970
 20
-28.181209659758679
 11
141.277845612985970
 21
-28.377604071527458
  0
LINE
  8
0
  6
CONTINUOUS
 62
256
 10
137.199314768066980
 20
-62.141047269791670
 11
141.277845612990060
 21
-62.034247180969032
  0
ARC
  8
0
  6
CONTINUOUS
 62
256
 10
137.277845612985970
 20
-48.453938883754745
 40
2.999999999999788
 50
91.499999999998479
 51
180.000000000000000
  0
LINE
  8
0
  6
CONTINUOUS
 62
256
 10
137.199314768062440
 20
-45.454966908828283
 11
141.277845612985970
 21
-45.348166820005645
  0
LINE
  8
0
  6
CONTINUOUS
 62
256
 10
134.277845612985970
 20
-48.453938883754745
 11
134.277845612985970
 21
-92.877604071527458
  0
LINE
  8
0
  6
CONTINUOUS
 62
256
 10
134.277845612985970
 20
-153.301269259300170
 11
134.277845612985970
 21
-108.877604071527440
  0
ARC
  8
0
  6
CONTINUOUS
 62
256
 10
137.277845612985970
 20
-153.301269259300170
 40
3.000000000000000
 50
180.000000000000000
 51
268.500000000001590
  0
LINE
  8
0
  6
CONTINUOUS
 62
256
 10
137.199314768062440
 20
-156.300241234226630
 11
141.277845612985970
 21
-156.407041323049270
  0
ARC
  8
0
  6
CONTINUOUS
 62
256
 10
137.277845612990060
 20
-136.615188898335870
 40
3.000000000000000
 50
180.000000000000000
 51
268.500000000010860
  0
LINE
  8
0
  6
CONTINUOUS
 62
256
 10
137.199314768066980
 20
-139.614160873263240
 11
141.277845612990060
 21
-139.720960962085880
  0
LINE
  8
0
  6
CONTINUOUS
 62
256
 10
137.277845612985970
 20
-95.877604071527458
 11
141.277845612985970
 21
-95.877604071527458
  0
LINE
  8
0
  6
CONTINUOUS
 62
256
 10
137.277845612985970
 20
-105.877604071527440
 11
141.277845612985970
 21
-105.877604071527440
  0
ARC
  8
0
  6
CONTINUOUS
 62
256
 10
137.277845612985970
 20
-92.877604071527458
 40
3.000000000000000
 50
180.000000000000000
 51
270.000000000000000
  0
ARC
  8
0
  6
CONTINUOUS
 62
256
 10
137.277845612985970
 20
-108.877604071527440
 40
3.000000000000000
 50
90.000000000000000
 51
180.000000000000000
  0
LINE
  8
0
  6
CONTINUOUS
 62
256
 10
128.068149294106770
 20
-60.116064297429148
 11
119.437427653726540
 21
-60.116064297429148
  0
LINE
  8
0
  6
CONTINUOUS
 62
256
 10
128.540005179148810
 20
-48.085918041941113
 11
118.958012597886960
 21
-59.086504374472497
  0
ARC
  8
0
  6
CONTINUOUS
 62
256
 10
126.277845612985970
 20
-46.115477964896854
 40
3.000000000000703
 50
318.942708126116430
 51
0.000000000000000
  0
ARC
  8
0
  6
CONTINUOUS
 62
256
 10
116.695853031724350
 20
-57.116064297429148
 40
3.000000000000000
 50
270.000000000000000
 51
318.942708126126600
  0
ARC
  8
0
  6
CONTINUOUS
 62
256
 10
126.277845612985970
 20
-42.458623715402609
 40
3.000000000000703
 50
318.942708126116430
 51
0.000000000000000
  0
LINE
  8
0
  6
CONTINUOUS
 62
256
 10
128.540005179148810
 20
-44.429063792446868
 11
118.958012597886960
 21
-55.429650124978252
  0
ARC
  8
0
  6
CONTINUOUS
 62
256
 10
116.695853031724350
 20
-53.459210047934903
 40
3.000000000000000
 50
270.000000000000000
 51
318.942708126126600
  0
ARC
  8
0
  6
CONTINUOUS
 62
256
 10
178.377862505694000
 20
-109.977604071527820
 40
0.399999999999636
 50
270.000000000000000
 51
0.000000000000000
  0
LINE
  8
0
  6
CONTINUOUS
 62
256
 10
150.577862505694270
 20
-89.805680551477053
 11
150.777862505694090
 21
-90.005680551476871
  0
LINE
  8
0
  6
CONTINUOUS
 62
256
 10
150.777862505694090
 20
-100.805680551477050
 11
150.777862505694090
 21
-90.005680551476871
  0
LINE
  8
0
  6
CONTINUOUS
 62
256
 10
178.377862505694000
 20
-110.377604071527440
 11
153.337670126829490
 21
-110.377604071527440
  0
LINE
  8
0
  6
CONTINUOUS
 62
256
 10
150.577862505694270
 20
-111.877604071527440
 11
150.777862505694090
 21
-111.677604071527630
  0
LINE
  8
0
  6
CONTINUOUS
 62
256
 10
152.777862505694090
 20
-110.227604071527820
 11
151.177862505694180
 21
-110.227604071527820
  0
LINE
  8
0
  6
CONTINUOUS
 62
256
 10
153.337670126829490
 20
-110.377604071527440
 11
152.777862505694090
 21
-110.227604071527820
  0
LINE
  8
0
  6
CONTINUOUS
 62
256
 10
150.777862505694090
 20
-100.877604071527440
 11
150.777862505694090
 21
-111.677604071527630
  0
ARC
  8
0
  6
CONTINUOUS
 62
256
 10
151.177862505694180
 20
-110.627604071527440
 40
0.399999999999636
 50
90.000000000000000
 51
180.000000000000000
  0
LINE
  8
0
  6
CONTINUOUS
 62
256
 10
150.577862505694270
 20
-89.805680551477053
 11
148.277845612985970
 21
-89.805680551477053
  0
LINE
  8
0
  6
CONTINUOUS
 62
256
 10
150.577862505694270
 20
-111.877604071527440
 11
148.277845612985970
 21
-111.877604071527440
  0
LINE
  8
0
  6
CONTINUOUS
 62
256
 10
178.777862505694090
 20
-100.877604071527440
 11
178.777862505694090
 21
-109.977604071527820
  0
LINE
  8
0
  6
CONTINUOUS
 62
256
 10
156.665907614282450
 20
-103.877848212152440
 11
178.777862505694090
 21
-103.877848212152440
  0
ARC
  8
0
  6
CONTINUOUS
 62
256
 10
156.665907614282450
 20
-100.989803103564550
 40
2.888045108587921
 50
177.773528828001640
 51
270.000000000000000
  0
LINE
  8
0
  6
CONTINUOUS
 62
256
 10
75.277845612985971
 20
-65.906257483282630
 11
57.777845612985971
 21
-66.364511110742569
  0
LINE
  8
0
  6
CONTINUOUS
 62
256
 10
75.277845612985971
 20
-111.627605025201770
 11
75.277845612985971
 21
-53.842693941671314
  0
LINE
  8
0
  6
CONTINUOUS
 62
256
 10
75.277845612985971
 20
-171.848950659772300
 11
57.777845612985971
 21
-171.390697032312350
  0
LINE
  8
0
  6
CONTINUOUS
 62
256
 10
75.277845612985971
 20
-120.127603117853140
 11
75.277845612985971
 21
-172.296366623291760
  0
LINE
  8
0
  6
CONTINUOUS
 62
256
 10
85.277845612985971
 20
-53.342693941671314
 11
75.777845612985971
 21
-53.342693941671314
  0
LINE
  8
0
  6
CONTINUOUS
 62
256
 10
85.277845612985971
 20
-179.877604071527460
 11
75.777845612985971
 21
-179.877604071527460
  0
ARC
  8
0
  6
CONTINUOUS
 62
256
 10
75.777845612985971
 20
-179.377604071527460
 40
0.500000000000162
 50
209.999873810899710
 51
270.000000000000000
  0
ARC
  8
0
  6
CONTINUOUS
 62
256
 10
75.777845612985971
 20
-53.842693941671314
 40
0.500000000000000
 50
90.000000000000000
 51
180.000000000000000
  0
LINE
  8
0
  6
CONTINUOUS
 62
256
 10
85.777845612985971
 20
-179.877604071527460
 11
85.777845612985971
 21
-118.877604071527440
  0
LINE
  8
0
  6
CONTINUOUS
 62
256
 10
85.777845612985971
 20
-118.877604071527440
 11
85.777845612985971
 21
-53.333966409207278
  0
LINE
  8
0
  6
CONTINUOUS
 62
256
 10
80.277845612985971
 20
-173.696366623292310
 11
80.277845612985971
 21
-179.627603117853140
  0
LINE
  8
0
  6
CONTINUOUS
 62
256
 10
75.277846375925421
 20
-179.627603117853140
 11
75.277846375925421
 21
-171.127605025201770
  0
LINE
  8
0
  6
CONTINUOUS
 62
256
 10
80.277846375925421
 20
-179.627603117853140
 11
75.277846375925421
 21
-179.627603117853140
  0
ARC
  8
0
  6
CONTINUOUS
 62
256
 10
80.777845612985971
 20
-179.377604071527460
 40
0.500000000000000
 50
180.000000000000000
 51
270.000000000000000
  0
ARC
  8
0
  6
CONTINUOUS
 62
256
 10
79.877845612985880
 20
-54.716468585259463
 40
0.400000000000091
 50
0.000000000000000
 51
90.000000000000000
  0
LINE
  8
0
  6
CONTINUOUS
 62
256
 10
79.877845612986334
 20
-54.316468585259827
 11
76.277845612985971
 21
-54.316468585259827
  0
ARC
  8
0
  6
CONTINUOUS
 62
256
 10
76.277845612985971
 20
-55.316468585259827
 40
1.000000000000000
 50
90.000000000000000
 51
180.000000000000000
  0
ARC
  8
0
  6
CONTINUOUS
 62
256
 10
79.877845612986334
 20
-173.696366623292310
 40
0.399999999999636
 50
0.000000000000000
 51
90.000000000000000
  0
LINE
  8
0
  6
CONTINUOUS
 62
256
 10
79.877845612986334
 20
-57.787669140883736
 11
76.277845612985971
 21
-57.787669140883736
  0
ARC
  8
0
  6
CONTINUOUS
 62
256
 10
79.877845612986334
 20
-57.387669140884100
 40
0.399999999999636
 50
270.000000000000000
 51
0.000000000000000
  0
ARC
  8
0
  6
CONTINUOUS
 62
256
 10
76.277845612985971
 20
-58.787669140883736
 40
1.000000000000000
 50
90.000000000000000
 51
180.000000000000000
  0
LINE
  8
0
  6
CONTINUOUS
 62
256
 10
80.277845612985971
 20
-54.716468585259463
 11
80.277845612985971
 21
-57.387669140884100
  0
LINE
  8
0
  6
CONTINUOUS
 62
256
 10
80.277845612985971
 20
-173.696366623292310
 11
80.277845612985971
 21
-179.377604071527460
  0
LINE
  8
0
  6
CONTINUOUS
 62
256
 10
79.877845612986334
 20
-121.127604071527440
 11
76.277845612985971
 21
-121.127604071527440
  0
ARC
  8
0
  6
CONTINUOUS
 62
256
 10
79.877845612986334
 20
-120.727604071527820
 40
0.399999999999636
 50
270.000000000000000
 51
0.000000000000000
  0
ARC
  8
0
  6
CONTINUOUS
 62
256
 10
76.277845612985971
 20
-122.127604071527440
 40
1.000000000000000
 50
90.000000000000000
 51
180.000000000000000
  0
LINE
  8
0
  6
CONTINUOUS
 62
256
 10
79.877845612986334
 20
-110.627604071527440
 11
76.277845612985971
 21
-110.627604071527440
  0
LINE
  8
0
  6
CONTINUOUS
 62
256
 10
80.277845612985971
 20
-111.027604071527090
 11
80.277845612985971
 21
-120.727604071527820
  0
ARC
  8
0
  6
CONTINUOUS
 62
256
 10
79.877845612986334
 20
-111.027604071527090
 40
0.399999999999636
 50
0.000000000000000
 51
90.000000000000000
  0
ARC
  8
0
  6
CONTINUOUS
 62
256
 10
76.277845612985971
 20
-109.627604071527440
 40
1.000000000000000
 50
180.000000000000000
 51
270.000000000000000
  0
LINE
  8
0
  6
CONTINUOUS
 62
256
 10
79.877845612986334
 20
-173.296366623291760
 11
76.277845612985971
 21
-173.296366623291760
  0
ARC
  8
0
  6
CONTINUOUS
 62
256
 10
76.277845612985971
 20
-172.296366623291760
 40
1.000000000000000
 50
180.000000000000000
 51
270.000000000000000
  0
LINE
  8
0
  6
CONTINUOUS
 62
256
 10
130.251668664677820
 20
-173.481662290289020
 11
133.777845613001430
 21
-173.573998483296240
  0
ARC
  8
0
  6
CONTINUOUS
 62
256
 10
130.277845612985970
 20
-172.482004965313540
 40
1.000000000000000
 50
180.000000000000000
 51
268.499999999984200
  0
LINE
  8
0
  6
DASHDOT
 62
256
 10
150.273844863349150
 20
-37.237993764738349
 11
123.942086545447750
 21
-37.237993764738349
  0
LINE
  8
0
  6
DASHDOT
 62
256
 10
149.773844863349150
 20
-164.517214378316570
 11
123.942086545447750
 21
-164.517214378316570
  0
ARC
  8
0
  6
CONTINUOUS
 62
256
 10
-160.226999336127960
 20
-152.277604071527780
 40
20.599999999999795
 50
235.000000000000260
 51
270.000000000000000
  0
ARC
  8
0
  6
CONTINUOUS
 62
256
 10
-178.122154387035270
 20
-161.721224205157110
 40
2.599999999999909
 50
180.000000000000000
 51
234.999999999994740
  0
LINE
  8
0
  6
CONTINUOUS
 62
256
 10
-180.722154387035180
 20
-161.721224205157110
 11
-180.722154387035180
 21
-118.877604071527440
  0
LINE
  8
0
  6
CONTINUOUS
 62
256
 10
-172.042673924959330
 20
-169.152136183880880
 11
-179.613453121548100
 21
-163.851019520308230
  0
ARC
  8
0
  6
CONTINUOUS
 62
256
 10
-89.722154387035175
 20
-153.877604071527460
 40
3.000000000000000
 50
180.000000000000000
 51
270.000000000000000
  0
LINE
  8
0
  6
CONTINUOUS
 62
256
 10
-85.722154387035175
 20
-156.877604071527460
 11
-89.722154387035175
 21
-156.877604071527460
  0
ARC
  8
0
  6
CONTINUOUS
 62
256
 10
-85.722154387035175
 20
-159.877604071527460
 40
3.000000000000000
 50
0.000000000000000
 51
90.000000000000000
  0
LINE
  8
0
  6
CONTINUOUS
 62
256
 10
-90.522154387013302
 20
-153.877604071527460
 11
-90.522154387013984
 21
-118.877604071527230
  0
ARC
  8
0
  6
CONTINUOUS
 62
256
 10
-89.522154387013529
 20
-153.877604071527460
 40
0.999999999999773
 50
180.000000000000000
 51
270.000000000000000
  0
LINE
  8
0
  6
CONTINUOUS
 62
256
 10
-0.522154387013302
 20
-153.877604071527460
 11
-0.522154387013984
 21
-118.877604071525870
  0
LINE
  8
0
  6
CONTINUOUS
 62
256
 10
-1.522154387013529
 20
-154.877604071527460
 11
-89.522154387013529
 21
-154.877604071527460
  0
ARC
  8
0
  6
CONTINUOUS
 62
256
 10
-1.522154387013529
 20
-153.877604071527460
 40
1.000000000000000
 50
270.000000000000000
 51
0.000000000000000
  0
LINE
  8
0
  6
CONTINUOUS
 62
256
 10
-92.722154387035175
 20
-138.877604071527460
 11
-90.522154387013529
 21
-138.877604071527460
  0
LINE
  8
0
  6
CONTINUOUS
 62
256
 10
-92.722154387035175
 20
-141.715843751523610
 11
-90.522154387013529
 21
-141.715843751523610
  0
LINE
  8
0
  6
CONTINUOUS
 62
256
 10
-92.722154387035175
 20
-143.062245477022090
 11
-90.522154387013529
 21
-143.062245477022090
  0
LINE
  8
0
  6
CONTINUOUS
 62
256
 10
-92.722154387035175
 20
-146.154976468687440
 11
-90.522154387013529
 21
-146.154976468687440
  0
LINE
  8
0
  6
CONTINUOUS
 62
256
 10
-92.722154387035175
 20
-147.633999622164540
 11
-90.522154387013529
 21
-147.633999622164540
  0
LINE
  8
0
  6
CONTINUOUS
 62
256
 10
-92.722154387035175
 20
-150.591995230297470
 11
-90.522154387013529
 21
-150.591995230297470
  0
LINE
  8
0
  6
CONTINUOUS
 62
256
 10
-92.722154387035175
 20
-152.181205023036230
 11
-90.522154387013529
 21
-152.181205023036230
  0
LINE
  8
0
  6
CONTINUOUS
 62
256
 10
-92.722154387035175
 20
-118.877604071527440
 11
-92.722154387035175
 21
-153.877604071527460
  0
ARC
  8
0
  6
CONTINUOUS
 62
256
 10
-160.226999336127960
 20
-85.477604071527139
 40
20.599999999999909
 50
90.000000000000000
 51
124.999999999999790
  0
ARC
  8
0
  6
CONTINUOUS
 62
256
 10
-178.122154387035270
 20
-76.033983937897801
 40
2.600000000000037
 50
125.000000000002630
 51
180.000000000000000
  0
LINE
  8
0
  6
CONTINUOUS
 62
256
 10
-180.722154387035180
 20
-76.033983937897801
 11
-180.722154387035180
 21
-118.877604071527440
  0
LINE
  8
0
  6
CONTINUOUS
 62
256
 10
-172.042673924959330
 20
-68.603071959173803
 11
-179.613453121548100
 21
-73.904188622746688
  0
ARC
  8
0
  6
CONTINUOUS
 62
256
 10
-89.722154387035175
 20
-83.877604071527458
 40
3.000000000000000
 50
90.000000000000000
 51
180.000000000000000
  0
LINE
  8
0
  6
CONTINUOUS
 62
256
 10
-85.722154387035175
 20
-80.877604071527458
 11
-89.722154387035175
 21
-80.877604071527458
  0
ARC
  8
0
  6
CONTINUOUS
 62
256
 10
-85.722154387035175
 20
-77.877604071527458
 40
3.000000000000000
 50
270.000000000000000
 51
0.000000000000000
  0
LINE
  8
0
  6
CONTINUOUS
 62
256
 10
-90.522154387013302
 20
-83.877604071527458
 11
-90.522154387013984
 21
-118.877604071527680
  0
ARC
  8
0
  6
CONTINUOUS
 62
256
 10
-89.522154387013529
 20
-83.877604071527458
 40
1.000000000000000
 50
90.000000000000000
 51
180.000000000000000
  0
LINE
  8
0
  6
CONTINUOUS
 62
256
 10
-0.522154387013302
 20
-83.877604071527458
 11
-0.522154387013984
 21
-118.877604071529030
  0
LINE
  8
0
  6
CONTINUOUS
 62
256
 10
-1.522154387013529
 20
-82.877604071527458
 11
-89.522154387013529
 21
-82.877604071527458
  0
ARC
  8
0
  6
CONTINUOUS
 62
256
 10
-1.522154387013529
 20
-83.877604071527458
 40
1.000000000000227
 50
0.000000000000000
 51
90.000000000000000
  0
LINE
  8
0
  6
CONTINUOUS
 62
256
 10
-92.722154387035175
 20
-98.877604071527458
 11
-90.522154387013529
 21
-98.877604071527458
  0
LINE
  8
0
  6
CONTINUOUS
 62
256
 10
-92.722154387035175
 20
-96.039364391531308
 11
-90.522154387013529
 21
-96.039364391531308
  0
LINE
  8
0
  6
CONTINUOUS
 62
256
 10
-92.722154387035175
 20
-94.692962666032827
 11
-90.522154387013529
 21
-94.692962666032827
  0
LINE
  8
0
  6
CONTINUOUS
 62
256
 10
-92.722154387035175
 20
-91.600231674367478
 11
-90.522154387013529
 21
-91.600231674367478
  0
LINE
  8
0
  6
CONTINUOUS
 62
256
 10
-92.722154387035175
 20
-90.121208520890377
 11
-90.522154387013529
 21
-90.121208520890377
  0
LINE
  8
0
  6
CONTINUOUS
 62
256
 10
-92.722154387035175
 20
-87.163212912757444
 11
-90.522154387013529
 21
-87.163212912757444
  0
LINE
  8
0
  6
CONTINUOUS
 62
256
 10
-92.722154387035175
 20
-85.574003120018688
 11
-90.522154387013529
 21
-85.574003120018688
  0
LINE
  8
0
  6
CONTINUOUS
 62
256
 10
-92.722154387035175
 20
-118.877604071527440
 11
-92.722154387035175
 21
-83.877604071527458
  0
LINE
  8
0
  6
CONTINUOUS
 62
256
 10
-89.112463569139777
 20
-72.253230083380174
 11
-89.022154387034959
 21
-71.550273117179813
  0
LINE
  8
0
  6
CONTINUOUS
 62
256
 10
-89.379920584231911
 20
-72.929172807592266
 11
-89.112463569139777
 21
-72.253230083380174
  0
LINE
  8
0
  6
CONTINUOUS
 62
256
 10
-89.814247209212994
 20
-73.552125189997668
 11
-89.379920584231911
 21
-72.929172807592266
  0
LINE
  8
0
  6
CONTINUOUS
 62
256
 10
-90.398752515458185
 20
-74.098147519896244
 11
-89.814247209212994
 21
-73.552125189997668
  0
LINE
  8
0
  6
CONTINUOUS
 62
256
 10
-91.110974291842822
 20
-74.546256465362859
 11
-90.398752515458185
 21
-74.098147519896244
  0
LINE
  8
0
  6
CONTINUOUS
 62
256
 10
-91.923542254919028
 20
-74.879231450925630
 11
-91.110974291842822
 21
-74.546256465362859
  0
LINE
  8
0
  6
CONTINUOUS
 62
256
 10
-92.805229873559142
 20
-75.084276434623874
 11
-91.923542254919028
 21
-74.879231450925630
  0
LINE
  8
0
  6
CONTINUOUS
 62
256
 10
-93.722154387034948
 20
-75.153511652724646
 11
-92.805229873559142
 21
-75.084276434623874
  0
LINE
  8
0
  6
CONTINUOUS
 62
256
 10
-94.639078900510754
 20
-75.084276434623874
 11
-93.722154387034948
 21
-75.153511652724646
  0
LINE
  8
0
  6
CONTINUOUS
 62
256
 10
-95.520766519150868
 20
-74.879231450925630
 11
-94.639078900510754
 21
-75.084276434623874
  0
LINE
  8
0
  6
CONTINUOUS
 62
256
 10
-96.333334482227073
 20
-74.546256465362859
 11
-95.520766519150868
 21
-74.879231450925630
  0
LINE
  8
0
  6
CONTINUOUS
 62
256
 10
-97.045556258611711
 20
-74.098147519896244
 11
-96.333334482227073
 21
-74.546256465362859
  0
LINE
  8
0
  6
CONTINUOUS
 62
256
 10
-97.630061564856902
 20
-73.552125189997668
 11
-97.045556258611711
 21
-74.098147519896244
  0
LINE
  8
0
  6
CONTINUOUS
 62
256
 10
-98.064388189837985
 20
-72.929172807592266
 11
-97.630061564856902
 21
-73.552125189997668
  0
LINE
  8
0
  6
CONTINUOUS
 62
256
 10
-98.331845204930119
 20
-72.253230083380174
 11
-98.064388189837985
 21
-72.929172807592266
  0
LINE
  8
0
  6
CONTINUOUS
 62
256
 10
-98.422154387034936
 20
-71.550273117179813
 11
-98.331845204930119
 21
-72.253230083380174
  0
LINE
  8
0
  6
CONTINUOUS
 62
256
 10
-98.331845204930119
 20
-70.847316150979452
 11
-98.422154387034936
 21
-71.550273117179813
  0
LINE
  8
0
  6
CONTINUOUS
 62
256
 10
-98.064388189837985
 20
-70.171373426767360
 11
-98.331845204930119
 21
-70.847316150979452
  0
LINE
  8
0
  6
CONTINUOUS
 62
256
 10
-97.630061564856902
 20
-69.548421044361959
 11
-98.064388189837985
 21
-70.171373426767360
  0
LINE
  8
0
  6
CONTINUOUS
 62
256
 10
-97.045556258611711
 20
-69.002398714463382
 11
-97.630061564856902
 21
-69.548421044361959
  0
LINE
  8
0
  6
CONTINUOUS
 62
256
 10
-96.333334482227073
 20
-68.554289768996767
 11
-97.045556258611711
 21
-69.002398714463382
  0
LINE
  8
0
  6
CONTINUOUS
 62
256
 10
-95.520766519150868
 20
-68.221314783433996
 11
-96.333334482227073
 21
-68.554289768996767
  0
LINE
  8
0
  6
CONTINUOUS
 62
256
 10
-94.639078900510754
 20
-68.016269799735753
 11
-95.520766519150868
 21
-68.221314783433996
  0
LINE
  8
0
  6
CONTINUOUS
 62
256
 10
-93.722154387034948
 20
-67.947034581634981
 11
-94.639078900510754
 21
-68.016269799735753
  0
LINE
  8
0
  6
CONTINUOUS
 62
256
 10
-92.805229873559142
 20
-68.016269799735753
 11
-93.722154387034948
 21
-67.947034581634981
  0
LINE
  8
0
  6
CONTINUOUS
 62
256
 10
-91.923542254919028
 20
-68.221314783433996
 11
-92.805229873559142
 21
-68.016269799735753
  0
LINE
  8
0
  6
CONTINUOUS
 62
256
 10
-91.110974291842822
 20
-68.554289768996767
 11
-91.923542254919028
 21
-68.221314783433996
  0
LINE
  8
0
  6
CONTINUOUS
 62
256
 10
-90.398752515458185
 20
-69.002398714463382
 11
-91.110974291842822
 21
-68.554289768996767
  0
LINE
  8
0
  6
CONTINUOUS
 62
256
 10
-89.814247209212994
 20
-69.548421044361959
 11
-90.398752515458185
 21
-69.002398714463382
  0
LINE
  8
0
  6
CONTINUOUS
 62
256
 10
-89.379920584231911
 20
-70.171373426767360
 11
-89.814247209212994
 21
-69.548421044361959
  0
LINE
  8
0
  6
CONTINUOUS
 62
256
 10
-89.112463569139777
 20
-70.847316150979452
 11
-89.379920584231911
 21
-70.171373426767360
  0
LINE
  8
0
  6
CONTINUOUS
 62
256
 10
-89.022154387034959
 20
-71.550273117179813
 11
-89.112463569139777
 21
-70.847316150979452
  0
LINE
  8
0
  6
CONTINUOUS
 62
256
 10
-95.722154387035175
 20
-68.557897563179495
 11
-93.722154387035175
 21
-69.733683048802277
  0
LINE
  8
0
  6
CONTINUOUS
 62
256
 10
-93.722154387035175
 20
-69.733683048802277
 11
-91.722154387035175
 21
-71.386324687925708
  0
LINE
  8
0
  6
CONTINUOUS
 62
256
 10
-91.722154387035175
 20
-68.557897563179495
 11
-93.722154387035175
 21
-69.733683048802277
  0
LINE
  8
0
  6
CONTINUOUS
 62
256
 10
-93.722154387035175
 20
-69.733683048802277
 11
-95.722154387035175
 21
-71.386324687925708
  0
LINE
  8
0
  6
CONTINUOUS
 62
256
 10
-89.112463569139777
 20
-166.907891992075460
 11
-89.022154387034959
 21
-166.204935025875100
  0
LINE
  8
0
  6
CONTINUOUS
 62
256
 10
-89.379920584231911
 20
-167.583834716287560
 11
-89.112463569139777
 21
-166.907891992075460
  0
LINE
  8
0
  6
CONTINUOUS
 62
256
 10
-89.814247209212994
 20
-168.206787098692960
 11
-89.379920584231911
 21
-167.583834716287560
  0
LINE
  8
0
  6
CONTINUOUS
 62
256
 10
-90.398752515458185
 20
-168.752809428591550
 11
-89.814247209212994
 21
-168.206787098692960
  0
LINE
  8
0
  6
CONTINUOUS
 62
256
 10
-91.110974291842822
 20
-169.200918374058180
 11
-90.398752515458185
 21
-168.752809428591550
  0
LINE
  8
0
  6
CONTINUOUS
 62
256
 10
-91.923542254919028
 20
-169.533893359620920
 11
-91.110974291842822
 21
-169.200918374058180
  0
LINE
  8
0
  6
CONTINUOUS
 62
256
 10
-92.805229873559142
 20
-169.738938343319180
 11
-91.923542254919028
 21
-169.533893359620920
  0
LINE
  8
0
  6
CONTINUOUS
 62
256
 10
-93.722154387034948
 20
-169.808173561419950
 11
-92.805229873559142
 21
-169.738938343319180
  0
LINE
  8
0
  6
CONTINUOUS
 62
256
 10
-94.639078900510754
 20
-169.738938343319180
 11
-93.722154387034948
 21
-169.808173561419950
  0
LINE
  8
0
  6
CONTINUOUS
 62
256
 10
-95.520766519150868
 20
-169.533893359620920
 11
-94.639078900510754
 21
-169.738938343319180
  0
LINE
  8
0
  6
CONTINUOUS
 62
256
 10
-96.333334482227073
 20
-169.200918374058180
 11
-95.520766519150868
 21
-169.533893359620920
  0
LINE
  8
0
  6
CONTINUOUS
 62
256
 10
-97.045556258611711
 20
-168.752809428591550
 11
-96.333334482227073
 21
-169.200918374058180
  0
LINE
  8
0
  6
CONTINUOUS
 62
256
 10
-97.630061564856902
 20
-168.206787098692960
 11
-97.045556258611711
 21
-168.752809428591550
  0
LINE
  8
0
  6
CONTINUOUS
 62
256
 10
-98.064388189837985
 20
-167.583834716287560
 11
-97.630061564856902
 21
-168.206787098692960
  0
LINE
  8
0
  6
CONTINUOUS
 62
256
 10
-98.331845204930119
 20
-166.907891992075460
 11
-98.064388189837985
 21
-167.583834716287560
  0
LINE
  8
0
  6
CONTINUOUS
 62
256
 10
-98.422154387034936
 20
-166.204935025875100
 11
-98.331845204930119
 21
-166.907891992075460
  0
LINE
  8
0
  6
CONTINUOUS
 62
256
 10
-98.331845204930119
 20
-165.501978059674740
 11
-98.422154387034936
 21
-166.204935025875100
  0
LINE
  8
0
  6
CONTINUOUS
 62
256
 10
-98.064388189837985
 20
-164.826035335462650
 11
-98.331845204930119
 21
-165.501978059674740
  0
LINE
  8
0
  6
CONTINUOUS
 62
256
 10
-97.630061564856902
 20
-164.203082953057250
 11
-98.064388189837985
 21
-164.826035335462650
  0
LINE
  8
0
  6
CONTINUOUS
 62
256
 10
-97.045556258611711
 20
-163.657060623158660
 11
-97.630061564856902
 21
-164.203082953057250
  0
LINE
  8
0
  6
CONTINUOUS
 62
256
 10
-96.333334482227073
 20
-163.208951677692030
 11
-97.045556258611711
 21
-163.657060623158660
  0
LINE
  8
0
  6
CONTINUOUS
 62
256
 10
-95.520766519150868
 20
-162.875976692129290
 11
-96.333334482227073
 21
-163.208951677692030
  0
LINE
  8
0
  6
CONTINUOUS
 62
256
 10
-94.639078900510754
 20
-162.670931708431030
 11
-95.520766519150868
 21
-162.875976692129290
  0
LINE
  8
0
  6
CONTINUOUS
 62
256
 10
-93.722154387034948
 20
-162.601696490330260
 11
-94.639078900510754
 21
-162.670931708431030
  0
LINE
  8
0
  6
CONTINUOUS
 62
256
 10
-92.805229873559142
 20
-162.670931708431030
 11
-93.722154387034948
 21
-162.601696490330260
  0
LINE
  8
0
  6
CONTINUOUS
 62
256
 10
-91.923542254919028
 20
-162.875976692129290
 11
-92.805229873559142
 21
-162.670931708431030
  0
LINE
  8
0
  6
CONTINUOUS
 62
256
 10
-91.110974291842822
 20
-163.208951677692030
 11
-91.923542254919028
 21
-162.875976692129290
  0
LINE
  8
0
  6
CONTINUOUS
 62
256
 10
-90.398752515458185
 20
-163.657060623158660
 11
-91.110974291842822
 21
-163.208951677692030
  0
LINE
  8
0
  6
CONTINUOUS
 62
256
 10
-89.814247209212994
 20
-164.203082953057250
 11
-90.398752515458185
 21
-163.657060623158660
  0
LINE
  8
0
  6
CONTINUOUS
 62
256
 10
-89.379920584231911
 20
-164.826035335462650
 11
-89.814247209212994
 21
-164.203082953057250
  0
LINE
  8
0
  6
CONTINUOUS
 62
256
 10
-89.112463569139777
 20
-165.501978059674740
 11
-89.379920584231911
 21
-164.826035335462650
  0
LINE
  8
0
  6
CONTINUOUS
 62
256
 10
-89.022154387034959
 20
-166.204935025875100
 11
-89.112463569139777
 21
-165.501978059674740
  0
LINE
  8
0
  6
CONTINUOUS
 62
256
 10
-95.722154387035175
 20
-169.197310579875420
 11
-93.722154387035175
 21
-168.021525094252640
  0
LINE
  8
0
  6
CONTINUOUS
 62
256
 10
-93.722154387035175
 20
-168.021525094252640
 11
-91.722154387035175
 21
-166.368883455129210
  0
LINE
  8
0
  6
CONTINUOUS
 62
256
 10
-91.722154387035175
 20
-169.197310579875420
 11
-93.722154387035175
 21
-168.021525094252640
  0
LINE
  8
0
  6
CONTINUOUS
 62
256
 10
-93.722154387035175
 20
-168.021525094252640
 11
-95.722154387035175
 21
-166.368883455129210
  0
LINE
  8
0
  6
CONTINUOUS
 62
256
 10
-82.722154387035175
 20
-64.877604071527230
 11
-160.226999336127960
 21
-64.877604071527230
  0
LINE
  8
0
  6
CONTINUOUS
 62
256
 10
-82.722154387035175
 20
-64.877604071527230
 11
-82.722154387035175
 21
-77.877604071527458
  0
LINE
  8
0
  6
CONTINUOUS
 62
256
 10
-82.722154387035175
 20
-172.877604071527680
 11
-82.722154387035175
 21
-159.877604071527460
  0
LINE
  8
0
  6
CONTINUOUS
 62
256
 10
-82.722154387035175
 20
-172.877604071527680
 11
-160.226999336127960
 21
-172.877604071527680
  0
LINE
  8
0
  6
DASHDOT
 62
256
 10
100.747387003798490
 20
-118.877604071527440
 11
-198.040444229739360
 21
-118.877604071527440
  0
LINE
  8
0
  6
CONTINUOUS
 62
256
 10
57.777845612985971
 20
-66.377604071527458
 11
-82.722154387035175
 21
-66.377604071527458
  0
LINE
  8
0
  6
CONTINUOUS
 62
256
 10
-82.722154387035175
 20
-68.377604071527458
 11
57.777845612985971
 21
-68.377604071527458
  0
LINE
  8
0
  6
CONTINUOUS
 62
256
 10
-82.722154387035175
 20
-67.877604071527230
 11
57.777845612985971
 21
-67.877604071527230
  0
LINE
  8
0
  6
CONTINUOUS
 62
256
 10
-82.722154387035175
 20
-72.744521476644650
 11
57.777845612985971
 21
-72.744521476644650
  0
LINE
  8
0
  6
CONTINUOUS
 62
256
 10
-82.722154387035175
 20
-74.372948544422570
 11
57.777845612985971
 21
-74.372948544422570
  0
LINE
  8
0
  6
CONTINUOUS
 62
256
 10
-82.722154387035175
 20
-77.835690301187697
 11
57.777845612985971
 21
-77.835690301187697
  0
LINE
  8
0
  6
CONTINUOUS
 62
256
 10
-82.879754733406457
 20
-78.837168665002991
 11
57.777845612985971
 21
-78.837168665002991
  0
LINE
  8
0
  6
CONTINUOUS
 62
256
 10
-0.522154387013529
 20
-90.121208520890377
 11
57.777845612985971
 21
-90.121208520890377
  0
LINE
  8
0
  6
CONTINUOUS
 62
256
 10
-0.522154387013529
 20
-91.600231674367478
 11
57.777845612985971
 21
-91.600231674367478
  0
LINE
  8
0
  6
CONTINUOUS
 62
256
 10
-0.522154387013529
 20
-94.692962666032827
 11
57.777845612985971
 21
-94.692962666032827
  0
LINE
  8
0
  6
CONTINUOUS
 62
256
 10
-0.522154387013529
 20
-96.039364391531308
 11
57.777845612985971
 21
-96.039364391531308
  0
LINE
  8
0
  6
CONTINUOUS
 62
256
 10
-0.522154387013529
 20
-98.877604071527458
 11
57.777845612985971
 21
-98.877604071527458
  0
LINE
  8
0
  6
CONTINUOUS
 62
256
 10
-0.522154387013529
 20
-87.163212912757444
 11
57.777845612985971
 21
-87.163212912757444
  0
LINE
  8
0
  6
CONTINUOUS
 62
256
 10
-0.522154387013529
 20
-85.574003120018688
 11
57.777845612985971
 21
-85.574003120018688
  0
LINE
  8
0
  6
CONTINUOUS
 62
256
 10
-82.722154387035175
 20
-159.919517841866990
 11
57.777845612985971
 21
-159.919517841866990
  0
LINE
  8
0
  6
CONTINUOUS
 62
256
 10
-82.879754733406457
 20
-158.918039478051700
 11
57.777845612985971
 21
-158.918039478051700
  0
LINE
  8
0
  6
CONTINUOUS
 62
256
 10
-0.522154387013529
 20
-147.633999622164540
 11
57.777845612985971
 21
-147.633999622164540
  0
LINE
  8
0
  6
CONTINUOUS
 62
256
 10
-0.522154387013529
 20
-146.154976468687440
 11
57.777845612985971
 21
-146.154976468687440
  0
LINE
  8
0
  6
CONTINUOUS
 62
256
 10
-0.522154387013529
 20
-143.062245477022090
 11
57.777845612985971
 21
-143.062245477022090
  0
LINE
  8
0
  6
CONTINUOUS
 62
256
 10
-0.522154387013529
 20
-141.715843751523610
 11
57.777845612985971
 21
-141.715843751523610
  0
LINE
  8
0
  6
CONTINUOUS
 62
256
 10
-0.522154387013529
 20
-138.877604071527460
 11
57.777845612985971
 21
-138.877604071527460
  0
LINE
  8
0
  6
CONTINUOUS
 62
256
 10
-0.522154387013529
 20
-150.591995230297470
 11
57.777845612985971
 21
-150.591995230297470
  0
LINE
  8
0
  6
CONTINUOUS
 62
256
 10
-0.522154387013529
 20
-152.181205023036230
 11
57.777845612985971
 21
-152.181205023036230
  0
LINE
  8
0
  6
CONTINUOUS
 62
256
 10
-82.722154387035175
 20
-163.382259598632340
 11
57.777845612986425
 21
-163.382259598632340
  0
LINE
  8
0
  6
CONTINUOUS
 62
256
 10
-82.722154387035175
 20
-165.010686666410270
 11
57.777845612986425
 21
-165.010686666410270
  0
LINE
  8
0
  6
CONTINUOUS
 62
256
 10
-82.722154387035175
 20
-169.377604071527460
 11
57.777845612986482
 21
-169.377604071527460
  0
LINE
  8
0
  6
CONTINUOUS
 62
256
 10
-82.722154387035175
 20
-169.877604071527680
 11
57.777845612986482
 21
-169.877604071527680
  0
LINE
  8
0
  6
CONTINUOUS
 62
256
 10
57.777845612986539
 20
-171.377604071527460
 11
-82.722154387035175
 21
-171.377604071527460
  0
ARC
  8
0
  6
CONTINUOUS
 62
256
 10
382.476562212885940
 20
-132.920104071527480
 40
20.800000000000008
 50
250.917875196397260
 51
265.808273843992540
  0
ARC
  8
0
  6
CONTINUOUS
 62
256
 10
380.476562212885940
 20
-92.920104071527476
 40
18.799999999999983
 50
100.598785266066060
 51
104.792497041401380
  0
ARC
  8
0
  6
CONTINUOUS
 62
256
 10
376.650807578799000
 20
-72.474967694389761
 40
1.999999999999958
 50
280.598785266065990
 51
2.862405226112642
  0
ARC
  8
0
  6
CONTINUOUS
 62
256
 10
382.243820676514820
 20
-72.195317039503948
 40
1.999999999999927
 50
182.862405226112710
 51
265.126025186159040
  0
LINE
  8
0
  6
CONTINUOUS
 62
256
 10
378.978433704569170
 20
-62.957533905192236
 11
384.072070632846130
 21
-164.830272470732330
  0
ARC
  8
0
  6
CONTINUOUS
 62
256
 10
380.476562212885940
 20
-92.920104071527476
 40
18.799999999999933
 50
35.808626813495742
 51
85.126025186157236
  0
LINE
  8
0
  6
CONTINUOUS
 62
256
 10
379.777435575671460
 20
-62.917583811637087
 11
378.179431833466880
 21
-62.997483998747271
  0
ARC
  8
0
  6
CONTINUOUS
 62
256
 10
373.635109072565910
 20
-68.230946235417377
 40
8.999999999999949
 50
346.260856815786500
 51
19.463936333592169
  0
POINT
  8
0
  6
CONTINUOUS
 62
256
 10
380.027123660390320
 20
-67.911345506026123
  0
LINE
  8
0
  6
CONTINUOUS
 62
256
 10
379.852342001086750
 20
-64.415712319953741
 11
380.201905319693880
 21
-71.406978692098619
  0
LINE
  8
0
  6
CONTINUOUS
 62
256
 10
379.852342001086750
 20
-64.415712319953741
 11
380.201905319693880
 21
-71.406978692098619
  0
LINE
  8
0
  6
CONTINUOUS
 62
256
 10
380.201905319693880
 20
-71.406978692098619
 11
381.179709132201650
 21
-71.358088501473276
  0
LINE
  8
0
  6
CONTINUOUS
 62
256
 10
379.852342001086750
 20
-64.415712319953741
 11
380.830145813594300
 21
-64.366822129328398
  0
ARC
  8
0
  6
CONTINUOUS
 62
256
 10
381.114790268273960
 20
-70.059711222919645
 40
1.299999237060550
 50
272.862387240019760
 51
346.260856815788600
  0
ARC
  8
0
  6
CONTINUOUS
 62
256
 10
380.895064677521990
 20
-65.665199407881914
 40
1.299999237060645
 50
19.463936333587128
 51
92.862405909347800
  0
LINE
  8
0
  6
CONTINUOUS
 62
256
 10
379.777435575671460
 20
-62.917583811637087
 11
384.871072503948430
 21
-164.790322377177060
  0
LINE
  8
0
  6
CONTINUOUS
 62
256
 10
378.179431833466880
 20
-62.997483998747271
 11
383.273068761743840
 21
-164.870222564288040
  0
LINE
  8
0
  6
CONTINUOUS
 62
256
 10
403.172821564506880
 20
-130.845291103946470
 11
399.182796626850860
 21
-91.044792350829198
  0
ARC
  8
0
  6
CONTINUOUS
 62
256
 10
380.476562212885940
 20
-92.920104071527476
 40
18.799999999999837
 50
5.724810452223617
 51
35.808626813495707
  0
ARC
  8
0
  6
CONTINUOUS
 62
256
 10
382.476562212885940
 20
-132.920104071527480
 40
20.799999999999915
 50
334.359929784105190
 51
5.724810452223412
  0
ARC
  8
0
  6
CONTINUOUS
 62
256
 10
382.476562212885940
 20
-132.920104071527480
 40
20.800000000000040
 50
279.916536608230560
 51
334.359929784105190
  0
ARC
  8
0
  6
CONTINUOUS
 62
256
 10
382.476562212885940
 20
-132.920104071527480
 40
20.799999999999915
 50
334.359929784105190
 51
5.724810452223412
  0
ARC
  8
0
  6
CONTINUOUS
 62
256
 10
380.810014946502410
 20
-155.659115048456780
 40
1.999999999999927
 50
2.862405226112724
 51
85.808273843998279
  0
ARC
  8
0
  6
CONTINUOUS
 62
256
 10
386.403028044218220
 20
-155.379464393570970
 40
1.999999999999995
 50
99.916536608232732
 51
182.862405226112630
  0
LINE
  8
0
  6
CONTINUOUS
 62
256
 10
383.273068761743840
 20
-164.870222564288040
 11
384.871072503948430
 21
-164.790322377177060
  0
INSERT
  8
0
  2
ZU_SYM_1
 10
384.621384419229340
 20
-159.796560682787910
 41
-1.000000000000000
 42
1.000000000000000
 43
1.000000000000000
 50
2.862405226113666
  0
ARC
  8
0
  6
CONTINUOUS
 62
256
 10
232.676562212885530
 20
-157.235468447796880
 40
2.000000000000338
 50
135.000000000000000
 51
180.000000000000000
  0
CIRCLE
  8
0
  6
DASHED
 62
256
 10
-78.522154387016712
 20
32.320537849012908
 40
6.000000000000000
  0
ARC
  8
0
  6
DASHED
 62
256
 10
-78.522154387016712
 20
32.320537849012908
 40
7.000000000000000
 50
180.000000000000000
 51
0.000000000000000
  0
LINE
  8
0
  6
DASHED
 62
256
 10
-71.522154387016712
 20
52.320537849012908
 11
-71.522154387016712
 21
32.320537849012908
  0
LINE
  8
0
  6
DASHED
 62
256
 10
-85.522154387016712
 20
52.320537849012908
 11
-85.522154387016712
 21
32.320537849012908
  0
LINE
  8
0
  6
DASHDOT
 62
256
 10
-78.522154387016712
 20
23.320537849012908
 11
-78.522154387016712
 21
50.322137171562645
  0
LINE
  8
0
  6
DASHDOT
 62
256
 10
-69.522154387016712
 20
32.320537849012908
 11
-87.522154387016712
 21
32.320537849012908
  0
LINE
  8
0
  6
DASHDOT
 62
256
 10
187.530146980435460
 20
109.820537849012890
 11
-199.580842689467540
 21
109.820537849012890
  0
ARC
  8
0
  6
CONTINUOUS
 62
256
 10
-77.222154387016758
 20
173.320537849012910
 40
5.000000000000000
 50
180.000000000000000
 51
270.000000000000000
  0
LINE
  8
0
  6
CONTINUOUS
 62
256
 10
-82.222154387016758
 20
163.320537849012910
 11
-82.222154387016758
 21
168.320537849012910
  0
LINE
  8
0
  6
DASHDOT
 62
256
 10
41.777845612983242
 20
163.320537849012910
 11
41.777845612983242
 21
168.320537849012910
  0
LINE
  8
0
  6
DASHDOT
 62
256
 10
41.777845612983242
 20
163.320537849012910
 11
41.777845612983242
 21
168.320537849012910
  0
ARC
  8
0
  6
CONTINUOUS
 62
256
 10
36.777845612983242
 20
173.320537849012910
 40
5.000000000000000
 50
270.000000000000000
 51
0.000000000000000
  0
LINE
  8
0
  6
CONTINUOUS
 62
256
 10
-82.222154387016758
 20
168.320537849012910
 11
41.777845612983242
 21
168.320537849012910
  0
LINE
  8
0
  6
CONTINUOUS
 62
256
 10
31.277845612983242
 20
186.981562908699740
 11
-71.722154387016758
 21
186.981562908699740
  0
ARC
  8
0
  6
CONTINUOUS
 62
256
 10
36.777845612983242
 20
191.981562908699740
 40
5.000000000000074
 50
287.457603123721870
 51
0.000000000000000
  0
ARC
  8
0
  6
CONTINUOUS
 62
256
 10
36.977845612983060
 20
187.658109034442080
 40
1.300000000000182
 50
0.000000000000000
 51
73.398450400977680
  0
ARC
  8
0
  6
CONTINUOUS
 62
256
 10
34.777845612983242
 20
180.279084708692610
 40
9.000000000000123
 50
73.398450400980863
 51
106.601549599019150
  0
ARC
  8
0
  6
CONTINUOUS
 62
256
 10
32.577845612983424
 20
187.658109034442080
 40
1.300000000000019
 50
106.601549599022380
 51
180.000000000000000
  0
LINE
  8
0
  6
CONTINUOUS
 62
256
 10
38.277845612983242
 20
187.658109034442080
 11
38.277845612983242
 21
186.671099296517700
  0
LINE
  8
0
  6
CONTINUOUS
 62
256
 10
38.210594094394544
 20
186.637001086321700
 11
38.277845612983242
 21
186.671099296517700
  0
LINE
  8
0
  6
CONTINUOUS
 62
256
 10
38.011423976772747
 20
186.604213251221070
 11
38.210594094394544
 21
186.637001086321700
  0
LINE
  8
0
  6
CONTINUOUS
 62
256
 10
37.687989256042151
 20
186.573995809331050
 11
38.011423976772747
 21
186.604213251221070
  0
LINE
  8
0
  6
CONTINUOUS
 62
256
 10
37.252719347136157
 20
186.547509999997350
 11
37.687989256042151
 21
186.573995809331050
  0
LINE
  8
0
  6
CONTINUOUS
 62
256
 10
36.722341428551850
 20
186.525773658019260
 11
37.252719347136157
 21
186.547509999997350
  0
LINE
  8
0
  6
CONTINUOUS
 62
256
 10
36.117237626261058
 20
186.509622098829080
 11
36.722341428551850
 21
186.525773658019260
  0
LINE
  8
0
  6
CONTINUOUS
 62
256
 10
35.460661740039690
 20
186.499676017788630
 11
36.117237626261058
 21
186.509622098829080
  0
LINE
  8
0
  6
CONTINUOUS
 62
256
 10
34.777845612983242
 20
186.496317637214470
 11
35.460661740039690
 21
186.499676017788630
  0
LINE
  8
0
  6
CONTINUOUS
 62
256
 10
34.095029485926794
 20
186.499676017788630
 11
34.777845612983242
 21
186.496317637214470
  0
LINE
  8
0
  6
CONTINUOUS
 62
256
 10
33.438453599705426
 20
186.509622098829080
 11
34.095029485926794
 21
186.499676017788630
  0
LINE
  8
0
  6
CONTINUOUS
 62
256
 10
32.833349797414634
 20
186.525773658019260
 11
33.438453599705426
 21
186.509622098829080
  0
LINE
  8
0
  6
CONTINUOUS
 62
256
 10
32.302971878830327
 20
186.547509999997350
 11
32.833349797414634
 21
186.525773658019260
  0
LINE
  8
0
  6
CONTINUOUS
 62
256
 10
31.867701969924333
 20
186.573995809331050
 11
32.302971878830327
 21
186.547509999997350
  0
LINE
  8
0
  6
CONTINUOUS
 62
256
 10
31.544267249193737
 20
186.604213251221070
 11
31.867701969924333
 21
186.573995809331050
  0
LINE
  8
0
  6
CONTINUOUS
 62
256
 10
31.345097131571936
 20
186.637001086321700
 11
31.544267249193737
 21
186.604213251221070
  0
LINE
  8
0
  6
CONTINUOUS
 62
256
 10
31.277845612983242
 20
186.671099296517700
 11
31.345097131571936
 21
186.637001086321700
  0
LINE
  8
0
  6
CONTINUOUS
 62
256
 10
31.277845612983242
 20
187.658109034442080
 11
31.277845612983242
 21
186.671099296517700
  0
ARC
  8
0
  6
CONTINUOUS
 62
256
 10
-77.222154387016758
 20
191.981562908699740
 40
5.000000000000000
 50
180.000000000000000
 51
252.542396876278100
  0
LINE
  8
0
  6
CONTINUOUS
 62
256
 10
-78.722154387016758
 20
187.658109034442080
 11
-78.722154387016758
 21
186.671099296517700
  0
LINE
  8
0
  6
CONTINUOUS
 62
256
 10
-71.722154387016758
 20
187.658109034442080
 11
-71.722154387016758
 21
186.671099296517700
  0
ARC
  8
0
  6
CONTINUOUS
 62
256
 10
-77.422154387016576
 20
187.658109034442080
 40
1.300000000000019
 50
106.601549599022380
 51
180.000000000000000
  0
ARC
  8
0
  6
CONTINUOUS
 62
256
 10
-75.222154387016758
 20
180.279084708692610
 40
9.000000000000123
 50
73.398450400980863
 51
106.601549599019150
  0
ARC
  8
0
  6
CONTINUOUS
 62
256
 10
-73.022154387016940
 20
187.658109034442080
 40
1.300000000000182
 50
0.000000000000000
 51
73.398450400977964
  0
LINE
  8
0
  6
CONTINUOUS
 62
256
 10
-71.789405905605449
 20
186.637001086321700
 11
-71.722154387016758
 21
186.671099296517700
  0
LINE
  8
0
  6
CONTINUOUS
 62
256
 10
-71.988576023227253
 20
186.604213251221070
 11
-71.789405905605449
 21
186.637001086321700
  0
LINE
  8
0
  6
CONTINUOUS
 62
256
 10
-72.312010743957856
 20
186.573995809331050
 11
-71.988576023227253
 21
186.604213251221070
  0
LINE
  8
0
  6
CONTINUOUS
 62
256
 10
-72.747280652863850
 20
186.547509999997350
 11
-72.312010743957856
 21
186.573995809331050
  0
LINE
  8
0
  6
CONTINUOUS
 62
256
 10
-73.277658571448157
 20
186.525773658019260
 11
-72.747280652863850
 21
186.547509999997350
  0
LINE
  8
0
  6
CONTINUOUS
 62
256
 10
-73.882762373738942
 20
186.509622098829080
 11
-73.277658571448157
 21
186.525773658019260
  0
LINE
  8
0
  6
CONTINUOUS
 62
256
 10
-74.539338259960317
 20
186.499676017788630
 11
-73.882762373738942
 21
186.509622098829080
  0
LINE
  8
0
  6
CONTINUOUS
 62
256
 10
-75.222154387016758
 20
186.496317637214470
 11
-74.539338259960317
 21
186.499676017788630
  0
LINE
  8
0
  6
CONTINUOUS
 62
256
 10
-75.904970514073213
 20
186.499676017788630
 11
-75.222154387016758
 21
186.496317637214470
  0
LINE
  8
0
  6
CONTINUOUS
 62
256
 10
-76.561546400294574
 20
186.509622098829080
 11
-75.904970514073213
 21
186.499676017788630
  0
LINE
  8
0
  6
CONTINUOUS
 62
256
 10
-77.166650202585373
 20
186.525773658019260
 11
-76.561546400294574
 21
186.509622098829080
  0
LINE
  8
0
  6
CONTINUOUS
 62
256
 10
-77.697028121169680
 20
186.547509999997350
 11
-77.166650202585373
 21
186.525773658019260
  0
LINE
  8
0
  6
CONTINUOUS
 62
256
 10
-78.132298030075660
 20
186.573995809331050
 11
-77.697028121169680
 21
186.547509999997350
  0
LINE
  8
0
  6
CONTINUOUS
 62
256
 10
-78.455732750806263
 20
186.604213251221070
 11
-78.132298030075660
 21
186.573995809331050
  0
LINE
  8
0
  6
CONTINUOUS
 62
256
 10
-78.654902868428067
 20
186.637001086321700
 11
-78.455732750806263
 21
186.604213251221070
  0
LINE
  8
0
  6
CONTINUOUS
 62
256
 10
-78.722154387016758
 20
186.671099296517700
 11
-78.654902868428067
 21
186.637001086321700
  0
LINE
  8
0
  6
CONTINUOUS
 62
256
 10
41.777845612983242
 20
191.981562908699740
 11
41.777845612983242
 21
204.920537849012820
  0
LINE
  8
0
  6
CONTINUOUS
 62
256
 10
-82.222154387016758
 20
191.981562908699740
 11
-82.222154387016758
 21
204.920537849012820
  0
LINE
  8
0
  6
CONTINUOUS
 62
256
 10
-82.222154387016758
 20
191.515048140075120
 11
-83.222154387016758
 21
191.515048140075120
  0
LINE
  8
0
  6
CONTINUOUS
 62
256
 10
42.777845612983242
 20
186.421411211797930
 11
-83.222154387016758
 21
186.421411211797930
  0
ARC
  8
0
  6
CONTINUOUS
 62
256
 10
-77.222154387016758
 20
204.920537849012820
 40
5.000000000000000
 50
90.000000000000000
 51
180.000000000000000
  0
ARC
  8
0
  6
CONTINUOUS
 62
256
 10
-83.222154387016758
 20
189.515048140075120
 40
2.000000000000000
 50
90.000000000000000
 51
180.000000000000000
  0
ARC
  8
0
  6
CONTINUOUS
 62
256
 10
-83.222154387016758
 20
188.421411211797930
 40
2.000000000000000
 50
180.000000000000000
 51
270.000000000000000
  0
ARC
  8
0
  6
CONTINUOUS
 62
256
 10
-83.222154387016758
 20
187.622409340712690
 40
2.000000000000000
 50
180.000000000000000
 51
270.000000000000000
  0
LINE
  8
0
  6
CONTINUOUS
 62
256
 10
-85.222154387016758
 20
189.515048140075120
 11
-85.222154387016758
 21
186.823407469593800
  0
ARC
  8
0
  6
CONTINUOUS
 62
256
 10
-83.222154387016758
 20
186.823407469593800
 40
2.000000000000000
 50
180.000000000000000
 51
270.000000000000000
  0
LINE
  8
0
  6
CONTINUOUS
 62
256
 10
-82.222154387016758
 20
173.320537849012910
 11
-82.222154387016758
 21
184.823407469593800
  0
ARC
  8
0
  6
CONTINUOUS
 62
256
 10
36.777845612983242
 20
204.920537849012820
 40
5.000000000000000
 50
0.000000000000000
 51
90.000000000000000
  0
LINE
  8
0
  6
CONTINUOUS
 62
256
 10
-77.222154387016758
 20
209.920537849012820
 11
36.777845612983242
 21
209.920537849012820
  0
LINE
  8
0
  6
CONTINUOUS
 62
256
 10
41.777845612983242
 20
173.320537849012910
 11
41.777845612983242
 21
184.622409340712690
  0
LINE
  8
0
  6
CONTINUOUS
 62
256
 10
44.777845612983242
 20
189.515048140075120
 11
44.777845612983242
 21
186.823407469593800
  0
LINE
  8
0
  6
CONTINUOUS
 62
256
 10
42.777845612983242
 20
185.622409340695870
 11
-83.222154387016758
 21
185.622409340695870
  0
LINE
  8
0
  6
CONTINUOUS
 62
256
 10
42.777845612983242
 20
184.823407469593800
 11
-83.222154387016758
 21
184.823407469593800
  0
LINE
  8
0
  6
CONTINUOUS
 62
256
 10
41.777845612983242
 20
191.515048140075120
 11
42.777845612983242
 21
191.515048140075120
  0
ARC
  8
0
  6
CONTINUOUS
 62
256
 10
42.777845612983242
 20
189.515048140075120
 40
2.000000000000000
 50
0.000000000000000
 51
90.000000000000000
  0
ARC
  8
0
  6
CONTINUOUS
 62
256
 10
42.777845612983242
 20
188.421411211797930
 40
2.000000000000000
 50
270.000000000000000
 51
0.000000000000000
  0
ARC
  8
0
  6
CONTINUOUS
 62
256
 10
42.777845612983242
 20
187.622409340712690
 40
2.000000000000000
 50
270.000000000000000
 51
0.000000000000000
  0
ARC
  8
0
  6
CONTINUOUS
 62
256
 10
42.777845612983242
 20
186.823407469593800
 40
2.000000000000000
 50
270.000000000000000
 51
0.000000000000000
  0
ARC
  8
0
  6
CONTINUOUS
 62
256
 10
-160.226999336130690
 20
71.420537849012931
 40
20.599999999999891
 50
235.000000000000400
 51
270.000000000000000
  0
ARC
  8
0
  6
CONTINUOUS
 62
256
 10
-178.122154387037990
 20
61.976917715383593
 40
2.599999999999909
 50
180.000000000000000
 51
234.999999999998520
  0
LINE
  8
0
  6
CONTINUOUS
 62
256
 10
-172.042673924962060
 20
54.546005736659708
 11
-179.613453121550830
 21
59.847122400232251
  0
LINE
  8
0
  6
CONTINUOUS
 62
256
 10
-180.722154387037900
 20
61.976917715383593
 11
-180.722154387037900
 21
109.820537849012890
  0
LINE
  8
0
  6
CONTINUOUS
 62
256
 10
-0.522154387016712
 20
57.320537849012908
 11
-0.522154387016712
 21
19.320537849012908
  0
ARC
  8
0
  6
CONTINUOUS
 62
256
 10
-1.522154387016712
 20
19.320537849012908
 40
1.000000000000000
 50
270.000000000000000
 51
0.000000000000000
  0
LINE
  8
0
  6
CONTINUOUS
 62
256
 10
-89.522154387016712
 20
18.320537849012908
 11
-1.522154387016712
 21
18.320537849012908
  0
ARC
  8
0
  6
CONTINUOUS
 62
256
 10
-89.522154387016712
 20
19.320537849012908
 40
1.000000000000000
 50
180.000000000000000
 51
270.000000000000000
  0
LINE
  8
0
  6
CONTINUOUS
 62
256
 10
-83.522154387016712
 20
17.820537849012908
 11
-75.522154387016712
 21
17.820537849012908
  0
LINE
  8
0
  6
CONTINUOUS
 62
256
 10
-15.522154387016712
 20
17.820537849012908
 11
-7.522154387016712
 21
17.820537849012908
  0
LINE
  8
0
  6
CONTINUOUS
 62
256
 10
-15.522154387016712
 20
18.320537849012908
 11
-15.522154387016712
 21
17.820537849012908
  0
LINE
  8
0
  6
CONTINUOUS
 62
256
 10
-7.522154387016712
 20
18.320537849012908
 11
-7.522154387016712
 21
17.820537849012908
  0
LINE
  8
0
  6
CONTINUOUS
 62
256
 10
-75.522154387016712
 20
18.320537849012908
 11
-75.522154387016712
 21
17.820537849012908
  0
LINE
  8
0
  6
CONTINUOUS
 62
256
 10
-83.522154387016712
 20
18.320537849012908
 11
-83.522154387016712
 21
17.820537849012908
  0
LINE
  8
0
  6
CONTINUOUS
 62
256
 10
-0.522154387016712
 20
57.320537849012908
 11
-82.722154387037904
 21
57.320537849012908
  0
LINE
  8
0
  6
CONTINUOUS
 62
256
 10
-89.112463569142506
 20
61.790249928465016
 11
-89.022154387037688
 21
62.493206894665377
  0
LINE
  8
0
  6
CONTINUOUS
 62
256
 10
-89.379920584234640
 20
61.114307204252924
 11
-89.112463569142506
 21
61.790249928465016
  0
LINE
  8
0
  6
CONTINUOUS
 62
256
 10
-89.814247209215722
 20
60.491354821847523
 11
-89.379920584234640
 21
61.114307204252924
  0
LINE
  8
0
  6
CONTINUOUS
 62
256
 10
-90.398752515460913
 20
59.945332491948946
 11
-89.814247209215722
 21
60.491354821847523
  0
LINE
  8
0
  6
CONTINUOUS
 62
256
 10
-91.110974291845551
 20
59.497223546482324
 11
-90.398752515460913
 21
59.945332491948946
  0
LINE
  8
0
  6
CONTINUOUS
 62
256
 10
-91.923542254921756
 20
59.164248560919567
 11
-91.110974291845551
 21
59.497223546482324
  0
LINE
  8
0
  6
CONTINUOUS
 62
256
 10
-92.805229873561871
 20
58.959203577221317
 11
-91.923542254921756
 21
59.164248560919567
  0
LINE
  8
0
  6
CONTINUOUS
 62
256
 10
-93.722154387037676
 20
58.889968359120545
 11
-92.805229873561871
 21
58.959203577221317
  0
LINE
  8
0
  6
CONTINUOUS
 62
256
 10
-94.639078900513482
 20
58.959203577221317
 11
-93.722154387037676
 21
58.889968359120545
  0
LINE
  8
0
  6
CONTINUOUS
 62
256
 10
-95.520766519153597
 20
59.164248560919567
 11
-94.639078900513482
 21
58.959203577221317
  0
LINE
  8
0
  6
CONTINUOUS
 62
256
 10
-96.333334482229802
 20
59.497223546482324
 11
-95.520766519153597
 21
59.164248560919567
  0
LINE
  8
0
  6
CONTINUOUS
 62
256
 10
-97.045556258614440
 20
59.945332491948946
 11
-96.333334482229802
 21
59.497223546482324
  0
LINE
  8
0
  6
CONTINUOUS
 62
256
 10
-97.630061564859631
 20
60.491354821847523
 11
-97.045556258614440
 21
59.945332491948946
  0
LINE
  8
0
  6
CONTINUOUS
 62
256
 10
-98.064388189840713
 20
61.114307204252924
 11
-97.630061564859631
 21
60.491354821847523
  0
LINE
  8
0
  6
CONTINUOUS
 62
256
 10
-98.331845204932847
 20
61.790249928465016
 11
-98.064388189840713
 21
61.114307204252924
  0
LINE
  8
0
  6
CONTINUOUS
 62
256
 10
-98.422154387037665
 20
62.493206894665377
 11
-98.331845204932847
 21
61.790249928465016
  0
LINE
  8
0
  6
CONTINUOUS
 62
256
 10
-98.331845204932847
 20
63.196163860865738
 11
-98.422154387037665
 21
62.493206894665377
  0
LINE
  8
0
  6
CONTINUOUS
 62
256
 10
-98.064388189840713
 20
63.872106585077830
 11
-98.331845204932847
 21
63.196163860865738
  0
LINE
  8
0
  6
CONTINUOUS
 62
256
 10
-97.630061564859631
 20
64.495058967483232
 11
-98.064388189840713
 21
63.872106585077830
  0
LINE
  8
0
  6
CONTINUOUS
 62
256
 10
-97.045556258614440
 20
65.041081297381808
 11
-97.630061564859631
 21
64.495058967483232
  0
LINE
  8
0
  6
CONTINUOUS
 62
256
 10
-96.333334482229802
 20
65.489190242848423
 11
-97.045556258614440
 21
65.041081297381808
  0
LINE
  8
0
  6
CONTINUOUS
 62
256
 10
-95.520766519153597
 20
65.822165228411194
 11
-96.333334482229802
 21
65.489190242848423
  0
LINE
  8
0
  6
CONTINUOUS
 62
256
 10
-94.639078900513482
 20
66.027210212109438
 11
-95.520766519153597
 21
65.822165228411194
  0
LINE
  8
0
  6
CONTINUOUS
 62
256
 10
-93.722154387037676
 20
66.096445430210210
 11
-94.639078900513482
 21
66.027210212109438
  0
LINE
  8
0
  6
CONTINUOUS
 62
256
 10
-92.805229873561871
 20
66.027210212109438
 11
-93.722154387037676
 21
66.096445430210210
  0
LINE
  8
0
  6
CONTINUOUS
 62
256
 10
-91.923542254921756
 20
65.822165228411194
 11
-92.805229873561871
 21
66.027210212109438
  0
LINE
  8
0
  6
CONTINUOUS
 62
256
 10
-91.110974291845551
 20
65.489190242848423
 11
-91.923542254921756
 21
65.822165228411194
  0
LINE
  8
0
  6
CONTINUOUS
 62
256
 10
-90.398752515460913
 20
65.041081297381808
 11
-91.110974291845551
 21
65.489190242848423
  0
LINE
  8
0
  6
CONTINUOUS
 62
256
 10
-89.814247209215722
 20
64.495058967483232
 11
-90.398752515460913
 21
65.041081297381808
  0
LINE
  8
0
  6
CONTINUOUS
 62
256
 10
-89.379920584234640
 20
63.872106585077830
 11
-89.814247209215722
 21
64.495058967483232
  0
LINE
  8
0
  6
CONTINUOUS
 62
256
 10
-89.112463569142506
 20
63.196163860865738
 11
-89.379920584234640
 21
63.872106585077830
  0
LINE
  8
0
  6
CONTINUOUS
 62
256
 10
-89.022154387037688
 20
62.493206894665377
 11
-89.112463569142506
 21
63.196163860865738
  0
LINE
  8
0
  6
CONTINUOUS
 62
256
 10
-95.722154387037904
 20
59.500831340664945
 11
-93.722154387037904
 21
60.676616826287841
  0
LINE
  8
0
  6
CONTINUOUS
 62
256
 10
-93.722154387037904
 20
60.676616826287841
 11
-91.722154387037904
 21
62.329258465411158
  0
LINE
  8
0
  6
CONTINUOUS
 62
256
 10
-91.722154387037904
 20
59.500831340664945
 11
-93.722154387037904
 21
60.676616826287841
  0
LINE
  8
0
  6
CONTINUOUS
 62
256
 10
-93.722154387037904
 20
60.676616826287841
 11
-95.722154387037904
 21
62.329258465411158
  0
LINE
  8
0
  6
CONTINUOUS
 62
256
 10
-82.722154387037904
 20
58.480841488203851
 11
-82.722154387037676
 21
109.820537849012890
  0
ARC
  8
0
  6
CONTINUOUS
 62
256
 10
-85.722154387037904
 20
58.480841488203964
 40
3.000000000000000
 50
270.000000000000000
 51
359.999999999997780
  0
LINE
  8
0
  6
CONTINUOUS
 62
256
 10
-89.722154387037904
 20
55.480841488203964
 11
-85.722154387037904
 21
55.480841488203964
  0
ARC
  8
0
  6
CONTINUOUS
 62
256
 10
-89.722154387037904
 20
52.480841488203964
 40
3.000000000000000
 50
90.000000000000000
 51
180.000000000000000
  0
LINE
  8
0
  6
CONTINUOUS
 62
256
 10
-92.722154387037904
 20
50.820537849012908
 11
-160.226999336130690
 21
50.820537849012908
  0
LINE
  8
0
  6
CONTINUOUS
 62
256
 10
-92.722154387037904
 20
50.820537849012908
 11
-92.722154387037904
 21
52.480841488203964
  0
LINE
  8
0
  6
CONTINUOUS
 62
256
 10
-90.522154387016712
 20
55.372207947169954
 11
-90.522154387016712
 21
19.320537849012908
  0
LINE
  8
0
  6
CONTINUOUS
 62
256
 10
-90.522154387016712
 20
52.320537849012908
 11
-0.522154387016712
 21
52.320537849012908
  0
LINE
  8
0
  6
CONTINUOUS
 62
256
 10
-89.112463569142506
 20
156.444911837160080
 11
-89.022154387037688
 21
157.147868803360440
  0
LINE
  8
0
  6
CONTINUOUS
 62
256
 10
-89.379920584234640
 20
155.768969112947990
 11
-89.112463569142506
 21
156.444911837160080
  0
LINE
  8
0
  6
CONTINUOUS
 62
256
 10
-89.814247209215722
 20
155.146016730542580
 11
-89.379920584234640
 21
155.768969112947990
  0
LINE
  8
0
  6
CONTINUOUS
 62
256
 10
-90.398752515460913
 20
154.599994400643990
 11
-89.814247209215722
 21
155.146016730542580
  0
LINE
  8
0
  6
CONTINUOUS
 62
256
 10
-91.110974291845551
 20
154.151885455177360
 11
-90.398752515460913
 21
154.599994400643990
  0
LINE
  8
0
  6
CONTINUOUS
 62
256
 10
-91.923542254921756
 20
153.818910469614620
 11
-91.110974291845551
 21
154.151885455177360
  0
LINE
  8
0
  6
CONTINUOUS
 62
256
 10
-92.805229873561871
 20
153.613865485916360
 11
-91.923542254921756
 21
153.818910469614620
  0
LINE
  8
0
  6
CONTINUOUS
 62
256
 10
-93.722154387037676
 20
153.544630267815590
 11
-92.805229873561871
 21
153.613865485916360
  0
LINE
  8
0
  6
CONTINUOUS
 62
256
 10
-94.639078900513482
 20
153.613865485916360
 11
-93.722154387037676
 21
153.544630267815590
  0
LINE
  8
0
  6
CONTINUOUS
 62
256
 10
-95.520766519153597
 20
153.818910469614620
 11
-94.639078900513482
 21
153.613865485916360
  0
LINE
  8
0
  6
CONTINUOUS
 62
256
 10
-96.333334482229802
 20
154.151885455177360
 11
-95.520766519153597
 21
153.818910469614620
  0
LINE
  8
0
  6
CONTINUOUS
 62
256
 10
-97.045556258614440
 20
154.599994400643990
 11
-96.333334482229802
 21
154.151885455177360
  0
LINE
  8
0
  6
CONTINUOUS
 62
256
 10
-97.630061564859631
 20
155.146016730542580
 11
-97.045556258614440
 21
154.599994400643990
  0
LINE
  8
0
  6
CONTINUOUS
 62
256
 10
-98.064388189840713
 20
155.768969112947990
 11
-97.630061564859631
 21
155.146016730542580
  0
LINE
  8
0
  6
CONTINUOUS
 62
256
 10
-98.331845204932847
 20
156.444911837160080
 11
-98.064388189840713
 21
155.768969112947990
  0
LINE
  8
0
  6
CONTINUOUS
 62
256
 10
-98.422154387037665
 20
157.147868803360440
 11
-98.331845204932847
 21
156.444911837160080
  0
LINE
  8
0
  6
CONTINUOUS
 62
256
 10
-98.331845204932847
 20
157.850825769560800
 11
-98.422154387037665
 21
157.147868803360440
  0
LINE
  8
0
  6
CONTINUOUS
 62
256
 10
-98.064388189840713
 20
158.526768493772890
 11
-98.331845204932847
 21
157.850825769560800
  0
LINE
  8
0
  6
CONTINUOUS
 62
256
 10
-97.630061564859631
 20
159.149720876178290
 11
-98.064388189840713
 21
158.526768493772890
  0
LINE
  8
0
  6
CONTINUOUS
 62
256
 10
-97.045556258614440
 20
159.695743206076880
 11
-97.630061564859631
 21
159.149720876178290
  0
LINE
  8
0
  6
CONTINUOUS
 62
256
 10
-96.333334482229802
 20
160.143852151543510
 11
-97.045556258614440
 21
159.695743206076880
  0
LINE
  8
0
  6
CONTINUOUS
 62
256
 10
-95.520766519153597
 20
160.476827137106260
 11
-96.333334482229802
 21
160.143852151543510
  0
LINE
  8
0
  6
CONTINUOUS
 62
256
 10
-94.639078900513482
 20
160.681872120804510
 11
-95.520766519153597
 21
160.476827137106260
  0
LINE
  8
0
  6
CONTINUOUS
 62
256
 10
-93.722154387037676
 20
160.751107338905290
 11
-94.639078900513482
 21
160.681872120804510
  0
LINE
  8
0
  6
CONTINUOUS
 62
256
 10
-92.805229873561871
 20
160.681872120804510
 11
-93.722154387037676
 21
160.751107338905290
  0
LINE
  8
0
  6
CONTINUOUS
 62
256
 10
-91.923542254921756
 20
160.476827137106260
 11
-92.805229873561871
 21
160.681872120804510
  0
LINE
  8
0
  6
CONTINUOUS
 62
256
 10
-91.110974291845551
 20
160.143852151543510
 11
-91.923542254921756
 21
160.476827137106260
  0
LINE
  8
0
  6
CONTINUOUS
 62
256
 10
-90.398752515460913
 20
159.695743206076880
 11
-91.110974291845551
 21
160.143852151543510
  0
LINE
  8
0
  6
CONTINUOUS
 62
256
 10
-89.814247209215722
 20
159.149720876178290
 11
-90.398752515460913
 21
159.695743206076880
  0
LINE
  8
0
  6
CONTINUOUS
 62
256
 10
-89.379920584234640
 20
158.526768493772890
 11
-89.814247209215722
 21
159.149720876178290
  0
LINE
  8
0
  6
CONTINUOUS
 62
256
 10
-89.112463569142506
 20
157.850825769560800
 11
-89.379920584234640
 21
158.526768493772890
  0
LINE
  8
0
  6
CONTINUOUS
 62
256
 10
-89.022154387037688
 20
157.147868803360440
 11
-89.112463569142506
 21
157.850825769560800
  0
LINE
  8
0
  6
CONTINUOUS
 62
256
 10
-95.722154387037904
 20
160.140244357360870
 11
-93.722154387037904
 21
158.964458871738090
  0
LINE
  8
0
  6
CONTINUOUS
 62
256
 10
-93.722154387037904
 20
158.964458871738090
 11
-91.722154387037904
 21
157.311817232614660
  0
LINE
  8
0
  6
CONTINUOUS
 62
256
 10
-91.722154387037904
 20
160.140244357360870
 11
-93.722154387037904
 21
158.964458871738090
  0
LINE
  8
0
  6
CONTINUOUS
 62
256
 10
-93.722154387037904
 20
158.964458871738090
 11
-95.722154387037904
 21
157.311817232614660
  0
LINE
  8
0
  6
CONTINUOUS
 62
256
 10
-82.722154387037904
 20
168.820537849012910
 11
-82.722154387037676
 21
109.820537849012890
  0
ARC
  8
0
  6
CONTINUOUS
 62
256
 10
-160.226999336130690
 20
148.220537849012890
 40
20.600000000000023
 50
90.000000000000000
 51
124.999999999999630
  0
ARC
  8
0
  6
CONTINUOUS
 62
256
 10
-178.122154387037990
 20
157.664157982642220
 40
2.600000000000131
 50
125.000000000001180
 51
180.000000000000000
  0
LINE
  8
0
  6
CONTINUOUS
 62
256
 10
-180.722154387037900
 20
157.664157982642220
 11
-180.722154387037900
 21
109.820537849012890
  0
LINE
  8
0
  6
CONTINUOUS
 62
256
 10
-172.042673924962060
 20
165.095069961366110
 11
-179.613453121550830
 21
159.793953297793560
  0
LINE
  8
0
  6
CONTINUOUS
 62
256
 10
-82.722154387037904
 20
168.820537849012910
 11
-160.226999336130690
 21
168.820537849012910
  0
LINE
  8
0
  6
CONTINUOUS
 62
256
 10
57.777845612983242
 20
163.320537849012910
 11
-82.722154387037904
 21
163.320537849012910
  0
LINE
  8
0
  6
CONTINUOUS
 62
256
 10
-82.722154387037904
 20
123.820537849012890
 11
75.277845612985971
 21
123.820537849012890
  0
LINE
  8
0
  6
CONTINUOUS
 62
256
 10
-82.722154387037904
 20
129.448572505650760
 11
75.277845612985971
 21
129.448572505650760
  0
LINE
  8
0
  6
CONTINUOUS
 62
256
 10
-82.722154387037904
 20
128.206652640762850
 11
75.277845612985971
 21
128.206652640762850
  0
LINE
  8
0
  6
CONTINUOUS
 62
256
 10
-82.722154387037904
 20
132.658777529009060
 11
75.277845612985971
 21
132.658777529009060
  0
LINE
  8
0
  6
CONTINUOUS
 62
256
 10
-82.722154387037904
 20
134.005179254507650
 11
75.277845612985971
 21
134.005179254507650
  0
LINE
  8
0
  6
CONTINUOUS
 62
256
 10
-82.722154387037904
 20
137.097910246172890
 11
75.277845612985971
 21
137.097910246172890
  0
LINE
  8
0
  6
CONTINUOUS
 62
256
 10
-82.722154387037904
 20
138.576933399649990
 11
75.277845612985971
 21
138.576933399649990
  0
LINE
  8
0
  6
CONTINUOUS
 62
256
 10
-82.722154387037904
 20
141.534929007782920
 11
75.277845612985971
 21
141.534929007782920
  0
LINE
  8
0
  6
CONTINUOUS
 62
256
 10
-82.722154387037904
 20
143.124138800521680
 11
75.277845612985971
 21
143.124138800521680
  0
LINE
  8
0
  6
CONTINUOUS
 62
256
 10
-82.722154387037904
 20
150.862451619352670
 11
75.277845612985971
 21
150.862451619352670
  0
LINE
  8
0
  6
CONTINUOUS
 62
256
 10
-82.722154387037904
 20
155.953620443895600
 11
75.277845612985971
 21
155.953620443895600
  0
LINE
  8
0
  6
CONTINUOUS
 62
256
 10
-82.722154387037904
 20
160.320537849012910
 11
75.277845612985971
 21
160.320537849012910
  0
LINE
  8
0
  6
CONTINUOUS
 62
256
 10
-82.722154387037904
 20
160.820537849012910
 11
75.277845612985971
 21
160.820537849012910
  0
LINE
  8
0
  6
CONTINUOUS
 62
256
 10
-82.722154387037904
 20
76.516936897504138
 11
75.277845612985971
 21
76.516936897504138
  0
LINE
  8
0
  6
CONTINUOUS
 62
256
 10
-82.722154387037904
 20
78.106146690242895
 11
75.277845612985971
 21
78.106146690242895
  0
LINE
  8
0
  6
CONTINUOUS
 62
256
 10
-82.722154387037904
 20
81.064142298375828
 11
75.277845612985971
 21
81.064142298375828
  0
LINE
  8
0
  6
CONTINUOUS
 62
256
 10
-82.722154387037904
 20
82.543165451852929
 11
75.277845612985971
 21
82.543165451852929
  0
LINE
  8
0
  6
CONTINUOUS
 62
256
 10
-82.722154387037904
 20
85.635896443518163
 11
75.277845612985971
 21
85.635896443518163
  0
LINE
  8
0
  6
CONTINUOUS
 62
256
 10
-82.722154387037676
 20
86.982298169016758
 11
75.277845612985971
 21
86.982298169016758
  0
LINE
  8
0
  6
CONTINUOUS
 62
256
 10
-82.722154387037676
 20
90.192503192375057
 11
75.277845612985971
 21
90.192503192375057
  0
LINE
  8
0
  6
CONTINUOUS
 62
256
 10
-82.722154387037676
 20
91.434423057262961
 11
75.277845612985971
 21
91.434423057262961
  0
LINE
  8
0
  6
CONTINUOUS
 62
256
 10
-82.722154387037904
 20
95.820537849012908
 11
75.277845612985971
 21
95.820537849012908
  0
LINE
  8
0
  6
CONTINUOUS
 62
256
 10
57.777845612983242
 20
56.320537849012908
 11
-0.522154387016712
 21
56.320537849012908
  0
LINE
  8
0
  6
CONTINUOUS
 62
256
 10
-82.722154387037904
 20
58.820537849012908
 11
75.277845612985971
 21
58.820537849012908
  0
LINE
  8
0
  6
CONTINUOUS
 62
256
 10
-82.722154387037904
 20
59.320537849012908
 11
75.277845612985971
 21
59.320537849012915
  0
LINE
  8
0
  6
CONTINUOUS
 62
256
 10
-82.722154387037904
 20
63.687455254130214
 11
75.277845612985971
 21
63.687455254130221
  0
LINE
  8
0
  6
CONTINUOUS
 62
256
 10
-82.722154387037904
 20
68.778624078673147
 11
75.277845612985971
 21
68.778624078673147
  0
LINE
  8
0
  6
CONTINUOUS
 62
256
 10
57.777845612983242
 20
163.320537849012910
 11
57.777845612983242
 21
109.820537849012890
  0
LINE
  8
0
  6
CONTINUOUS
 62
256
 10
57.777845612983242
 20
56.320537849012908
 11
57.777845612983242
 21
109.820537849012890
  0
LINE
  8
0
  6
CONTINUOUS
 62
256
 10
74.304022561293664
 20
163.727105100851080
 11
57.777845612985971
 21
163.294351927444040
  0
LINE
  8
0
  6
CONTINUOUS
 62
256
 10
75.277845612985971
 20
109.820537849012890
 11
75.277845612985971
 21
138.570538802687220
  0
LINE
  8
0
  6
CONTINUOUS
 62
256
 10
75.777845612985971
 20
179.320537849012910
 11
85.777845612985971
 21
179.320537849012790
  0
ARC
  8
0
  6
CONTINUOUS
 62
256
 10
74.277845612985971
 20
164.726762425826560
 40
0.999999999999925
 50
271.499999999989770
 51
0.000000000000000
  0
ARC
  8
0
  6
CONTINUOUS
 62
256
 10
75.777845612985971
 20
178.820537849012910
 40
0.500000000000000
 50
90.000000000000000
 51
180.000000000000000
  0
ARC
  8
0
  6
CONTINUOUS
 62
256
 10
75.777845612985971
 20
40.820537849012908
 40
0.500000000000000
 50
180.000000000000000
 51
270.000000000000000
  0
ARC
  8
0
  6
CONTINUOUS
 62
256
 10
74.277845612985971
 20
54.914313272200161
 40
1.000000000000000
 50
0.000000000000000
 51
88.500000000010303
  0
LINE
  8
0
  6
CONTINUOUS
 62
256
 10
75.777845612985971
 20
40.320537849012908
 11
85.777845612985971
 21
40.320537849012908
  0
LINE
  8
0
  6
CONTINUOUS
 62
256
 10
85.277845612985971
 20
40.320537849012908
 11
85.277845612985971
 21
109.820537849012890
  0
LINE
  8
0
  6
CONTINUOUS
 62
256
 10
74.304022561293664
 20
55.913970597175648
 11
57.777845612985971
 21
56.346723770582685
  0
LINE
  8
0
  6
CONTINUOUS
 62
256
 10
57.777845612985971
 20
56.346723770582685
 11
57.777845612983242
 21
109.820537849012890
  0
ARC
  8
0
  6
CONTINUOUS
 62
256
 10
76.277845612985971
 20
70.570537849012908
 40
1.000000000000000
 50
90.000000000000000
 51
180.000000000000000
  0
ARC
  8
0
  6
CONTINUOUS
 62
256
 10
79.877845612986334
 20
71.970537849012544
 40
0.399999999999636
 50
270.000000000000000
 51
0.000000000000000
  0
LINE
  8
0
  6
CONTINUOUS
 62
256
 10
80.277845612985971
 20
71.970537849012544
 11
80.277845612985971
 21
81.670537849013272
  0
LINE
  8
0
  6
CONTINUOUS
 62
256
 10
79.877845612986334
 20
71.570537849012908
 11
76.277845612985971
 21
71.570537849012908
  0
ARC
  8
0
  6
CONTINUOUS
 62
256
 10
76.277845612985971
 20
83.070537849012908
 40
1.000000000000000
 50
180.000000000000000
 51
270.000000000000000
  0
ARC
  8
0
  6
CONTINUOUS
 62
256
 10
79.877845612986334
 20
81.670537849013272
 40
0.399999999999636
 50
0.000000000000000
 51
90.000000000000000
  0
LINE
  8
0
  6
CONTINUOUS
 62
256
 10
79.877845612986334
 20
82.070537849012908
 11
76.277845612985971
 21
82.070537849012908
  0
ARC
  8
0
  6
CONTINUOUS
 62
256
 10
76.277845612985971
 20
149.070537849012910
 40
1.000000000000000
 50
180.000000000000000
 51
270.000000000000000
  0
ARC
  8
0
  6
CONTINUOUS
 62
256
 10
79.877845612986334
 20
147.670537849013270
 40
0.399999999999636
 50
0.000000000000000
 51
90.000000000000000
  0
LINE
  8
0
  6
CONTINUOUS
 62
256
 10
80.277845612985971
 20
147.670537849013270
 11
80.277845612985971
 21
137.970537849012540
  0
LINE
  8
0
  6
CONTINUOUS
 62
256
 10
57.777845612985971
 20
163.294351927444040
 11
57.777845612983242
 21
109.820537849012890
  0
LINE
  8
0
  6
CONTINUOUS
 62
256
 10
79.877845612986334
 20
148.070537849012910
 11
76.277845612985971
 21
148.070537849012910
  0
LINE
  8
0
  6
CONTINUOUS
 62
256
 10
85.277845612985971
 20
179.320537849012910
 11
85.277845612985971
 21
109.820537849012890
  0
ARC
  8
0
  6
CONTINUOUS
 62
256
 10
76.277845612985971
 20
136.570537849012910
 40
1.000000000000000
 50
90.000000000000000
 51
180.000000000000000
  0
ARC
  8
0
  6
CONTINUOUS
 62
256
 10
79.877845612986334
 20
137.970537849012540
 40
0.399999999999636
 50
270.000000000000000
 51
0.000000000000000
  0
LINE
  8
0
  6
CONTINUOUS
 62
256
 10
79.877845612986334
 20
137.570537849012910
 11
76.277845612985971
 21
137.570537849012910
  0
LINE
  8
0
  6
CONTINUOUS
 62
256
 10
75.277845612985971
 20
109.820537849012890
 11
75.277845612985971
 21
81.070536895338591
  0
LINE
  8
0
  6
CONTINUOUS
 62
256
 10
75.277845612985971
 20
72.570538802687224
 11
75.277845612985971
 21
40.820537849012908
  0
LINE
  8
0
  6
CONTINUOUS
 62
256
 10
75.277845612985971
 20
147.070536895338590
 11
75.277845612985971
 21
178.820537849012910
  0
LINE
  8
0
  6
DASHDOT
 62
256
 10
149.773844863349150
 20
173.460148155802020
 11
123.942086545447750
 21
173.460148155802020
  0
LINE
  8
0
  6
DASHDOT
 62
256
 10
149.773844863349150
 20
46.180927542223799
 11
123.942086545447750
 21
46.180927542223799
  0
LINE
  8
0
  6
CONTINUOUS
 62
256
 10
153.337670126829490
 20
119.320537849012890
 11
152.777862505694090
 21
119.170537849013270
  0
LINE
  8
0
  6
CONTINUOUS
 62
256
 10
152.777862505694090
 20
119.170537849013270
 11
151.177862505694180
 21
119.170537849013270
  0
LINE
  8
0
  6
CONTINUOUS
 62
256
 10
178.377862505694000
 20
119.320537849012890
 11
153.337670126829490
 21
119.320537849012890
  0
ARC
  8
0
  6
CONTINUOUS
 62
256
 10
178.377862505694000
 20
118.920537849013270
 40
0.400000000000091
 50
0.000000000000000
 51
90.000000000000000
  0
LINE
  8
0
  6
CONTINUOUS
 62
256
 10
178.777862505694090
 20
109.820537849012890
 11
178.777862505694090
 21
118.920537849013270
  0
LINE
  8
0
  6
CONTINUOUS
 62
256
 10
150.577862505694270
 20
98.820537849012908
 11
148.277845612985970
 21
98.820537849012908
  0
LINE
  8
0
  6
CONTINUOUS
 62
256
 10
150.577862505694270
 20
120.892461369063310
 11
148.277845612985970
 21
120.892461369063310
  0
LINE
  8
0
  6
CONTINUOUS
 62
256
 10
150.777862505694090
 20
109.820537849012890
 11
150.777862505694090
 21
99.020537849012726
  0
LINE
  8
0
  6
CONTINUOUS
 62
256
 10
150.577862505694270
 20
98.820537849012908
 11
150.777862505694090
 21
99.020537849012726
  0
ARC
  8
0
  6
CONTINUOUS
 62
256
 10
151.177862505694180
 20
119.642461369063310
 40
0.400000000000091
 50
180.000000000000000
 51
270.000000000000000
  0
LINE
  8
0
  6
CONTINUOUS
 62
256
 10
150.777862505694090
 20
109.820537849012890
 11
150.777862505694090
 21
120.692461369063490
  0
LINE
  8
0
  6
CONTINUOUS
 62
256
 10
150.577862505694270
 20
120.892461369063310
 11
150.777862505694090
 21
120.692461369063490
  0
ARC
  8
0
  6
CONTINUOUS
 62
256
 10
117.108249180170900
 20
67.994389078283348
 40
1.999999999999347
 50
39.045725661486529
 51
90.000000000000000
  0
LINE
  8
0
  6
CONTINUOUS
 62
256
 10
118.661536133149280
 20
69.254269882845620
 11
128.831132565965280
 21
56.716336612532359
  0
ARC
  8
0
  6
CONTINUOUS
 62
256
 10
127.277845612985970
 20
55.456455807969178
 40
2.000000000000000
 50
0.000000000000000
 51
39.045725661490216
  0
ARC
  8
0
  6
CONTINUOUS
 62
256
 10
117.108249180170900
 20
64.337534828791831
 40
1.999999999999347
 50
39.045725661486529
 51
90.000000000000000
  0
LINE
  8
0
  6
CONTINUOUS
 62
256
 10
118.661536133149280
 20
65.597415633354103
 11
128.831132565965280
 21
53.059482363040843
  0
ARC
  8
0
  6
CONTINUOUS
 62
256
 10
127.277845612985970
 20
51.799601558477661
 40
2.000000000000000
 50
0.000000000000000
 51
39.045725661490216
  0
LINE
  8
0
  6
CONTINUOUS
 62
256
 10
119.951469892700620
 20
69.994389078282438
 11
127.754014570123330
 21
69.994389078282438
  0
LINE
  8
0
  6
CONTINUOUS
 62
256
 10
119.951469892700620
 20
149.646686619743380
 11
127.754014570123330
 21
149.646686619743380
  0
ARC
  8
0
  6
CONTINUOUS
 62
256
 10
117.108249180170900
 20
155.303540869233980
 40
2.000000000000000
 50
270.000000000000000
 51
320.954274338513870
  0
LINE
  8
0
  6
CONTINUOUS
 62
256
 10
118.661536133149280
 20
154.043660064671710
 11
128.831132565965280
 21
166.581593334984970
  0
ARC
  8
0
  6
CONTINUOUS
 62
256
 10
127.277845612985970
 20
167.841474139548150
 40
2.000000000000627
 50
320.954274338509610
 51
0.000000000000000
  0
ARC
  8
0
  6
CONTINUOUS
 62
256
 10
127.277845612985970
 20
164.184619890056640
 40
2.000000000000627
 50
320.954274338509610
 51
0.000000000000000
  0
ARC
  8
0
  6
CONTINUOUS
 62
256
 10
117.108249180170900
 20
151.646686619742470
 40
2.000000000000000
 50
270.000000000000000
 51
320.954274338513870
  0
LINE
  8
0
  6
CONTINUOUS
 62
256
 10
118.661536133149280
 20
150.386805815180200
 11
128.831132565965280
 21
162.924739085493460
  0
ARC
  8
0
  6
CONTINUOUS
 62
256
 10
127.277845612985970
 20
113.820537849012890
 40
2.000000000000000
 50
270.000000000000000
 51
0.000000000000000
  0
ARC
  8
0
  6
CONTINUOUS
 62
256
 10
127.277845612985970
 20
105.820537849012890
 40
2.000000000000000
 50
0.000000000000000
 51
90.000000000000000
  0
ARC
  8
0
  6
CONTINUOUS
 62
256
 10
120.061220804656950
 20
105.820537849012890
 40
2.000000000000000
 50
90.000000000000000
 51
180.000000000000000
  0
ARC
  8
0
  6
CONTINUOUS
 62
256
 10
120.061220804656950
 20
113.820537849012890
 40
2.000000000000000
 50
180.000000000000000
 51
270.000000000000000
  0
LINE
  8
0
  6
CONTINUOUS
 62
256
 10
127.277845612985970
 20
107.820537849012890
 11
120.061220804656950
 21
107.820537849012890
  0
LINE
  8
0
  6
CONTINUOUS
 62
256
 10
127.277845612985970
 20
111.820537849012890
 11
120.061220804656950
 21
111.820537849012890
  0
LINE
  8
0
  6
CONTINUOUS
 62
256
 10
126.668031982594680
 20
39.606796991005467
 11
85.777845612985971
 21
40.320537849012908
  0
ARC
  8
0
  6
CONTINUOUS
 62
256
 10
126.615674763282750
 20
36.607253905535799
 40
3.000000000000397
 50
23.717082663696431
 51
88.999999999998352
  0
ARC
  8
0
  6
CONTINUOUS
 62
256
 10
126.615674763282750
 20
183.033821792490930
 40
3.000000000000496
 50
271.000000000001590
 51
336.282917336303740
  0
LINE
  8
0
  6
CONTINUOUS
 62
256
 10
85.777845612985971
 20
40.320537849012908
 11
85.777845612985971
 21
179.320537849012910
  0
LINE
  8
0
  6
CONTINUOUS
 62
256
 10
126.668031982594680
 20
180.034278707021260
 11
85.777845612985971
 21
179.320537849012910
  0
LINE
  8
0
  6
CONTINUOUS
 62
256
 10
133.777845612985970
 20
182.516932260782600
 11
141.277845612985970
 21
182.320537849012910
  0
LINE
  8
0
  6
CONTINUOUS
 62
256
 10
130.251668664677820
 20
182.424596067774470
 11
133.764757138831670
 21
182.516589527024730
  0
LINE
  8
0
  6
CONTINUOUS
 62
256
 10
148.277845612985970
 20
109.820537849012890
 11
148.277845612985970
 21
131.087922146117310
  0
LINE
  8
0
  6
CONTINUOUS
 62
256
 10
144.277845612985970
 20
174.020537849012730
 11
143.498520116248640
 21
174.820537849012910
  0
LINE
  8
0
  6
CONTINUOUS
 62
256
 10
144.277845612985970
 20
45.620537849013090
 11
143.498520116248640
 21
44.820537849012908
  0
LINE
  8
0
  6
CONTINUOUS
 62
256
 10
148.277845612985970
 20
109.820537849012890
 11
148.277845612985970
 21
88.553153551908508
  0
ARC
  8
0
  6
CONTINUOUS
 62
256
 10
130.277845612985970
 20
181.424938742798990
 40
0.999999999999937
 50
91.500000000015845
 51
180.000000000000000
  0
ARC
  8
0
  6
CONTINUOUS
 62
256
 10
146.277845612985970
 20
131.087922146117310
 40
2.000000000000000
 50
0.000000000000000
 51
40.236358309286203
  0
ARC
  8
0
  6
CONTINUOUS
 62
256
 10
146.277845612985970
 20
88.553153551908508
 40
1.999999999999609
 50
319.763641690733830
 51
0.000000000000000
  0
LINE
  8
0
  6
CONTINUOUS
 62
256
 10
143.498520116248640
 20
174.820537849012910
 11
141.277845612985970
 21
174.820537849012910
  0
LINE
  8
0
  6
CONTINUOUS
 62
256
 10
143.498520116248640
 20
44.820537849012908
 11
141.277845612985970
 21
44.820537849012908
  0
LINE
  8
0
  6
CONTINUOUS
 62
256
 10
141.277845612985970
 20
109.820537849012890
 11
141.277845612985970
 21
182.320537849012910
  0
LINE
  8
0
  6
CONTINUOUS
 62
256
 10
147.804618183724070
 20
87.261269068976617
 11
144.277845612985970
 21
83.093265121739933
  0
LINE
  8
0
  6
CONTINUOUS
 62
256
 10
147.804618183724070
 20
132.379806629050110
 11
144.277845612985970
 21
136.547810576285880
  0
LINE
  8
0
  6
CONTINUOUS
 62
256
 10
141.277845612985970
 20
109.820537849012890
 11
141.277845612985970
 21
37.320537849012908
  0
LINE
  8
0
  6
CONTINUOUS
 62
256
 10
144.277845612985970
 20
109.820537849012890
 11
144.277845612985970
 21
174.020537849012730
  0
LINE
  8
0
  6
CONTINUOUS
 62
256
 10
144.277845612985970
 20
109.820537849012890
 11
144.277845612985970
 21
45.620537849013090
  0
LINE
  8
0
  6
CONTINUOUS
 62
256
 10
130.304022561294120
 20
37.033178179267452
 11
141.277845612985970
 21
37.320537849012908
  0
LINE
  8
0
  6
CONTINUOUS
 62
256
 10
129.277845612985970
 20
38.032835504242939
 11
129.277845612985970
 21
181.424938742798990
  0
ARC
  8
0
  6
CONTINUOUS
 62
256
 10
130.277845612985970
 20
38.032835504242939
 40
1.000000000000000
 50
180.000000000000000
 51
271.500000000015750
  0
LINE
  8
0
  6
CONTINUOUS
 62
256
 10
137.199314768066980
 20
148.557094650748700
 11
141.277845612990060
 21
148.663894739571330
  0
ARC
  8
0
  6
CONTINUOUS
 62
256
 10
137.277845612990060
 20
145.558122675822230
 40
2.999999999999777
 50
91.499999999989811
 51
180.000000000000000
  0
LINE
  8
0
  6
CONTINUOUS
 62
256
 10
137.199314768062440
 20
165.243175011712990
 11
141.277845612985970
 21
165.349975100535630
  0
ARC
  8
0
  6
CONTINUOUS
 62
256
 10
137.277845612985970
 20
162.244203036786530
 40
2.999999999999788
 50
91.499999999998479
 51
180.000000000000000
  0
LINE
  8
0
  6
CONTINUOUS
 62
256
 10
137.199314768066980
 20
71.083981047278030
 11
141.277845612990060
 21
70.977180958455392
  0
ARC
  8
0
  6
CONTINUOUS
 62
256
 10
137.277845612990060
 20
74.082953022204492
 40
3.000000000000000
 50
180.000000000000000
 51
268.500000000010350
  0
LINE
  8
0
  6
CONTINUOUS
 62
256
 10
137.199314768062440
 20
54.397900686313733
 11
141.277845612985970
 21
54.291100597491095
  0
ARC
  8
0
  6
CONTINUOUS
 62
256
 10
137.277845612985970
 20
57.396872661240195
 40
3.000000000000000
 50
180.000000000000000
 51
268.500000000001590
  0
LINE
  8
0
  6
CONTINUOUS
 62
256
 10
134.277845612985970
 20
162.244203036786530
 11
134.277845612985970
 21
109.820537849012890
  0
LINE
  8
0
  6
CONTINUOUS
 62
256
 10
134.277845612985970
 20
57.396872661240195
 11
134.277845612985970
 21
109.820537849012890
  0
ARC
  8
0
  6
CONTINUOUS
 62
256
 10
-289.127822381506120
 20
-141.898437404860940
 40
35.999999999999908
 50
302.753463526023380
 51
309.352837971038640
  0
ARC
  8
0
  6
CONTINUOUS
 62
256
 10
-289.127822381506120
 20
-141.898437404860940
 40
36.000000000000036
 50
320.856406748461320
 51
329.999999999999600
  0
LINE
  8
0
  6
CONTINUOUS
 62
256
 10
-281.467840044079140
 20
-179.877604071527510
 11
-272.568860558512820
 21
-179.877604071527510
  0
ARC
  8
0
  6
CONTINUOUS
 62
256
 10
-276.568860558512820
 20
-175.377604071527510
 40
5.250000000000494
 50
134.139448286057100
 51
180.000000000000000
  0
ARC
  8
0
  6
CONTINUOUS
 62
256
 10
-276.568860558512820
 20
-175.377604071527510
 40
5.249999999999932
 50
29.537822073031958
 51
55.926371714177165
  0
ARC
  8
0
  6
CONTINUOUS
 62
256
 10
-276.568860558512820
 20
-175.377604071527570
 40
4.249999046325978
 50
112.132537888861630
 51
77.933282111373387
  0
ARC
  8
0
  6
CONTINUOUS
 62
256
 10
-335.009898735519980
 20
-141.898437404861000
 40
35.999999999999915
 50
210.000000000000510
 51
219.143593251540040
  0
ARC
  8
0
  6
CONTINUOUS
 62
256
 10
-335.009898735519980
 20
-141.898437404861000
 40
36.000000000000014
 50
230.647162028960850
 51
237.246536473976730
  0
LINE
  8
0
  6
CONTINUOUS
 62
256
 10
-342.669881072946510
 20
-179.877604071527510
 11
-351.568860558512820
 21
-179.877604071527510
  0
ARC
  8
0
  6
CONTINUOUS
 62
256
 10
-347.568860558512820
 20
-175.377604071527510
 40
5.250000000000514
 50
124.073628285823150
 51
150.462177926968080
  0
ARC
  8
0
  6
CONTINUOUS
 62
256
 10
-347.568860558512820
 20
-175.377604071527510
 40
5.250000000000000
 50
0.000000000000000
 51
45.860551713942968
  0
ARC
  8
0
  6
CONTINUOUS
 62
256
 10
-347.568860558512820
 20
-175.377604071527570
 40
4.249999046325947
 50
102.066717888626710
 51
67.867462111138224
  0
LINE
  8
0
  6
DASHDOT
 62
256
 10
-312.068860558512820
 20
-187.772902951347990
 11
-312.068860558512820
 21
-118.877604071527440
  0
LINE
  8
0
  6
DASHDOT
 62
256
 10
-312.068860558512820
 20
-100.877604071527440
 11
-312.068860558512820
 21
-20.646241285068299
  0
LINE
  8
0
  6
CONTINUOUS
 62
256
 10
-366.186813271759550
 20
-159.898437404861230
 11
-374.632337947291150
 21
-145.270359570263790
  0
ARC
  8
0
  6
CONTINUOUS
 62
256
 10
-331.568860558512820
 20
-103.631146927514070
 40
49.999999999999908
 50
91.489858156854154
 51
151.865554224231890
  0
ARC
  8
0
  6
CONTINUOUS
 62
256
 10
-345.068860558512820
 20
-62.877604071527571
 40
5.249999999999732
 50
324.745941876887680
 51
0.000000000000000
  0
ARC
  8
0
  6
CONTINUOUS
 62
256
 10
-345.068860558512820
 20
-62.877604071527571
 40
5.250000000000000
 50
180.000000000000000
 51
224.625857802117790
  0
ARC
  8
0
  6
CONTINUOUS
 62
256
 10
-345.068860558512820
 20
-62.877604071527571
 40
4.249999046325208
 50
312.474863978020720
 51
236.896935700983900
  0
ARC
  8
0
  6
CONTINUOUS
 62
256
 10
-358.922466824203640
 20
-59.697036503556319
 40
1.999999999999984
 50
330.116185885981960
 51
44.999999999999567
  0
ARC
  8
0
  6
CONTINUOUS
 62
256
 10
-351.438615779206880
 20
-55.867179049568335
 40
2.000000000000016
 50
225.000000000000000
 51
263.145054641818550
  0
ARC
  8
0
  6
CONTINUOUS
 62
256
 10
-272.699105337818760
 20
-55.867179049568335
 40
2.000000000000023
 50
276.854945358179860
 51
314.999999999999830
  0
ARC
  8
0
  6
CONTINUOUS
 62
256
 10
-265.215254292822010
 20
-59.697036503556319
 40
2.000000000000016
 50
135.000000000000000
 51
209.883814114018380
  0
ARC
  8
0
  6
CONTINUOUS
 62
256
 10
-279.068860558512820
 20
-62.877604071527571
 40
5.249999999999692
 50
315.374142197882120
 51
0.000000000000000
  0
ARC
  8
0
  6
CONTINUOUS
 62
256
 10
-279.068860558512820
 20
-62.877604071527571
 40
5.250000000000000
 50
180.000000000000000
 51
215.254058123112260
  0
ARC
  8
0
  6
CONTINUOUS
 62
256
 10
-279.068860558512820
 20
-62.877604071527571
 40
4.249999046325225
 50
303.103064299015950
 51
227.525136021979360
  0
LINE
  8
0
  6
DASHDOT
 62
256
 10
-292.965027832997290
 20
-100.877604071527440
 11
-331.530367712442970
 21
-100.877604071527440
  0
LINE
  8
0
  6
DASHDOT
 62
256
 10
-419.720834580901280
 20
-118.877604071528080
 11
-207.590087448243170
 21
-118.877604071526850
  0
LINE
  8
0
  6
CONTINUOUS
 62
256
 10
-257.950907845266560
 20
-159.898437404861170
 11
-255.052128368709990
 21
-154.877604071527460
  0
ARC
  8
0
  6
CONTINUOUS
 62
256
 10
-292.568860558512820
 20
-103.631146927514070
 40
49.999999999999972
 50
24.523778772326594
 51
88.510141843145860
  0
LINE
  8
0
  6
CONTINUOUS
 62
256
 10
-278.568858174328230
 20
-176.532300408298740
 11
-278.568859128002490
 21
-174.222903664524320
  0
LINE
  8
0
  6
CONTINUOUS
 62
256
 10
-274.568862942697420
 20
-174.222908688430040
 11
-274.568861989023160
 21
-176.532303524855820
  0
LINE
  8
0
  6
CONTINUOUS
 62
256
 10
-274.568862472465750
 20
-174.222908316326030
 11
-276.568858133493220
 21
-173.068205136539690
  0
LINE
  8
0
  6
CONTINUOUS
 62
256
 10
-276.568862860704480
 20
-177.687001272374460
 11
-278.568857558175300
 21
-176.532300147471800
  0
LINE
  8
0
  6
CONTINUOUS
 62
256
 10
-278.568859290024080
 20
-174.222904090977180
 11
-276.568858122957580
 21
-173.068204849065810
  0
LINE
  8
0
  6
CONTINUOUS
 62
256
 10
-274.568861748291230
 20
-176.532303382264730
 11
-276.568862502404220
 21
-177.687001596735570
  0
LINE
  8
0
  6
CONTINUOUS
 62
256
 10
-345.568862942697420
 20
-176.532300408298740
 11
-345.568861989023160
 21
-174.222903664524320
  0
LINE
  8
0
  6
CONTINUOUS
 62
256
 10
-349.568858174328230
 20
-174.222908688430040
 11
-349.568859128002490
 21
-176.532303524855820
  0
LINE
  8
0
  6
CONTINUOUS
 62
256
 10
-349.568858644559900
 20
-174.222908316326030
 11
-347.568862983532430
 21
-173.068205136539690
  0
LINE
  8
0
  6
CONTINUOUS
 62
256
 10
-347.568858256321160
 20
-177.687001272374460
 11
-345.568863558850350
 21
-176.532300147471800
  0
LINE
  8
0
  6
CONTINUOUS
 62
256
 10
-345.568861827001570
 20
-174.222904090977180
 11
-347.568862994068070
 21
-173.068204849065810
  0
LINE
  8
0
  6
CONTINUOUS
 62
256
 10
-349.568859368734420
 20
-176.532303382264730
 11
-347.568858614621430
 21
-177.687001596735570
  0
LINE
  8
0
  6
CONTINUOUS
 62
256
 10
-343.068862942697420
 20
-64.032300408298738
 11
-343.068861989023160
 21
-61.722903664524324
  0
LINE
  8
0
  6
CONTINUOUS
 62
256
 10
-347.068858174328230
 20
-61.722908688430039
 11
-347.068859128002490
 21
-64.032303524855820
  0
LINE
  8
0
  6
CONTINUOUS
 62
256
 10
-347.068858644559900
 20
-61.722908316326027
 11
-345.068862983532430
 21
-60.568205136539689
  0
LINE
  8
0
  6
CONTINUOUS
 62
256
 10
-345.068858256321160
 20
-65.187001272374459
 11
-343.068863558850350
 21
-64.032300147471801
  0
LINE
  8
0
  6
CONTINUOUS
 62
256
 10
-343.068861827001570
 20
-61.722904090977181
 11
-345.068862994068070
 21
-60.568204849065808
  0
LINE
  8
0
  6
CONTINUOUS
 62
256
 10
-347.068859368734420
 20
-64.032303382264729
 11
-345.068858614621430
 21
-65.187001596735570
  0
LINE
  8
0
  6
CONTINUOUS
 62
256
 10
-281.068858174328230
 20
-64.032300408298738
 11
-281.068859128002490
 21
-61.722903664524324
  0
LINE
  8
0
  6
CONTINUOUS
 62
256
 10
-277.068862942697420
 20
-61.722908688430039
 11
-277.068861989023160
 21
-64.032303524855820
  0
LINE
  8
0
  6
CONTINUOUS
 62
256
 10
-277.068862472465750
 20
-61.722908316326027
 11
-279.068858133493220
 21
-60.568205136539689
  0
LINE
  8
0
  6
CONTINUOUS
 62
256
 10
-279.068862860704480
 20
-65.187001272374459
 11
-281.068857558175300
 21
-64.032300147471801
  0
LINE
  8
0
  6
CONTINUOUS
 62
256
 10
-281.068859290024080
 20
-61.722904090977181
 11
-279.068858122957580
 21
-60.568204849065808
  0
LINE
  8
0
  6
CONTINUOUS
 62
256
 10
-277.068861748291230
 20
-64.032303382264729
 11
-279.068862502404220
 21
-65.187001596735570
  0
LINE
  8
0
  6
CONTINUOUS
 62
256
 10
-384.568860558512820
 20
-164.877604071527460
 11
-384.568860558512820
 21
-152.577163872016460
  0
LINE
  8
0
  6
CONTINUOUS
 62
256
 10
-384.568860558512820
 20
-74.743195643524643
 11
-384.568860558512820
 21
-36.877604071527458
  0
LINE
  8
0
  6
CONTINUOUS
 62
256
 10
-239.568860558512820
 20
-164.877604071527460
 11
-239.568860558512820
 21
-154.877604071527460
  0
LINE
  8
0
  6
CONTINUOUS
 62
256
 10
-239.568860558512820
 20
-82.877604071527685
 11
-239.568860558512820
 21
-36.877604071527458
  0
LINE
  8
0
  6
CONTINUOUS
 62
256
 10
-370.568860558512820
 20
-101.546995311307910
 11
-370.568860558512820
 21
-92.920104071527476
  0
LINE
  8
0
  6
CONTINUOUS
 62
256
 10
-392.165367107370680
 20
-164.870222564288040
 11
-393.763370849575270
 21
-164.790322377177060
  0
ARC
  8
0
  6
CONTINUOUS
 62
256
 10
-391.368860558512780
 20
-132.920104071527480
 40
20.800000000000082
 50
274.191726156007410
 51
354.952683218992090
  0
ARC
  8
0
  6
CONTINUOUS
 62
256
 10
-395.295326389845060
 20
-155.379464393570970
 40
2.000000000000154
 50
357.137594773887600
 51
80.083463391768120
  0
ARC
  8
0
  6
CONTINUOUS
 62
256
 10
-389.702313292129250
 20
-155.659115048456780
 40
1.999999999999962
 50
94.191726156001650
 51
177.137594773887370
  0
ARC
  8
0
  6
CONTINUOUS
 62
256
 10
-391.368860558512780
 20
-132.920104071527480
 40
20.799999999999986
 50
174.275189547776620
 51
205.640070215894870
  0
ARC
  8
0
  6
CONTINUOUS
 62
256
 10
-391.368860558512780
 20
-132.920104071527480
 40
20.799999999999926
 50
205.640070215894870
 51
260.083463391769380
  0
ARC
  8
0
  6
CONTINUOUS
 62
256
 10
-391.368860558512780
 20
-132.920104071527480
 40
20.799999999999986
 50
174.275189547776620
 51
205.640070215894870
  0
ARC
  8
0
  6
CONTINUOUS
 62
256
 10
-389.368860558512780
 20
-92.920104071527476
 40
18.799999999999933
 50
144.191373186504250
 51
174.275189547776420
  0
LINE
  8
0
  6
CONTINUOUS
 62
256
 10
-412.065119910133720
 20
-130.845291103946470
 11
-408.075094972477700
 21
-91.044792350829198
  0
LINE
  8
0
  6
CONTINUOUS
 62
256
 10
-387.071730179093720
 20
-62.997483998747271
 11
-392.165367107370680
 21
-164.870222564288040
  0
LINE
  8
0
  6
CONTINUOUS
 62
256
 10
-388.669733921298300
 20
-62.917583811637087
 11
-393.763370849575270
 21
-164.790322377177060
  0
ARC
  8
0
  6
CONTINUOUS
 62
256
 10
-389.787363023148830
 20
-65.665199407881914
 40
1.299999237060475
 50
87.137594090651845
 51
160.536063666412730
  0
ARC
  8
0
  6
CONTINUOUS
 62
256
 10
-390.007088613900810
 20
-70.059711222919645
 40
1.299999237060493
 50
193.739143184211430
 51
267.137612759980130
  0
LINE
  8
0
  6
CONTINUOUS
 62
256
 10
-388.744640346713600
 20
-64.415712319953741
 11
-389.722444159221140
 21
-64.366822129328398
  0
LINE
  8
0
  6
CONTINUOUS
 62
256
 10
-389.094203665320720
 20
-71.406978692098619
 11
-390.072007477828490
 21
-71.358088501473276
  0
LINE
  8
0
  6
CONTINUOUS
 62
256
 10
-388.744640346713600
 20
-64.415712319953741
 11
-389.094203665320720
 21
-71.406978692098619
  0
LINE
  8
0
  6
CONTINUOUS
 62
256
 10
-388.744640346713600
 20
-64.415712319953741
 11
-389.094203665320720
 21
-71.406978692098619
  0
POINT
  8
0
  6
CONTINUOUS
 62
256
 10
-388.919422006017160
 20
-67.911345506026123
  0
ARC
  8
0
  6
CONTINUOUS
 62
256
 10
-382.527407418192750
 20
-68.230946235417377
 40
9.000000000000060
 50
160.536063666407810
 51
193.739143184213500
  0
LINE
  8
0
  6
CONTINUOUS
 62
256
 10
-388.669733921298300
 20
-62.917583811637087
 11
-387.071730179093720
 21
-62.997483998747271
  0
ARC
  8
0
  6
CONTINUOUS
 62
256
 10
-389.368860558512780
 20
-92.920104071527476
 40
18.800000000000036
 50
94.873974813842736
 51
144.191373186504220
  0
LINE
  8
0
  6
CONTINUOUS
 62
256
 10
-387.870732050196010
 20
-62.957533905192236
 11
-392.964368978472980
 21
-164.830272470732330
  0
ARC
  8
0
  6
CONTINUOUS
 62
256
 10
-391.136119022141660
 20
-72.195317039503948
 40
1.999999999999928
 50
274.873974813840960
 51
357.137594773887320
  0
ARC
  8
0
  6
CONTINUOUS
 62
256
 10
-385.543105924425840
 20
-72.474967694389761
 40
1.999999999999927
 50
177.137594773887290
 51
259.401214733933840
  0
ARC
  8
0
  6
CONTINUOUS
 62
256
 10
-389.368860558512780
 20
-92.920104071527476
 40
18.799999999999955
 50
0.000000000000000
 51
79.401214733933926
  0
ARC
  8
0
  6
CONTINUOUS
 62
256
 10
-520.568860558512820
 20
-118.877604071527440
 40
300.000000000000060
 50
353.967950853630270
 51
6.032049146369773
  0
ARC
  8
0
  6
CONTINUOUS
 62
256
 10
-227.202195785570440
 20
-87.877604071527685
 40
5.000000000000143
 50
6.032049146370343
 51
90.000000000000000
  0
ARC
  8
0
  6
CONTINUOUS
 62
256
 10
-227.202195785570440
 20
-149.877604071527460
 40
5.000000000000000
 50
270.000000000000000
 51
353.967950853629470
  0
LINE
  8
0
  6
CONTINUOUS
 62
256
 10
-220.068860558512820
 20
-121.377604071527440
 11
-220.579277406030540
 21
-121.377604071527440
  0
LINE
  8
0
  6
CONTINUOUS
 62
256
 10
-220.068860558512820
 20
-121.377604071527440
 11
-220.068860558512820
 21
-116.377604071527440
  0
LINE
  8
0
  6
CONTINUOUS
 62
256
 10
-220.068860558512820
 20
-116.377604071527230
 11
-220.579277406030540
 21
-116.377604071527230
  0
LINE
  8
0
  6
CONTINUOUS
 62
256
 10
-254.568860558512820
 20
-154.877604071527460
 11
-227.202195785570440
 21
-154.877604071527460
  0
LINE
  8
0
  6
CONTINUOUS
 62
256
 10
-254.568860558512820
 20
-82.877604071527685
 11
-227.202195785570440
 21
-82.877604071527685
  0
LINE
  8
0
  6
CONTINUOUS
 62
256
 10
-256.068900075315010
 20
-82.877604071527685
 11
-254.568860558512820
 21
-82.877604071527685
  0
LINE
  8
0
  6
CONTINUOUS
 62
256
 10
-254.568860558512820
 20
-154.877604071527460
 11
-254.568860558512820
 21
-148.870103133789830
  0
LINE
  8
0
  6
CONTINUOUS
 62
256
 10
-254.568860558512820
 20
-88.889618217097222
 11
-254.568860558512820
 21
-82.877604071527685
  0
LINE
  8
0
  6
CONTINUOUS
 62
256
 10
-256.068900075315010
 20
-154.877604071527230
 11
-254.568860558512820
 21
-154.877604071527230
  0
ARC
  8
0
  6
CONTINUOUS
 62
256
 10
-70.468860558512688
 20
-118.877604071527440
 40
290.796999999999910
 50
174.998349729065040
 51
180.000000000000000
  0
LINE
  8
0
  6
CONTINUOUS
 62
256
 10
-354.146450874368840
 20
-80.632106685278814
 11
-350.806145841091170
 21
-77.291801652000913
  0
ARC
  8
0
  6
CONTINUOUS
 62
256
 10
-339.440751146032200
 20
-95.337806413615453
 40
20.797000000000015
 50
135.000000000000000
 51
174.998349729064670
  0
ARC
  8
0
  6
CONTINUOUS
 62
256
 10
-312.068860558512820
 20
-465.477604071527590
 40
390.797000000000030
 50
90.000000000000000
 51
95.417963762360529
  0
ARC
  8
0
  6
CONTINUOUS
 62
256
 10
-348.684825497531160
 20
-79.413121995560687
 40
3.000000000000067
 50
95.417963762365673
 51
135.000000000003470
  0
ARC
  8
0
  6
CONTINUOUS
 62
256
 10
-70.468860558512688
 20
-118.877604071527440
 40
290.797000000000250
 50
180.000000000000000
 51
185.001650270934930
  0
LINE
  8
0
  6
CONTINUOUS
 62
256
 10
-354.146450874368840
 20
-157.123101457776100
 11
-350.806145841091170
 21
-160.463406491054000
  0
ARC
  8
0
  6
CONTINUOUS
 62
256
 10
-339.440751146032200
 20
-142.417401729439460
 40
20.796999999999880
 50
185.001650270935300
 51
225.000000000000060
  0
ARC
  8
0
  6
CONTINUOUS
 62
256
 10
-312.068860558512820
 20
227.722395928472680
 40
390.797000000000030
 50
264.582036237639500
 51
270.000000000000000
  0
ARC
  8
0
  6
CONTINUOUS
 62
256
 10
-348.684825497531160
 20
-158.342086147494230
 40
3.000000000000346
 50
224.999999999996930
 51
264.582036237634780
  0
ARC
  8
0
  6
CONTINUOUS
 62
256
 10
-553.668860558513190
 20
-118.877604071527440
 40
290.797000000000140
 50
354.998349729065010
 51
0.000000000000000
  0
LINE
  8
0
  6
CONTINUOUS
 62
256
 10
-269.991270242656810
 20
-157.123101457776100
 11
-273.331575275934480
 21
-160.463406491054000
  0
ARC
  8
0
  6
CONTINUOUS
 62
256
 10
-284.696969970993450
 20
-142.417401729439460
 40
20.797000000000015
 50
315.000000000000000
 51
354.998349729064610
  0
ARC
  8
0
  6
CONTINUOUS
 62
256
 10
-312.068860558512820
 20
227.722395928472680
 40
390.797000000000030
 50
270.000000000000000
 51
275.417963762360500
  0
ARC
  8
0
  6
CONTINUOUS
 62
256
 10
-275.452895619494480
 20
-158.342086147494230
 40
3.000000000000067
 50
275.417963762365730
 51
315.000000000003470
  0
ARC
  8
0
  6
CONTINUOUS
 62
256
 10
-553.668860558513190
 20
-118.877604071527440
 40
290.797000000000480
 50
0.000000000000000
 51
5.752282731536623
  0
ARC
  8
0
  6
CONTINUOUS
 62
256
 10
-275.452895619494480
 20
-79.413121995560687
 40
3.000000000000346
 50
44.999999999996930
 51
84.582036237634838
  0
ARC
  8
0
  6
CONTINUOUS
 62
256
 10
-312.068860558512820
 20
-465.477604071527590
 40
390.797000000000030
 50
84.582036237639471
 51
90.000000000000000
  0
LINE
  8
0
  6
CONTINUOUS
 62
256
 10
-267.444161403895120
 20
-83.179215524040956
 11
-273.331575275934480
 21
-77.291801652000913
  0
ARC
  8
0
  6
CONTINUOUS
 62
256
 10
-351.499727558600170
 20
-73.455657329229098
 40
6.600000000000009
 50
95.743681810995113
 51
135.000000000002870
  0
ARC
  8
0
  6
CONTINUOUS
 62
256
 10
-351.499727558600170
 20
-164.299550813825820
 40
6.600000000000278
 50
224.999999999997190
 51
264.256318189004620
  0
ARC
  8
0
  6
CONTINUOUS
 62
256
 10
-272.637993558425480
 20
-164.299550813825820
 40
6.600000000000009
 50
275.743681810995100
 51
315.000000000002960
  0
ARC
  8
0
  6
CONTINUOUS
 62
256
 10
-272.637993558425480
 20
-73.455657329229098
 40
6.600000000000278
 50
44.999999999997208
 51
84.256318189005128
  0
ARC
  8
0
  6
CONTINUOUS
 62
256
 10
-312.068860558512820
 20
-465.477604071527590
 40
400.599999999999910
 50
90.000000000000000
 51
95.743681810993436
  0
ARC
  8
0
  6
CONTINUOUS
 62
256
 10
-312.068860558512820
 20
227.722395928472680
 40
400.599999999999910
 50
264.256318189006550
 51
270.000000000000000
  0
ARC
  8
0
  6
CONTINUOUS
 62
256
 10
-312.068860558512820
 20
227.722395928472680
 40
400.599999999999910
 50
270.000000000000000
 51
275.743681810993510
  0
ARC
  8
0
  6
CONTINUOUS
 62
256
 10
-312.068860558512820
 20
-465.477604071527590
 40
400.599999999999910
 50
84.256318189006564
 51
90.000000000000000
  0
ARC
  8
0
  6
CONTINUOUS
 62
256
 10
-70.468860558512461
 20
-118.877604071527440
 40
300.599999999999910
 50
174.247717268463390
 51
180.000000000000000
  0
ARC
  8
0
  6
CONTINUOUS
 62
256
 10
-70.468860558512461
 20
-118.877604071527440
 40
300.600000000000360
 50
180.000000000000000
 51
185.752282731536610
  0
ARC
  8
0
  6
CONTINUOUS
 62
256
 10
-553.668860558513190
 20
-118.877604071527440
 40
300.599999999999910
 50
354.247717268463420
 51
0.000000000000000
  0
ARC
  8
0
  6
CONTINUOUS
 62
256
 10
-553.668860558513190
 20
-118.877604071527440
 40
300.600000000000360
 50
0.000000000000000
 51
5.752282731536604
  0
ARC
  8
0
  6
CONTINUOUS
 62
256
 10
-315.568860558512820
 20
-153.702164370259200
 40
1.000000000000000
 50
0.000000000000000
 51
84.260829522738462
  0
ARC
  8
0
  6
CONTINUOUS
 62
256
 10
-315.568860558512820
 20
-156.716076556552480
 40
1.000000000000042
 50
264.715267045464260
 51
0.000000000000000
  0
ARC
  8
0
  6
CONTINUOUS
 62
256
 10
-315.568860558512820
 20
-148.169241103281140
 40
1.000000000000077
 50
263.186145655820330
 51
0.000000000000000
  0
LINE
  8
0
  6
CONTINUOUS
 62
256
 10
-314.568860558512820
 20
-156.716076556552480
 11
-314.568860558512820
 21
-153.702164370259200
  0
ARC
  8
0
  6
CONTINUOUS
 62
256
 10
-329.109789241885660
 20
-124.674736949786620
 40
0.999999999999885
 50
300.000000000003810
 51
18.787728582347054
  0
LINE
  8
0
  6
CONTINUOUS
 62
256
 10
-331.251024398942260
 20
-127.065680182490500
 11
-328.609789241885660
 21
-125.540762353570930
  0
ARC
  8
0
  6
CONTINUOUS
 62
256
 10
-331.751024398942260
 20
-126.199654778706190
 40
1.000000000000094
 50
200.405931773138660
 51
300.000000000004150
  0
ARC
  8
0
  6
CONTINUOUS
 62
256
 10
-336.567486890667170
 20
-128.980440694845810
 40
1.000000000000082
 50
299.999999999997270
 51
22.410457608146118
  0
ARC
  8
0
  6
CONTINUOUS
 62
256
 10
-343.977814452837260
 20
-133.258795307647690
 40
1.000000000000082
 50
299.999999999997270
 51
24.260829522734443
  0
LINE
  8
0
  6
CONTINUOUS
 62
256
 10
-338.686162346444690
 20
-131.358359077943310
 11
-336.067486890667170
 21
-129.846466098630340
  0
ARC
  8
0
  6
CONTINUOUS
 62
256
 10
-339.186162346444690
 20
-130.492333674158770
 40
0.999999999999730
 50
203.186145655819840
 51
299.999999999997780
  0
LINE
  8
0
  6
CONTINUOUS
 62
256
 10
-346.087938970943010
 20
-135.631776804578750
 11
-343.477814452837260
 21
-134.124820711432220
  0
ARC
  8
0
  6
CONTINUOUS
 62
256
 10
-346.587938970943010
 20
-134.765751400794440
 40
1.000000000000249
 50
204.715267045455480
 51
300.000000000003300
  0
ARC
  8
0
  6
CONTINUOUS
 62
256
 10
-343.087938970943010
 20
-140.827929227285720
 40
1.000000000000082
 50
119.999999999997300
 51
215.284732954534750
  0
ARC
  8
0
  6
CONTINUOUS
 62
256
 10
-340.477814452837260
 20
-139.320973134138740
 40
0.999999999999807
 50
35.739170477263514
 51
120.000000000002610
  0
ARC
  8
0
  6
CONTINUOUS
 62
256
 10
-315.568860558512820
 20
-145.145455144654760
 40
1.000000000000000
 50
0.000000000000000
 51
82.410457608145990
  0
ARC
  8
0
  6
CONTINUOUS
 62
256
 10
-335.686162346444690
 20
-136.554511500649600
 40
0.999999999999885
 50
120.000000000003810
 51
216.813854344195820
  0
ARC
  8
0
  6
CONTINUOUS
 62
256
 10
-333.067486890667620
 20
-135.042618521336640
 40
1.000000000000194
 50
37.589542391851786
 51
119.999999999997670
  0
ARC
  8
0
  6
CONTINUOUS
 62
256
 10
-315.568860558512820
 20
-139.583883312375970
 40
1.000000000000268
 50
260.405931773124510
 51
0.000000000000000
  0
ARC
  8
0
  6
CONTINUOUS
 62
256
 10
-315.568860558512820
 20
-136.534047654537060
 40
1.000000000000000
 50
0.000000000000000
 51
78.787728582356308
  0
ARC
  8
0
  6
CONTINUOUS
 62
256
 10
-328.251024398941810
 20
-132.261832605197240
 40
0.999999999999885
 50
120.000000000003810
 51
219.594068226860320
  0
ARC
  8
0
  6
CONTINUOUS
 62
256
 10
-325.609789241885660
 20
-130.736914776277900
 40
1.000000000000165
 50
41.212271417643834
 51
119.999999999997670
  0
ARC
  8
0
  6
CONTINUOUS
 62
256
 10
-320.711165403926320
 20
-127.908692984772870
 40
0.999999999999885
 50
120.000000000003810
 51
226.260204708329810
  0
ARC
  8
0
  6
CONTINUOUS
 62
256
 10
-315.568860558512820
 20
-130.877604071527460
 40
0.999999999999964
 50
253.739795291702650
 51
0.000000000000000
  0
ARC
  8
0
  6
CONTINUOUS
 62
256
 10
-315.568860558512820
 20
-127.709364937855280
 40
1.000000000000000
 50
0.000000000000000
 51
68.381727577839243
  0
ARC
  8
0
  6
CONTINUOUS
 62
256
 10
-317.967389828902010
 20
-126.324573417936790
 40
0.999999999999961
 50
51.618272422159770
 51
120.000000000004590
  0
ARC
  8
0
  6
CONTINUOUS
 62
256
 10
-312.068860558512820
 20
-118.877604071527440
 40
38.999999999999872
 50
215.284732954534800
 51
264.715267045465400
  0
ARC
  8
0
  6
CONTINUOUS
 62
256
 10
-312.068860558512820
 20
-118.877604071527440
 40
30.499999999999972
 50
216.813854344181070
 51
263.186145655819020
  0
ARC
  8
0
  6
CONTINUOUS
 62
256
 10
-312.068860558512820
 20
-118.877604071527440
 40
33.999999999999972
 50
215.739170477266950
 51
264.260829522733050
  0
ARC
  8
0
  6
CONTINUOUS
 62
256
 10
-312.068860558512820
 20
-118.877604071527440
 40
25.499999999999879
 50
217.589542391857920
 51
262.410457608141830
  0
ARC
  8
0
  6
CONTINUOUS
 62
256
 10
-312.068860558512820
 20
-118.877604071527440
 40
22.000000000000018
 50
219.594068226860770
 51
260.405931773138780
  0
ARC
  8
0
  6
CONTINUOUS
 62
256
 10
-312.068860558512820
 20
-118.877604071527440
 40
16.999999999999780
 50
221.212271417650810
 51
258.787728582349980
  0
ARC
  8
0
  6
CONTINUOUS
 62
256
 10
-312.068860558512820
 20
-118.877604071527440
 40
13.499999999999936
 50
226.260204708312160
 51
253.739795291689030
  0
ARC
  8
0
  6
CONTINUOUS
 62
256
 10
-312.068860558512820
 20
-118.877604071527440
 40
8.499999999999949
 50
231.618272422157330
 51
248.381727577842410
  0
LINE
  8
0
  6
CONTINUOUS
 62
256
 10
-336.186162346444690
 20
-135.688486096865290
 11
-333.567486890667620
 21
-134.176593117552100
  0
LINE
  8
0
  6
CONTINUOUS
 62
256
 10
-343.587938970943010
 20
-139.961903823501190
 11
-340.977814452837260
 21
-138.454947730354430
  0
LINE
  8
0
  6
CONTINUOUS
 62
256
 10
-328.751024398941810
 20
-131.395807201412940
 11
-326.109789241885660
 21
-129.870889372493370
  0
LINE
  8
0
  6
CONTINUOUS
 62
256
 10
-321.211165403926320
 20
-127.042667580988560
 11
-318.467389828902010
 21
-125.458548014152480
  0
LINE
  8
0
  6
CONTINUOUS
 62
256
 10
-314.568860558512820
 20
-130.877604071527460
 11
-314.568860558512820
 21
-127.709364937855280
  0
LINE
  8
0
  6
CONTINUOUS
 62
256
 10
-314.568860558512820
 20
-139.583883312375970
 11
-314.568860558512820
 21
-136.534047654537060
  0
LINE
  8
0
  6
CONTINUOUS
 62
256
 10
-314.568860558512820
 20
-148.169241103281140
 11
-314.568860558512820
 21
-145.145455144654760
  0
ARC
  8
0
  6
CONTINUOUS
 62
256
 10
-321.467389828902010
 20
-120.262395591445970
 40
0.999999999999885
 50
300.000000000003810
 51
8.381727577845361
  0
ARC
  8
0
  6
CONTINUOUS
 62
256
 10
-312.068860558512820
 20
-118.877604071527440
 40
8.499999999999972
 50
171.618272422157790
 51
188.381727577842210
  0
LINE
  8
0
  6
CONTINUOUS
 62
256
 10
-323.711165403926320
 20
-122.712540562066350
 11
-320.967389828902010
 21
-121.128420995230270
  0
ARC
  8
0
  6
CONTINUOUS
 62
256
 10
-324.211165403926320
 20
-121.846515158282050
 40
0.999999999999879
 50
193.739795291686020
 51
300.000000000003810
  0
ARC
  8
0
  6
CONTINUOUS
 62
256
 10
-315.568860558512820
 20
-101.221160488517850
 40
0.999999999999982
 50
281.212271417643990
 51
0.000000000000000
  0
LINE
  8
0
  6
CONTINUOUS
 62
256
 10
-314.568860558512820
 20
-98.171324830678941
 11
-314.568860558512820
 21
-101.221160488517850
  0
ARC
  8
0
  6
CONTINUOUS
 62
256
 10
-315.568860558512820
 20
-98.171324830678941
 40
1.000000000000000
 50
0.000000000000000
 51
99.594068226874853
  0
ARC
  8
0
  6
CONTINUOUS
 62
256
 10
-315.568860558512820
 20
-92.609752998400154
 40
0.999999999999749
 50
277.589542391855960
 51
0.000000000013028
  0
LINE
  8
0
  6
CONTINUOUS
 62
256
 10
-314.568860558512820
 20
-89.585967039773777
 11
-314.568860558512820
 21
-92.609752998399927
  0
ARC
  8
0
  6
CONTINUOUS
 62
256
 10
-315.568860558512820
 20
-89.585967039773777
 40
1.000000000000000
 50
0.000000000000000
 51
96.813854344180172
  0
ARC
  8
0
  6
CONTINUOUS
 62
256
 10
-315.568860558512820
 20
-84.053043772795718
 40
0.999999999999973
 50
275.739170477261670
 51
0.000000000000000
  0
LINE
  8
0
  6
CONTINUOUS
 62
256
 10
-314.568860558512820
 20
-81.039131586502435
 11
-314.568860558512820
 21
-84.053043772795718
  0
ARC
  8
0
  6
CONTINUOUS
 62
256
 10
-315.568860558512820
 20
-81.039131586502435
 40
1.000000000000000
 50
0.000000000000000
 51
95.284732954535926
  0
ARC
  8
0
  6
CONTINUOUS
 62
256
 10
-335.686162346444690
 20
-101.200696642405090
 40
0.999999999999774
 50
143.186145655813330
 51
240.000000000003440
  0
LINE
  8
0
  6
CONTINUOUS
 62
256
 10
-336.186162346444690
 20
-102.066722046189620
 11
-333.567486890667170
 21
-103.578615025502810
  0
ARC
  8
0
  6
CONTINUOUS
 62
256
 10
-333.067486890667170
 20
-102.712589621718280
 40
1.000000000000082
 50
240.000000000002670
 51
322.410457608131140
  0
ARC
  8
0
  6
CONTINUOUS
 62
256
 10
-343.087938970943010
 20
-96.927278915769421
 40
0.999999999999908
 50
144.715267045455050
 51
239.999999999996560
  0
LINE
  8
0
  6
CONTINUOUS
 62
256
 10
-343.587938970943010
 20
-97.793304319553727
 11
-340.977814452837260
 21
-99.300260412700482
  0
ARC
  8
0
  6
CONTINUOUS
 62
256
 10
-340.477814452837260
 20
-98.434235008916176
 40
0.999999999999885
 50
239.999999999996160
 51
324.260829522725320
  0
ARC
  8
0
  6
CONTINUOUS
 62
256
 10
-317.967389828902010
 20
-111.430634725117880
 40
1.000000000000082
 50
240.000000000002670
 51
308.381727577839230
  0
LINE
  8
0
  6
CONTINUOUS
 62
256
 10
-321.211165403926320
 20
-110.712540562066350
 11
-318.467389828902010
 21
-112.296660128902430
  0
ARC
  8
0
  6
CONTINUOUS
 62
256
 10
-325.609789241885660
 20
-107.018293366777240
 40
0.999999999999885
 50
239.999999999996160
 51
318.787728582349130
  0
LINE
  8
0
  6
CONTINUOUS
 62
256
 10
-328.751024398941810
 20
-106.359400941641970
 11
-326.109789241885660
 21
-107.884318770561530
  0
ARC
  8
0
  6
CONTINUOUS
 62
256
 10
-328.251024398941810
 20
-105.493375537857450
 40
1.000000000000173
 50
140.405931773149600
 51
240.000000000002330
  0
ARC
  8
0
  6
CONTINUOUS
 62
256
 10
-315.568860558512820
 20
-110.045843205199620
 40
1.000000000000090
 50
291.618272422162020
 51
0.000000000000000
  0
ARC
  8
0
  6
CONTINUOUS
 62
256
 10
-312.068860558512820
 20
-118.877604071527440
 40
8.499999999999904
 50
111.618272422157720
 51
128.381727577841810
  0
ARC
  8
0
  6
CONTINUOUS
 62
256
 10
-320.711165403926320
 20
-109.846515158282050
 40
0.999999999999858
 50
133.739795291671330
 51
239.999999999995340
  0
LINE
  8
0
  6
CONTINUOUS
 62
256
 10
-314.568860558512820
 20
-106.877604071527440
 11
-314.568860558512820
 21
-110.045843205199620
  0
ARC
  8
0
  6
CONTINUOUS
 62
256
 10
-315.568860558512820
 20
-106.877604071527440
 40
1.000000000000000
 50
0.000000000000000
 51
106.260204708296920
  0
ARC
  8
0
  6
CONTINUOUS
 62
256
 10
-312.068860558512820
 20
-118.877604071527440
 40
13.499999999999963
 50
106.260204708310880
 51
133.739795291687780
  0
ARC
  8
0
  6
CONTINUOUS
 62
256
 10
-312.068860558512820
 20
-118.877604071527440
 40
17.000000000000046
 50
101.212271417650020
 51
138.787728582350240
  0
ARC
  8
0
  6
CONTINUOUS
 62
256
 10
-312.068860558512820
 20
-118.877604071527440
 40
22.000000000000131
 50
99.594068226861211
 51
140.405931773139140
  0
ARC
  8
0
  6
CONTINUOUS
 62
256
 10
-312.068860558512820
 20
-118.877604071527440
 40
30.500000000000135
 50
96.813854344181038
 51
143.186145655818930
  0
ARC
  8
0
  6
CONTINUOUS
 62
256
 10
-312.068860558512820
 20
-118.877604071527440
 40
25.500000000000160
 50
97.589542391858117
 51
142.410457608142080
  0
ARC
  8
0
  6
CONTINUOUS
 62
256
 10
-312.068860558512820
 20
-118.877604071527440
 40
34.000000000000071
 50
95.739170477266939
 51
144.260829522733330
  0
ARC
  8
0
  6
CONTINUOUS
 62
256
 10
-312.068860558512820
 20
-118.877604071527440
 40
38.999999999999986
 50
95.284732954534590
 51
144.715267045465230
  0
ARC
  8
0
  6
CONTINUOUS
 62
256
 10
-339.186162346444690
 20
-107.262874468896140
 40
1.000000000000082
 50
60.000000000002721
 51
156.813854344180360
  0
LINE
  8
0
  6
CONTINUOUS
 62
256
 10
-338.686162346444690
 20
-106.396849065111610
 11
-336.067486890667170
 21
-107.908742044424780
  0
ARC
  8
0
  6
CONTINUOUS
 62
256
 10
-336.567486890667170
 20
-108.774767448209330
 40
0.999999999999701
 50
337.589542391853970
 51
60.000000000001812
  0
ARC
  8
0
  6
CONTINUOUS
 62
256
 10
-346.587938970943010
 20
-102.989456742260470
 40
1.000000000000082
 50
60.000000000002721
 51
155.284732954544150
  0
LINE
  8
0
  6
CONTINUOUS
 62
256
 10
-346.087938970943010
 20
-102.123431338475920
 11
-343.477814452837260
 21
-103.630387431622690
  0
ARC
  8
0
  6
CONTINUOUS
 62
256
 10
-343.977814452837260
 20
-104.496412835407000
 40
0.999999999999863
 50
335.739170477254390
 51
59.999999999995801
  0
ARC
  8
0
  6
CONTINUOUS
 62
256
 10
-321.467389828902010
 20
-117.492812551609180
 40
1.000000000000026
 50
351.618272422167310
 51
60.000000000001499
  0
LINE
  8
0
  6
CONTINUOUS
 62
256
 10
-323.711165403926320
 20
-115.042667580988560
 11
-320.967389828902010
 21
-116.626787147824640
  0
ARC
  8
0
  6
CONTINUOUS
 62
256
 10
-329.109789241885660
 20
-113.080471193268290
 40
1.000000000000076
 50
341.212271417653030
 51
60.000000000002721
  0
LINE
  8
0
  6
CONTINUOUS
 62
256
 10
-331.251024398942260
 20
-110.689527960564400
 11
-328.609789241885660
 21
-112.214445789483760
  0
ARC
  8
0
  6
CONTINUOUS
 62
256
 10
-331.751024398942260
 20
-111.555553364348730
 40
0.999999999999885
 50
59.999999999996206
 51
159.594068226861740
  0
ARC
  8
0
  6
CONTINUOUS
 62
256
 10
-324.211165403926320
 20
-115.908692984772870
 40
0.999999999999885
 50
59.999999999996206
 51
166.260204708308440
  0
ARC
  8
0
  6
CONTINUOUS
 62
256
 10
-312.068860558512820
 20
-118.877604071527440
 40
13.499999999999687
 50
166.260204708311360
 51
193.739795291688210
  0
ARC
  8
0
  6
CONTINUOUS
 62
256
 10
-312.068860558512820
 20
-118.877604071527440
 40
16.999999999999716
 50
161.212271417649590
 51
198.787728582350440
  0
ARC
  8
0
  6
CONTINUOUS
 62
256
 10
-312.068860558512820
 20
-118.877604071527440
 40
22.000000000000206
 50
159.594068226860770
 51
200.405931773139230
  0
ARC
  8
0
  6
CONTINUOUS
 62
256
 10
-312.068860558512820
 20
-118.877604071527440
 40
30.499999999999954
 50
156.813854344181150
 51
203.186145655818850
  0
ARC
  8
0
  6
CONTINUOUS
 62
256
 10
-312.068860558512820
 20
-118.877604071527440
 40
25.500000000000000
 50
157.589542391858000
 51
202.410457608142450
  0
ARC
  8
0
  6
CONTINUOUS
 62
256
 10
-312.068860558512820
 20
-118.877604071527440
 40
34.000000000000007
 50
155.739170477266780
 51
204.260829522733250
  0
ARC
  8
0
  6
CONTINUOUS
 62
256
 10
-312.068860558512820
 20
-118.877604071527440
 40
39.000000000000227
 50
155.284732954534800
 51
204.715267045465200
  0
LINE
  8
0
  6
CONTINUOUS
 62
256
 10
-309.568860558512820
 20
-148.169241103281140
 11
-309.568860558512820
 21
-145.145455144654760
  0
LINE
  8
0
  6
CONTINUOUS
 62
256
 10
-309.568860558512820
 20
-139.583883312375970
 11
-309.568860558512820
 21
-136.534047654537060
  0
LINE
  8
0
  6
CONTINUOUS
 62
256
 10
-309.568860558512820
 20
-130.877604071527460
 11
-309.568860558512820
 21
-127.709364937855280
  0
LINE
  8
0
  6
CONTINUOUS
 62
256
 10
-302.926555713099330
 20
-127.042667580988560
 11
-305.670331288123630
 21
-125.458548014152480
  0
LINE
  8
0
  6
CONTINUOUS
 62
256
 10
-295.386696718083840
 20
-131.395807201412940
 11
-298.027931875139980
 21
-129.870889372493370
  0
LINE
  8
0
  6
CONTINUOUS
 62
256
 10
-280.549782146082630
 20
-139.961903823501190
 11
-283.159906664188380
 21
-138.454947730354430
  0
LINE
  8
0
  6
CONTINUOUS
 62
256
 10
-309.568860558512820
 20
-156.716076556552480
 11
-309.568860558512820
 21
-153.702164370259200
  0
LINE
  8
0
  6
CONTINUOUS
 62
256
 10
-287.951558770580960
 20
-135.688486096865290
 11
-290.570234226358020
 21
-134.176593117552100
  0
ARC
  8
0
  6
CONTINUOUS
 62
256
 10
-312.068860558512820
 20
-118.877604071527440
 40
8.499999999999904
 50
291.618272422157700
 51
308.381727577842810
  0
ARC
  8
0
  6
CONTINUOUS
 62
256
 10
-312.068860558512820
 20
-118.877604071527440
 40
13.499999999999977
 50
286.260204708310820
 51
313.739795291687810
  0
ARC
  8
0
  6
CONTINUOUS
 62
256
 10
-312.068860558512820
 20
-118.877604071527440
 40
17.000000000000060
 50
281.212271417650020
 51
318.787728582350210
  0
ARC
  8
0
  6
CONTINUOUS
 62
256
 10
-312.068860558512820
 20
-118.877604071527440
 40
22.000000000000146
 50
279.594068226861170
 51
320.405931773139120
  0
ARC
  8
0
  6
CONTINUOUS
 62
256
 10
-312.068860558512820
 20
-118.877604071527440
 40
25.499999999999918
 50
277.589542391858170
 51
322.410457608142110
  0
ARC
  8
0
  6
CONTINUOUS
 62
256
 10
-312.068860558512820
 20
-118.877604071527440
 40
34.000000000000085
 50
275.739170477266950
 51
324.260829522732990
  0
ARC
  8
0
  6
CONTINUOUS
 62
256
 10
-312.068860558512820
 20
-118.877604071527440
 40
30.500000000000124
 50
276.813854344181040
 51
323.186145655818850
  0
ARC
  8
0
  6
CONTINUOUS
 62
256
 10
-312.068860558512820
 20
-118.877604071527440
 40
39.000000000000000
 50
275.284732954534600
 51
324.715267045465230
  0
ARC
  8
0
  6
CONTINUOUS
 62
256
 10
-306.170331288123630
 20
-126.324573417936790
 40
0.999999999999885
 50
59.999999999996206
 51
128.381727577839710
  0
ARC
  8
0
  6
CONTINUOUS
 62
256
 10
-308.568860558512820
 20
-127.709364937855280
 40
1.000000000000090
 50
111.618272422161990
 51
180.000000000000000
  0
ARC
  8
0
  6
CONTINUOUS
 62
256
 10
-308.568860558512820
 20
-130.877604071527460
 40
1.000000000000000
 50
180.000000000000000
 51
286.260204708296900
  0
ARC
  8
0
  6
CONTINUOUS
 62
256
 10
-303.426555713099330
 20
-127.908692984772870
 40
0.999999999999858
 50
313.739795291671330
 51
59.999999999995389
  0
ARC
  8
0
  6
CONTINUOUS
 62
256
 10
-298.527931875139980
 20
-130.736914776277900
 40
1.000000000000082
 50
60.000000000002721
 51
138.787728582338080
  0
ARC
  8
0
  6
CONTINUOUS
 62
256
 10
-295.886696718083840
 20
-132.261832605197240
 40
1.000000000000318
 50
320.405931773139570
 51
59.999999999995502
  0
ARC
  8
0
  6
CONTINUOUS
 62
256
 10
-308.568860558512820
 20
-136.534047654537060
 40
0.999999999999982
 50
101.212271417644000
 51
180.000000000000000
  0
ARC
  8
0
  6
CONTINUOUS
 62
256
 10
-308.568860558512820
 20
-139.583883312375970
 40
1.000000000000000
 50
180.000000000000000
 51
279.594068226874700
  0
ARC
  8
0
  6
CONTINUOUS
 62
256
 10
-308.568860558512820
 20
-148.169241103281140
 40
1.000000000000000
 50
180.000000000000000
 51
276.813854344180240
  0
ARC
  8
0
  6
CONTINUOUS
 62
256
 10
-291.070234226358020
 20
-135.042618521336640
 40
1.000000000000082
 50
60.000000000002721
 51
142.410457608146830
  0
ARC
  8
0
  6
CONTINUOUS
 62
256
 10
-288.451558770580960
 20
-136.554511500649600
 40
0.999999999999911
 50
323.186145655802870
 51
59.999999999997016
  0
ARC
  8
0
  6
CONTINUOUS
 62
256
 10
-308.568860558512820
 20
-145.145455144654760
 40
0.999999999999975
 50
97.589542391854238
 51
180.000000000000000
  0
ARC
  8
0
  6
CONTINUOUS
 62
256
 10
-308.568860558512820
 20
-156.716076556552480
 40
1.000000000000000
 50
180.000000000000000
 51
275.284732954535800
  0
ARC
  8
0
  6
CONTINUOUS
 62
256
 10
-308.568860558512820
 20
-153.702164370259200
 40
0.999999999999973
 50
95.739170477261709
 51
180.000000000000000
  0
ARC
  8
0
  6
CONTINUOUS
 62
256
 10
-283.659906664188380
 20
-139.320973134138740
 40
0.999999999999885
 50
59.999999999996206
 51
144.260829522735750
  0
ARC
  8
0
  6
CONTINUOUS
 62
256
 10
-281.049782146082630
 20
-140.827929227285720
 40
0.999999999999776
 50
324.715267045465680
 51
60.000000000003851
  0
CIRCLE
  8
0
  6
CONTINUOUS
 62
256
 10
-312.068860558512820
 20
-118.877604071527440
 40
5.000000000000000
  0
ARC
  8
0
  6
CONTINUOUS
 62
256
 10
-277.549782146082630
 20
-134.765751400794440
 40
0.999999999999885
 50
239.999999999996160
 51
335.284732954543760
  0
LINE
  8
0
  6
CONTINUOUS
 62
256
 10
-278.049782146082630
 20
-135.631776804578750
 11
-280.659906664188380
 21
-134.124820711432220
  0
ARC
  8
0
  6
CONTINUOUS
 62
256
 10
-312.068860558512820
 20
-118.877604071527440
 40
39.000000000000213
 50
335.284732954534830
 51
24.715267045465190
  0
ARC
  8
0
  6
CONTINUOUS
 62
256
 10
-312.068860558512820
 20
-118.877604071527440
 40
34.000000000000007
 50
335.739170477266780
 51
24.260829522733218
  0
ARC
  8
0
  6
CONTINUOUS
 62
256
 10
-312.068860558512820
 20
-118.877604071527440
 40
25.500000000000092
 50
337.589542391857440
 51
22.410457608142028
  0
ARC
  8
0
  6
CONTINUOUS
 62
256
 10
-312.068860558512820
 20
-118.877604071527440
 40
30.499999999999954
 50
336.813854344181150
 51
23.186145655818844
  0
ARC
  8
0
  6
CONTINUOUS
 62
256
 10
-284.951558770580960
 20
-130.492333674158770
 40
1.000000000000082
 50
240.000000000002670
 51
336.813854344180360
  0
LINE
  8
0
  6
CONTINUOUS
 62
256
 10
-285.451558770580960
 20
-131.358359077943310
 11
-288.070234226358480
 21
-129.846466098630340
  0
ARC
  8
0
  6
CONTINUOUS
 62
256
 10
-312.068860558512820
 20
-118.877604071527440
 40
22.000000000000206
 50
339.594068226860770
 51
20.405931773139223
  0
ARC
  8
0
  6
CONTINUOUS
 62
256
 10
-280.159906664188380
 20
-133.258795307647690
 40
0.999999999999769
 50
155.739170477266270
 51
240.000000000003040
  0
ARC
  8
0
  6
CONTINUOUS
 62
256
 10
-287.570234226358480
 20
-128.980440694845810
 40
0.999999999999701
 50
157.589542391853970
 51
240.000000000001420
  0
ARC
  8
0
  6
CONTINUOUS
 62
256
 10
-292.386696718083390
 20
-126.199654778706190
 40
0.999999999999885
 50
239.999999999996160
 51
339.594068226861740
  0
ARC
  8
0
  6
CONTINUOUS
 62
256
 10
-312.068860558512820
 20
-118.877604071527440
 40
17.000000000000146
 50
341.212271417650070
 51
18.787728582350436
  0
LINE
  8
0
  6
CONTINUOUS
 62
256
 10
-292.886696718083390
 20
-127.065680182490500
 11
-295.527931875139980
 21
-125.540762353570930
  0
ARC
  8
0
  6
CONTINUOUS
 62
256
 10
-295.027931875139980
 20
-124.674736949786620
 40
0.999999999999646
 50
161.212271417644640
 51
239.999999999995770
  0
ARC
  8
0
  6
CONTINUOUS
 62
256
 10
-312.068860558512820
 20
-118.877604071527440
 40
13.500000000000130
 50
346.260204708311850
 51
13.739795291688171
  0
ARC
  8
0
  6
CONTINUOUS
 62
256
 10
-299.926555713099330
 20
-121.846515158282050
 40
0.999999999999885
 50
239.999999999996160
 51
346.260204708314010
  0
LINE
  8
0
  6
CONTINUOUS
 62
256
 10
-300.426555713099330
 20
-122.712540562066350
 11
-303.170331288123630
 21
-121.128420995230270
  0
ARC
  8
0
  6
CONTINUOUS
 62
256
 10
-299.926555713099330
 20
-115.908692984772870
 40
0.999999999999879
 50
13.739795291686027
 51
120.000000000003810
  0
ARC
  8
0
  6
CONTINUOUS
 62
256
 10
-312.068860558512820
 20
-118.877604071527440
 40
8.499999999999972
 50
351.618272422157820
 51
8.381727577842204
  0
ARC
  8
0
  6
CONTINUOUS
 62
256
 10
-302.670331288123630
 20
-120.262395591445970
 40
1.000000000000059
 50
171.618272422154460
 51
239.999999999995050
  0
ARC
  8
0
  6
CONTINUOUS
 62
256
 10
-292.386696718083390
 20
-111.555553364348730
 40
1.000000000000094
 50
20.405931773138683
 51
120.000000000004160
  0
LINE
  8
0
  6
CONTINUOUS
 62
256
 10
-292.886696718083390
 20
-110.689527960564400
 11
-295.527931875139980
 21
-112.214445789483760
  0
ARC
  8
0
  6
CONTINUOUS
 62
256
 10
-295.027931875139980
 20
-113.080471193268290
 40
1.000000000000082
 50
119.999999999997300
 51
198.787728582347000
  0
LINE
  8
0
  6
CONTINUOUS
 62
256
 10
-300.426555713099330
 20
-115.042667580988560
 11
-303.170331288123630
 21
-116.626787147824640
  0
ARC
  8
0
  6
CONTINUOUS
 62
256
 10
-302.670331288123630
 20
-117.492812551609180
 40
1.000000000000082
 50
119.999999999997300
 51
188.381727577833000
  0
ARC
  8
0
  6
CONTINUOUS
 62
256
 10
-280.159906664188380
 20
-104.496412835407000
 40
0.999999999999885
 50
120.000000000003810
 51
204.260829522746350
  0
LINE
  8
0
  6
CONTINUOUS
 62
256
 10
-278.049782146082630
 20
-102.123431338475920
 11
-280.659906664188380
 21
-103.630387431622690
  0
ARC
  8
0
  6
CONTINUOUS
 62
256
 10
-277.549782146082630
 20
-102.989456742260470
 40
1.000000000000249
 50
24.715267045455473
 51
119.999999999996050
  0
ARC
  8
0
  6
CONTINUOUS
 62
256
 10
-287.570234226358480
 20
-108.774767448209330
 40
1.000000000000082
 50
119.999999999997300
 51
202.410457608146120
  0
LINE
  8
0
  6
CONTINUOUS
 62
256
 10
-285.451558770580960
 20
-106.396849065111610
 11
-288.070234226358480
 21
-107.908742044424780
  0
ARC
  8
0
  6
CONTINUOUS
 62
256
 10
-284.951558770580960
 20
-107.262874468896140
 40
0.999999999999730
 50
23.186145655819846
 51
119.999999999997370
  0
ARC
  8
0
  6
CONTINUOUS
 62
256
 10
-312.068860558512820
 20
-118.877604071527440
 40
38.999999999999865
 50
35.284732954534789
 51
84.715267045465410
  0
ARC
  8
0
  6
CONTINUOUS
 62
256
 10
-312.068860558512820
 20
-118.877604071527440
 40
33.999999999999829
 50
35.739170477266640
 51
84.260829522733033
  0
ARC
  8
0
  6
CONTINUOUS
 62
256
 10
-312.068860558512820
 20
-118.877604071527440
 40
25.499999999999890
 50
37.589542391857954
 51
82.410457608141925
  0
ARC
  8
0
  6
CONTINUOUS
 62
256
 10
-312.068860558512820
 20
-118.877604071527440
 40
30.499999999999964
 50
36.813854344181067
 51
83.186145655818933
  0
ARC
  8
0
  6
CONTINUOUS
 62
256
 10
-312.068860558512820
 20
-118.877604071527440
 40
22.000000000000025
 50
39.594068226860820
 51
80.405931773138747
  0
ARC
  8
0
  6
CONTINUOUS
 62
256
 10
-312.068860558512820
 20
-118.877604071527440
 40
17.000000000000114
 50
41.212271417649752
 51
78.787728582350042
  0
ARC
  8
0
  6
CONTINUOUS
 62
256
 10
-312.068860558512820
 20
-118.877604071527440
 40
13.499999999999927
 50
46.260204708312138
 51
73.739795291689092
  0
ARC
  8
0
  6
CONTINUOUS
 62
256
 10
-308.568860558512820
 20
-106.877604071527440
 40
0.999999999999964
 50
73.739795291702634
 51
180.000000000000000
  0
LINE
  8
0
  6
CONTINUOUS
 62
256
 10
-309.568860558512820
 20
-106.877604071527440
 11
-309.568860558512820
 21
-110.045843205199620
  0
ARC
  8
0
  6
CONTINUOUS
 62
256
 10
-303.426555713099330
 20
-109.846515158282050
 40
0.999999999999885
 50
300.000000000003810
 51
46.260204708329255
  0
ARC
  8
0
  6
CONTINUOUS
 62
256
 10
-312.068860558512820
 20
-118.877604071527440
 40
8.500000000000128
 50
51.618272422158320
 51
68.381727577842469
  0
ARC
  8
0
  6
CONTINUOUS
 62
256
 10
-308.568860558512820
 20
-110.045843205199620
 40
1.000000000000000
 50
180.000000000000000
 51
248.381727577839200
  0
ARC
  8
0
  6
CONTINUOUS
 62
256
 10
-295.886696718083840
 20
-105.493375537857450
 40
1.000000000000082
 50
299.999999999997270
 51
39.594068226849963
  0
LINE
  8
0
  6
CONTINUOUS
 62
256
 10
-295.386696718083840
 20
-106.359400941641970
 11
-298.027931875139980
 21
-107.884318770561530
  0
ARC
  8
0
  6
CONTINUOUS
 62
256
 10
-298.527931875139980
 20
-107.018293366777240
 40
0.999999999999673
 50
221.212271417651180
 51
300.000000000003410
  0
LINE
  8
0
  6
CONTINUOUS
 62
256
 10
-302.926555713099330
 20
-110.712540562066350
 11
-305.670331288123630
 21
-112.296660128902430
  0
ARC
  8
0
  6
CONTINUOUS
 62
256
 10
-306.170331288123630
 20
-111.430634725117880
 40
0.999999999999961
 50
231.618272422159780
 51
299.999999999997330
  0
ARC
  8
0
  6
CONTINUOUS
 62
256
 10
-283.659906664188380
 20
-98.434235008916176
 40
0.999999999999940
 50
215.739170477274090
 51
300.000000000002560
  0
LINE
  8
0
  6
CONTINUOUS
 62
256
 10
-280.549782146082630
 20
-97.793304319553727
 11
-283.159906664188380
 21
-99.300260412700482
  0
ARC
  8
0
  6
CONTINUOUS
 62
256
 10
-281.049782146082630
 20
-96.927278915769421
 40
0.999999999999885
 50
300.000000000003810
 51
35.284732954544275
  0
ARC
  8
0
  6
CONTINUOUS
 62
256
 10
-291.070234226358480
 20
-102.712589621718280
 40
0.999999999999834
 50
217.589542391867670
 51
299.999999999997730
  0
LINE
  8
0
  6
CONTINUOUS
 62
256
 10
-287.951558770580960
 20
-102.066722046189620
 11
-290.570234226358480
 21
-103.578615025502810
  0
ARC
  8
0
  6
CONTINUOUS
 62
256
 10
-288.451558770580960
 20
-101.200696642405090
 40
1.000000000000082
 50
299.999999999997270
 51
36.813854344187355
  0
ARC
  8
0
  6
CONTINUOUS
 62
256
 10
-308.568860558512820
 20
-81.039131586502435
 40
1.000000000000042
 50
84.715267045464316
 51
180.000000000000000
  0
LINE
  8
0
  6
CONTINUOUS
 62
256
 10
-309.568860558512820
 20
-81.039131586502435
 11
-309.568860558512820
 21
-84.053043772795718
  0
ARC
  8
0
  6
CONTINUOUS
 62
256
 10
-308.568860558512820
 20
-84.053043772795718
 40
1.000000000000000
 50
180.000000000000000
 51
264.260829522738450
  0
ARC
  8
0
  6
CONTINUOUS
 62
256
 10
-308.568860558512820
 20
-89.585967039773777
 40
1.000000000000077
 50
83.186145655820326
 51
180.000000000000000
  0
LINE
  8
0
  6
CONTINUOUS
 62
256
 10
-309.568860558512820
 20
-89.585967039773777
 11
-309.568860558512820
 21
-92.609752998399927
  0
ARC
  8
0
  6
CONTINUOUS
 62
256
 10
-308.568860558512820
 20
-92.609752998400154
 40
1.000000000000000
 50
179.999999999986980
 51
262.410457608142620
  0
ARC
  8
0
  6
CONTINUOUS
 62
256
 10
-308.568860558512820
 20
-98.171324830678941
 40
1.000000000000268
 50
80.405931773124522
 51
180.000000000000000
  0
LINE
  8
0
  6
CONTINUOUS
 62
256
 10
-309.568860558512820
 20
-98.171324830678941
 11
-309.568860558512820
 21
-101.221160488517850
  0
ARC
  8
0
  6
CONTINUOUS
 62
256
 10
-308.568860558512820
 20
-101.221160488517850
 40
1.000000000000000
 50
180.000000000000000
 51
258.787728582356180
  0
LINE
  8
0
  6
CONTINUOUS
 62
256
 10
-363.625327489102800
 20
-76.247447748069590
 11
-356.166632314431810
 21
-68.788752573397915
  0
LINE
  8
0
  6
CONTINUOUS
 62
256
 10
-363.625327489102800
 20
-161.507760394985330
 11
-356.166632314431810
 21
-168.966455569657000
  0
LINE
  8
0
  6
CONTINUOUS
 62
256
 10
-260.512393627922850
 20
-161.507760394985330
 11
-267.971088802593840
 21
-168.966455569657000
  0
LINE
  8
0
  6
CONTINUOUS
 62
256
 10
-260.512393627922850
 20
-76.247447748069590
 11
-267.971088802593840
 21
-68.788752573397915
  0
ARC
  8
0
  6
CONTINUOUS
 62
256
 10
-349.058927796659190
 20
-90.813847440511836
 40
20.600000000000069
 50
135.000000000002700
 51
174.247717268463480
  0
ARC
  8
0
  6
CONTINUOUS
 62
256
 10
-349.058927796659190
 20
-146.941360702543080
 40
20.599999999999916
 50
185.752282731536470
 51
224.999999999997300
  0
ARC
  8
0
  6
CONTINUOUS
 62
256
 10
-275.078793320366460
 20
-146.941360702543080
 40
20.600000000000069
 50
315.000000000002670
 51
354.247717268463480
  0
ARC
  8
0
  6
CONTINUOUS
 62
256
 10
-275.078793320366460
 20
-90.813847440511836
 40
20.599999999999916
 50
5.752282731536487
 51
44.999999999997314
  0
ARC
  8
0
  6
CONTINUOUS
 62
256
 10
-275.078793320366460
 20
-90.813847440511836
 40
10.797000000000011
 50
5.752282731536912
 51
44.999999999998295
  0
INSERT
  8
0
  2
ZU_SYM_2
 10
-393.513682764856180
 20
-159.796560682787910
 50
357.137594773886350
  0
LINE
  8
0
  6
CONTINUOUS
 62
256
 10
-342.318860558512820
 20
-177.877604071527460
 11
-342.318860558512820
 21
-175.377604071527510
  0
ARC
  8
0
  6
CONTINUOUS
 62
256
 10
-341.318860558512820
 20
-177.877604071527460
 40
1.000000000000000
 50
180.000000000000000
 51
270.000000000000000
  0
ARC
  8
0
  6
CONTINUOUS
 62
256
 10
-353.006550857490310
 20
-172.296366623292160
 40
1.000000000000073
 50
211.339195329083590
 51
330.462177926972630
  0
ARC
  8
0
  6
CONTINUOUS
 62
256
 10
-282.818860558512820
 20
-177.877604071527460
 40
1.000000000000000
 50
270.000000000000000
 51
0.000000000000000
  0
ARC
  8
0
  6
CONTINUOUS
 62
256
 10
-271.131170259535790
 20
-172.296366623292160
 40
0.999999999999816
 50
209.537822073039820
 51
328.660804670916550
  0
ARC
  8
0
  6
CONTINUOUS
 62
256
 10
-312.068860558513280
 20
-853.377604071527460
 40
799.999999999999890
 50
88.510141843146016
 51
90.000000000000000
  0
LINE
  8
0
  6
CONTINUOUS
 62
256
 10
-281.818860558512820
 20
-177.877604071527460
 11
-281.818860558512820
 21
-175.377604071527510
  0
ARC
  8
0
  6
CONTINUOUS
 62
256
 10
-285.318860558512820
 20
-55.170466990063801
 40
1.000000000000000
 50
0.000000000000000
 51
81.491323261740561
  0
LINE
  8
0
  6
CONTINUOUS
 62
256
 10
-284.318860558512820
 20
-55.170466990063801
 11
-284.318860558512820
 21
-62.877604071527571
  0
LINE
  8
0
  6
CONTINUOUS
 62
256
 10
-273.818860558512820
 20
-58.787669140883850
 11
-273.818860558512820
 21
-62.877604071527571
  0
ARC
  8
0
  6
CONTINUOUS
 62
256
 10
-272.818860558512820
 20
-58.787669140883850
 40
0.999999999999960
 50
66.230309577346389
 51
180.000000000000000
  0
ARC
  8
0
  6
CONTINUOUS
 62
256
 10
-351.318860558512820
 20
-58.787669140883850
 40
1.000000000000000
 50
0.000000000000000
 51
113.769690422677430
  0
ARC
  8
0
  6
CONTINUOUS
 62
256
 10
-338.818860558512820
 20
-55.170466990063801
 40
1.000000000000094
 50
98.508676738284976
 51
180.000000000000000
  0
LINE
  8
0
  6
CONTINUOUS
 62
256
 10
-350.318860558512820
 20
-58.787669140883850
 11
-350.318860558512820
 21
-62.877604071527571
  0
LINE
  8
0
  6
CONTINUOUS
 62
256
 10
-339.818860558512820
 20
-55.170466990063801
 11
-339.818860558512820
 21
-62.877604071527571
  0
ARC
  8
0
  6
CONTINUOUS
 62
256
 10
-272.568860558512820
 20
-177.877604071527460
 40
2.000000000000000
 50
270.000000000000000
 51
0.000000000000000
  0
ARC
  8
0
  6
CONTINUOUS
 62
256
 10
-276.568860558512820
 20
-174.877604071527460
 40
7.000000000000198
 50
214.849904579045360
 51
225.584691402805900
  0
ARC
  8
0
  6
CONTINUOUS
 62
256
 10
-347.568860558512820
 20
-174.877604071527510
 40
6.999999999999813
 50
314.415308597191370
 51
325.150095420952540
  0
ARC
  8
0
  6
CONTINUOUS
 62
256
 10
-351.568860558512820
 20
-177.877604071527510
 40
2.000000000000000
 50
180.000000000000000
 51
270.000000000000000
  0
ARC
  8
0
  6
CONTINUOUS
 62
256
 10
-312.068860558512820
 20
-853.377604071527460
 40
800.000000000000000
 50
90.000000000000000
 51
91.489858156853941
  0
ARC
  8
0
  6
CONTINUOUS
 62
256
 10
-355.568860558512820
 20
-173.856677168038060
 40
2.000000000000000
 50
0.000000000000000
 51
57.246536473980740
  0
ARC
  8
0
  6
CONTINUOUS
 62
256
 10
-268.568860558512820
 20
-173.856677168038000
 40
2.000000000000092
 50
122.753463526031060
 51
180.000000000000000
  0
LINE
  8
0
  6
CONTINUOUS
 62
256
 10
-353.568860558512820
 20
-177.877604071527510
 11
-353.568860558512820
 21
-173.856677168038060
  0
LINE
  8
0
  6
CONTINUOUS
 62
256
 10
-312.068860558512820
 20
-178.877604071527460
 11
-341.824297911975010
 21
-178.877604071527510
  0
LINE
  8
0
  6
CONTINUOUS
 62
256
 10
-312.068860558512820
 20
-178.877604071527460
 11
-282.313423205051090
 21
-178.877604071527460
  0
LINE
  8
0
  6
CONTINUOUS
 62
256
 10
-270.568860558512820
 20
-177.877604071527460
 11
-270.568860558512820
 21
-173.856677168038000
  0
LINE
  8
0
  6
DASHDOT
 62
256
 10
-312.068860558512820
 20
-118.877604071527440
 11
-312.068860558512820
 21
-100.877604071527440
  0
ARC
  8
0
  6
CONTINUOUS
 62
256
 10
-369.380661436549870
 20
-49.238841891210086
 40
2.000000000000016
 50
45.000000000000000
 51
135.000000000000000
  0
ARC
  8
0
  6
CONTINUOUS
 62
256
 10
-363.723807187057450
 20
-43.581987641717660
 40
2.000000000000016
 50
135.000000000000000
 51
225.000000000000000
  0
ARC
  8
0
  6
CONTINUOUS
 62
256
 10
-254.757059680475780
 20
-49.238841891210086
 40
2.000000000000177
 50
44.999999999995396
 51
134.999999999995400
  0
ARC
  8
0
  6
CONTINUOUS
 62
256
 10
-260.413913929968200
 20
-43.581987641717660
 40
2.000000000000177
 50
315.000000000004600
 51
44.999999999995396
  0
ARC
  8
0
  6
CONTINUOUS
 62
256
 10
-316.068860558512820
 20
-35.386331603991607
 40
2.000000000000000
 50
0.000000000000000
 51
90.000000000000000
  0
ARC
  8
0
  6
CONTINUOUS
 62
256
 10
-308.068860558512820
 20
-35.386331603991607
 40
2.000000000000000
 50
90.000000000000000
 51
180.000000000000000
  0
ARC
  8
0
  6
CONTINUOUS
 62
256
 10
-308.068860558512820
 20
-51.397505061638640
 40
2.000000000000000
 50
180.000000000000000
 51
269.429883333265310
  0
ARC
  8
0
  6
CONTINUOUS
 62
256
 10
-316.068860558512820
 20
-51.397505061638640
 40
2.000000000000087
 50
270.570116666734690
 51
0.000000000000000
  0
ARC
  8
0
  6
CONTINUOUS
 62
256
 10
-356.568860558512820
 20
-176.377604071527460
 40
3.000000000000000
 50
0.000000000000000
 51
90.000000000000000
  0
ARC
  8
0
  6
CONTINUOUS
 62
256
 10
-351.568860558512820
 20
-177.877604071527460
 40
2.000000000000000
 50
180.000000000000000
 51
270.000000000000000
  0
ARC
  8
0
  6
CONTINUOUS
 62
256
 10
-355.568860558512820
 20
-173.856677168038060
 40
2.000000000000000
 50
0.000000000000000
 51
57.246536473974864
  0
ARC
  8
0
  6
CONTINUOUS
 62
256
 10
-351.568860558512820
 20
-177.877604071527510
 40
2.000000000000000
 50
180.000000000000000
 51
270.000000000000000
  0
ARC
  8
0
  6
DASHDOT
 62
256
 10
-312.068860558512820
 20
-100.877604071527440
 40
89.999999999999943
 50
219.906632329724260
 51
230.093367670273150
  0
CIRCLE
  8
0
  6
CONTINUOUS
 62
256
 10
-375.708470865302390
 20
-164.517214378316450
 40
5.000000000000000
  0
ARC
  8
0
  6
CONTINUOUS
 62
256
 10
-376.068860558512820
 20
-164.877604071527460
 40
8.500000000000000
 50
180.000000000000000
 51
270.000000000000000
  0
ARC
  8
0
  6
CONTINUOUS
 62
256
 10
-267.568860558512820
 20
-176.377604071527510
 40
3.000000000000000
 50
90.000000000000000
 51
180.000000000000000
  0
ARC
  8
0
  6
CONTINUOUS
 62
256
 10
-272.568860558512820
 20
-177.877604071527510
 40
2.000000000000000
 50
270.000000000000000
 51
0.000000000000000
  0
ARC
  8
0
  6
CONTINUOUS
 62
256
 10
-272.568860558512820
 20
-177.877604071527510
 40
2.000000000000000
 50
270.000000000000000
 51
0.000000000000000
  0
ARC
  8
0
  6
CONTINUOUS
 62
256
 10
-276.568860558512820
 20
-174.877604071527510
 40
7.000000000000012
 50
214.849904579046410
 51
225.584691402807100
  0
ARC
  8
0
  6
DASHDOT
 62
256
 10
-312.068860558512820
 20
-100.877604071527440
 40
90.000000000000185
 50
309.906632329726960
 51
320.093367670275820
  0
CIRCLE
  8
0
  6
CONTINUOUS
 62
256
 10
-248.429250251723260
 20
-164.517214378316450
 40
5.000000000000000
  0
ARC
  8
0
  6
CONTINUOUS
 62
256
 10
-248.068860558512820
 20
-164.877604071527460
 40
8.500000000000057
 50
270.000000000000000
 51
0.000000000000000
  0
CIRCLE
  8
0
  6
CONTINUOUS
 62
256
 10
-375.708470865302390
 20
-37.237993764738462
 40
5.000000000000000
  0
ARC
  8
0
  6
DASHDOT
 62
256
 10
-312.068860558512820
 20
-100.877604071527440
 40
90.000000000000000
 50
129.906632329726850
 51
140.093367670275740
  0
ARC
  8
0
  6
DASHDOT
 62
256
 10
-312.068860558512820
 20
-100.877604071527440
 40
90.000000000000128
 50
39.906632329724161
 51
50.093367670273018
  0
CIRCLE
  8
0
  6
CONTINUOUS
 62
256
 10
-248.429250251723260
 20
-37.237993764738462
 40
5.000000000000000
  0
ARC
  8
0
  6
CONTINUOUS
 62
256
 10
-376.068860558512820
 20
-36.877604071527458
 40
8.500000000000000
 50
90.000000000000000
 51
180.000000000000000
  0
ARC
  8
0
  6
CONTINUOUS
 62
256
 10
-248.068860558512820
 20
-36.877604071527458
 40
8.500000000000000
 50
0.000000000000000
 51
90.000000000000000
  0
ARC
  8
0
  6
CONTINUOUS
 62
256
 10
-347.568860558512820
 20
-174.877604071527510
 40
6.999999999999971
 50
314.415308597192730
 51
325.150095420953510
  0
LINE
  8
0
  6
CONTINUOUS
 62
256
 10
-357.508253261830530
 20
-58.282822941183213
 11
-367.966447874176770
 21
-47.824628328836980
  0
LINE
  8
0
  6
CONTINUOUS
 62
256
 10
-352.852829341579990
 20
-57.281392611941442
 11
-365.138020749430550
 21
-44.996201204090767
  0
LINE
  8
0
  6
CONTINUOUS
 62
256
 10
-266.629467855195120
 20
-58.282822941183213
 11
-256.171273242848660
 21
-47.824628328836980
  0
LINE
  8
0
  6
CONTINUOUS
 62
256
 10
-271.284891775445660
 20
-57.281392611941442
 11
-258.999700367594870
 21
-44.996201204090767
  0
LINE
  8
0
  6
CONTINUOUS
 62
256
 10
-353.568860558512820
 20
-177.877604071527460
 11
-353.568860558512820
 21
-176.377604071527460
  0
LINE
  8
0
  6
CONTINUOUS
 62
256
 10
-353.568860558512820
 20
-177.877604071527510
 11
-353.568860558512820
 21
-173.856677168038060
  0
LINE
  8
0
  6
DASHDOT
 62
256
 10
-370.051616615809960
 20
-158.860360128824030
 11
-381.365325114794810
 21
-170.174068627808770
  0
LINE
  8
0
  6
CONTINUOUS
 62
256
 10
-356.568860558512820
 20
-173.377604071527460
 11
-376.068860558512820
 21
-173.377604071527460
  0
LINE
  8
0
  6
CONTINUOUS
 62
256
 10
-270.568860558512820
 20
-177.877604071527510
 11
-270.568860558512820
 21
-176.377604071527510
  0
LINE
  8
0
  6
CONTINUOUS
 62
256
 10
-270.568860558512820
 20
-177.877604071527510
 11
-270.568860558512820
 21
-173.856677168038060
  0
LINE
  8
0
  6
DASHDOT
 62
256
 10
-254.086104501215690
 20
-158.860360128824030
 11
-242.772396002230830
 21
-170.174068627808820
  0
LINE
  8
0
  6
CONTINUOUS
 62
256
 10
-342.669881072946510
 20
-179.877604071527460
 11
-281.467840044079140
 21
-179.877604071527510
  0
LINE
  8
0
  6
CONTINUOUS
 62
256
 10
-267.568860558512820
 20
-173.377604071527510
 11
-248.068860558512820
 21
-173.377604071527510
  0
LINE
  8
0
  6
CONTINUOUS
 62
256
 10
-312.068860558512820
 20
-178.877604071527510
 11
-282.313423205050870
 21
-178.877604071527510
  0
LINE
  8
0
  6
DASHDOT
 62
256
 10
-370.051616615809960
 20
-42.894848014230888
 11
-381.365325114794810
 21
-31.581139515246150
  0
LINE
  8
0
  6
DASHDOT
 62
256
 10
-254.086104501215690
 20
-42.894848014230888
 11
-242.772396002230830
 21
-31.581139515246150
  0
LINE
  8
0
  6
CONTINUOUS
 62
256
 10
-248.068860558512820
 20
-28.377604071527458
 11
-376.068860558512820
 21
-28.377604071527458
  0
LINE
  8
0
  6
CONTINUOUS
 62
256
 10
-314.068860558512820
 20
-51.397505061638640
 11
-314.068860558512820
 21
-35.386331603991607
  0
LINE
  8
0
  6
CONTINUOUS
 62
256
 10
-310.068860558512820
 20
-51.397505061638640
 11
-310.068860558512820
 21
-35.386331603991607
  0
LINE
  8
0
  6
CONTINUOUS
 62
256
 10
-312.068860558512820
 20
-178.877604071527510
 11
-341.824297911974780
 21
-178.877604071527510
  0
LINE
  8
0
  6
CONTINUOUS
 62
256
 10
75.277846375925421
 20
138.570538802687220
 11
75.277846375925421
 21
147.070536895338590
  0
LINE
  8
0
  6
CONTINUOUS
 62
256
 10
80.277846375925421
 20
147.070536895338590
 11
75.277846375925421
 21
147.070536895338590
  0
LINE
  8
0
  6
CONTINUOUS
 62
256
 10
80.277846375925421
 20
138.570538802687220
 11
75.277846375925421
 21
138.570538802687220
  0
LINE
  8
0
  6
CONTINUOUS
 62
256
 10
75.277846375925421
 20
81.070536895338591
 11
75.277846375925421
 21
72.570538802687224
  0
LINE
  8
0
  6
CONTINUOUS
 62
256
 10
80.277846375925421
 20
72.570538802687224
 11
75.277846375925421
 21
72.570538802687224
  0
LINE
  8
0
  6
CONTINUOUS
 62
256
 10
80.277846375925421
 20
81.070536895338591
 11
75.277846375925421
 21
81.070536895338591
  0
LINE
  8
0
  6
CONTINUOUS
 62
256
 10
75.277846375925421
 20
-120.127603117853140
 11
75.277846375925421
 21
-111.627605025201770
  0
LINE
  8
0
  6
CONTINUOUS
 62
256
 10
80.277846375925421
 20
-111.627605025201770
 11
75.277846375925421
 21
-111.627605025201770
  0
LINE
  8
0
  6
CONTINUOUS
 62
256
 10
80.277846375925421
 20
-120.127603117853140
 11
75.277846375925421
 21
-120.127603117853140
  0
TEXT
  8
0
  6
CONTINUOUS
 62
256
 10
-360.031280517578120
 20
52.105377197265625
 40
10.295999526977539
  1
ＳＣＡＬＥ１／１
 50
0.000002504478167
 41
0.984848625190477
  7
STANDARD1
  0
TEXT
  8
0
  6
CONTINUOUS
 62
256
 10
-360.031280517578120
 20
68.641380310058594
 40
10.295999526977539
  1
１／４０,１／５０
 50
0.000002504478167
 41
0.893116178458506
  7
STANDARD1
  0
TEXT
  8
0
  6
CONTINUOUS
 62
256
 10
-360.031280517578120
 20
85.177375793457031
 40
10.295999526977539
  1
０．２ｋＷ
 50
0.000002504478167
 41
0.984848625190477
  7
STANDARD1
  0
TEXT
  8
0
  6
CONTINUOUS
 62
256
 10
-360.031280517578120
 20
101.713378906250000
 40
10.295999526977539
  1
ＧＭ－ＳＦＳＢ
 50
0.000002504478167
 41
0.984848625190477
  7
STANDARD1
  0
TEXT
  8
0
  6
CONTINUOUS
 62
256
 10
-360.031280517578120
 20
118.249382019042970
 40
10.295999526977539
  1
三菱ギヤードモートル
 50
0.000002504478167
 41
0.984848625190477
  7
STANDARD1
  0
TEXT
  8
0
  6
CONTINUOUS
 62
256
 10
-360.031280517578120
 20
134.785385131835940
 40
10.295999526977539
  1
Ｓ１９６
 50
0.000002504478167
 41
0.984848625190477
  7
STANDARD1
  0
LINE
  8
0
  6
CONTINUOUS
 62
256
 10
-261.652147194782060
 20
-75.107694181210164
 11
-261.165343803076440
 21
-74.620890789504543
  0
LINE
  8
0
  6
CONTINUOUS
 62
256
 10
-268.298950668195740
 20
-68.460890707796452
 11
-267.812147276490120
 21
-67.974087316090831
  0
LINE
  8
0
  6
CONTINUOUS
 62
256
 10
-261.339008585813250
 20
-74.855147230359790
 11
-268.016107888286170
 21
-68.178047927886880
  0
LINE
  8
0
  6
CONTINUOUS
 62
256
 10
-261.652147194782060
 20
-75.107694181210164
 11
-268.298950668195740
 21
-68.460890707796452
  0
POINT
  8
0
  6
CONTINUOUS
 62
256
 10
-264.975548931488900
 20
-71.784292444503308
  0
ARC
  8
0
  6
CONTINUOUS
 62
256
 10
-267.238290496415910
 20
-74.047034009430348
 40
6.099999427795398
 50
354.601910595264880
 51
95.398072101891529
  0
LINE
  8
0
  6
CONTINUOUS
 62
256
 10
-362.485573922243590
 20
-75.107694181210164
 11
-362.972377313949210
 21
-74.620890789504543
  0
LINE
  8
0
  6
CONTINUOUS
 62
256
 10
-355.838770448829910
 20
-68.460890707796452
 11
-356.325573840535530
 21
-67.974087316090831
  0
LINE
  8
0
  6
CONTINUOUS
 62
256
 10
-362.798712531212400
 20
-74.855147230359790
 11
-356.121613228739480
 21
-68.178047927886880
  0
LINE
  8
0
  6
CONTINUOUS
 62
256
 10
-362.485573922243590
 20
-75.107694181210164
 11
-355.838770448829910
 21
-68.460890707796452
  0
POINT
  8
0
  6
CONTINUOUS
 62
256
 10
-359.162172185536750
 20
-71.784292444503308
  0
ARC
  8
0
  6
CONTINUOUS
 62
256
 10
-356.899430620609730
 20
-74.047034009430348
 40
6.099999427795419
 50
84.601927898108499
 51
185.398089404735090
  0
LINE
  8
0
  6
CONTINUOUS
 62
256
 10
-362.485573922243590
 20
-162.647513961844510
 11
-362.972377313949210
 21
-163.134317353550130
  0
LINE
  8
0
  6
CONTINUOUS
 62
256
 10
-355.838770448829910
 20
-169.294317435258250
 11
-356.325573840535530
 21
-169.781120826963840
  0
LINE
  8
0
  6
CONTINUOUS
 62
256
 10
-362.798712531212400
 20
-162.900060912694900
 11
-356.121613228739480
 21
-169.577160215167820
  0
LINE
  8
0
  6
CONTINUOUS
 62
256
 10
-362.485573922243590
 20
-162.647513961844510
 11
-355.838770448829910
 21
-169.294317435258250
  0
POINT
  8
0
  6
CONTINUOUS
 62
256
 10
-359.162172185536750
 20
-165.970915698551380
  0
ARC
  8
0
  6
CONTINUOUS
 62
256
 10
-356.899430620609730
 20
-163.708174133624340
 40
6.099999427795398
 50
174.601910595264910
 51
275.398072101891500
  0
LINE
  8
0
  6
CONTINUOUS
 62
256
 10
-261.652147194782060
 20
-162.647513961844510
 11
-261.165343803076440
 21
-163.134317353550130
  0
LINE
  8
0
  6
CONTINUOUS
 62
256
 10
-268.298950668195740
 20
-169.294317435258250
 11
-267.812147276490120
 21
-169.781120826963840
  0
LINE
  8
0
  6
CONTINUOUS
 62
256
 10
-261.339008585813250
 20
-162.900060912694900
 11
-268.016107888286170
 21
-169.577160215167820
  0
LINE
  8
0
  6
CONTINUOUS
 62
256
 10
-261.652147194782060
 20
-162.647513961844510
 11
-268.298950668195740
 21
-169.294317435258250
  0
POINT
  8
0
  6
CONTINUOUS
 62
256
 10
-264.975548931488900
 20
-165.970915698551380
  0
ARC
  8
0
  6
CONTINUOUS
 62
256
 10
-267.238290496415910
 20
-163.708174133624340
 40
6.099999427795406
 50
264.601927898108500
 51
5.398089404735109
  0
CIRCLE
  8
0
  6
CONTINUOUS
 62
256
 10
303.176562212885980
 20
-100.877604071527440
 40
65.000000000000000
  0
ENDSEC
  0
EOF
