  0
SECTION
  2
HEADER
  9
$FILLMODE
 70
1
  9
$TEXTSTYLE
  7
STANDARD1
  9
$ACADVER
  1
AC1009
  9
$DIMASZ
 40
1.931851648807023
  9
$DIMEXE
 40
2.000000000000000
  9
$DIMEXO
 40
1.000000000000000
  9
$DIMLFAC
 40
1.000000000000000
  9
$DIMSCALE
 40
1.000000000000000
  9
$DIMTAD
 70
1
  9
$DIMTFAC
 40
0.714285731315613
  9
$DIMTXT
 40
2.799999952316284
  9
$LUPREC
 70
3
  9
$TEXTSIZE
 40
2.799999952316284
  9
$REGENMODE
 70
1
  0
ENDSEC
  0
SECTION
  2
TABLES
  0
TABLE
  2
LTYPE
 70
4
  0
LTYPE
  2
CONTINUOUS
 70
64
  3
Solid line
 72
65
 73
0
 40
0.0
  0
LTYPE
  2
DASHED
 70
64
  3
-- -- -- -- -- -- -- -- -- -- -- -- -- -- --
 72
65
 73
2
 40
0.75
 49
0.5
 49
-0.25
  0
LTYPE
  2
DASHDOT
 70
64
  3
__ . __ . __ . __ . __ . __ . __ . __ . __ . __
 72
65
 73
4
 40
1.0
 49
0.5
 49
-0.25
 49
0.0
 49
-0.25
  0
LTYPE
  2
DIVIDE
 70
64
  3
__ . . __ . . __ . . __ . . __ . . __ . . __
 72
65
 73
6
 40
1.25
 49
0.5
 49
-0.25
 49
0.0
 49
-0.25
 49
0.0
 49
-0.25
  0
ENDTAB
  0
TABLE
  2
LAYER
 70
1
  0
LAYER
  2
0
 70
64
 62
2
  6
CONTINUOUS
  0
ENDTAB
  0
TABLE
  2
STYLE
 70
4
  0
STYLE
  2
STANDARD1
 70
64
 40
0.0
 41
1.0
 50
0.0
 71
0
 42
2.799999952316284
  3
MONOTXT
  4
BIGFONT
  0
STYLE
  2
STANDARD2
 70
68
 40
0.0
 41
1.0
 50
0.0
 71
0
 42
2.799999952316284
  3
MONOTXT
  4
BIGFONT
  0
STYLE
  2
STANDARD3
 70
64
 40
0.0
 41
1.0
 50
0.0
 71
0
 42
2.799999952316284
  3
MONOTXT
  4

  0
STYLE
  2
STANDARD4
 70
68
 40
0.0
 41
1.0
 50
0.0
 71
0
 42
2.799999952316284
  3
MONOTXT
  4

  0
ENDTAB
  0
TABLE
  2
VIEW
 70
0
  0
ENDTAB
  0
ENDSEC
  0
SECTION
  2
BLOCKS
  0
BLOCK
  8
0
  2
SYM1
 70
64
 10
0.000000000000000
 20
0.000000000000000
  0
ARC
  8
0
  6
CONTINUOUS
 62
3
 10
-0.979025304317474
 20
-2.200000762939453
 40
1.299999237060547
 50
196.601531107481040
 51
270.000000000000000
  0
ARC
  8
0
  6
CONTINUOUS
 62
3
 10
-0.979025304317474
 20
2.200000762939453
 40
1.299999237060547
 50
90.000000000000000
 51
163.398451589674950
  0
LINE
  8
0
  6
CONTINUOUS
 62
3
 10
-0.000000000000000
 20
-3.500000000000000
 11
-0.979025304317474
 21
-3.500000000000000
  0
LINE
  8
0
  6
CONTINUOUS
 62
3
 10
0.000000000000000
 20
3.500000000000000
 11
-0.979025304317474
 21
3.500000000000000
  0
LINE
  8
0
  6
CONTINUOUS
 62
3
 10
0.000000000000000
 20
-3.500000000000000
 11
-0.000000000000000
 21
3.500000000000000
  0
LINE
  8
0
  6
CONTINUOUS
 62
3
 10
0.000000000000000
 20
-3.500000000000000
 11
-0.000000000000000
 21
3.500000000000000
  0
POINT
  8
0
  6
CONTINUOUS
 62
3
 10
0.000000000000000
 20
0.000000000000000
  0
ARC
  8
0
  6
CONTINUOUS
 62
3
 10
6.399999618530273
 20
0.000000000000000
 40
9.000000000000000
 50
163.398451589674950
 51
196.601531107481040
  0
ENDBLK
  8
0
  0
BLOCK
  8
0
  2
SYM2
 70
64
 10
0.000000000000000
 20
0.000000000000000
  0
ARC
  8
0
  6
CONTINUOUS
 62
3
 10
-0.979025304317474
 20
-2.200000762939453
 40
1.299999237060547
 50
196.601531107481040
 51
270.000000000000000
  0
ARC
  8
0
  6
CONTINUOUS
 62
3
 10
-0.979025304317474
 20
2.200000762939453
 40
1.299999237060547
 50
90.000000000000000
 51
163.398451589674950
  0
LINE
  8
0
  6
CONTINUOUS
 62
3
 10
-0.000000000000000
 20
-3.500000000000000
 11
-0.979025304317474
 21
-3.500000000000000
  0
LINE
  8
0
  6
CONTINUOUS
 62
3
 10
0.000000000000000
 20
3.500000000000000
 11
-0.979025304317474
 21
3.500000000000000
  0
LINE
  8
0
  6
CONTINUOUS
 62
3
 10
0.000000000000000
 20
-3.500000000000000
 11
-0.000000000000000
 21
3.500000000000000
  0
LINE
  8
0
  6
CONTINUOUS
 62
3
 10
0.000000000000000
 20
-3.500000000000000
 11
-0.000000000000000
 21
3.500000000000000
  0
POINT
  8
0
  6
CONTINUOUS
 62
3
 10
0.000000000000000
 20
0.000000000000000
  0
ARC
  8
0
  6
CONTINUOUS
 62
3
 10
6.399999618530273
 20
0.000000000000000
 40
9.000000000000000
 50
163.398451589674950
 51
196.601531107481040
  0
ENDBLK
  8
0
  0
ENDSEC
  0
SECTION
  2
ENTITIES
  0
LINE
  8
0
  6
CONTINUOUS
 62
3
 10
291.564483979243390
 20
-231.224962243623850
 11
390.047911539328990
 21
-231.224962243623850
  0
CIRCLE
  8
0
  6
CONTINUOUS
 62
3
 10
340.806197759286080
 20
-126.724962243623850
 40
85.000000000000000
  0
TEXT
  8
0
  6
CONTINUOUS
 62
3
 10
-376.999420166015620
 20
130.831604003906250
 40
10.295999526977539
  1
Ｓ１９８
 50
0.000002504478167
 41
0.984848625190477
  7
STANDARD1
  0
TEXT
  8
0
  6
CONTINUOUS
 62
3
 10
-376.999420166015620
 20
114.295593261718750
 40
10.295999526977539
  1
三菱ギヤードモートル
 50
0.000002504478167
 41
0.984848625190477
  7
STANDARD1
  0
TEXT
  8
0
  6
CONTINUOUS
 62
3
 10
-376.999420166015620
 20
97.759590148925781
 40
10.295999526977539
  1
ＧＭ－ＳＦＳＢ
 50
0.000002504478167
 41
0.984848625190477
  7
STANDARD1
  0
TEXT
  8
0
  6
CONTINUOUS
 62
3
 10
-376.999420166015620
 20
81.223594665527344
 40
10.295999526977539
  1
０．２ｋＷ
 50
0.000002504478167
 41
0.984848625190477
  7
STANDARD1
  0
TEXT
  8
0
  6
CONTINUOUS
 62
3
 10
-376.999420166015620
 20
64.687591552734375
 40
10.295999526977539
  1
１／１２０～１／２００
 50
0.000002504478167
 41
0.984848625190477
  7
STANDARD1
  0
TEXT
  8
0
  6
CONTINUOUS
 62
3
 10
-376.999420166015620
 20
48.151592254638672
 40
10.295999526977539
  1
ＳＣＡＬＥ１／１
 50
0.000002504478167
 41
0.984848625190477
  7
STANDARD1
  0
LINE
  8
0
  6
CONTINUOUS
 62
3
 10
46.702584609335645
 20
102.123697601659840
 11
60.202584609334167
 21
102.123697601659840
  0
LINE
  8
0
  6
CONTINUOUS
 62
3
 10
46.702584609335645
 20
130.123697601659840
 11
60.202584609334174
 21
130.123697601659840
  0
ARC
  8
0
  6
CONTINUOUS
 62
3
 10
-331.578762147433170
 20
-521.724962243847810
 40
449.999999999999830
 50
87.841596534959393
 51
90.000000000000000
  0
ARC
  8
0
  6
CONTINUOUS
 62
3
 10
-346.078762147433170
 20
-136.998111088381820
 40
64.999999999999730
 50
92.158403465040337
 51
153.982816491506410
  0
ARC
  8
0
  6
CONTINUOUS
 62
3
 10
-331.578762147432940
 20
-521.724962243847810
 40
450.000000000000000
 50
90.000000000000000
 51
92.158403465040564
  0
ARC
  8
0
  6
CONTINUOUS
 62
3
 10
-331.578762147433170
 20
-152.724962243623820
 40
83.000000000000014
 50
204.554472145841880
 51
230.428105065559090
  0
ARC
  8
0
  6
CONTINUOUS
 62
3
 10
-331.578762147433170
 20
-152.724962243623820
 40
82.999999999999986
 50
309.571894934440880
 51
334.295176584100830
  0
ARC
  8
0
  6
CONTINUOUS
 62
3
 10
-317.078762147432940
 20
-136.998111088381820
 40
65.000000000000014
 50
18.173444894457514
 51
87.841596534959464
  0
LINE
  8
0
  6
CONTINUOUS
 62
3
 10
59.202584609345649
 20
-157.724962243623850
 11
59.202584609345649
 21
-147.724962243623850
  0
LINE
  8
0
  6
CONTINUOUS
 62
3
 10
65.202584609345649
 20
-147.724962243623850
 11
59.202584609345649
 21
-147.724962243623850
  0
LINE
  8
0
  6
CONTINUOUS
 62
3
 10
65.202584609345649
 20
-157.724962243623850
 11
59.202584609345649
 21
-157.724962243623850
  0
LINE
  8
0
  6
CONTINUOUS
 62
3
 10
65.202584609335645
 20
79.123697601658932
 11
59.202584609335645
 21
79.123697601658932
  0
LINE
  8
0
  6
CONTINUOUS
 62
3
 10
65.202584609335645
 20
69.123697601658932
 11
59.202584609335645
 21
69.123697601658932
  0
LINE
  8
0
  6
CONTINUOUS
 62
3
 10
59.202584609335645
 20
79.123697601658932
 11
59.202584609335645
 21
69.123697601658932
  0
LINE
  8
0
  6
CONTINUOUS
 62
3
 10
65.202584609335645
 20
153.123697601659840
 11
59.202584609335645
 21
153.123697601659840
  0
LINE
  8
0
  6
CONTINUOUS
 62
3
 10
65.202584609335645
 20
163.123697601659840
 11
59.202584609335645
 21
163.123697601659840
  0
LINE
  8
0
  6
CONTINUOUS
 62
3
 10
59.202584609335645
 20
153.123697601659840
 11
59.202584609335645
 21
163.123697601659840
  0
LINE
  8
0
  6
CONTINUOUS
 62
3
 10
-416.578762147433170
 20
-31.724962243623850
 11
-246.578762147433170
 21
-31.724962243624077
  0
LINE
  8
0
  6
CONTINUOUS
 62
3
 10
-236.578762147433170
 20
-41.724962243624077
 11
-236.578762147433170
 21
-211.724962243624130
  0
LINE
  8
0
  6
CONTINUOUS
 62
3
 10
-280.868556561205540
 20
-221.724962243624130
 11
-246.578762147433170
 21
-221.724962243624130
  0
LINE
  8
0
  6
CONTINUOUS
 62
3
 10
-416.578762147433170
 20
-221.724962243623910
 11
-382.288967733660800
 21
-221.724962243623910
  0
LINE
  8
0
  6
CONTINUOUS
 62
3
 10
-334.078762147433170
 20
-37.224962243623963
 11
-334.078762147433170
 21
-68.758351995365956
  0
LINE
  8
0
  6
CONTINUOUS
 62
3
 10
-382.786403018731220
 20
-79.052855278258676
 11
-396.632586016595380
 21
-65.206672280394287
  0
LINE
  8
0
  6
CONTINUOUS
 62
3
 10
-285.988182972381200
 20
-77.598849162639112
 11
-270.060472184203600
 21
-61.671138374461520
  0
ARC
  8
0
  6
CONTINUOUS
 62
3
 10
-388.275852262705140
 20
-221.328460495977710
 40
6.000000000000070
 50
348.059665094244340
 51
50.428105065558938
  0
ARC
  8
0
  6
CONTINUOUS
 62
3
 10
-274.881672032160960
 20
-221.328460495977710
 40
6.000000000000001
 50
129.571894934442720
 51
191.940334905755690
  0
ARC
  8
0
  6
CONTINUOUS
 62
3
 10
-374.578762147433170
 20
-224.224962243623910
 40
7.999999999999885
 50
168.059665094243460
 51
223.432536557789920
  0
ARC
  8
0
  6
CONTINUOUS
 62
3
 10
-288.578762147433170
 20
-224.224962243623910
 40
8.000000000000142
 50
316.567463442211190
 51
11.940334905756204
  0
ARC
  8
0
  6
CONTINUOUS
 62
3
 10
-375.048020978925360
 20
-75.477528819079680
 40
2.999999999999944
 50
225.000000000001530
 51
295.215148958216560
  0
ARC
  8
0
  6
CONTINUOUS
 62
3
 10
-384.907723362290770
 20
-81.174175621818335
 40
2.999999999999977
 50
304.820974823218140
 51
45.000000000001542
  0
ARC
  8
0
  6
CONTINUOUS
 62
3
 10
-288.109503315940970
 20
-75.477528819079453
 40
3.000000000000029
 50
244.784851041784350
 51
315.000000000001530
  0
ARC
  8
0
  6
CONTINUOUS
 62
3
 10
-278.249800932575570
 20
-81.174175621818108
 40
2.999999999999864
 50
135.000000000000000
 51
235.179025176783090
  0
ARC
  8
0
  6
CONTINUOUS
 62
3
 10
-416.578762147433170
 20
-41.724962243623850
 40
10.000000000000000
 50
90.000000000000000
 51
180.000000000000000
  0
CIRCLE
  8
0
  6
CONTINUOUS
 62
3
 10
-414.663808936852430
 20
-43.639915454204584
 40
6.000000000000000
  0
ARC
  8
0
  6
CONTINUOUS
 62
3
 10
-246.578762147433170
 20
-41.724962243624077
 40
10.000000000000000
 50
0.000000000000000
 51
90.000000000000000
  0
CIRCLE
  8
0
  6
CONTINUOUS
 62
3
 10
-248.493715358013900
 20
-43.639915454204584
 40
6.000000000000000
  0
ARC
  8
0
  6
CONTINUOUS
 62
3
 10
-246.578762147433170
 20
-211.724962243624130
 40
10.000000000000000
 50
270.000000000000000
 51
0.000000000000000
  0
ARC
  8
0
  6
CONTINUOUS
 62
3
 10
-416.578762147433170
 20
-211.724962243623910
 40
10.000000000000000
 50
180.000000000000000
 51
270.000000000000000
  0
CIRCLE
  8
0
  6
CONTINUOUS
 62
3
 10
-248.493715358014130
 20
-209.810009033043400
 40
6.000000000000000
  0
CIRCLE
  8
0
  6
CONTINUOUS
 62
3
 10
-414.663808936851980
 20
-209.810009033043400
 40
6.000000000000000
  0
ARC
  8
0
  6
CONTINUOUS
 62
3
 10
-337.078762147433170
 20
-68.758351995365956
 40
3.000000000000050
 50
270.695661214153010
 51
0.000000000000000
  0
ARC
  8
0
  6
CONTINUOUS
 62
3
 10
-326.078762147433170
 20
-68.758351995365956
 40
3.000000000000000
 50
180.000000000000000
 51
269.304338785846990
  0
ARC
  8
0
  6
CONTINUOUS
 62
3
 10
-272.181792527763150
 20
-59.549818030901974
 40
2.999999999999944
 50
314.999999999998470
 51
45.000000000001542
  0
ARC
  8
0
  6
CONTINUOUS
 62
3
 10
-264.403617934711180
 20
-67.327992623953946
 40
3.000000000000105
 50
44.999999999998472
 51
134.999999999998470
  0
LINE
  8
0
  6
CONTINUOUS
 62
3
 10
-280.371121276135110
 20
-79.052855278258562
 11
-266.524938278270950
 21
-65.206672280394287
  0
ARC
  8
0
  6
CONTINUOUS
 62
3
 10
-326.078762147433170
 20
-37.224962243623963
 40
3.000000000000000
 50
90.000000000000000
 51
180.000000000000000
  0
LINE
  8
0
  6
CONTINUOUS
 62
3
 10
-329.078762147433170
 20
-37.224962243623963
 11
-329.078762147433170
 21
-68.758351995365956
  0
ARC
  8
0
  6
CONTINUOUS
 62
3
 10
-337.078762147433170
 20
-37.224962243623963
 40
3.000000000000000
 50
0.000000000000000
 51
90.000000000000000
  0
ARC
  8
0
  6
CONTINUOUS
 62
3
 10
-390.975731767102960
 20
-59.549818030901974
 40
3.000000000000105
 50
135.000000000001530
 51
224.999999999998470
  0
ARC
  8
0
  6
CONTINUOUS
 62
3
 10
-398.753906360155160
 20
-67.327992623953946
 40
3.000000000000105
 50
44.999999999998472
 51
134.999999999998470
  0
LINE
  8
0
  6
CONTINUOUS
 62
3
 10
-377.169341322484910
 20
-77.598849162639340
 11
-393.097052110662730
 21
-61.671138374461634
  0
LINE
  8
0
  6
CONTINUOUS
 62
3
 10
-296.578762147433170
 20
-79.034760598611228
 11
-296.578762147433170
 21
-86.724962243623850
  0
LINE
  8
0
  6
CONTINUOUS
 62
3
 10
-366.578762147433170
 20
-79.034760598611228
 11
-366.578762147433170
 21
-86.724962243623850
  0
ARC
  8
0
  6
CONTINUOUS
 62
3
 10
-389.220897771164230
 20
-203.296030055488980
 40
3.000000000000024
 50
224.999999999996960
 51
315.000000000000000
  0
ARC
  8
0
  6
CONTINUOUS
 62
3
 10
-382.149829959298930
 20
-210.367097867354520
 40
2.999999999999864
 50
135.000000000000000
 51
225.000000000000000
  0
ARC
  8
0
  6
CONTINUOUS
 62
3
 10
-273.936626523702100
 20
-203.296030055488980
 40
2.999999999999864
 50
225.000000000000000
 51
315.000000000003070
  0
ARC
  8
0
  6
CONTINUOUS
 62
3
 10
-281.007694335567410
 20
-210.367097867354520
 40
2.999999999999864
 50
315.000000000000000
 51
45.000000000000000
  0
ARC
  8
0
  6
CONTINUOUS
 62
3
 10
-273.936626523702100
 20
-102.153894431758540
 40
3.000000000000024
 50
44.999999999996930
 51
135.000000000000000
  0
ARC
  8
0
  6
CONTINUOUS
 62
3
 10
-281.007694335567410
 20
-95.082826619893240
 40
2.999999999999864
 50
315.000000000000000
 51
45.000000000003077
  0
ARC
  8
0
  6
CONTINUOUS
 62
3
 10
-382.149829959298930
 20
-95.082826619893240
 40
3.000000000000024
 50
134.999999999996930
 51
225.000000000000000
  0
ARC
  8
0
  6
CONTINUOUS
 62
3
 10
-389.220897771164230
 20
-102.153894431758540
 40
2.999999999999864
 50
45.000000000000000
 51
135.000000000003040
  0
ARC
  8
0
  6
CONTINUOUS
 62
3
 10
-289.578762147433170
 20
-86.724962243623850
 40
7.000000000000000
 50
180.000000000000000
 51
338.520534180738930
  0
ARC
  8
0
  6
CONTINUOUS
 62
3
 10
-373.578762147433170
 20
-86.724962243623850
 40
7.000000000000041
 50
201.479465819260380
 51
0.000000000000000
  0
ARC
  8
0
  6
CONTINUOUS
 62
3
 10
-288.578762147433170
 20
-224.224962243623910
 40
6.999999999999920
 50
61.263962136560927
 51
180.000000000000000
  0
LINE
  8
0
  6
CONTINUOUS
 62
3
 10
-295.578762147433170
 20
-224.224962243623910
 11
-295.578762147433170
 21
-224.724962243623910
  0
ARC
  8
0
  6
CONTINUOUS
 62
3
 10
-288.578762147433170
 20
-224.224962243623910
 40
7.999999999999977
 50
316.567463442210060
 51
11.940334905756542
  0
ARC
  8
0
  6
CONTINUOUS
 62
3
 10
-274.881672032161190
 20
-221.328460495977710
 40
5.999999999999855
 50
129.571894934441050
 51
191.940334905755690
  0
ARC
  8
0
  6
CONTINUOUS
 62
3
 10
-388.275852262705140
 20
-221.328460495977710
 40
5.999999999999847
 50
348.059665094243880
 51
50.428105065558938
  0
ARC
  8
0
  6
CONTINUOUS
 62
3
 10
-374.578762147433170
 20
-224.224962243623910
 40
8.000000000000108
 50
168.059665094243800
 51
223.432536557789920
  0
ARC
  8
0
  6
CONTINUOUS
 62
3
 10
-374.578762147433170
 20
-224.224962243623910
 40
7.000000000000000
 50
0.000000000000000
 51
118.736037863439060
  0
LINE
  8
0
  6
CONTINUOUS
 62
3
 10
-367.578762147433170
 20
-224.224962243623910
 11
-367.578762147433170
 21
-224.724962243623910
  0
ARC
  8
0
  6
CONTINUOUS
 62
3
 10
-361.578762147433170
 20
-79.034760598611228
 40
4.999999999999904
 50
104.971190995949040
 51
180.000000000000000
  0
ARC
  8
0
  6
CONTINUOUS
 62
3
 10
-384.745348446526690
 20
-91.118975264188975
 40
4.999999999999919
 50
21.479465819263282
 51
130.123934227061850
  0
ARC
  8
0
  6
CONTINUOUS
 62
3
 10
-362.578762147433170
 20
-224.724962243623910
 40
5.000000000000000
 50
180.000000000000000
 51
270.000000000000000
  0
ARC
  8
0
  6
CONTINUOUS
 62
3
 10
-380.348063458535650
 20
-213.702834969079560
 40
4.999999999999753
 50
223.887028754553090
 51
298.736037863439320
  0
ARC
  8
0
  6
CONTINUOUS
 62
3
 10
-282.809460836330910
 20
-213.702834969079560
 40
4.999999999999922
 50
241.263962136562950
 51
316.112971245448760
  0
ARC
  8
0
  6
CONTINUOUS
 62
3
 10
-300.578762147433170
 20
-224.724962243623910
 40
5.000000000000000
 50
270.000000000000000
 51
0.000000000000000
  0
ARC
  8
0
  6
CONTINUOUS
 62
3
 10
-301.578762147433170
 20
-79.034760598611228
 40
5.000000000000000
 50
0.000000000000000
 51
75.028809004050956
  0
ARC
  8
0
  6
CONTINUOUS
 62
3
 10
-278.412175848339640
 20
-91.118975264188975
 40
5.000000000000052
 50
49.876065772938119
 51
158.520534180736720
  0
LINE
  8
0
  6
DASHDOT
 62
4
 10
-406.779702735767500
 20
-202.031834439991140
 11
-422.336051921871440
 21
-217.588183626095090
  0
ARC
  8
0
  6
DASHDOT
 62
4
 10
-331.472830539400660
 20
-126.724962243623850
 40
117.499999999999840
 50
219.796735883285490
 51
230.364178174483900
  0
ARC
  8
0
  6
DASHDOT
 62
4
 10
-331.472830539400660
 20
-126.724962243623850
 40
117.499999999999640
 50
309.635821825516080
 51
320.364178174483240
  0
LINE
  8
0
  6
DASHDOT
 62
4
 10
-256.234208419564540
 20
-201.963584363461050
 11
-240.609780118209760
 21
-217.588012664815920
  0
LINE
  8
0
  6
DASHDOT
 62
4
 10
-405.714346577489320
 20
-52.483446205534904
 11
-422.878492936191260
 21
-35.319299846832791
  0
ARC
  8
0
  6
DASHDOT
 62
4
 10
-331.472830539400660
 20
-126.724962243623850
 40
117.499999999999780
 50
129.635821825516160
 51
140.364178174483360
  0
ARC
  8
0
  6
DASHDOT
 62
4
 10
-331.472830539400660
 20
-126.724962243623850
 40
117.499999999999850
 50
39.788646815325841
 51
50.364178174483833
  0
LINE
  8
0
  6
DASHDOT
 62
4
 10
-256.881331632902170
 20
-52.133463337125193
 11
-240.609609156929420
 21
-35.861740861152612
  0
LINE
  8
0
  6
DASHDOT
 62
4
 10
-311.350492734207360
 20
-126.724962243623850
 11
-351.598263265052080
 21
-126.724962243623850
  0
INSERT
  8
0
  2
SYM1
 10
-413.023584353776530
 20
-193.643918854884300
 41
1.000000000000000
 42
1.000000000000000
 43
1.000000000000000
 50
357.137594773886350
  0
ARC
  8
0
  6
CONTINUOUS
 62
4
 10
-294.588694909286800
 20
-124.661205612608220
 40
10.797000000000011
 50
5.752282731536912
 51
44.999999999998295
  0
ARC
  8
0
  6
CONTINUOUS
 62
3
 10
-294.588694909286800
 20
-124.661205612608220
 40
20.599999999999916
 50
5.752282731536487
 51
44.999999999997321
  0
ARC
  8
0
  6
CONTINUOUS
 62
3
 10
-294.588694909286800
 20
-180.788718874639470
 40
20.600000000000069
 50
315.000000000002670
 51
354.247717268463480
  0
ARC
  8
0
  6
CONTINUOUS
 62
3
 10
-368.568829385579530
 20
-180.788718874639470
 40
20.599999999999916
 50
185.752282731536500
 51
224.999999999997330
  0
ARC
  8
0
  6
CONTINUOUS
 62
3
 10
-368.568829385579530
 20
-124.661205612608220
 40
20.600000000000069
 50
135.000000000002670
 51
174.247717268463500
  0
LINE
  8
0
  6
CONTINUOUS
 62
3
 10
-280.022295216843190
 20
-110.094805920165980
 11
-287.480990391514180
 21
-102.636110745494300
  0
LINE
  8
0
  6
CONTINUOUS
 62
3
 10
-280.022295216843190
 20
-195.355118567081720
 11
-287.480990391514180
 21
-202.813813741753390
  0
LINE
  8
0
  6
CONTINUOUS
 62
3
 10
-383.135229078023140
 20
-195.355118567081720
 11
-375.676533903352150
 21
-202.813813741753390
  0
LINE
  8
0
  6
CONTINUOUS
 62
3
 10
-383.135229078023140
 20
-110.094805920165980
 11
-375.676533903352150
 21
-102.636110745494300
  0
ARC
  8
0
  6
CONTINUOUS
 62
3
 10
-328.078762147433170
 20
-135.068518660614250
 40
1.000000000000000
 50
180.000000000000000
 51
258.787728582356010
  0
LINE
  8
0
  6
CONTINUOUS
 62
3
 10
-329.078762147433170
 20
-132.018683002775330
 11
-329.078762147433170
 21
-135.068518660614250
  0
ARC
  8
0
  6
CONTINUOUS
 62
3
 10
-328.078762147433170
 20
-132.018683002775330
 40
1.000000000000268
 50
80.405931773124522
 51
180.000000000000000
  0
ARC
  8
0
  6
CONTINUOUS
 62
3
 10
-328.078762147433170
 20
-126.457111170496540
 40
1.000000000000000
 50
179.999999999986980
 51
262.410457608144040
  0
LINE
  8
0
  6
CONTINUOUS
 62
3
 10
-329.078762147433170
 20
-123.433325211870160
 11
-329.078762147433170
 21
-126.457111170496310
  0
ARC
  8
0
  6
CONTINUOUS
 62
3
 10
-328.078762147433170
 20
-123.433325211870160
 40
1.000000000000077
 50
83.186145655820312
 51
180.000000000000000
  0
ARC
  8
0
  6
CONTINUOUS
 62
3
 10
-328.078762147433170
 20
-117.900401944892110
 40
1.000000000000000
 50
180.000000000000000
 51
264.260829522738280
  0
LINE
  8
0
  6
CONTINUOUS
 62
3
 10
-329.078762147433170
 20
-114.886489758598820
 11
-329.078762147433170
 21
-117.900401944892110
  0
ARC
  8
0
  6
CONTINUOUS
 62
3
 10
-328.078762147433170
 20
-114.886489758598820
 40
1.000000000000042
 50
84.715267045464302
 51
180.000000000000000
  0
ARC
  8
0
  6
CONTINUOUS
 62
3
 10
-307.961460359501300
 20
-135.048054814501480
 40
1.000000000000082
 50
299.999999999997270
 51
36.813854344186687
  0
LINE
  8
0
  6
CONTINUOUS
 62
3
 10
-307.461460359501300
 20
-135.914080218286020
 11
-310.080135815278820
 21
-137.425973197599210
  0
ARC
  8
0
  6
CONTINUOUS
 62
3
 10
-310.580135815278820
 20
-136.559947793814670
 40
0.999999999999834
 50
217.589542391867670
 51
299.999999999997270
  0
ARC
  8
0
  6
CONTINUOUS
 62
3
 10
-300.559683735002980
 20
-130.774637087865810
 40
0.999999999999885
 50
300.000000000003810
 51
35.284732954544943
  0
LINE
  8
0
  6
CONTINUOUS
 62
3
 10
-300.059683735002980
 20
-131.640662491650120
 11
-302.669808253108730
 21
-133.147618584796870
  0
ARC
  8
0
  6
CONTINUOUS
 62
3
 10
-303.169808253108730
 20
-132.281593181012570
 40
0.999999999999940
 50
215.739170477274090
 51
300.000000000003810
  0
ARC
  8
0
  6
CONTINUOUS
 62
3
 10
-325.680232877043980
 20
-145.277992897214290
 40
0.999999999999961
 50
231.618272422159780
 51
299.999999999997270
  0
LINE
  8
0
  6
CONTINUOUS
 62
3
 10
-322.436457302019680
 20
-144.559898734162740
 11
-325.180232877043980
 21
-146.144018300998820
  0
ARC
  8
0
  6
CONTINUOUS
 62
3
 10
-318.037833464060330
 20
-140.865651538873640
 40
0.999999999999673
 50
221.212271417651210
 51
300.000000000003810
  0
LINE
  8
0
  6
CONTINUOUS
 62
3
 10
-314.896598307004180
 20
-140.206759113738370
 11
-317.537833464060330
 21
-141.731676942657940
  0
ARC
  8
0
  6
CONTINUOUS
 62
3
 10
-315.396598307004180
 20
-139.340733709953840
 40
1.000000000000082
 50
299.999999999997270
 51
39.594068226850403
  0
ARC
  8
0
  6
CONTINUOUS
 62
3
 10
-328.078762147433170
 20
-143.893201377296010
 40
1.000000000000000
 50
180.000000000000000
 51
248.381727577838030
  0
ARC
  8
0
  6
CONTINUOUS
 62
3
 10
-331.578762147433170
 20
-152.724962243623850
 40
8.500000000000128
 50
51.618272422158320
 51
68.381727577842284
  0
ARC
  8
0
  6
CONTINUOUS
 62
3
 10
-322.936457302019680
 20
-143.693873330378440
 40
0.999999999999885
 50
300.000000000003810
 51
46.260204708328693
  0
LINE
  8
0
  6
CONTINUOUS
 62
3
 10
-329.078762147433170
 20
-140.724962243623850
 11
-329.078762147433170
 21
-143.893201377296010
  0
ARC
  8
0
  6
CONTINUOUS
 62
3
 10
-328.078762147433170
 20
-140.724962243623850
 40
0.999999999999964
 50
73.739795291702634
 51
180.000000000000000
  0
ARC
  8
0
  6
CONTINUOUS
 62
3
 10
-331.578762147433170
 20
-152.724962243623850
 40
13.499999999999927
 50
46.260204708312145
 51
73.739795291689134
  0
ARC
  8
0
  6
CONTINUOUS
 62
3
 10
-331.578762147433170
 20
-152.724962243623850
 40
17.000000000000114
 50
41.212271417649760
 51
78.787728582349985
  0
ARC
  8
0
  6
CONTINUOUS
 62
3
 10
-331.578762147433170
 20
-152.724962243623850
 40
22.000000000000025
 50
39.594068226860820
 51
80.405931773138789
  0
ARC
  8
0
  6
CONTINUOUS
 62
3
 10
-331.578762147433170
 20
-152.724962243623850
 40
30.499999999999964
 50
36.813854344181067
 51
83.186145655818962
  0
ARC
  8
0
  6
CONTINUOUS
 62
3
 10
-331.578762147433170
 20
-152.724962243623850
 40
25.499999999999890
 50
37.589542391857961
 51
82.410457608141883
  0
ARC
  8
0
  6
CONTINUOUS
 62
3
 10
-331.578762147433170
 20
-152.724962243623850
 40
33.999999999999829
 50
35.739170477266640
 51
84.260829522733076
  0
ARC
  8
0
  6
CONTINUOUS
 62
3
 10
-331.578762147433170
 20
-152.724962243623850
 40
38.999999999999865
 50
35.284732954534789
 51
84.715267045465410
  0
ARC
  8
0
  6
CONTINUOUS
 62
3
 10
-304.461460359501300
 20
-141.110232640992540
 40
0.999999999999730
 50
23.186145655819850
 51
119.999999999997270
  0
LINE
  8
0
  6
CONTINUOUS
 62
3
 10
-304.961460359501300
 20
-140.244207237208000
 11
-307.580135815278820
 21
-141.756100216521190
  0
ARC
  8
0
  6
CONTINUOUS
 62
3
 10
-307.080135815278820
 20
-142.622125620305720
 40
1.000000000000082
 50
119.999999999997270
 51
202.410457608146060
  0
ARC
  8
0
  6
CONTINUOUS
 62
3
 10
-297.059683735002980
 20
-136.836814914356860
 40
1.000000000000248
 50
24.715267045455477
 51
119.999999999997270
  0
LINE
  8
0
  6
CONTINUOUS
 62
3
 10
-297.559683735002980
 20
-135.970789510572330
 11
-300.169808253108730
 21
-137.477745603719090
  0
ARC
  8
0
  6
CONTINUOUS
 62
3
 10
-299.669808253108730
 20
-138.343771007503390
 40
0.999999999999885
 50
120.000000000003780
 51
204.260829522745610
  0
ARC
  8
0
  6
CONTINUOUS
 62
3
 10
-322.180232877043980
 20
-151.340170723705570
 40
1.000000000000082
 50
119.999999999997270
 51
188.381727577832660
  0
LINE
  8
0
  6
CONTINUOUS
 62
3
 10
-319.936457302019680
 20
-148.890025753084960
 11
-322.680232877043980
 21
-150.474145319921040
  0
ARC
  8
0
  6
CONTINUOUS
 62
3
 10
-314.537833464060330
 20
-146.927829365364690
 40
1.000000000000082
 50
119.999999999997270
 51
198.787728582347000
  0
LINE
  8
0
  6
CONTINUOUS
 62
3
 10
-312.396598307003730
 20
-144.536886132660810
 11
-315.037833464060330
 21
-146.061803961580150
  0
ARC
  8
0
  6
CONTINUOUS
 62
3
 10
-311.896598307003730
 20
-145.402911536445120
 40
1.000000000000094
 50
20.405931773138686
 51
120.000000000003780
  0
ARC
  8
0
  6
CONTINUOUS
 62
3
 10
-322.180232877043980
 20
-154.109753763542360
 40
1.000000000000059
 50
171.618272422154460
 51
239.999999999996220
  0
ARC
  8
0
  6
CONTINUOUS
 62
3
 10
-331.578762147433170
 20
-152.724962243623850
 40
8.499999999999972
 50
351.618272422157820
 51
8.381727577842204
  0
ARC
  8
0
  6
CONTINUOUS
 62
3
 10
-319.436457302019680
 20
-149.756051156869260
 40
0.999999999999879
 50
13.739795291686027
 51
120.000000000003780
  0
LINE
  8
0
  6
CONTINUOUS
 62
3
 10
-319.936457302019680
 20
-156.559898734162740
 11
-322.680232877043980
 21
-154.975779167326660
  0
ARC
  8
0
  6
CONTINUOUS
 62
3
 10
-319.436457302019680
 20
-155.693873330378440
 40
0.999999999999885
 50
239.999999999996220
 51
346.260204708314010
  0
ARC
  8
0
  6
CONTINUOUS
 62
3
 10
-331.578762147433170
 20
-152.724962243623850
 40
13.500000000000130
 50
346.260204708311850
 51
13.739795291688171
  0
ARC
  8
0
  6
CONTINUOUS
 62
3
 10
-314.537833464060330
 20
-158.522095121883010
 40
0.999999999999646
 50
161.212271417644620
 51
239.999999999996220
  0
LINE
  8
0
  6
CONTINUOUS
 62
3
 10
-312.396598307003730
 20
-160.913038354586890
 11
-315.037833464060330
 21
-159.388120525667320
  0
ARC
  8
0
  6
CONTINUOUS
 62
3
 10
-331.578762147433170
 20
-152.724962243623850
 40
17.000000000000146
 50
341.212271417650070
 51
18.787728582350418
  0
ARC
  8
0
  6
CONTINUOUS
 62
3
 10
-311.896598307003730
 20
-160.047012950802580
 40
0.999999999999885
 50
239.999999999996220
 51
339.594068226861340
  0
ARC
  8
0
  6
CONTINUOUS
 62
3
 10
-307.080135815278820
 20
-162.827798866942200
 40
0.999999999999701
 50
157.589542391853940
 51
240.000000000002730
  0
ARC
  8
0
  6
CONTINUOUS
 62
3
 10
-299.669808253108730
 20
-167.106153479744080
 40
0.999999999999769
 50
155.739170477266270
 51
240.000000000002730
  0
ARC
  8
0
  6
CONTINUOUS
 62
3
 10
-331.578762147433170
 20
-152.724962243623850
 40
22.000000000000206
 50
339.594068226860770
 51
20.405931773139226
  0
LINE
  8
0
  6
CONTINUOUS
 62
3
 10
-304.961460359501300
 20
-165.205717250039700
 11
-307.580135815278820
 21
-163.693824270726740
  0
ARC
  8
0
  6
CONTINUOUS
 62
3
 10
-304.461460359501300
 20
-164.339691846255160
 40
1.000000000000082
 50
240.000000000002730
 51
336.813854344180130
  0
ARC
  8
0
  6
CONTINUOUS
 62
3
 10
-331.578762147433170
 20
-152.724962243623850
 40
30.499999999999947
 50
336.813854344181150
 51
23.186145655818844
  0
ARC
  8
0
  6
CONTINUOUS
 62
3
 10
-331.578762147433170
 20
-152.724962243623850
 40
25.500000000000085
 50
337.589542391857490
 51
22.410457608142021
  0
ARC
  8
0
  6
CONTINUOUS
 62
3
 10
-331.578762147433170
 20
-152.724962243623850
 40
34.000000000000007
 50
335.739170477266780
 51
24.260829522733218
  0
ARC
  8
0
  6
CONTINUOUS
 62
3
 10
-331.578762147433170
 20
-152.724962243623850
 40
39.000000000000220
 50
335.284732954534830
 51
24.715267045465190
  0
LINE
  8
0
  6
CONTINUOUS
 62
3
 10
-297.559683735002980
 20
-169.479134976675140
 11
-300.169808253108730
 21
-167.972178883528610
  0
ARC
  8
0
  6
CONTINUOUS
 62
3
 10
-297.059683735002980
 20
-168.613109572890830
 40
0.999999999999885
 50
239.999999999996220
 51
335.284732954544490
  0
CIRCLE
  8
0
  6
CONTINUOUS
 62
3
 10
-331.578762147433170
 20
-152.724962243623850
 40
5.000000000000000
  0
ARC
  8
0
  6
CONTINUOUS
 62
3
 10
-300.559683735002980
 20
-174.675287399382110
 40
0.999999999999776
 50
324.715267045465680
 51
60.000000000002721
  0
ARC
  8
0
  6
CONTINUOUS
 62
3
 10
-303.169808253108730
 20
-173.168331306235130
 40
0.999999999999885
 50
59.999999999996206
 51
144.260829522736490
  0
ARC
  8
0
  6
CONTINUOUS
 62
3
 10
-328.078762147433170
 20
-187.549522542355590
 40
0.999999999999973
 50
95.739170477261709
 51
180.000000000000000
  0
ARC
  8
0
  6
CONTINUOUS
 62
3
 10
-328.078762147433170
 20
-190.563434728648870
 40
1.000000000000000
 50
180.000000000000000
 51
275.284732954535740
  0
ARC
  8
0
  6
CONTINUOUS
 62
3
 10
-328.078762147433170
 20
-178.992813316751150
 40
0.999999999999975
 50
97.589542391854238
 51
180.000000000000000
  0
ARC
  8
0
  6
CONTINUOUS
 62
3
 10
-307.961460359501300
 20
-170.401869672745990
 40
0.999999999999911
 50
323.186145655802870
 51
59.999999999996206
  0
ARC
  8
0
  6
CONTINUOUS
 62
3
 10
-310.580135815278370
 20
-168.889976693433030
 40
1.000000000000082
 50
60.000000000002721
 51
142.410457608148220
  0
ARC
  8
0
  6
CONTINUOUS
 62
3
 10
-328.078762147433170
 20
-182.016599275377530
 40
1.000000000000000
 50
180.000000000000000
 51
276.813854344179670
  0
ARC
  8
0
  6
CONTINUOUS
 62
3
 10
-328.078762147433170
 20
-173.431241484472370
 40
1.000000000000000
 50
180.000000000000000
 51
279.594068226875490
  0
ARC
  8
0
  6
CONTINUOUS
 62
3
 10
-328.078762147433170
 20
-170.381405826633450
 40
0.999999999999982
 50
101.212271417644000
 51
180.000000000000000
  0
ARC
  8
0
  6
CONTINUOUS
 62
3
 10
-315.396598307004180
 20
-166.109190777293630
 40
1.000000000000318
 50
320.405931773139570
 51
59.999999999996206
  0
ARC
  8
0
  6
CONTINUOUS
 62
3
 10
-318.037833464060330
 20
-164.584272948374290
 40
1.000000000000082
 50
60.000000000002721
 51
138.787728582338990
  0
ARC
  8
0
  6
CONTINUOUS
 62
3
 10
-322.936457302019680
 20
-161.756051156869260
 40
0.999999999999858
 50
313.739795291671330
 51
59.999999999996206
  0
ARC
  8
0
  6
CONTINUOUS
 62
3
 10
-328.078762147433170
 20
-164.724962243623850
 40
1.000000000000000
 50
180.000000000000000
 51
286.260204708297350
  0
ARC
  8
0
  6
CONTINUOUS
 62
3
 10
-328.078762147433170
 20
-161.556723109951690
 40
1.000000000000090
 50
111.618272422161970
 51
180.000000000000000
  0
ARC
  8
0
  6
CONTINUOUS
 62
3
 10
-325.680232877043980
 20
-160.171931590033180
 40
0.999999999999885
 50
59.999999999996206
 51
128.381727577840220
  0
ARC
  8
0
  6
CONTINUOUS
 62
3
 10
-331.578762147433170
 20
-152.724962243623850
 40
38.999999999999986
 50
275.284732954534600
 51
324.715267045465230
  0
ARC
  8
0
  6
CONTINUOUS
 62
3
 10
-331.578762147433170
 20
-152.724962243623850
 40
30.500000000000135
 50
276.813854344181040
 51
323.186145655818900
  0
ARC
  8
0
  6
CONTINUOUS
 62
3
 10
-331.578762147433170
 20
-152.724962243623850
 40
34.000000000000071
 50
275.739170477266950
 51
324.260829522733050
  0
ARC
  8
0
  6
CONTINUOUS
 62
3
 10
-331.578762147433170
 20
-152.724962243623850
 40
25.499999999999932
 50
277.589542391858170
 51
322.410457608142050
  0
ARC
  8
0
  6
CONTINUOUS
 62
3
 10
-331.578762147433170
 20
-152.724962243623850
 40
22.000000000000131
 50
279.594068226861170
 51
320.405931773139170
  0
ARC
  8
0
  6
CONTINUOUS
 62
3
 10
-331.578762147433170
 20
-152.724962243623850
 40
17.000000000000046
 50
281.212271417650020
 51
318.787728582350210
  0
ARC
  8
0
  6
CONTINUOUS
 62
3
 10
-331.578762147433170
 20
-152.724962243623850
 40
13.499999999999963
 50
286.260204708310820
 51
313.739795291687870
  0
ARC
  8
0
  6
CONTINUOUS
 62
3
 10
-331.578762147433170
 20
-152.724962243623850
 40
8.499999999999904
 50
291.618272422157700
 51
308.381727577842640
  0
LINE
  8
0
  6
CONTINUOUS
 62
3
 10
-307.461460359501300
 20
-169.535844268961680
 11
-310.080135815278370
 21
-168.023951289648490
  0
LINE
  8
0
  6
CONTINUOUS
 62
3
 10
-329.078762147433170
 20
-190.563434728648870
 11
-329.078762147433170
 21
-187.549522542355590
  0
LINE
  8
0
  6
CONTINUOUS
 62
3
 10
-300.059683735002980
 20
-173.809261995597580
 11
-302.669808253108730
 21
-172.302305902450830
  0
LINE
  8
0
  6
CONTINUOUS
 62
3
 10
-314.896598307004180
 20
-165.243165373509330
 11
-317.537833464060330
 21
-163.718247544589760
  0
LINE
  8
0
  6
CONTINUOUS
 62
3
 10
-322.436457302019680
 20
-160.890025753084960
 11
-325.180232877043980
 21
-159.305906186248880
  0
LINE
  8
0
  6
CONTINUOUS
 62
3
 10
-329.078762147433170
 20
-164.724962243623850
 11
-329.078762147433170
 21
-161.556723109951690
  0
LINE
  8
0
  6
CONTINUOUS
 62
3
 10
-329.078762147433170
 20
-173.431241484472370
 11
-329.078762147433170
 21
-170.381405826633450
  0
LINE
  8
0
  6
CONTINUOUS
 62
3
 10
-329.078762147433170
 20
-182.016599275377530
 11
-329.078762147433170
 21
-178.992813316751150
  0
ARC
  8
0
  6
CONTINUOUS
 62
3
 10
-331.578762147433170
 20
-152.724962243623850
 40
39.000000000000220
 50
155.284732954534800
 51
204.715267045465200
  0
ARC
  8
0
  6
CONTINUOUS
 62
3
 10
-331.578762147433170
 20
-152.724962243623850
 40
34.000000000000007
 50
155.739170477266780
 51
204.260829522733220
  0
ARC
  8
0
  6
CONTINUOUS
 62
3
 10
-331.578762147433170
 20
-152.724962243623850
 40
25.500000000000000
 50
157.589542391857980
 51
202.410457608142480
  0
ARC
  8
0
  6
CONTINUOUS
 62
3
 10
-331.578762147433170
 20
-152.724962243623850
 40
30.499999999999947
 50
156.813854344181150
 51
203.186145655818850
  0
ARC
  8
0
  6
CONTINUOUS
 62
3
 10
-331.578762147433170
 20
-152.724962243623850
 40
22.000000000000206
 50
159.594068226860770
 51
200.405931773139230
  0
ARC
  8
0
  6
CONTINUOUS
 62
3
 10
-331.578762147433170
 20
-152.724962243623850
 40
16.999999999999716
 50
161.212271417649560
 51
198.787728582350440
  0
ARC
  8
0
  6
CONTINUOUS
 62
3
 10
-331.578762147433170
 20
-152.724962243623850
 40
13.499999999999687
 50
166.260204708311360
 51
193.739795291688180
  0
ARC
  8
0
  6
CONTINUOUS
 62
3
 10
-343.721066992846660
 20
-149.756051156869260
 40
0.999999999999885
 50
59.999999999996206
 51
166.260204708307780
  0
ARC
  8
0
  6
CONTINUOUS
 62
3
 10
-351.260925987862610
 20
-145.402911536445120
 40
0.999999999999885
 50
59.999999999996206
 51
159.594068226861310
  0
LINE
  8
0
  6
CONTINUOUS
 62
3
 10
-350.760925987862610
 20
-144.536886132660810
 11
-348.119690830806010
 21
-146.061803961580150
  0
ARC
  8
0
  6
CONTINUOUS
 62
3
 10
-348.619690830806010
 20
-146.927829365364690
 40
1.000000000000076
 50
341.212271417652970
 51
60.000000000002721
  0
LINE
  8
0
  6
CONTINUOUS
 62
3
 10
-343.221066992846660
 20
-148.890025753084960
 11
-340.477291417822360
 21
-150.474145319921040
  0
ARC
  8
0
  6
CONTINUOUS
 62
3
 10
-340.977291417822360
 20
-151.340170723705570
 40
1.000000000000026
 50
351.618272422167310
 51
60.000000000002721
  0
ARC
  8
0
  6
CONTINUOUS
 62
3
 10
-363.487716041757610
 20
-138.343771007503390
 40
0.999999999999863
 50
335.739170477254390
 51
59.999999999996206
  0
LINE
  8
0
  6
CONTINUOUS
 62
3
 10
-365.597840559863360
 20
-135.970789510572330
 11
-362.987716041757610
 21
-137.477745603719090
  0
ARC
  8
0
  6
CONTINUOUS
 62
3
 10
-366.097840559863360
 20
-136.836814914356860
 40
1.000000000000082
 50
60.000000000002721
 51
155.284732954544520
  0
ARC
  8
0
  6
CONTINUOUS
 62
3
 10
-356.077388479587510
 20
-142.622125620305720
 40
0.999999999999701
 50
337.589542391853970
 51
60.000000000002721
  0
LINE
  8
0
  6
CONTINUOUS
 62
3
 10
-358.196063935365030
 20
-140.244207237208000
 11
-355.577388479587510
 21
-141.756100216521190
  0
ARC
  8
0
  6
CONTINUOUS
 62
3
 10
-358.696063935365030
 20
-141.110232640992540
 40
1.000000000000082
 50
60.000000000002721
 51
156.813854344180160
  0
ARC
  8
0
  6
CONTINUOUS
 62
3
 10
-331.578762147433170
 20
-152.724962243623850
 40
38.999999999999986
 50
95.284732954534590
 51
144.715267045465200
  0
ARC
  8
0
  6
CONTINUOUS
 62
3
 10
-331.578762147433170
 20
-152.724962243623850
 40
34.000000000000071
 50
95.739170477266924
 51
144.260829522733360
  0
ARC
  8
0
  6
CONTINUOUS
 62
3
 10
-331.578762147433170
 20
-152.724962243623850
 40
25.500000000000160
 50
97.589542391858117
 51
142.410457608142050
  0
ARC
  8
0
  6
CONTINUOUS
 62
3
 10
-331.578762147433170
 20
-152.724962243623850
 40
30.500000000000135
 50
96.813854344181038
 51
143.186145655818930
  0
ARC
  8
0
  6
CONTINUOUS
 62
3
 10
-331.578762147433170
 20
-152.724962243623850
 40
22.000000000000131
 50
99.594068226861211
 51
140.405931773139200
  0
ARC
  8
0
  6
CONTINUOUS
 62
3
 10
-331.578762147433170
 20
-152.724962243623850
 40
17.000000000000046
 50
101.212271417650010
 51
138.787728582350240
  0
ARC
  8
0
  6
CONTINUOUS
 62
3
 10
-331.578762147433170
 20
-152.724962243623850
 40
13.499999999999963
 50
106.260204708310860
 51
133.739795291687870
  0
ARC
  8
0
  6
CONTINUOUS
 62
3
 10
-335.078762147433170
 20
-140.724962243623850
 40
1.000000000000000
 50
0.000000000000000
 51
106.260204708297360
  0
LINE
  8
0
  6
CONTINUOUS
 62
3
 10
-334.078762147433170
 20
-140.724962243623850
 11
-334.078762147433170
 21
-143.893201377296010
  0
ARC
  8
0
  6
CONTINUOUS
 62
3
 10
-340.221066992846660
 20
-143.693873330378440
 40
0.999999999999858
 50
133.739795291671300
 51
239.999999999996220
  0
ARC
  8
0
  6
CONTINUOUS
 62
3
 10
-331.578762147433170
 20
-152.724962243623850
 40
8.499999999999904
 50
111.618272422157710
 51
128.381727577841670
  0
ARC
  8
0
  6
CONTINUOUS
 62
3
 10
-335.078762147433170
 20
-143.893201377296010
 40
1.000000000000090
 50
291.618272422161970
 51
0.000000000000000
  0
ARC
  8
0
  6
CONTINUOUS
 62
3
 10
-347.760925987862150
 20
-139.340733709953840
 40
1.000000000000173
 50
140.405931773149600
 51
240.000000000002730
  0
LINE
  8
0
  6
CONTINUOUS
 62
3
 10
-348.260925987862150
 20
-140.206759113738370
 11
-345.619690830806010
 21
-141.731676942657940
  0
ARC
  8
0
  6
CONTINUOUS
 62
3
 10
-345.119690830806010
 20
-140.865651538873640
 40
0.999999999999885
 50
239.999999999996220
 51
318.787728582348790
  0
LINE
  8
0
  6
CONTINUOUS
 62
3
 10
-340.721066992846660
 20
-144.559898734162740
 11
-337.977291417822360
 21
-146.144018300998820
  0
ARC
  8
0
  6
CONTINUOUS
 62
3
 10
-337.477291417822360
 20
-145.277992897214290
 40
1.000000000000082
 50
240.000000000002730
 51
308.381727577840190
  0
ARC
  8
0
  6
CONTINUOUS
 62
3
 10
-359.987716041757610
 20
-132.281593181012570
 40
0.999999999999885
 50
239.999999999996220
 51
324.260829522725940
  0
LINE
  8
0
  6
CONTINUOUS
 62
3
 10
-363.097840559863360
 20
-131.640662491650120
 11
-360.487716041757610
 21
-133.147618584796870
  0
ARC
  8
0
  6
CONTINUOUS
 62
3
 10
-362.597840559863360
 20
-130.774637087865810
 40
0.999999999999908
 50
144.715267045455050
 51
239.999999999996220
  0
ARC
  8
0
  6
CONTINUOUS
 62
3
 10
-352.577388479587510
 20
-136.559947793814670
 40
1.000000000000082
 50
240.000000000002730
 51
322.410457608132330
  0
LINE
  8
0
  6
CONTINUOUS
 62
3
 10
-355.696063935365030
 20
-135.914080218286020
 11
-353.077388479587510
 21
-137.425973197599210
  0
ARC
  8
0
  6
CONTINUOUS
 62
3
 10
-355.196063935365030
 20
-135.048054814501480
 40
0.999999999999774
 50
143.186145655813330
 51
240.000000000002730
  0
ARC
  8
0
  6
CONTINUOUS
 62
3
 10
-335.078762147433170
 20
-114.886489758598820
 40
1.000000000000000
 50
0.000000000000000
 51
95.284732954535698
  0
LINE
  8
0
  6
CONTINUOUS
 62
3
 10
-334.078762147433170
 20
-114.886489758598820
 11
-334.078762147433170
 21
-117.900401944892110
  0
ARC
  8
0
  6
CONTINUOUS
 62
3
 10
-335.078762147433170
 20
-117.900401944892110
 40
0.999999999999973
 50
275.739170477261670
 51
0.000000000000000
  0
ARC
  8
0
  6
CONTINUOUS
 62
3
 10
-335.078762147433170
 20
-123.433325211870160
 40
1.000000000000000
 50
0.000000000000000
 51
96.813854344179688
  0
LINE
  8
0
  6
CONTINUOUS
 62
3
 10
-334.078762147433170
 20
-123.433325211870160
 11
-334.078762147433170
 21
-126.457111170496310
  0
ARC
  8
0
  6
CONTINUOUS
 62
3
 10
-335.078762147433170
 20
-126.457111170496540
 40
0.999999999999749
 50
277.589542391855960
 51
0.000000000013028
  0
ARC
  8
0
  6
CONTINUOUS
 62
3
 10
-335.078762147433170
 20
-132.018683002775330
 40
1.000000000000000
 50
0.000000000000000
 51
99.594068226875478
  0
LINE
  8
0
  6
CONTINUOUS
 62
3
 10
-334.078762147433170
 20
-132.018683002775330
 11
-334.078762147433170
 21
-135.068518660614250
  0
ARC
  8
0
  6
CONTINUOUS
 62
3
 10
-335.078762147433170
 20
-135.068518660614250
 40
0.999999999999982
 50
281.212271417643990
 51
0.000000000000000
  0
ARC
  8
0
  6
CONTINUOUS
 62
3
 10
-343.721066992846660
 20
-155.693873330378440
 40
0.999999999999879
 50
193.739795291686050
 51
300.000000000003810
  0
LINE
  8
0
  6
CONTINUOUS
 62
3
 10
-343.221066992846660
 20
-156.559898734162740
 11
-340.477291417822360
 21
-154.975779167326660
  0
ARC
  8
0
  6
CONTINUOUS
 62
3
 10
-331.578762147433170
 20
-152.724962243623850
 40
8.499999999999972
 50
171.618272422157790
 51
188.381727577842210
  0
ARC
  8
0
  6
CONTINUOUS
 62
3
 10
-340.977291417822360
 20
-154.109753763542360
 40
0.999999999999885
 50
300.000000000003810
 51
8.381727577845549
  0
LINE
  8
0
  6
CONTINUOUS
 62
3
 10
-334.078762147433170
 20
-182.016599275377530
 11
-334.078762147433170
 21
-178.992813316751150
  0
LINE
  8
0
  6
CONTINUOUS
 62
3
 10
-334.078762147433170
 20
-173.431241484472370
 11
-334.078762147433170
 21
-170.381405826633450
  0
LINE
  8
0
  6
CONTINUOUS
 62
3
 10
-334.078762147433170
 20
-164.724962243623850
 11
-334.078762147433170
 21
-161.556723109951690
  0
LINE
  8
0
  6
CONTINUOUS
 62
3
 10
-340.721066992846660
 20
-160.890025753084960
 11
-337.977291417822360
 21
-159.305906186248880
  0
LINE
  8
0
  6
CONTINUOUS
 62
3
 10
-348.260925987862150
 20
-165.243165373509330
 11
-345.619690830806010
 21
-163.718247544589760
  0
LINE
  8
0
  6
CONTINUOUS
 62
3
 10
-363.097840559863360
 20
-173.809261995597580
 11
-360.487716041757610
 21
-172.302305902450830
  0
LINE
  8
0
  6
CONTINUOUS
 62
3
 10
-355.696063935365030
 20
-169.535844268961680
 11
-353.077388479587970
 21
-168.023951289648490
  0
ARC
  8
0
  6
CONTINUOUS
 62
3
 10
-331.578762147433170
 20
-152.724962243623850
 40
8.499999999999948
 50
231.618272422157330
 51
248.381727577842330
  0
ARC
  8
0
  6
CONTINUOUS
 62
3
 10
-331.578762147433170
 20
-152.724962243623850
 40
13.499999999999927
 50
226.260204708312130
 51
253.739795291689150
  0
ARC
  8
0
  6
CONTINUOUS
 62
3
 10
-331.578762147433170
 20
-152.724962243623850
 40
16.999999999999773
 50
221.212271417650780
 51
258.787728582349980
  0
ARC
  8
0
  6
CONTINUOUS
 62
3
 10
-331.578762147433170
 20
-152.724962243623850
 40
22.000000000000025
 50
219.594068226860800
 51
260.405931773138780
  0
ARC
  8
0
  6
CONTINUOUS
 62
3
 10
-331.578762147433170
 20
-152.724962243623850
 40
25.499999999999890
 50
217.589542391857950
 51
262.410457608141830
  0
ARC
  8
0
  6
CONTINUOUS
 62
3
 10
-331.578762147433170
 20
-152.724962243623850
 40
33.999999999999964
 50
215.739170477266950
 51
264.260829522733050
  0
ARC
  8
0
  6
CONTINUOUS
 62
3
 10
-331.578762147433170
 20
-152.724962243623850
 40
30.499999999999964
 50
216.813854344181070
 51
263.186145655818960
  0
ARC
  8
0
  6
CONTINUOUS
 62
3
 10
-331.578762147433170
 20
-152.724962243623850
 40
38.999999999999865
 50
215.284732954534800
 51
264.715267045465400
  0
ARC
  8
0
  6
CONTINUOUS
 62
3
 10
-337.477291417822360
 20
-160.171931590033180
 40
0.999999999999961
 50
51.618272422159777
 51
120.000000000003780
  0
ARC
  8
0
  6
CONTINUOUS
 62
3
 10
-335.078762147433170
 20
-161.556723109951690
 40
1.000000000000000
 50
0.000000000000000
 51
68.381727577838021
  0
ARC
  8
0
  6
CONTINUOUS
 62
3
 10
-335.078762147433170
 20
-164.724962243623850
 40
0.999999999999964
 50
253.739795291702650
 51
0.000000000000000
  0
ARC
  8
0
  6
CONTINUOUS
 62
3
 10
-340.221066992846660
 20
-161.756051156869260
 40
0.999999999999885
 50
120.000000000003780
 51
226.260204708328700
  0
ARC
  8
0
  6
CONTINUOUS
 62
3
 10
-345.119690830806010
 20
-164.584272948374290
 40
1.000000000000165
 50
41.212271417643841
 51
119.999999999997270
  0
ARC
  8
0
  6
CONTINUOUS
 62
3
 10
-347.760925987862150
 20
-166.109190777293630
 40
0.999999999999885
 50
120.000000000003780
 51
219.594068226860460
  0
ARC
  8
0
  6
CONTINUOUS
 62
3
 10
-335.078762147433170
 20
-170.381405826633450
 40
1.000000000000000
 50
0.000000000000000
 51
78.787728582355996
  0
ARC
  8
0
  6
CONTINUOUS
 62
3
 10
-335.078762147433170
 20
-173.431241484472370
 40
1.000000000000268
 50
260.405931773124510
 51
0.000000000000000
  0
ARC
  8
0
  6
CONTINUOUS
 62
3
 10
-352.577388479587970
 20
-168.889976693433030
 40
1.000000000000194
 50
37.589542391851793
 51
119.999999999997270
  0
ARC
  8
0
  6
CONTINUOUS
 62
3
 10
-355.196063935365030
 20
-170.401869672745990
 40
0.999999999999885
 50
120.000000000003780
 51
216.813854344197100
  0
ARC
  8
0
  6
CONTINUOUS
 62
3
 10
-335.078762147433170
 20
-178.992813316751150
 40
1.000000000000000
 50
0.000000000000000
 51
82.410457608145762
  0
ARC
  8
0
  6
CONTINUOUS
 62
3
 10
-359.987716041757610
 20
-173.168331306235130
 40
0.999999999999807
 50
35.739170477263521
 51
120.000000000003780
  0
ARC
  8
0
  6
CONTINUOUS
 62
3
 10
-362.597840559863360
 20
-174.675287399382110
 40
1.000000000000082
 50
119.999999999997270
 51
215.284732954534320
  0
ARC
  8
0
  6
CONTINUOUS
 62
3
 10
-366.097840559863360
 20
-168.613109572890830
 40
1.000000000000248
 50
204.715267045455480
 51
300.000000000003810
  0
LINE
  8
0
  6
CONTINUOUS
 62
3
 10
-365.597840559863360
 20
-169.479134976675140
 11
-362.987716041757610
 21
-167.972178883528610
  0
ARC
  8
0
  6
CONTINUOUS
 62
3
 10
-358.696063935365030
 20
-164.339691846255160
 40
0.999999999999730
 50
203.186145655819840
 51
299.999999999997270
  0
LINE
  8
0
  6
CONTINUOUS
 62
3
 10
-358.196063935365030
 20
-165.205717250039700
 11
-355.577388479587510
 21
-163.693824270726740
  0
ARC
  8
0
  6
CONTINUOUS
 62
3
 10
-363.487716041757610
 20
-167.106153479744080
 40
1.000000000000082
 50
299.999999999997270
 51
24.260829522733715
  0
ARC
  8
0
  6
CONTINUOUS
 62
3
 10
-356.077388479587510
 20
-162.827798866942200
 40
1.000000000000082
 50
299.999999999997270
 51
22.410457608146043
  0
ARC
  8
0
  6
CONTINUOUS
 62
3
 10
-351.260925987862610
 20
-160.047012950802580
 40
1.000000000000094
 50
200.405931773138690
 51
300.000000000003810
  0
LINE
  8
0
  6
CONTINUOUS
 62
3
 10
-350.760925987862610
 20
-160.913038354586890
 11
-348.119690830806010
 21
-159.388120525667320
  0
ARC
  8
0
  6
CONTINUOUS
 62
3
 10
-348.619690830806010
 20
-158.522095121883010
 40
0.999999999999885
 50
300.000000000003810
 51
18.787728582346993
  0
LINE
  8
0
  6
CONTINUOUS
 62
3
 10
-334.078762147433170
 20
-190.563434728648870
 11
-334.078762147433170
 21
-187.549522542355590
  0
ARC
  8
0
  6
CONTINUOUS
 62
3
 10
-335.078762147433170
 20
-182.016599275377530
 40
1.000000000000077
 50
263.186145655820330
 51
0.000000000000000
  0
ARC
  8
0
  6
CONTINUOUS
 62
3
 10
-335.078762147433170
 20
-190.563434728648870
 40
1.000000000000042
 50
264.715267045464260
 51
0.000000000000000
  0
ARC
  8
0
  6
CONTINUOUS
 62
3
 10
-335.078762147433170
 20
-187.549522542355590
 40
1.000000000000000
 50
0.000000000000000
 51
84.260829522738291
  0
ARC
  8
0
  6
CONTINUOUS
 62
3
 10
-573.178762147433530
 20
-152.724962243623850
 40
300.600000000000360
 50
0.000000000000000
 51
5.752282731536604
  0
ARC
  8
0
  6
CONTINUOUS
 62
3
 10
-573.178762147433530
 20
-152.724962243623850
 40
300.599999999999910
 50
354.247717268463420
 51
0.000000000000000
  0
ARC
  8
0
  6
CONTINUOUS
 62
3
 10
-89.978762147432803
 20
-152.724962243623850
 40
300.600000000000360
 50
180.000000000000000
 51
185.752282731536610
  0
ARC
  8
0
  6
CONTINUOUS
 62
3
 10
-89.978762147432803
 20
-152.724962243623850
 40
300.599999999999910
 50
174.247717268463390
 51
180.000000000000000
  0
ARC
  8
0
  6
CONTINUOUS
 62
3
 10
-331.578762147433170
 20
-499.324962243623990
 40
400.599999999999910
 50
84.256318189006564
 51
90.000000000000000
  0
ARC
  8
0
  6
CONTINUOUS
 62
3
 10
-331.578762147433170
 20
193.875037756376290
 40
400.599999999999910
 50
270.000000000000000
 51
275.743681810993450
  0
ARC
  8
0
  6
CONTINUOUS
 62
3
 10
-331.578762147433170
 20
193.875037756376290
 40
400.599999999999910
 50
264.256318189006550
 51
270.000000000000000
  0
ARC
  8
0
  6
CONTINUOUS
 62
3
 10
-331.578762147433170
 20
-499.324962243623990
 40
400.599999999999910
 50
90.000000000000000
 51
95.743681810993436
  0
ARC
  8
0
  6
CONTINUOUS
 62
3
 10
-292.147895147345820
 20
-107.303015501325490
 40
6.600000000000278
 50
44.999999999997215
 51
84.256318189004901
  0
ARC
  8
0
  6
CONTINUOUS
 62
3
 10
-292.147895147345820
 20
-198.146908985922210
 40
6.600000000000009
 50
275.743681810995100
 51
315.000000000002790
  0
ARC
  8
0
  6
CONTINUOUS
 62
3
 10
-371.009629147520510
 20
-198.146908985922210
 40
6.600000000000278
 50
224.999999999997190
 51
264.256318189004900
  0
ARC
  8
0
  6
CONTINUOUS
 62
3
 10
-371.009629147520510
 20
-107.303015501325490
 40
6.600000000000009
 50
95.743681810995099
 51
135.000000000002790
  0
LINE
  8
0
  6
CONTINUOUS
 62
4
 10
-286.954062992815470
 20
-117.026573696137340
 11
-292.841476864854830
 21
-111.139159824097300
  0
ARC
  8
0
  6
CONTINUOUS
 62
4
 10
-331.578762147433170
 20
-499.324962243623990
 40
390.797000000000030
 50
84.582036237639471
 51
90.000000000000000
  0
ARC
  8
0
  6
CONTINUOUS
 62
4
 10
-294.962797208414830
 20
-113.260480167657070
 40
3.000000000000346
 50
44.999999999996930
 51
84.582036237634313
  0
ARC
  8
0
  6
CONTINUOUS
 62
4
 10
-573.178762147433530
 20
-152.724962243623850
 40
290.797000000000480
 50
0.000000000000000
 51
5.752282731536624
  0
ARC
  8
0
  6
CONTINUOUS
 62
4
 10
-294.962797208414830
 20
-192.189444319590620
 40
3.000000000000067
 50
275.417963762365730
 51
315.000000000003070
  0
ARC
  8
0
  6
CONTINUOUS
 62
4
 10
-331.578762147433170
 20
193.875037756376290
 40
390.797000000000030
 50
270.000000000000000
 51
275.417963762360500
  0
ARC
  8
0
  6
CONTINUOUS
 62
4
 10
-304.206871559913790
 20
-176.264759901535850
 40
20.797000000000015
 50
315.000000000000000
 51
354.998349729064670
  0
LINE
  8
0
  6
CONTINUOUS
 62
4
 10
-289.501171831577150
 20
-190.970459629872490
 11
-292.841476864854830
 21
-194.310764663150390
  0
ARC
  8
0
  6
CONTINUOUS
 62
4
 10
-573.178762147433530
 20
-152.724962243623850
 40
290.797000000000140
 50
354.998349729065010
 51
0.000000000000000
  0
ARC
  8
0
  6
CONTINUOUS
 62
4
 10
-368.194727086451510
 20
-192.189444319590620
 40
3.000000000000346
 50
224.999999999996960
 51
264.582036237634270
  0
ARC
  8
0
  6
CONTINUOUS
 62
4
 10
-331.578762147433170
 20
193.875037756376290
 40
390.797000000000030
 50
264.582036237639500
 51
270.000000000000000
  0
ARC
  8
0
  6
CONTINUOUS
 62
4
 10
-358.950652734952540
 20
-176.264759901535850
 40
20.796999999999880
 50
185.001650270935330
 51
225.000000000000000
  0
LINE
  8
0
  6
CONTINUOUS
 62
4
 10
-373.656352463289180
 20
-190.970459629872490
 11
-370.316047430011510
 21
-194.310764663150390
  0
ARC
  8
0
  6
CONTINUOUS
 62
4
 10
-89.978762147433031
 20
-152.724962243623850
 40
290.797000000000250
 50
180.000000000000000
 51
185.001650270934930
  0
ARC
  8
0
  6
CONTINUOUS
 62
4
 10
-368.194727086451510
 20
-113.260480167657070
 40
3.000000000000067
 50
95.417963762365673
 51
135.000000000003040
  0
ARC
  8
0
  6
CONTINUOUS
 62
4
 10
-331.578762147433170
 20
-499.324962243623990
 40
390.797000000000030
 50
90.000000000000000
 51
95.417963762360529
  0
ARC
  8
0
  6
CONTINUOUS
 62
4
 10
-358.950652734952540
 20
-129.185164585711850
 40
20.797000000000015
 50
135.000000000000000
 51
174.998349729064670
  0
LINE
  8
0
  6
CONTINUOUS
 62
4
 10
-373.656352463289180
 20
-114.479464857375200
 11
-370.316047430011510
 21
-111.139159824097300
  0
ARC
  8
0
  6
CONTINUOUS
 62
4
 10
-89.978762147433031
 20
-152.724962243623850
 40
290.796999999999910
 50
174.998349729065040
 51
180.000000000000000
  0
LINE
  8
0
  6
CONTINUOUS
 62
3
 10
-275.578801664235360
 20
-188.724962243623620
 11
-274.078762147433170
 21
-188.724962243623620
  0
LINE
  8
0
  6
CONTINUOUS
 62
3
 10
-274.078762147433170
 20
-122.736976389193610
 11
-274.078762147433170
 21
-116.724962243624070
  0
LINE
  8
0
  6
CONTINUOUS
 62
3
 10
-274.078762147433170
 20
-188.724962243623850
 11
-274.078762147433170
 21
-182.717461305886220
  0
LINE
  8
0
  6
CONTINUOUS
 62
3
 10
-275.578801664235360
 20
-116.724962243624070
 11
-274.078762147433170
 21
-116.724962243624070
  0
LINE
  8
0
  6
CONTINUOUS
 62
3
 10
-274.078762147433170
 20
-116.724962243624070
 11
-246.712097374490780
 21
-116.724962243624070
  0
LINE
  8
0
  6
CONTINUOUS
 62
3
 10
-274.078762147433170
 20
-188.724962243623850
 11
-246.712097374490780
 21
-188.724962243623850
  0
LINE
  8
0
  6
CONTINUOUS
 62
3
 10
-239.578762147433170
 20
-150.224962243623620
 11
-240.089178994950880
 21
-150.224962243623620
  0
LINE
  8
0
  6
CONTINUOUS
 62
3
 10
-239.578762147433170
 20
-155.224962243623850
 11
-239.578762147433170
 21
-150.224962243623850
  0
LINE
  8
0
  6
CONTINUOUS
 62
3
 10
-239.578762147433170
 20
-155.224962243623850
 11
-240.089178994950880
 21
-155.224962243623850
  0
ARC
  8
0
  6
CONTINUOUS
 62
3
 10
-246.712097374490780
 20
-183.724962243623850
 40
5.000000000000000
 50
270.000000000000000
 51
353.967950853629650
  0
ARC
  8
0
  6
CONTINUOUS
 62
3
 10
-246.712097374490780
 20
-121.724962243624070
 40
5.000000000000143
 50
6.032049146370342
 51
90.000000000000000
  0
ARC
  8
0
  6
CONTINUOUS
 62
3
 10
-540.078762147433170
 20
-152.724962243623850
 40
300.000000000000060
 50
353.967950853630210
 51
6.032049146369772
  0
ARC
  8
0
  6
CONTINUOUS
 62
3
 10
-408.878762147433120
 20
-126.767462243623860
 40
18.799999999999955
 50
0.000000000000000
 51
79.401214733933941
  0
ARC
  8
0
  6
CONTINUOUS
 62
3
 10
-405.053007513346190
 20
-106.322325866486150
 40
1.999999999999927
 50
177.137594773887290
 51
259.401214733934010
  0
ARC
  8
0
  6
CONTINUOUS
 62
3
 10
-410.646020611062000
 20
-106.042675211600340
 40
1.999999999999928
 50
274.873974813840960
 51
357.137594773887320
  0
LINE
  8
0
  6
CONTINUOUS
 62
3
 10
-407.380633639116350
 20
-96.804892077288628
 11
-412.474270567393320
 21
-198.677630642828720
  0
ARC
  8
0
  6
CONTINUOUS
 62
3
 10
-408.878762147433120
 20
-126.767462243623860
 40
18.800000000000036
 50
94.873974813842736
 51
144.191373186504250
  0
LINE
  8
0
  6
CONTINUOUS
 62
3
 10
-408.179635510218650
 20
-96.764941983733479
 11
-406.581631768014060
 21
-96.844842170843663
  0
ARC
  8
0
  6
CONTINUOUS
 62
3
 10
-402.037309007113090
 20
-102.078304407513770
 40
9.000000000000060
 50
160.536063666407810
 51
193.739143184213500
  0
POINT
  8
0
  6
CONTINUOUS
 62
3
 10
-408.429323594937500
 20
-101.758703678122510
  0
LINE
  8
0
  6
CONTINUOUS
 62
3
 10
-408.254541935633940
 20
-98.263070492050133
 11
-408.604105254241060
 21
-105.254336864195010
  0
LINE
  8
0
  6
CONTINUOUS
 62
3
 10
-408.254541935633940
 20
-98.263070492050133
 11
-408.604105254241060
 21
-105.254336864195010
  0
LINE
  8
0
  6
CONTINUOUS
 62
3
 10
-408.604105254241060
 20
-105.254336864195010
 11
-409.581909066748840
 21
-105.205446673569660
  0
LINE
  8
0
  6
CONTINUOUS
 62
3
 10
-408.254541935633940
 20
-98.263070492050133
 11
-409.232345748141480
 21
-98.214180301424790
  0
ARC
  8
0
  6
CONTINUOUS
 62
3
 10
-409.516990202821150
 20
-103.907069395016030
 40
1.299999237060493
 50
193.739143184211430
 51
267.137612759980240
  0
ARC
  8
0
  6
CONTINUOUS
 62
3
 10
-409.297264612069170
 20
-99.512557579978306
 40
1.299999237060474
 50
87.137594090651831
 51
160.536063666412870
  0
LINE
  8
0
  6
CONTINUOUS
 62
3
 10
-408.179635510218650
 20
-96.764941983733479
 11
-413.273272438495610
 21
-198.637680549273450
  0
LINE
  8
0
  6
CONTINUOUS
 62
3
 10
-406.581631768014060
 20
-96.844842170843663
 11
-411.675268696291030
 21
-198.717580736384430
  0
LINE
  8
0
  6
CONTINUOUS
 62
3
 10
-431.575021499054060
 20
-164.692649276042860
 11
-427.584996561398040
 21
-124.892150522925590
  0
ARC
  8
0
  6
CONTINUOUS
 62
3
 10
-408.878762147433120
 20
-126.767462243623860
 40
18.799999999999933
 50
144.191373186504250
 51
174.275189547776390
  0
ARC
  8
0
  6
CONTINUOUS
 62
3
 10
-410.878762147433120
 20
-166.767462243623870
 40
20.799999999999986
 50
174.275189547776620
 51
205.640070215894870
  0
ARC
  8
0
  6
CONTINUOUS
 62
3
 10
-410.878762147433120
 20
-166.767462243623870
 40
20.799999999999926
 50
205.640070215894870
 51
260.083463391769440
  0
ARC
  8
0
  6
CONTINUOUS
 62
3
 10
-410.878762147433120
 20
-166.767462243623870
 40
20.799999999999986
 50
174.275189547776620
 51
205.640070215894870
  0
ARC
  8
0
  6
CONTINUOUS
 62
3
 10
-409.212214881049590
 20
-189.506473220553180
 40
1.999999999999962
 50
94.191726156001650
 51
177.137594773887290
  0
ARC
  8
0
  6
CONTINUOUS
 62
3
 10
-414.805227978765400
 20
-189.226822565667360
 40
2.000000000000154
 50
357.137594773887600
 51
80.083463391767268
  0
ARC
  8
0
  6
CONTINUOUS
 62
3
 10
-410.878762147433120
 20
-166.767462243623870
 40
20.800000000000082
 50
274.191726156007460
 51
354.952683218992150
  0
LINE
  8
0
  6
CONTINUOUS
 62
3
 10
-411.675268696291030
 20
-198.717580736384430
 11
-413.273272438495610
 21
-198.637680549273450
  0
LINE
  8
0
  6
CONTINUOUS
 62
3
 10
-390.078762147433170
 20
-135.394353483404300
 11
-390.078762147433170
 21
-126.767462243623860
  0
LINE
  8
0
  6
CONTINUOUS
 62
3
 10
-287.078762795489180
 20
-88.168336218299828
 11
-289.578767144995600
 21
-89.611709794995704
  0
LINE
  8
0
  6
CONTINUOUS
 62
3
 10
-289.578757364996480
 20
-83.838213983410469
 11
-292.078762093043340
 21
-85.281585018503620
  0
LINE
  8
0
  6
CONTINUOUS
 62
3
 10
-289.578767659558710
 20
-89.611709181345930
 11
-292.078759964602230
 21
-88.168333834601810
  0
LINE
  8
0
  6
CONTINUOUS
 62
3
 10
-289.578757426225930
 20
-83.838213503267752
 11
-287.078763641434650
 21
-85.281590147815223
  0
LINE
  8
0
  6
CONTINUOUS
 62
3
 10
-287.078764531618390
 20
-85.281590598624803
 11
-287.078763577944070
 21
-88.168336051505662
  0
LINE
  8
0
  6
CONTINUOUS
 62
3
 10
-292.078759763248630
 20
-88.168333888621760
 11
-292.078760716922940
 21
-85.281584621043635
  0
CIRCLE
  8
0
  6
CONTINUOUS
 62
3
 10
-289.578762147433170
 20
-86.724962243623850
 40
5.000000000000000
  0
LINE
  8
0
  6
CONTINUOUS
 62
3
 10
-376.078761499377150
 20
-88.168336218299828
 11
-373.578757149870740
 21
-89.611709794995704
  0
LINE
  8
0
  6
CONTINUOUS
 62
3
 10
-373.578766929869860
 20
-83.838213983410469
 11
-371.078762201823000
 21
-85.281585018503620
  0
LINE
  8
0
  6
CONTINUOUS
 62
3
 10
-373.578756635307630
 20
-89.611709181345930
 11
-371.078764330264110
 21
-88.168333834601810
  0
LINE
  8
0
  6
CONTINUOUS
 62
3
 10
-373.578766868640400
 20
-83.838213503267752
 11
-376.078760653431690
 21
-85.281590147815223
  0
LINE
  8
0
  6
CONTINUOUS
 62
3
 10
-376.078759763247940
 20
-85.281590598624803
 11
-376.078760716922260
 21
-88.168336051505662
  0
LINE
  8
0
  6
CONTINUOUS
 62
3
 10
-371.078764531617710
 20
-88.168333888621760
 11
-371.078763577943390
 21
-85.281584621043635
  0
CIRCLE
  8
0
  6
CONTINUOUS
 62
3
 10
-373.578762147433170
 20
-86.724962243623850
 40
5.000000000000000
  0
LINE
  8
0
  6
CONTINUOUS
 62
3
 10
-377.078761499377150
 20
-225.668336218299880
 11
-374.578757149870740
 21
-227.111709794995760
  0
LINE
  8
0
  6
CONTINUOUS
 62
3
 10
-374.578766929869860
 20
-221.338213983410530
 11
-372.078762201823000
 21
-222.781585018503680
  0
LINE
  8
0
  6
CONTINUOUS
 62
3
 10
-374.578756635307630
 20
-227.111709181345990
 11
-372.078764330264110
 21
-225.668333834601870
  0
LINE
  8
0
  6
CONTINUOUS
 62
3
 10
-374.578766868640400
 20
-221.338213503267810
 11
-377.078760653431690
 21
-222.781590147815280
  0
LINE
  8
0
  6
CONTINUOUS
 62
3
 10
-377.078759763247940
 20
-222.781590598624860
 11
-377.078760716922260
 21
-225.668336051505720
  0
LINE
  8
0
  6
CONTINUOUS
 62
3
 10
-372.078764531617710
 20
-225.668333888621820
 11
-372.078763577943390
 21
-222.781584621043690
  0
CIRCLE
  8
0
  6
CONTINUOUS
 62
3
 10
-374.578762147433170
 20
-224.224962243623910
 40
5.000000000000000
  0
LINE
  8
0
  6
CONTINUOUS
 62
3
 10
-286.078762795489180
 20
-225.668336218299880
 11
-288.578767144995600
 21
-227.111709794995760
  0
LINE
  8
0
  6
CONTINUOUS
 62
3
 10
-288.578757364996480
 20
-221.338213983410530
 11
-291.078762093043340
 21
-222.781585018503680
  0
LINE
  8
0
  6
CONTINUOUS
 62
3
 10
-288.578767659558710
 20
-227.111709181345990
 11
-291.078759964602230
 21
-225.668333834601870
  0
LINE
  8
0
  6
CONTINUOUS
 62
3
 10
-288.578757426225930
 20
-221.338213503267810
 11
-286.078763641434650
 21
-222.781590147815280
  0
LINE
  8
0
  6
CONTINUOUS
 62
3
 10
-286.078764531618390
 20
-222.781590598624860
 11
-286.078763577944070
 21
-225.668336051505720
  0
LINE
  8
0
  6
CONTINUOUS
 62
3
 10
-291.078759763248630
 20
-225.668333888621820
 11
-291.078760716922940
 21
-222.781584621043690
  0
CIRCLE
  8
0
  6
CONTINUOUS
 62
3
 10
-288.578762147433170
 20
-224.224962243623910
 40
5.000000000000000
  0
ARC
  8
0
  6
CONTINUOUS
 62
3
 10
-286.748192085336310
 20
-107.894392181526740
 40
6.099999427795398
 50
354.601910595264880
 51
95.398072101891501
  0
POINT
  8
0
  6
CONTINUOUS
 62
3
 10
-284.485450520409240
 20
-105.631650616599700
  0
LINE
  8
0
  6
CONTINUOUS
 62
3
 10
-281.162048783702400
 20
-108.955052353306540
 11
-287.808852257116090
 21
-102.308248879892850
  0
LINE
  8
0
  6
CONTINUOUS
 62
3
 10
-280.848910174733650
 20
-108.702505402456180
 11
-287.526009477206570
 21
-102.025406099983280
  0
LINE
  8
0
  6
CONTINUOUS
 62
3
 10
-287.808852257116090
 20
-102.308248879892850
 11
-287.322048865410470
 21
-101.821445488187230
  0
LINE
  8
0
  6
CONTINUOUS
 62
3
 10
-281.162048783702400
 20
-108.955052353306540
 11
-280.675245391996780
 21
-108.468248961600920
  0
ARC
  8
0
  6
CONTINUOUS
 62
3
 10
-376.409332209530020
 20
-107.894392181526740
 40
6.099999427795433
 50
84.601927898108499
 51
185.398089404735120
  0
POINT
  8
0
  6
CONTINUOUS
 62
3
 10
-378.672073774457090
 20
-105.631650616599700
  0
LINE
  8
0
  6
CONTINUOUS
 62
3
 10
-381.995475511163930
 20
-108.955052353306540
 11
-375.348672037750250
 21
-102.308248879892850
  0
LINE
  8
0
  6
CONTINUOUS
 62
3
 10
-382.308614120132690
 20
-108.702505402456180
 11
-375.631514817659760
 21
-102.025406099983280
  0
LINE
  8
0
  6
CONTINUOUS
 62
3
 10
-375.348672037750250
 20
-102.308248879892850
 11
-375.835475429455870
 21
-101.821445488187230
  0
LINE
  8
0
  6
CONTINUOUS
 62
3
 10
-381.995475511163930
 20
-108.955052353306540
 11
-382.482278902869550
 21
-108.468248961600920
  0
ARC
  8
0
  6
CONTINUOUS
 62
3
 10
-376.409332209530020
 20
-197.555532305720730
 40
6.099999427795398
 50
174.601910595264880
 51
275.398072101891500
  0
POINT
  8
0
  6
CONTINUOUS
 62
3
 10
-378.672073774457090
 20
-199.818273870647770
  0
LINE
  8
0
  6
CONTINUOUS
 62
3
 10
-381.995475511163930
 20
-196.494872133940900
 11
-375.348672037750250
 21
-203.141675607354640
  0
LINE
  8
0
  6
CONTINUOUS
 62
3
 10
-382.308614120132690
 20
-196.747419084791290
 11
-375.631514817659760
 21
-203.424518387264210
  0
LINE
  8
0
  6
CONTINUOUS
 62
3
 10
-375.348672037750250
 20
-203.141675607354640
 11
-375.835475429455870
 21
-203.628478999060230
  0
LINE
  8
0
  6
CONTINUOUS
 62
3
 10
-381.995475511163930
 20
-196.494872133940900
 11
-382.482278902869550
 21
-196.981675525646520
  0
ARC
  8
0
  6
CONTINUOUS
 62
3
 10
-286.748192085336310
 20
-197.555532305720730
 40
6.099999427795406
 50
264.601927898108500
 51
5.398089404735109
  0
POINT
  8
0
  6
CONTINUOUS
 62
3
 10
-284.485450520409240
 20
-199.818273870647770
  0
LINE
  8
0
  6
CONTINUOUS
 62
3
 10
-281.162048783702400
 20
-196.494872133940900
 11
-287.808852257116090
 21
-203.141675607354640
  0
LINE
  8
0
  6
CONTINUOUS
 62
3
 10
-280.848910174733650
 20
-196.747419084791290
 11
-287.526009477206570
 21
-203.424518387264210
  0
LINE
  8
0
  6
CONTINUOUS
 62
3
 10
-287.808852257116090
 20
-203.141675607354640
 11
-287.322048865410470
 21
-203.628478999060230
  0
LINE
  8
0
  6
CONTINUOUS
 62
3
 10
-281.162048783702400
 20
-196.494872133940900
 11
-280.675245391996780
 21
-196.981675525646520
  0
LINE
  8
0
  6
DASHDOT
 62
4
 10
-226.980029531394390
 20
-152.724962243623850
 11
-438.279642475594300
 21
-152.724962243623850
  0
LINE
  8
0
  6
DASHDOT
 62
4
 10
-331.578762147433170
 20
-21.159048590186160
 11
-331.578762147433170
 21
-240.257875460701200
  0
LINE
  8
0
  6
CONTINUOUS
 62
3
 10
-284.087482763830960
 20
-102.405255735275880
 11
-278.886373992007860
 21
-97.204146963452786
  0
LINE
  8
0
  6
CONTINUOUS
 62
3
 10
-281.259055639084980
 20
-105.233682860022320
 11
-276.057946867261650
 21
-100.032574088198990
  0
LINE
  8
0
  6
CONTINUOUS
 62
3
 10
-379.070041531035370
 20
-102.405255735275880
 11
-384.271150302858470
 21
-97.204146963452786
  0
LINE
  8
0
  6
CONTINUOUS
 62
3
 10
-381.898468655781360
 20
-105.233682860022320
 11
-387.099577427604690
 21
-100.032574088198990
  0
LINE
  8
0
  6
CONTINUOUS
 62
3
 10
-426.578762147433170
 20
-41.724962243623850
 11
-426.578762147433170
 21
-120.431059478647620
  0
LINE
  8
0
  6
CONTINUOUS
 62
3
 10
-426.578762147433170
 20
-180.411142099146670
 11
-426.578762147433170
 21
-211.724962243623910
  0
LINE
  8
0
  6
CONTINUOUS
 62
3
 10
-381.898468655781240
 20
-200.216241627225260
 11
-387.099577427604690
 21
-205.417350399048530
  0
LINE
  8
0
  6
CONTINUOUS
 62
3
 10
-379.070041531035140
 20
-203.044668751971670
 11
-384.271150302858470
 21
-208.245777523794970
  0
LINE
  8
0
  6
CONTINUOUS
 62
3
 10
-380.388237166744320
 20
-229.724962243623910
 11
-331.578762147433170
 21
-229.724962243623910
  0
LINE
  8
0
  6
CONTINUOUS
 62
3
 10
-281.259055639085090
 20
-200.216241627225260
 11
-276.057946867261650
 21
-205.417350399048530
  0
LINE
  8
0
  6
CONTINUOUS
 62
3
 10
-284.087482763831190
 20
-203.044668751971670
 11
-278.886373992007860
 21
-208.245777523794970
  0
LINE
  8
0
  6
CONTINUOUS
 62
3
 10
-282.769287128122020
 20
-229.724962243623910
 11
-331.578762147433170
 21
-229.724962243623910
  0
LINE
  8
0
  6
CONTINUOUS
 62
3
 10
144.182391883929990
 20
72.049848753418701
 11
129.104697848878460
 21
72.049848753418701
  0
ARC
  8
0
  6
CONTINUOUS
 62
3
 10
143.702584609339280
 20
47.604886569074552
 40
3.000000000000000
 50
0.000000000000000
 51
48.254159514985268
  0
LINE
  8
0
  6
CONTINUOUS
 62
3
 10
127.023780221811190
 20
66.509991303149945
 11
145.700067116977830
 21
49.843203711859132
  0
ARC
  8
0
  6
CONTINUOUS
 62
3
 10
125.026297714172870
 20
64.271674160366274
 40
3.000000000000058
 50
48.254159514976941
 51
90.000000000000000
  0
ARC
  8
0
  6
CONTINUOUS
 62
3
 10
143.702584609339280
 20
52.383061162126978
 40
3.000000000000000
 50
0.000000000000000
 51
48.254159514985268
  0
LINE
  8
0
  6
CONTINUOUS
 62
3
 10
127.023780221811190
 20
71.288165896202372
 11
145.700067116977830
 21
54.621378304911559
  0
ARC
  8
0
  6
CONTINUOUS
 62
3
 10
125.026297714172870
 20
69.049848753418701
 40
3.000000000000058
 50
48.254159514976941
 51
90.000000000000000
  0
LINE
  8
0
  6
CONTINUOUS
 62
3
 10
144.182391883929990
 20
160.197546449900980
 11
129.104697848878460
 21
160.197546449900980
  0
ARC
  8
0
  6
CONTINUOUS
 62
3
 10
143.702584609339280
 20
184.642508634245130
 40
3.000000000000888
 50
311.745840485014750
 51
0.000000000000000
  0
LINE
  8
0
  6
CONTINUOUS
 62
3
 10
127.023780221811190
 20
165.737403900169740
 11
145.700067116977830
 21
182.404191491460550
  0
ARC
  8
0
  6
CONTINUOUS
 62
3
 10
125.026297714172870
 20
167.975721042953410
 40
3.000000000000000
 50
270.000000000000000
 51
311.745840485023050
  0
ARC
  8
0
  6
CONTINUOUS
 62
3
 10
143.702584609339280
 20
179.864334041192710
 40
3.000000000000888
 50
311.745840485014750
 51
0.000000000000000
  0
LINE
  8
0
  6
CONTINUOUS
 62
3
 10
127.023780221811190
 20
160.959229307117310
 11
145.700067116977830
 21
177.626016898408120
  0
ARC
  8
0
  6
CONTINUOUS
 62
3
 10
125.026297714172870
 20
163.197546449900980
 40
3.000000000000000
 50
270.000000000000000
 51
311.745840485023050
  0
ARC
  8
0
  6
CONTINUOUS
 62
3
 10
129.170261960623980
 20
110.623697601660750
 40
3.000000000000000
 50
90.000000000000000
 51
180.000000000000000
  0
LINE
  8
0
  6
CONTINUOUS
 62
3
 10
129.170261960623980
 20
113.623697601660750
 11
143.702584609339280
 21
113.623697601660750
  0
ARC
  8
0
  6
CONTINUOUS
 62
3
 10
143.702584609339280
 20
110.623697601660750
 40
3.000000000000000
 50
0.000000000000000
 51
90.000000000000000
  0
ARC
  8
0
  6
CONTINUOUS
 62
3
 10
129.170261960623980
 20
121.623697601660750
 40
3.000000000000000
 50
180.000000000000000
 51
270.000000000000000
  0
LINE
  8
0
  6
CONTINUOUS
 62
3
 10
129.170261960623980
 20
118.623697601660750
 11
143.702584609339280
 21
118.623697601660750
  0
ARC
  8
0
  6
CONTINUOUS
 62
3
 10
143.702584609339280
 20
121.623697601660750
 40
3.000000000000000
 50
270.000000000000000
 51
0.000000000000000
  0
LINE
  8
0
  6
CONTINUOUS
 62
3
 10
151.702584609339280
 20
42.922687474882878
 11
151.702584609339280
 21
116.123697601659840
  0
LINE
  8
0
  6
CONTINUOUS
 62
3
 10
151.702584609339280
 20
189.324707728436810
 11
151.702584609339280
 21
116.123697601659840
  0
LINE
  8
0
  6
CONTINUOUS
 62
3
 10
71.702584609339283
 20
36.623697601658932
 11
71.702584609339283
 21
195.623697601659840
  0
ARC
  8
0
  6
CONTINUOUS
 62
3
 10
143.702584609339280
 20
31.107573565356688
 40
3.000000000000000
 50
0.000000000000000
 51
88.000000000000995
  0
LINE
  8
0
  6
CONTINUOUS
 62
3
 10
71.702584609339283
 20
36.623697601659842
 11
143.807283099446750
 21
34.105746046414424
  0
ARC
  8
0
  6
CONTINUOUS
 62
3
 10
143.702584609339280
 20
201.139821637963000
 40
3.000000000000447
 50
271.999999999999030
 51
0.000000000000000
  0
LINE
  8
0
  6
CONTINUOUS
 62
3
 10
71.702584609339283
 20
195.623697601659840
 11
143.807283099446750
 21
198.141649156905260
  0
LINE
  8
0
  6
CONTINUOUS
 62
3
 10
158.702584609339280
 20
64.590302324641016
 11
153.702584609339280
 21
64.590302324641016
  0
LINE
  8
0
  6
CONTINUOUS
 62
3
 10
158.702584609339280
 20
40.922687474882878
 11
153.702584609339280
 21
40.922687474882878
  0
ARC
  8
0
  6
CONTINUOUS
 62
3
 10
153.702584609339280
 20
42.922687474882878
 40
2.000000000000000
 50
180.000000000000000
 51
270.000000000000000
  0
ARC
  8
0
  6
CONTINUOUS
 62
3
 10
153.702584609339280
 20
66.590302324641016
 40
2.000000000000000
 50
180.000000000000000
 51
270.000000000000000
  0
LINE
  8
0
  6
CONTINUOUS
 62
3
 10
158.702584609339280
 20
167.657092878678670
 11
153.702584609339280
 21
167.657092878678670
  0
LINE
  8
0
  6
CONTINUOUS
 62
3
 10
158.702584609339280
 20
191.324707728436810
 11
153.702584609339280
 21
191.324707728436810
  0
ARC
  8
0
  6
CONTINUOUS
 62
3
 10
153.702584609339280
 20
189.324707728436810
 40
2.000000000000000
 50
90.000000000000000
 51
180.000000000000000
  0
ARC
  8
0
  6
CONTINUOUS
 62
3
 10
153.702584609339280
 20
165.657092878678670
 40
2.000000000000000
 50
90.000000000000000
 51
180.000000000000000
  0
LINE
  8
0
  6
DASHDOT
 62
4
 10
169.321037019953110
 20
33.038650812240121
 11
136.845576319589780
 21
33.038650812240121
  0
LINE
  8
0
  6
DASHDOT
 62
4
 10
169.321037019953110
 20
199.208744391079560
 11
136.845576319589780
 21
199.208744391079560
  0
LINE
  8
0
  6
CONTINUOUS
 62
3
 10
158.702584609339280
 20
21.611843699804922
 11
158.702584609339280
 21
116.123697601659840
  0
LINE
  8
0
  6
CONTINUOUS
 62
3
 10
158.702584609339280
 20
210.635551503513850
 11
158.702584609339280
 21
116.123697601659840
  0
ARC
  8
0
  6
CONTINUOUS
 62
3
 10
148.702584609339280
 20
209.707920037633810
 40
1.999999999999651
 50
87.000000000000398
 51
180.000000000000000
  0
ARC
  8
0
  6
CONTINUOUS
 62
3
 10
148.702584609339280
 20
22.539475165685872
 40
2.000000000000000
 50
180.000000000000000
 51
272.999999999999600
  0
LINE
  8
0
  6
CONTINUOUS
 62
3
 10
146.702584609339280
 20
209.707920037633810
 11
146.702584609339280
 21
22.539475165685872
  0
LINE
  8
0
  6
CONTINUOUS
 62
3
 10
158.152304350964410
 20
21.031969300194760
 11
148.807256521825140
 21
20.542216096176162
  0
LINE
  8
0
  6
CONTINUOUS
 62
3
 10
161.702584609339280
 20
31.123697601659842
 11
161.702584609339280
 21
116.123697601659840
  0
LINE
  8
0
  6
CONTINUOUS
 62
3
 10
161.702584609339280
 20
201.123697601659840
 11
161.702584609339280
 21
116.123697601659840
  0
ARC
  8
0
  6
CONTINUOUS
 62
3
 10
162.202584609339280
 20
87.569917476378578
 40
0.999999999999832
 50
93.000000000006111
 51
120.000000000010300
  0
ARC
  8
0
  6
CONTINUOUS
 62
3
 10
162.202584609339280
 20
144.677477726940200
 40
0.999999999999688
 50
239.999999999989710
 51
266.999999999993860
  0
LINE
  8
0
  6
CONTINUOUS
 62
3
 10
161.702584609339280
 20
31.123697601659842
 11
158.702584609339280
 21
31.123697601659842
  0
LINE
  8
0
  6
CONTINUOUS
 62
3
 10
161.702584609339280
 20
201.123697601659840
 11
158.702584609339280
 21
201.123697601659840
  0
ARC
  8
0
  6
CONTINUOUS
 62
3
 10
148.702584609339280
 20
209.707920037633810
 40
2.000000000000025
 50
177.837310087963030
 51
180.000000000000000
  0
LINE
  8
0
  6
CONTINUOUS
 62
3
 10
163.202584609339280
 20
116.123697601659840
 11
163.202584609339280
 21
142.623697601659840
  0
LINE
  8
0
  6
CONTINUOUS
 62
3
 10
163.202584609339280
 20
116.123697601659840
 11
163.202584609339280
 21
89.623697601659842
  0
LINE
  8
0
  6
CONTINUOUS
 62
3
 10
158.152304350964410
 20
211.215425903124010
 11
148.807256521825140
 21
211.705179107142610
  0
LINE
  8
0
  6
CONTINUOUS
 62
3
 10
158.152304350964410
 20
211.215425903124010
 11
158.702584609339280
 21
210.635551503513850
  0
LINE
  8
0
  6
CONTINUOUS
 62
3
 10
158.152304350964410
 20
21.031969300194760
 11
158.702584609339280
 21
21.611843699804922
  0
LINE
  8
0
  6
CONTINUOUS
 62
3
 10
162.202584609339280
 20
143.623697601659840
 11
162.150248653096240
 21
143.678848192185800
  0
LINE
  8
0
  6
CONTINUOUS
 62
3
 10
162.202584609339280
 20
88.623697601659842
 11
162.150248653096240
 21
88.568547011132978
  0
ARC
  8
0
  6
CONTINUOUS
 62
3
 10
162.202584609339280
 20
142.623697601659840
 40
1.000000000000000
 50
0.000000000000000
 51
90.000000000000000
  0
ARC
  8
0
  6
CONTINUOUS
 62
3
 10
162.202584609339280
 20
89.623697601659842
 40
1.000000000000000
 50
270.000000000000000
 51
0.000000000000000
  0
LINE
  8
0
  6
CONTINUOUS
 62
3
 10
60.202584609335645
 20
69.123697601658932
 11
60.202584609336554
 21
38.623697601659842
  0
LINE
  8
0
  6
CONTINUOUS
 62
3
 10
60.202584609333826
 20
116.123697601658930
 11
60.202584609334735
 21
79.123697601658932
  0
ARC
  8
0
  6
CONTINUOUS
 62
3
 10
64.202584609335645
 20
68.123697601659842
 40
1.000000000000000
 50
270.000000000000000
 51
0.000000000000000
  0
ARC
  8
0
  6
CONTINUOUS
 62
3
 10
61.202584609335645
 20
66.123697601659842
 40
1.000000000000000
 50
90.000000000000000
 51
180.000000000000000
  0
LINE
  8
0
  6
CONTINUOUS
 62
3
 10
65.202584609335645
 20
80.123697601658023
 11
65.202584609335645
 21
68.123697601659842
  0
LINE
  8
0
  6
CONTINUOUS
 62
3
 10
61.202584609335645
 20
67.123697601659842
 11
64.202584609335645
 21
67.123697601659842
  0
ARC
  8
0
  6
CONTINUOUS
 62
3
 10
64.202584609335645
 20
80.123697601658023
 40
1.000000000000000
 50
0.000000000000000
 51
90.000000000000000
  0
ARC
  8
0
  6
CONTINUOUS
 62
3
 10
61.202584609335645
 20
82.123697601658023
 40
1.000000000000000
 50
180.000000000000000
 51
270.000000000000000
  0
LINE
  8
0
  6
CONTINUOUS
 62
3
 10
61.202584609335645
 20
81.123697601658023
 11
64.202584609335645
 21
81.123697601658023
  0
LINE
  8
0
  6
CONTINUOUS
 62
3
 10
57.202584609335645
 20
52.187205928555159
 11
57.202584609335645
 21
38.623697601659842
  0
ARC
  8
0
  6
CONTINUOUS
 62
3
 10
58.202584609334735
 20
56.060189274762706
 40
2.000000000000290
 50
284.477512185954710
 51
0.000000000000000
  0
ARC
  8
0
  6
CONTINUOUS
 62
3
 10
59.202584609335645
 20
52.187205928555159
 40
2.000000000000063
 50
104.477512185929450
 51
180.000000000000000
  0
ARC
  8
0
  6
CONTINUOUS
 62
3
 10
59.202584609335645
 20
38.623697601659842
 40
2.000000000000000
 50
180.000000000000000
 51
270.000000000000000
  0
LINE
  8
0
  6
CONTINUOUS
 62
3
 10
71.702584609339283
 20
36.623697601659842
 11
59.202584609335645
 21
36.623697601659842
  0
LINE
  8
0
  6
CONTINUOUS
 62
3
 10
71.202584609339283
 20
36.623697601659842
 11
71.202584609339283
 21
116.123697601658930
  0
LINE
  8
0
  6
CONTINUOUS
 62
3
 10
45.702584609339283
 20
63.588776832167241
 11
55.377082092848468
 21
63.250935935597226
  0
ARC
  8
0
  6
CONTINUOUS
 62
3
 10
55.202584609335645
 20
59.858744108976680
 40
5.000000000000000
 50
0.000000000000000
 51
87.999999999996405
  0
ARC
  8
0
  6
CONTINUOUS
 62
3
 10
55.202584609335645
 20
58.253981800501606
 40
5.000000000000000
 50
0.000000000000000
 51
87.999999999996405
  0
ARC
  8
0
  6
CONTINUOUS
 62
3
 10
62.202584609336554
 20
38.623697601659842
 40
2.000000000000000
 50
180.000000000000000
 51
270.000000000000000
  0
LINE
  8
0
  6
CONTINUOUS
 62
3
 10
47.702584609335645
 20
65.123697601658932
 11
55.377082092848468
 21
64.855698244072300
  0
LINE
  8
0
  6
CONTINUOUS
 62
3
 10
61.202571665719006
 20
79.123697601659842
 11
61.202570208868565
 21
79.123697601659842
  0
LINE
  8
0
  6
CONTINUOUS
 62
3
 10
60.202584609335645
 20
163.123697601659840
 11
60.202584609336554
 21
193.623697601659840
  0
LINE
  8
0
  6
CONTINUOUS
 62
3
 10
60.202584609333826
 20
116.123697601659840
 11
60.202584609334735
 21
153.123697601659840
  0
ARC
  8
0
  6
CONTINUOUS
 62
3
 10
64.202584609335645
 20
164.123697601658930
 40
1.000000000000000
 50
0.000000000000000
 51
90.000000000000000
  0
ARC
  8
0
  6
CONTINUOUS
 62
3
 10
61.202584609335645
 20
166.123697601658930
 40
1.000000000000000
 50
180.000000000000000
 51
270.000000000000000
  0
LINE
  8
0
  6
CONTINUOUS
 62
3
 10
65.202584609335645
 20
152.123697601660750
 11
65.202584609335645
 21
164.123697601658930
  0
LINE
  8
0
  6
CONTINUOUS
 62
3
 10
61.202584609335645
 20
165.123697601658930
 11
64.202584609335645
 21
165.123697601658930
  0
ARC
  8
0
  6
CONTINUOUS
 62
3
 10
64.202584609335645
 20
152.123697601660750
 40
1.000000000000000
 50
270.000000000000000
 51
0.000000000000000
  0
ARC
  8
0
  6
CONTINUOUS
 62
3
 10
61.202584609335645
 20
150.123697601660750
 40
1.000000000000000
 50
90.000000000000000
 51
180.000000000000000
  0
LINE
  8
0
  6
CONTINUOUS
 62
3
 10
61.202584609335645
 20
151.123697601660750
 11
64.202584609335645
 21
151.123697601660750
  0
LINE
  8
0
  6
CONTINUOUS
 62
3
 10
57.202584609335645
 20
180.060189274763620
 11
57.202584609335645
 21
193.623697601659840
  0
ARC
  8
0
  6
CONTINUOUS
 62
3
 10
58.202584609334735
 20
176.187205928556070
 40
2.000000000000000
 50
0.000000000000000
 51
75.522487814051829
  0
ARC
  8
0
  6
CONTINUOUS
 62
3
 10
59.202584609335645
 20
180.060189274763620
 40
2.000000000000000
 50
180.000000000000000
 51
255.522487814064020
  0
ARC
  8
0
  6
CONTINUOUS
 62
3
 10
59.202584609335645
 20
193.623697601659840
 40
2.000000000000000
 50
90.000000000000000
 51
180.000000000000000
  0
LINE
  8
0
  6
CONTINUOUS
 62
3
 10
71.702584609339283
 20
195.623697601659840
 11
59.202584609335645
 21
195.623697601659840
  0
LINE
  8
0
  6
CONTINUOUS
 62
3
 10
71.202584609339283
 20
195.623697601659840
 11
71.202584609339283
 21
116.123697601659840
  0
LINE
  8
0
  6
CONTINUOUS
 62
3
 10
45.702584609339283
 20
168.658618371151530
 11
55.377082092848468
 21
168.996459267721550
  0
ARC
  8
0
  6
CONTINUOUS
 62
3
 10
55.202584609335645
 20
172.388651094342090
 40
5.000000000000153
 50
272.000000000003580
 51
0.000000000000000
  0
ARC
  8
0
  6
CONTINUOUS
 62
3
 10
55.202584609335645
 20
173.993413402817170
 40
5.000000000000153
 50
272.000000000003580
 51
0.000000000000000
  0
ARC
  8
0
  6
CONTINUOUS
 62
3
 10
62.202584609336554
 20
193.623697601659840
 40
2.000000000000000
 50
90.000000000000000
 51
180.000000000000000
  0
LINE
  8
0
  6
CONTINUOUS
 62
3
 10
47.702584609335645
 20
167.123697601659840
 11
55.377082092848468
 21
167.391696959246470
  0
LINE
  8
0
  6
CONTINUOUS
 62
3
 10
61.202571665719006
 20
153.123697601658930
 11
61.202570208868565
 21
153.123697601658930
  0
LINE
  8
0
  6
CONTINUOUS
 62
3
 10
45.702584609339283
 20
63.588776832167241
 11
45.702584609339283
 21
116.123697601658930
  0
ARC
  8
0
  6
CONTINUOUS
 62
3
 10
45.702584609335645
 20
68.465409729797102
 40
1.000000000000000
 50
0.000000000000000
 51
90.000000000000000
  0
ARC
  8
0
  6
CONTINUOUS
 62
3
 10
45.702584609335645
 20
77.864355180129678
 40
1.000000000000000
 50
270.000000000000000
 51
0.000000000000000
  0
LINE
  8
0
  6
CONTINUOUS
 62
3
 10
46.702584609335645
 20
68.465409729797102
 11
46.702584609335645
 21
66.123697601658932
  0
ARC
  8
0
  6
CONTINUOUS
 62
3
 10
47.702584609335645
 20
66.123697601658932
 40
1.000000000000000
 50
180.000000000000000
 51
270.000000000000000
  0
LINE
  8
0
  6
CONTINUOUS
 62
3
 10
46.702584609335645
 20
116.123697601659840
 11
46.702584609335645
 21
77.864355180129678
  0
LINE
  8
0
  6
CONTINUOUS
 62
3
 10
45.702584609339283
 20
168.658618371151530
 11
45.702584609339283
 21
116.123697601659840
  0
ARC
  8
0
  6
CONTINUOUS
 62
3
 10
45.702584609335645
 20
163.781985473521670
 40
1.000000000000000
 50
270.000000000000000
 51
0.000000000000000
  0
ARC
  8
0
  6
CONTINUOUS
 62
3
 10
45.702584609335645
 20
154.383040023189100
 40
1.000000000000000
 50
0.000000000000000
 51
90.000000000000000
  0
LINE
  8
0
  6
CONTINUOUS
 62
3
 10
46.702584609335645
 20
163.781985473521670
 11
46.702584609335645
 21
166.123697601659840
  0
ARC
  8
0
  6
CONTINUOUS
 62
3
 10
47.702584609335645
 20
166.123697601659840
 40
1.000000000000000
 50
90.000000000000000
 51
180.000000000000000
  0
LINE
  8
0
  6
CONTINUOUS
 62
3
 10
46.702584609335645
 20
116.123697601659840
 11
46.702584609335645
 21
154.383040023189100
  0
LINE
  8
0
  6
CONTINUOUS
 62
3
 10
165.002584609339010
 20
101.623697601659840
 11
163.202584609339280
 21
101.623697601659840
  0
LINE
  8
0
  6
CONTINUOUS
 62
3
 10
165.202584609339280
 20
116.123697601659840
 11
165.202584609339280
 21
101.823697601659660
  0
LINE
  8
0
  6
CONTINUOUS
 62
3
 10
165.202584609339280
 20
101.823697601659660
 11
165.002584609339010
 21
101.623697601659840
  0
ARC
  8
0
  6
CONTINUOUS
 62
3
 10
165.602584609338920
 20
101.873697601659840
 40
0.399999999999636
 50
90.000000000000000
 51
180.000000000000000
  0
LINE
  8
0
  6
CONTINUOUS
 62
3
 10
167.762392230474230
 20
102.123697601659840
 11
167.202584609339280
 21
102.273697601659470
  0
LINE
  8
0
  6
CONTINUOUS
 62
3
 10
167.202584609339280
 20
102.273697601659470
 11
165.602584609338920
 21
102.273697601659470
  0
LINE
  8
0
  6
CONTINUOUS
 62
3
 10
165.002584609339010
 20
130.623697601659840
 11
163.202584609339280
 21
130.623697601659840
  0
LINE
  8
0
  6
CONTINUOUS
 62
3
 10
165.202584609339280
 20
116.123697601659840
 11
165.202584609339280
 21
130.423697601660020
  0
LINE
  8
0
  6
CONTINUOUS
 62
3
 10
165.202584609339280
 20
130.423697601660020
 11
165.002584609339010
 21
130.623697601659840
  0
ARC
  8
0
  6
CONTINUOUS
 62
3
 10
165.602584609338920
 20
130.373697601659840
 40
0.399999999999636
 50
180.000000000000000
 51
270.000000000000000
  0
LINE
  8
0
  6
CONTINUOUS
 62
3
 10
167.762392230474230
 20
130.123697601659840
 11
167.202584609339280
 21
129.973697601660210
  0
LINE
  8
0
  6
CONTINUOUS
 62
3
 10
167.202584609339280
 20
129.973697601660210
 11
165.602584609338920
 21
129.973697601660210
  0
LINE
  8
0
  6
CONTINUOUS
 62
3
 10
171.202584609339280
 20
99.123697601659842
 11
171.202584609339280
 21
102.123697601659840
  0
LINE
  8
0
  6
CONTINUOUS
 62
3
 10
207.202584609339280
 20
129.723697601660210
 11
207.202584609339280
 21
116.123697601659840
  0
LINE
  8
0
  6
CONTINUOUS
 62
3
 10
206.802584609339190
 20
130.123697601659840
 11
167.762392230474230
 21
130.123697601659840
  0
ARC
  8
0
  6
CONTINUOUS
 62
3
 10
206.802584609339190
 20
129.723697601660210
 40
0.400000000000091
 50
0.000000000000000
 51
90.000000000000000
  0
LINE
  8
0
  6
CONTINUOUS
 62
3
 10
207.202584609339280
 20
99.123697601659842
 11
207.202584609339280
 21
102.523697601659470
  0
LINE
  8
0
  6
CONTINUOUS
 62
3
 10
207.202584609339280
 20
99.123697601659842
 11
171.202584609339280
 21
99.123697601659842
  0
LINE
  8
0
  6
CONTINUOUS
 62
3
 10
207.202584609339280
 20
102.523697601659470
 11
207.202584609339280
 21
116.123697601659840
  0
LINE
  8
0
  6
CONTINUOUS
 62
3
 10
206.802584609339190
 20
102.123697601659840
 11
167.762392230474230
 21
102.123697601659840
  0
ARC
  8
0
  6
CONTINUOUS
 62
3
 10
206.802584609339190
 20
102.523697601659470
 40
0.399999999999636
 50
270.000000000000000
 51
0.000000000000000
  0
LINE
  8
0
  6
CONTINUOUS
 62
3
 10
45.702584609339283
 20
62.623697601659842
 11
45.702584609339283
 21
116.123697601659840
  0
LINE
  8
0
  6
CONTINUOUS
 62
3
 10
45.702584609339283
 20
169.623697601659840
 11
45.702584609339283
 21
116.123697601659840
  0
LINE
  8
0
  6
CONTINUOUS
 62
4
 10
-94.797415390681863
 20
75.081783831320081
 11
45.702584609339283
 21
75.081783831320081
  0
LINE
  8
0
  6
CONTINUOUS
 62
4
 10
-94.797415390681863
 20
69.990615006777148
 11
45.702584609339283
 21
69.990615006777148
  0
LINE
  8
0
  6
CONTINUOUS
 62
4
 10
-94.797415390681863
 20
65.623697601659842
 11
45.702584609339283
 21
65.623697601659842
  0
LINE
  8
0
  6
CONTINUOUS
 62
4
 10
-94.797415390681863
 20
65.123697601659842
 11
45.702584609339283
 21
65.123697601659842
  0
LINE
  8
0
  6
CONTINUOUS
 62
3
 10
45.702584609339283
 20
62.623697601659842
 11
-12.597415390660672
 21
62.623697601659842
  0
LINE
  8
0
  6
CONTINUOUS
 62
4
 10
-94.797415390681863
 20
102.123697601659840
 11
45.702584609339283
 21
102.123697601659840
  0
LINE
  8
0
  6
CONTINUOUS
 62
4
 10
-94.797415390681635
 20
97.737582809909895
 11
45.702584609339283
 21
97.737582809909895
  0
LINE
  8
0
  6
CONTINUOUS
 62
4
 10
-94.797415390681635
 20
96.495662945021991
 11
45.702584609339283
 21
96.495662945021991
  0
LINE
  8
0
  6
CONTINUOUS
 62
4
 10
-94.797415390681635
 20
93.285457921663692
 11
45.702584609339283
 21
93.285457921663692
  0
LINE
  8
0
  6
CONTINUOUS
 62
4
 10
-94.797415390681863
 20
91.939056196165097
 11
45.702584609339283
 21
91.939056196165097
  0
LINE
  8
0
  6
CONTINUOUS
 62
4
 10
-94.797415390681863
 20
88.846325204499863
 11
45.702584609339283
 21
88.846325204499863
  0
LINE
  8
0
  6
CONTINUOUS
 62
4
 10
-94.797415390681863
 20
87.367302051022762
 11
45.702584609339283
 21
87.367302051022762
  0
LINE
  8
0
  6
CONTINUOUS
 62
4
 10
-94.797415390681863
 20
84.409306442889829
 11
45.702584609339283
 21
84.409306442889829
  0
LINE
  8
0
  6
CONTINUOUS
 62
4
 10
-94.797415390681863
 20
82.820096650151072
 11
45.702584609339283
 21
82.820096650151072
  0
LINE
  8
0
  6
CONTINUOUS
 62
4
 10
-94.797415390681863
 20
167.123697601659840
 11
45.702584609339283
 21
167.123697601659840
  0
LINE
  8
0
  6
CONTINUOUS
 62
4
 10
-94.797415390681863
 20
166.623697601659840
 11
45.702584609339283
 21
166.623697601659840
  0
LINE
  8
0
  6
CONTINUOUS
 62
4
 10
-94.797415390681863
 20
162.256780196542540
 11
45.702584609339283
 21
162.256780196542540
  0
LINE
  8
0
  6
CONTINUOUS
 62
4
 10
-94.797415390681863
 20
157.165611371999600
 11
45.702584609339283
 21
157.165611371999600
  0
LINE
  8
0
  6
CONTINUOUS
 62
4
 10
-94.797415390681863
 20
149.427298553168610
 11
45.702584609339283
 21
149.427298553168610
  0
LINE
  8
0
  6
CONTINUOUS
 62
4
 10
-94.797415390681863
 20
147.838088760429860
 11
45.702584609339283
 21
147.838088760429860
  0
LINE
  8
0
  6
CONTINUOUS
 62
4
 10
-94.797415390681863
 20
144.880093152296920
 11
45.702584609339283
 21
144.880093152296920
  0
LINE
  8
0
  6
CONTINUOUS
 62
4
 10
-94.797415390681863
 20
143.401069998819820
 11
45.702584609339283
 21
143.401069998819820
  0
LINE
  8
0
  6
CONTINUOUS
 62
4
 10
-94.797415390681863
 20
140.308339007154590
 11
45.702584609339283
 21
140.308339007154590
  0
LINE
  8
0
  6
CONTINUOUS
 62
4
 10
-94.797415390681863
 20
138.961937281655990
 11
45.702584609339283
 21
138.961937281655990
  0
LINE
  8
0
  6
CONTINUOUS
 62
4
 10
-94.797415390681863
 20
134.509812393409790
 11
45.702584609339283
 21
134.509812393409790
  0
LINE
  8
0
  6
CONTINUOUS
 62
4
 10
-94.797415390681863
 20
135.751732258297690
 11
45.702584609339283
 21
135.751732258297690
  0
LINE
  8
0
  6
CONTINUOUS
 62
4
 10
-94.797415390681863
 20
130.123697601659840
 11
45.702584609339283
 21
130.123697601659840
  0
LINE
  8
0
  6
CONTINUOUS
 62
3
 10
45.702584609339283
 20
169.623697601659840
 11
-94.797415390681863
 21
169.623697601659840
  0
LINE
  8
0
  6
CONTINUOUS
 62
3
 10
-94.797415390681863
 20
175.123697601659840
 11
-172.302260339774650
 21
175.123697601659840
  0
LINE
  8
0
  6
CONTINUOUS
 62
3
 10
-184.117934928606020
 20
171.398229714013040
 11
-191.688714125194790
 21
166.097113050440500
  0
LINE
  8
0
  6
CONTINUOUS
 62
3
 10
-192.797415390681860
 20
163.967317735289160
 11
-192.797415390681860
 21
116.123697601659840
  0
ARC
  8
0
  6
CONTINUOUS
 62
3
 10
-190.197415390681950
 20
163.967317735289160
 40
2.600000000000131
 50
125.000000000001180
 51
180.000000000000000
  0
ARC
  8
0
  6
CONTINUOUS
 62
3
 10
-172.302260339774650
 20
154.523697601659820
 40
20.600000000000023
 50
90.000000000000000
 51
124.999999999999600
  0
LINE
  8
0
  6
CONTINUOUS
 62
3
 10
-94.797415390681863
 20
175.123697601659840
 11
-94.797415390681635
 21
116.123697601659840
  0
LINE
  8
0
  6
CONTINUOUS
 62
3
 10
-105.797415390681860
 20
165.267618624385020
 11
-107.797415390681860
 21
163.614976985261590
  0
LINE
  8
0
  6
CONTINUOUS
 62
3
 10
-103.797415390681860
 20
166.443404110007800
 11
-105.797415390681860
 21
165.267618624385020
  0
LINE
  8
0
  6
CONTINUOUS
 62
3
 10
-105.797415390681860
 20
165.267618624385020
 11
-103.797415390681860
 21
163.614976985261590
  0
LINE
  8
0
  6
CONTINUOUS
 62
3
 10
-107.797415390681860
 20
166.443404110007800
 11
-105.797415390681860
 21
165.267618624385020
  0
POLYLINE
  8
0
  6
CONTINUOUS
 62
3
 66
1
 70
1
  0
VERTEX
  8
0
  6
CONTINUOUS
 62
3
 10
-101.097415390681640
 20
163.451028556007370
  0
VERTEX
  8
0
  6
CONTINUOUS
 62
3
 10
-101.187724572786460
 20
164.153985522207730
  0
VERTEX
  8
0
  6
CONTINUOUS
 62
3
 10
-101.455181587878590
 20
164.829928246419830
  0
VERTEX
  8
0
  6
CONTINUOUS
 62
3
 10
-101.889508212859680
 20
165.452880628825230
  0
VERTEX
  8
0
  6
CONTINUOUS
 62
3
 10
-102.474013519104870
 20
165.998902958723820
  0
VERTEX
  8
0
  6
CONTINUOUS
 62
3
 10
-103.186235295489510
 20
166.447011904190450
  0
VERTEX
  8
0
  6
CONTINUOUS
 62
3
 10
-103.998803258565710
 20
166.779986889753190
  0
VERTEX
  8
0
  6
CONTINUOUS
 62
3
 10
-104.880490877205830
 20
166.985031873451450
  0
VERTEX
  8
0
  6
CONTINUOUS
 62
3
 10
-105.797415390681630
 20
167.054267091552220
  0
VERTEX
  8
0
  6
CONTINUOUS
 62
3
 10
-106.714339904157440
 20
166.985031873451450
  0
VERTEX
  8
0
  6
CONTINUOUS
 62
3
 10
-107.596027522797550
 20
166.779986889753190
  0
VERTEX
  8
0
  6
CONTINUOUS
 62
3
 10
-108.408595485873760
 20
166.447011904190450
  0
VERTEX
  8
0
  6
CONTINUOUS
 62
3
 10
-109.120817262258390
 20
165.998902958723820
  0
VERTEX
  8
0
  6
CONTINUOUS
 62
3
 10
-109.705322568503590
 20
165.452880628825230
  0
VERTEX
  8
0
  6
CONTINUOUS
 62
3
 10
-110.139649193484670
 20
164.829928246419830
  0
VERTEX
  8
0
  6
CONTINUOUS
 62
3
 10
-110.407106208576800
 20
164.153985522207730
  0
VERTEX
  8
0
  6
CONTINUOUS
 62
3
 10
-110.497415390681620
 20
163.451028556007370
  0
VERTEX
  8
0
  6
CONTINUOUS
 62
3
 10
-110.407106208576800
 20
162.748071589807010
  0
VERTEX
  8
0
  6
CONTINUOUS
 62
3
 10
-110.139649193484670
 20
162.072128865594920
  0
VERTEX
  8
0
  6
CONTINUOUS
 62
3
 10
-109.705322568503590
 20
161.449176483189520
  0
VERTEX
  8
0
  6
CONTINUOUS
 62
3
 10
-109.120817262258390
 20
160.903154153290930
  0
VERTEX
  8
0
  6
CONTINUOUS
 62
3
 10
-108.408595485873760
 20
160.455045207824300
  0
VERTEX
  8
0
  6
CONTINUOUS
 62
3
 10
-107.596027522797550
 20
160.122070222261560
  0
VERTEX
  8
0
  6
CONTINUOUS
 62
3
 10
-106.714339904157440
 20
159.917025238563300
  0
VERTEX
  8
0
  6
CONTINUOUS
 62
3
 10
-105.797415390681630
 20
159.847790020462530
  0
VERTEX
  8
0
  6
CONTINUOUS
 62
3
 10
-104.880490877205830
 20
159.917025238563300
  0
VERTEX
  8
0
  6
CONTINUOUS
 62
3
 10
-103.998803258565710
 20
160.122070222261560
  0
VERTEX
  8
0
  6
CONTINUOUS
 62
3
 10
-103.186235295489510
 20
160.455045207824300
  0
VERTEX
  8
0
  6
CONTINUOUS
 62
3
 10
-102.474013519104870
 20
160.903154153290930
  0
VERTEX
  8
0
  6
CONTINUOUS
 62
3
 10
-101.889508212859680
 20
161.449176483189520
  0
VERTEX
  8
0
  6
CONTINUOUS
 62
3
 10
-101.455181587878590
 20
162.072128865594920
  0
VERTEX
  8
0
  6
CONTINUOUS
 62
3
 10
-101.187724572786460
 20
162.748071589807010
  0
SEQEND
  8
0
  6
CONTINUOUS
 62
3
  0
LINE
  8
0
  6
CONTINUOUS
 62
3
 10
-102.597415390660670
 20
58.623697601659842
 11
-12.597415390660672
 21
58.623697601659842
  0
LINE
  8
0
  6
CONTINUOUS
 62
3
 10
-102.597415390660670
 20
61.675367699816888
 11
-102.597415390660670
 21
25.623697601659842
  0
LINE
  8
0
  6
CONTINUOUS
 62
3
 10
-104.797415390681860
 20
57.123697601659842
 11
-104.797415390681860
 21
58.784001240850898
  0
LINE
  8
0
  6
CONTINUOUS
 62
3
 10
-104.797415390681860
 20
57.123697601659842
 11
-172.302260339774650
 21
57.123697601659842
  0
ARC
  8
0
  6
CONTINUOUS
 62
3
 10
-101.797415390681860
 20
58.784001240850898
 40
3.000000000000000
 50
90.000000000000000
 51
180.000000000000000
  0
LINE
  8
0
  6
CONTINUOUS
 62
3
 10
-101.797415390681860
 20
61.784001240850898
 11
-97.797415390681863
 21
61.784001240850898
  0
ARC
  8
0
  6
CONTINUOUS
 62
3
 10
-97.797415390681863
 20
64.784001240850898
 40
3.000000000000000
 50
270.000000000000000
 51
359.999999999997780
  0
LINE
  8
0
  6
CONTINUOUS
 62
3
 10
-94.797415390681863
 20
64.784001240850785
 11
-94.797415390681635
 21
116.123697601659840
  0
LINE
  8
0
  6
CONTINUOUS
 62
3
 10
-105.797415390681860
 20
66.979776578934775
 11
-107.797415390681860
 21
68.632418218058092
  0
LINE
  8
0
  6
CONTINUOUS
 62
3
 10
-103.797415390681860
 20
65.803991093311879
 11
-105.797415390681860
 21
66.979776578934775
  0
LINE
  8
0
  6
CONTINUOUS
 62
3
 10
-105.797415390681860
 20
66.979776578934775
 11
-103.797415390681860
 21
68.632418218058092
  0
LINE
  8
0
  6
CONTINUOUS
 62
3
 10
-107.797415390681860
 20
65.803991093311879
 11
-105.797415390681860
 21
66.979776578934775
  0
POLYLINE
  8
0
  6
CONTINUOUS
 62
3
 66
1
 70
1
  0
VERTEX
  8
0
  6
CONTINUOUS
 62
3
 10
-101.097415390681640
 20
68.796366647312311
  0
VERTEX
  8
0
  6
CONTINUOUS
 62
3
 10
-101.187724572786460
 20
69.499323613512672
  0
VERTEX
  8
0
  6
CONTINUOUS
 62
3
 10
-101.455181587878590
 20
70.175266337724764
  0
VERTEX
  8
0
  6
CONTINUOUS
 62
3
 10
-101.889508212859680
 20
70.798218720130166
  0
VERTEX
  8
0
  6
CONTINUOUS
 62
3
 10
-102.474013519104870
 20
71.344241050028742
  0
VERTEX
  8
0
  6
CONTINUOUS
 62
3
 10
-103.186235295489510
 20
71.792349995495357
  0
VERTEX
  8
0
  6
CONTINUOUS
 62
3
 10
-103.998803258565710
 20
72.125324981058128
  0
VERTEX
  8
0
  6
CONTINUOUS
 62
3
 10
-104.880490877205830
 20
72.330369964756372
  0
VERTEX
  8
0
  6
CONTINUOUS
 62
3
 10
-105.797415390681630
 20
72.399605182857144
  0
VERTEX
  8
0
  6
CONTINUOUS
 62
3
 10
-106.714339904157440
 20
72.330369964756372
  0
VERTEX
  8
0
  6
CONTINUOUS
 62
3
 10
-107.596027522797550
 20
72.125324981058128
  0
VERTEX
  8
0
  6
CONTINUOUS
 62
3
 10
-108.408595485873760
 20
71.792349995495357
  0
VERTEX
  8
0
  6
CONTINUOUS
 62
3
 10
-109.120817262258390
 20
71.344241050028742
  0
VERTEX
  8
0
  6
CONTINUOUS
 62
3
 10
-109.705322568503590
 20
70.798218720130166
  0
VERTEX
  8
0
  6
CONTINUOUS
 62
3
 10
-110.139649193484670
 20
70.175266337724764
  0
VERTEX
  8
0
  6
CONTINUOUS
 62
3
 10
-110.407106208576800
 20
69.499323613512672
  0
VERTEX
  8
0
  6
CONTINUOUS
 62
3
 10
-110.497415390681620
 20
68.796366647312311
  0
VERTEX
  8
0
  6
CONTINUOUS
 62
3
 10
-110.407106208576800
 20
68.093409681111950
  0
VERTEX
  8
0
  6
CONTINUOUS
 62
3
 10
-110.139649193484670
 20
67.417466956899858
  0
VERTEX
  8
0
  6
CONTINUOUS
 62
3
 10
-109.705322568503590
 20
66.794514574494457
  0
VERTEX
  8
0
  6
CONTINUOUS
 62
3
 10
-109.120817262258390
 20
66.248492244595880
  0
VERTEX
  8
0
  6
CONTINUOUS
 62
3
 10
-108.408595485873760
 20
65.800383299129265
  0
VERTEX
  8
0
  6
CONTINUOUS
 62
3
 10
-107.596027522797550
 20
65.467408313566494
  0
VERTEX
  8
0
  6
CONTINUOUS
 62
3
 10
-106.714339904157440
 20
65.262363329868251
  0
VERTEX
  8
0
  6
CONTINUOUS
 62
3
 10
-105.797415390681630
 20
65.193128111767479
  0
VERTEX
  8
0
  6
CONTINUOUS
 62
3
 10
-104.880490877205830
 20
65.262363329868251
  0
VERTEX
  8
0
  6
CONTINUOUS
 62
3
 10
-103.998803258565710
 20
65.467408313566494
  0
VERTEX
  8
0
  6
CONTINUOUS
 62
3
 10
-103.186235295489510
 20
65.800383299129265
  0
VERTEX
  8
0
  6
CONTINUOUS
 62
3
 10
-102.474013519104870
 20
66.248492244595880
  0
VERTEX
  8
0
  6
CONTINUOUS
 62
3
 10
-101.889508212859680
 20
66.794514574494457
  0
VERTEX
  8
0
  6
CONTINUOUS
 62
3
 10
-101.455181587878590
 20
67.417466956899858
  0
VERTEX
  8
0
  6
CONTINUOUS
 62
3
 10
-101.187724572786460
 20
68.093409681111950
  0
SEQEND
  8
0
  6
CONTINUOUS
 62
3
  0
LINE
  8
0
  6
CONTINUOUS
 62
3
 10
-12.597415390660672
 20
63.623697601659842
 11
-94.797415390681863
 21
63.623697601659842
  0
LINE
  8
0
  6
CONTINUOUS
 62
3
 10
-95.597415390660672
 20
24.623697601659842
 11
-95.597415390660672
 21
24.123697601659842
  0
LINE
  8
0
  6
CONTINUOUS
 62
3
 10
-87.597415390660672
 20
24.623697601659842
 11
-87.597415390660672
 21
24.123697601659842
  0
LINE
  8
0
  6
CONTINUOUS
 62
3
 10
-19.597415390660672
 20
24.623697601659842
 11
-19.597415390660672
 21
24.123697601659842
  0
LINE
  8
0
  6
CONTINUOUS
 62
3
 10
-27.597415390660672
 20
24.623697601659842
 11
-27.597415390660672
 21
24.123697601659842
  0
LINE
  8
0
  6
CONTINUOUS
 62
3
 10
-27.597415390660672
 20
24.123697601659842
 11
-19.597415390660672
 21
24.123697601659842
  0
LINE
  8
0
  6
CONTINUOUS
 62
3
 10
-95.597415390660672
 20
24.123697601659842
 11
-87.597415390660672
 21
24.123697601659842
  0
ARC
  8
0
  6
CONTINUOUS
 62
3
 10
-101.597415390660670
 20
25.623697601659842
 40
1.000000000000000
 50
180.000000000000000
 51
270.000000000000000
  0
LINE
  8
0
  6
CONTINUOUS
 62
3
 10
-101.597415390660670
 20
24.623697601659842
 11
-13.597415390660672
 21
24.623697601659842
  0
ARC
  8
0
  6
CONTINUOUS
 62
3
 10
-13.597415390660672
 20
25.623697601659842
 40
1.000000000000000
 50
270.000000000000000
 51
0.000000000000000
  0
LINE
  8
0
  6
CONTINUOUS
 62
3
 10
-12.597415390660672
 20
63.623697601659842
 11
-12.597415390660672
 21
25.623697601659842
  0
LINE
  8
0
  6
CONTINUOUS
 62
3
 10
-192.797415390681860
 20
68.280077468030527
 11
-192.797415390681860
 21
116.123697601659840
  0
LINE
  8
0
  6
CONTINUOUS
 62
3
 10
-184.117934928606020
 20
60.849165489306642
 11
-191.688714125194790
 21
66.150282152879186
  0
ARC
  8
0
  6
CONTINUOUS
 62
3
 10
-190.197415390681950
 20
68.280077468030527
 40
2.599999999999909
 50
180.000000000000000
 51
234.999999999998810
  0
ARC
  8
0
  6
CONTINUOUS
 62
3
 10
-172.302260339774650
 20
77.723697601659865
 40
20.599999999999891
 50
235.000000000000400
 51
270.000000000000000
  0
ARC
  8
0
  6
CONTINUOUS
 62
3
 10
30.702584609339283
 20
193.126567222240740
 40
2.000000000000000
 50
270.000000000000000
 51
0.000000000000000
  0
ARC
  8
0
  6
CONTINUOUS
 62
3
 10
30.702584609339283
 20
193.925569093359630
 40
2.000000000000000
 50
270.000000000000000
 51
0.000000000000000
  0
ARC
  8
0
  6
CONTINUOUS
 62
3
 10
30.702584609339283
 20
194.724570964444870
 40
2.000000000000000
 50
270.000000000000000
 51
0.000000000000000
  0
ARC
  8
0
  6
CONTINUOUS
 62
3
 10
30.702584609339283
 20
195.818207892722060
 40
2.000000000000000
 50
0.000000000000000
 51
90.000000000000000
  0
LINE
  8
0
  6
CONTINUOUS
 62
3
 10
29.702584609339283
 20
197.818207892722060
 11
30.702584609339283
 21
197.818207892722060
  0
LINE
  8
0
  6
CONTINUOUS
 62
3
 10
30.702584609339283
 20
191.126567222240740
 11
-95.297415390660717
 21
191.126567222240740
  0
LINE
  8
0
  6
CONTINUOUS
 62
3
 10
30.702584609339283
 20
191.925569093342800
 11
-95.297415390660717
 21
191.925569093342800
  0
LINE
  8
0
  6
CONTINUOUS
 62
3
 10
32.702584609339283
 20
195.818207892722060
 11
32.702584609339283
 21
193.126567222240740
  0
LINE
  8
0
  6
CONTINUOUS
 62
3
 10
29.702584609339283
 20
179.623697601659840
 11
29.702584609339283
 21
190.925569093359630
  0
LINE
  8
0
  6
CONTINUOUS
 62
3
 10
-89.297415390660717
 20
216.223697601659750
 11
24.702584609339283
 21
216.223697601659750
  0
ARC
  8
0
  6
CONTINUOUS
 62
3
 10
24.702584609339283
 20
211.223697601659750
 40
5.000000000000000
 50
0.000000000000000
 51
90.000000000000000
  0
LINE
  8
0
  6
CONTINUOUS
 62
3
 10
-94.297415390660717
 20
179.623697601659840
 11
-94.297415390660717
 21
191.126567222240740
  0
ARC
  8
0
  6
CONTINUOUS
 62
3
 10
-95.297415390660717
 20
193.126567222240740
 40
2.000000000000000
 50
180.000000000000000
 51
270.000000000000000
  0
LINE
  8
0
  6
CONTINUOUS
 62
3
 10
-97.297415390660717
 20
195.818207892722060
 11
-97.297415390660717
 21
193.126567222240740
  0
ARC
  8
0
  6
CONTINUOUS
 62
3
 10
-95.297415390660717
 20
193.925569093359630
 40
2.000000000000000
 50
180.000000000000000
 51
270.000000000000000
  0
ARC
  8
0
  6
CONTINUOUS
 62
3
 10
-95.297415390660717
 20
194.724570964444870
 40
2.000000000000000
 50
180.000000000000000
 51
270.000000000000000
  0
ARC
  8
0
  6
CONTINUOUS
 62
3
 10
-95.297415390660717
 20
195.818207892722060
 40
2.000000000000000
 50
90.000000000000000
 51
180.000000000000000
  0
ARC
  8
0
  6
CONTINUOUS
 62
3
 10
-89.297415390660717
 20
211.223697601659750
 40
5.000000000000000
 50
90.000000000000000
 51
180.000000000000000
  0
LINE
  8
0
  6
CONTINUOUS
 62
3
 10
30.702584609339283
 20
192.724570964444870
 11
-95.297415390660717
 21
192.724570964444870
  0
LINE
  8
0
  6
CONTINUOUS
 62
3
 10
-94.297415390660717
 20
197.818207892722060
 11
-95.297415390660717
 21
197.818207892722060
  0
LINE
  8
0
  6
CONTINUOUS
 62
3
 10
-94.297415390660717
 20
198.284722661346680
 11
-94.297415390660717
 21
211.223697601659750
  0
LINE
  8
0
  6
CONTINUOUS
 62
3
 10
29.702584609339283
 20
198.284722661346680
 11
29.702584609339283
 21
211.223697601659750
  0
POLYLINE
  8
0
  6
CONTINUOUS
 62
3
 66
1
  0
VERTEX
  8
0
  6
CONTINUOUS
 62
3
 10
-90.797415390660717
 20
192.974259049164630
  0
VERTEX
  8
0
  6
CONTINUOUS
 62
3
 10
-90.730163872072026
 20
192.940160838968640
  0
VERTEX
  8
0
  6
CONTINUOUS
 62
3
 10
-90.530993754450222
 20
192.907373003868000
  0
VERTEX
  8
0
  6
CONTINUOUS
 62
3
 10
-90.207559033719619
 20
192.877155561977990
  0
VERTEX
  8
0
  6
CONTINUOUS
 62
3
 10
-89.772289124813639
 20
192.850669752644280
  0
VERTEX
  8
0
  6
CONTINUOUS
 62
3
 10
-89.241911206229332
 20
192.828933410666200
  0
VERTEX
  8
0
  6
CONTINUOUS
 62
3
 10
-88.636807403938533
 20
192.812781851476020
  0
VERTEX
  8
0
  6
CONTINUOUS
 62
3
 10
-87.980231517717172
 20
192.802835770435560
  0
VERTEX
  8
0
  6
CONTINUOUS
 62
3
 10
-87.297415390660717
 20
192.799477389861410
  0
VERTEX
  8
0
  6
CONTINUOUS
 62
3
 10
-86.614599263604276
 20
192.802835770435560
  0
VERTEX
  8
0
  6
CONTINUOUS
 62
3
 10
-85.958023377382901
 20
192.812781851476020
  0
VERTEX
  8
0
  6
CONTINUOUS
 62
3
 10
-85.352919575092116
 20
192.828933410666200
  0
VERTEX
  8
0
  6
CONTINUOUS
 62
3
 10
-84.822541656507809
 20
192.850669752644280
  0
VERTEX
  8
0
  6
CONTINUOUS
 62
3
 10
-84.387271747601815
 20
192.877155561977990
  0
VERTEX
  8
0
  6
CONTINUOUS
 62
3
 10
-84.063837026871212
 20
192.907373003868000
  0
VERTEX
  8
0
  6
CONTINUOUS
 62
3
 10
-83.864666909249408
 20
192.940160838968640
  0
VERTEX
  8
0
  6
CONTINUOUS
 62
3
 10
-83.797415390660717
 20
192.974259049164630
  0
SEQEND
  8
0
  6
CONTINUOUS
 62
3
  0
ARC
  8
0
  6
CONTINUOUS
 62
3
 10
-85.097415390660899
 20
193.961268787089010
 40
1.300000000000182
 50
0.000000000000000
 51
73.398450400977637
  0
ARC
  8
0
  6
CONTINUOUS
 62
3
 10
-87.297415390660717
 20
186.582244461339540
 40
9.000000000000123
 50
73.398450400980877
 51
106.601549599019120
  0
ARC
  8
0
  6
CONTINUOUS
 62
3
 10
-89.497415390660535
 20
193.961268787089010
 40
1.300000000000019
 50
106.601549599022360
 51
180.000000000000000
  0
LINE
  8
0
  6
CONTINUOUS
 62
3
 10
-83.797415390660717
 20
193.961268787089010
 11
-83.797415390660717
 21
192.974259049164630
  0
LINE
  8
0
  6
CONTINUOUS
 62
3
 10
-90.797415390660717
 20
193.961268787089010
 11
-90.797415390660717
 21
192.974259049164630
  0
ARC
  8
0
  6
CONTINUOUS
 62
3
 10
-89.297415390660717
 20
198.284722661346680
 40
5.000000000000000
 50
180.000000000000000
 51
252.542396876278160
  0
LINE
  8
0
  6
CONTINUOUS
 62
3
 10
19.202584609339283
 20
193.961268787089010
 11
19.202584609339283
 21
192.974259049164630
  0
POLYLINE
  8
0
  6
CONTINUOUS
 62
3
 66
1
  0
VERTEX
  8
0
  6
CONTINUOUS
 62
3
 10
19.202584609339283
 20
192.974259049164630
  0
VERTEX
  8
0
  6
CONTINUOUS
 62
3
 10
19.269836127927977
 20
192.940160838968640
  0
VERTEX
  8
0
  6
CONTINUOUS
 62
3
 10
19.469006245549778
 20
192.907373003868000
  0
VERTEX
  8
0
  6
CONTINUOUS
 62
3
 10
19.792440966280374
 20
192.877155561977990
  0
VERTEX
  8
0
  6
CONTINUOUS
 62
3
 10
20.227710875186368
 20
192.850669752644280
  0
VERTEX
  8
0
  6
CONTINUOUS
 62
3
 10
20.758088793770675
 20
192.828933410666200
  0
VERTEX
  8
0
  6
CONTINUOUS
 62
3
 10
21.363192596061467
 20
192.812781851476020
  0
VERTEX
  8
0
  6
CONTINUOUS
 62
3
 10
22.019768482282835
 20
192.802835770435560
  0
VERTEX
  8
0
  6
CONTINUOUS
 62
3
 10
22.702584609339283
 20
192.799477389861410
  0
VERTEX
  8
0
  6
CONTINUOUS
 62
3
 10
23.385400736395731
 20
192.802835770435560
  0
VERTEX
  8
0
  6
CONTINUOUS
 62
3
 10
24.041976622617096
 20
192.812781851476020
  0
VERTEX
  8
0
  6
CONTINUOUS
 62
3
 10
24.647080424907887
 20
192.828933410666200
  0
VERTEX
  8
0
  6
CONTINUOUS
 62
3
 10
25.177458343492198
 20
192.850669752644280
  0
VERTEX
  8
0
  6
CONTINUOUS
 62
3
 10
25.612728252398188
 20
192.877155561977990
  0
VERTEX
  8
0
  6
CONTINUOUS
 62
3
 10
25.936162973128784
 20
192.907373003868000
  0
VERTEX
  8
0
  6
CONTINUOUS
 62
3
 10
26.135333090750589
 20
192.940160838968640
  0
VERTEX
  8
0
  6
CONTINUOUS
 62
3
 10
26.202584609339279
 20
192.974259049164630
  0
SEQEND
  8
0
  6
CONTINUOUS
 62
3
  0
LINE
  8
0
  6
CONTINUOUS
 62
3
 10
26.202584609339283
 20
193.961268787089010
 11
26.202584609339283
 21
192.974259049164630
  0
ARC
  8
0
  6
CONTINUOUS
 62
3
 10
20.502584609339465
 20
193.961268787089010
 40
1.300000000000019
 50
106.601549599022360
 51
180.000000000000000
  0
ARC
  8
0
  6
CONTINUOUS
 62
3
 10
22.702584609339283
 20
186.582244461339540
 40
9.000000000000123
 50
73.398450400980877
 51
106.601549599019120
  0
ARC
  8
0
  6
CONTINUOUS
 62
3
 10
24.902584609339101
 20
193.961268787089010
 40
1.300000000000182
 50
0.000000000000000
 51
73.398450400977637
  0
ARC
  8
0
  6
CONTINUOUS
 62
3
 10
24.702584609339283
 20
198.284722661346680
 40
5.000000000000072
 50
287.457603123721870
 51
0.000000000000000
  0
LINE
  8
0
  6
CONTINUOUS
 62
3
 10
19.202584609339283
 20
193.284722661346680
 11
-83.797415390660717
 21
193.284722661346680
  0
LINE
  8
0
  6
CONTINUOUS
 62
3
 10
-94.297415390660717
 20
174.623697601659840
 11
29.702584609339283
 21
174.623697601659840
  0
ARC
  8
0
  6
CONTINUOUS
 62
3
 10
24.702584609339283
 20
179.623697601659840
 40
5.000000000000000
 50
270.000000000000000
 51
0.000000000000000
  0
LINE
  8
0
  6
CONTINUOUS
 62
3
 10
29.702584609339283
 20
169.623697601659840
 11
29.702584609339283
 21
174.623697601659840
  0
LINE
  8
0
  6
CONTINUOUS
 62
3
 10
-94.297415390660717
 20
169.623697601659840
 11
-94.297415390660717
 21
174.623697601659840
  0
ARC
  8
0
  6
CONTINUOUS
 62
3
 10
-89.297415390660717
 20
179.623697601659840
 40
5.000000000000000
 50
180.000000000000000
 51
270.000000000000000
  0
LINE
  8
0
  6
DASHDOT
 62
4
 10
219.104167583931030
 20
116.123697601659840
 11
-213.075605076404370
 21
116.123697601659840
  0
LINE
  8
0
  6
DASHDOT
 62
4
 10
-90.597415390660785
 20
29.623697601659842
 11
-90.597415390660785
 21
56.625296924209579
  0
LINE
  8
0
  6
DASHDOT
 62
4
 10
-81.597415390660785
 20
38.623697601659842
 11
-99.597415390660785
 21
38.623697601659842
  0
CIRCLE
  8
0
  6
DASHED
 62
4
 10
-90.597415390660785
 20
38.623697601659842
 40
6.000000000000000
  0
ARC
  8
0
  6
DASHED
 62
4
 10
-90.597415390660785
 20
38.623697601659842
 40
7.000000000000000
 50
180.000000000000000
 51
0.000000000000000
  0
LINE
  8
0
  6
DASHED
 62
4
 10
-83.597415390660785
 20
58.623697601659842
 11
-83.597415390660785
 21
38.623697601659842
  0
LINE
  8
0
  6
DASHED
 62
4
 10
-97.597415390660785
 20
58.623697601659842
 11
-97.597415390660785
 21
38.623697601659842
  0
ARC
  8
0
  6
CONTINUOUS
 62
3
 10
355.306197759286080
 20
-136.998111088381850
 40
62.692927983299889
 50
15.321688456567145
 51
56.614043319659181
  0
ARC
  8
0
  6
CONTINUOUS
 62
3
 10
420.106197759286030
 20
-166.767462243623870
 40
20.799999999999986
 50
319.008569186277840
 51
334.359929784105190
  0
ARC
  8
0
  6
DASHED
 62
3
 10
418.106197759286030
 20
-126.767462243623860
 40
18.800000000000004
 50
19.696801460675363
 51
35.808626813495749
  0
INSERT
  8
0
  2
SYM2
 10
422.251019965629440
 20
-193.643918854884300
 41
-1.000000000000000
 42
1.000000000000000
 43
1.000000000000000
 50
2.862405226113666
  0
LINE
  8
0
  6
DASHED
 62
3
 10
420.902704308143940
 20
-198.717580736384430
 11
422.500708050348520
 21
-198.637680549273450
  0
ARC
  8
0
  6
DASHED
 62
3
 10
424.032663590618310
 20
-189.226822565667360
 40
1.999999999999995
 50
99.916536608232732
 51
182.862405226112400
  0
ARC
  8
0
  6
DASHED
 62
3
 10
418.439650492902500
 20
-189.506473220553180
 40
1.999999999999927
 50
2.862405226112724
 51
85.808273843998350
  0
ARC
  8
0
  6
CONTINUOUS
 62
3
 10
420.106197759286030
 20
-166.767462243623870
 40
20.799999999999926
 50
334.359929784105190
 51
5.724810452223396
  0
ARC
  8
0
  6
DASHED
 62
3
 10
420.106197759286030
 20
-166.767462243623870
 40
20.800000000000040
 50
279.916536608230560
 51
319.008569186277840
  0
ARC
  8
0
  6
CONTINUOUS
 62
3
 10
420.106197759286030
 20
-166.767462243623870
 40
20.799999999999926
 50
334.359929784105190
 51
5.724810452223396
  0
ARC
  8
0
  6
CONTINUOUS
 62
3
 10
418.106197759286030
 20
-126.767462243623860
 40
18.799999999999837
 50
5.724810452223617
 51
19.696801460675363
  0
LINE
  8
0
  6
CONTINUOUS
 62
3
 10
440.802457110906970
 20
-164.692649276042860
 11
436.812432173250950
 21
-124.892150522925590
  0
LINE
  8
0
  6
DASHED
 62
3
 10
415.809067379866970
 20
-96.844842170843663
 11
420.902704308143940
 21
-198.717580736384430
  0
LINE
  8
0
  6
DASHED
 62
3
 10
417.407071122071560
 20
-96.764941983733479
 11
422.500708050348520
 21
-198.637680549273450
  0
ARC
  8
0
  6
DASHED
 62
3
 10
418.524700223922080
 20
-99.512557579978306
 40
1.299999237060645
 50
19.463936333587132
 51
92.862405909348169
  0
ARC
  8
0
  6
DASHED
 62
3
 10
418.744425814674060
 20
-103.907069395016030
 40
1.299999237060550
 50
272.862387240019760
 51
346.260856815788600
  0
LINE
  8
0
  6
DASHED
 62
3
 10
417.481977547486850
 20
-98.263070492050133
 11
418.459781359994390
 21
-98.214180301424790
  0
LINE
  8
0
  6
DASHED
 62
3
 10
417.831540866093970
 20
-105.254336864195010
 11
418.809344678601750
 21
-105.205446673569660
  0
LINE
  8
0
  6
DASHED
 62
3
 10
417.481977547486850
 20
-98.263070492050133
 11
417.831540866093970
 21
-105.254336864195010
  0
LINE
  8
0
  6
DASHED
 62
3
 10
417.481977547486850
 20
-98.263070492050133
 11
417.831540866093970
 21
-105.254336864195010
  0
POINT
  8
0
  6
DASHED
 62
3
 10
417.656759206790410
 20
-101.758703678122510
  0
ARC
  8
0
  6
DASHED
 62
3
 10
411.264744618966010
 20
-102.078304407513770
 40
8.999999999999948
 50
346.260856815786500
 51
19.463936333592187
  0
LINE
  8
0
  6
DASHED
 62
3
 10
417.407071122071560
 20
-96.764941983733479
 11
415.809067379866970
 21
-96.844842170843663
  0
ARC
  8
0
  6
DASHED
 62
3
 10
418.106197759286030
 20
-126.767462243623860
 40
18.799999999999933
 50
35.808626813495749
 51
85.126025186157264
  0
LINE
  8
0
  6
DASHED
 62
3
 10
416.608069250969270
 20
-96.804892077288628
 11
421.701706179246230
 21
-198.677630642828720
  0
ARC
  8
0
  6
DASHED
 62
3
 10
419.873456222914910
 20
-106.042675211600340
 40
1.999999999999927
 50
182.862405226112710
 51
265.126025186159040
  0
ARC
  8
0
  6
DASHED
 62
3
 10
414.280443125199100
 20
-106.322325866486150
 40
1.999999999999958
 50
280.598785266065990
 51
2.862405226112724
  0
ARC
  8
0
  6
DASHED
 62
3
 10
418.106197759286030
 20
-126.767462243623860
 40
18.799999999999983
 50
100.598785266066050
 51
180.000000000000000
  0
ARC
  8
0
  6
DASHED
 62
3
 10
420.106197759286030
 20
-166.767462243623870
 40
20.799999999999862
 50
185.047316781007880
 51
265.808273843992540
  0
LINE
  8
0
  6
DASHED
 62
3
 10
399.306197759286080
 20
-168.597413046985480
 11
399.306197759286080
 21
-126.767462243623860
  0
LINE
  8
0
  6
CONTINUOUS
 62
3
 10
45.702584609345649
 20
-205.224962243623850
 11
-94.797415390674587
 21
-205.224962243623850
  0
LINE
  8
0
  6
CONTINUOUS
 62
4
 10
-94.797415390674587
 20
-203.724962243624080
 11
45.702584609345649
 21
-203.724962243624080
  0
LINE
  8
0
  6
CONTINUOUS
 62
4
 10
-94.797415390674587
 20
-203.224962243623850
 11
45.702584609345649
 21
-203.224962243623850
  0
LINE
  8
0
  6
CONTINUOUS
 62
4
 10
-94.797415390674587
 20
-198.858044838506660
 11
45.702584609345649
 21
-198.858044838506660
  0
LINE
  8
0
  6
CONTINUOUS
 62
4
 10
-94.797415390674587
 20
-197.229617770728740
 11
45.702584609345649
 21
-197.229617770728740
  0
LINE
  8
0
  6
CONTINUOUS
 62
4
 10
-12.597415390652941
 20
-186.028563195132620
 11
45.702584609346559
 21
-186.028563195132620
  0
LINE
  8
0
  6
CONTINUOUS
 62
4
 10
-12.597415390652941
 20
-184.439353402393860
 11
45.702584609346559
 21
-184.439353402393860
  0
LINE
  8
0
  6
CONTINUOUS
 62
4
 10
-12.597415390652941
 20
-172.724962243623850
 11
45.702584609346559
 21
-172.724962243623850
  0
LINE
  8
0
  6
CONTINUOUS
 62
4
 10
-12.597415390652941
 20
-175.563201923620000
 11
45.702584609346559
 21
-175.563201923620000
  0
LINE
  8
0
  6
CONTINUOUS
 62
4
 10
-12.597415390652941
 20
-176.909603649118480
 11
45.702584609346559
 21
-176.909603649118480
  0
LINE
  8
0
  6
CONTINUOUS
 62
4
 10
-12.597415390652941
 20
-180.002334640783830
 11
45.702584609346559
 21
-180.002334640783830
  0
LINE
  8
0
  6
CONTINUOUS
 62
4
 10
-12.597415390652941
 20
-181.481357794260930
 11
45.702584609346559
 21
-181.481357794260930
  0
LINE
  8
0
  6
CONTINUOUS
 62
4
 10
-94.955015737045869
 20
-192.765397650148090
 11
45.702584609346559
 21
-192.765397650148090
  0
LINE
  8
0
  6
CONTINUOUS
 62
4
 10
-94.797415390674587
 20
-193.766876013963380
 11
45.702584609346559
 21
-193.766876013963380
  0
LINE
  8
0
  6
CONTINUOUS
 62
4
 10
-12.597415390652941
 20
-119.421361292115080
 11
45.702584609346559
 21
-119.421361292115080
  0
LINE
  8
0
  6
CONTINUOUS
 62
4
 10
-12.597415390652941
 20
-121.010571084853830
 11
45.702584609346559
 21
-121.010571084853830
  0
LINE
  8
0
  6
CONTINUOUS
 62
4
 10
-12.597415390652941
 20
-132.724962243623850
 11
45.702584609346559
 21
-132.724962243623850
  0
LINE
  8
0
  6
CONTINUOUS
 62
4
 10
-12.597415390652941
 20
-129.886722563627700
 11
45.702584609346559
 21
-129.886722563627700
  0
LINE
  8
0
  6
CONTINUOUS
 62
4
 10
-12.597415390652941
 20
-128.540320838129220
 11
45.702584609346559
 21
-128.540320838129220
  0
LINE
  8
0
  6
CONTINUOUS
 62
4
 10
-12.597415390652941
 20
-125.447589846463870
 11
45.702584609346559
 21
-125.447589846463870
  0
LINE
  8
0
  6
CONTINUOUS
 62
4
 10
-12.597415390652941
 20
-123.968566692986760
 11
45.702584609346559
 21
-123.968566692986760
  0
LINE
  8
0
  6
CONTINUOUS
 62
4
 10
-94.955015737045869
 20
-112.684526837099380
 11
45.702584609346559
 21
-112.684526837099380
  0
LINE
  8
0
  6
CONTINUOUS
 62
4
 10
-94.797415390674587
 20
-111.683048473284080
 11
45.702584609346559
 21
-111.683048473284080
  0
LINE
  8
0
  6
CONTINUOUS
 62
4
 10
-94.797415390674587
 20
-108.220306716518960
 11
45.702584609346559
 21
-108.220306716518960
  0
LINE
  8
0
  6
CONTINUOUS
 62
4
 10
-94.797415390674587
 20
-106.591879648741040
 11
45.702584609346559
 21
-106.591879648741040
  0
LINE
  8
0
  6
CONTINUOUS
 62
4
 10
-94.797415390674587
 20
-101.724962243623620
 11
45.702584609346559
 21
-101.724962243623620
  0
LINE
  8
0
  6
CONTINUOUS
 62
4
 10
-94.797415390674587
 20
-102.224962243623850
 11
45.702584609346559
 21
-102.224962243623850
  0
LINE
  8
0
  6
CONTINUOUS
 62
3
 10
45.702584609346559
 20
-100.224962243623850
 11
-94.797415390674587
 21
-100.224962243623850
  0
LINE
  8
0
  6
DASHDOT
 62
4
 10
83.436536662095023
 20
-152.724962243623850
 11
-214.758494228939530
 21
-152.724962243623850
  0
LINE
  8
0
  6
CONTINUOUS
 62
3
 10
-94.797415390674587
 20
-206.724962243624080
 11
-172.302260339767370
 21
-206.724962243624080
  0
LINE
  8
0
  6
CONTINUOUS
 62
3
 10
-94.797415390674587
 20
-206.724962243624080
 11
-94.797415390674587
 21
-193.724962243623850
  0
LINE
  8
0
  6
CONTINUOUS
 62
3
 10
-94.797415390674587
 20
-98.724962243623622
 11
-94.797415390674587
 21
-111.724962243623850
  0
LINE
  8
0
  6
CONTINUOUS
 62
3
 10
-94.797415390674587
 20
-98.724962243623622
 11
-172.302260339767370
 21
-98.724962243623622
  0
LINE
  8
0
  6
CONTINUOUS
 62
3
 10
-105.797415390674580
 20
-201.868883266349030
 11
-107.797415390674580
 21
-200.216241627225600
  0
LINE
  8
0
  6
CONTINUOUS
 62
3
 10
-103.797415390674580
 20
-203.044668751971810
 11
-105.797415390674580
 21
-201.868883266349030
  0
LINE
  8
0
  6
CONTINUOUS
 62
3
 10
-105.797415390674580
 20
-201.868883266349030
 11
-103.797415390674580
 21
-200.216241627225600
  0
LINE
  8
0
  6
CONTINUOUS
 62
3
 10
-107.797415390674580
 20
-203.044668751971810
 11
-105.797415390674580
 21
-201.868883266349030
  0
POLYLINE
  8
0
  6
CONTINUOUS
 62
3
 66
1
 70
1
  0
VERTEX
  8
0
  6
CONTINUOUS
 62
3
 10
-101.097415390674370
 20
-200.052293197971490
  0
VERTEX
  8
0
  6
CONTINUOUS
 62
3
 10
-101.187724572779180
 20
-199.349336231771130
  0
VERTEX
  8
0
  6
CONTINUOUS
 62
3
 10
-101.455181587871320
 20
-198.673393507559040
  0
VERTEX
  8
0
  6
CONTINUOUS
 62
3
 10
-101.889508212852400
 20
-198.050441125153640
  0
VERTEX
  8
0
  6
CONTINUOUS
 62
3
 10
-102.474013519097590
 20
-197.504418795255050
  0
VERTEX
  8
0
  6
CONTINUOUS
 62
3
 10
-103.186235295482230
 20
-197.056309849788420
  0
VERTEX
  8
0
  6
CONTINUOUS
 62
3
 10
-103.998803258558430
 20
-196.723334864225680
  0
VERTEX
  8
0
  6
CONTINUOUS
 62
3
 10
-104.880490877198550
 20
-196.518289880527420
  0
VERTEX
  8
0
  6
CONTINUOUS
 62
3
 10
-105.797415390674360
 20
-196.449054662426650
  0
VERTEX
  8
0
  6
CONTINUOUS
 62
3
 10
-106.714339904150160
 20
-196.518289880527420
  0
VERTEX
  8
0
  6
CONTINUOUS
 62
3
 10
-107.596027522790280
 20
-196.723334864225680
  0
VERTEX
  8
0
  6
CONTINUOUS
 62
3
 10
-108.408595485866480
 20
-197.056309849788420
  0
VERTEX
  8
0
  6
CONTINUOUS
 62
3
 10
-109.120817262251120
 20
-197.504418795255050
  0
VERTEX
  8
0
  6
CONTINUOUS
 62
3
 10
-109.705322568496310
 20
-198.050441125153640
  0
VERTEX
  8
0
  6
CONTINUOUS
 62
3
 10
-110.139649193477390
 20
-198.673393507559040
  0
VERTEX
  8
0
  6
CONTINUOUS
 62
3
 10
-110.407106208569530
 20
-199.349336231771130
  0
VERTEX
  8
0
  6
CONTINUOUS
 62
3
 10
-110.497415390674340
 20
-200.052293197971490
  0
VERTEX
  8
0
  6
CONTINUOUS
 62
3
 10
-110.407106208569530
 20
-200.755250164171850
  0
VERTEX
  8
0
  6
CONTINUOUS
 62
3
 10
-110.139649193477390
 20
-201.431192888383950
  0
VERTEX
  8
0
  6
CONTINUOUS
 62
3
 10
-109.705322568496310
 20
-202.054145270789350
  0
VERTEX
  8
0
  6
CONTINUOUS
 62
3
 10
-109.120817262251120
 20
-202.600167600687940
  0
VERTEX
  8
0
  6
CONTINUOUS
 62
3
 10
-108.408595485866480
 20
-203.048276546154570
  0
VERTEX
  8
0
  6
CONTINUOUS
 62
3
 10
-107.596027522790280
 20
-203.381251531717310
  0
VERTEX
  8
0
  6
CONTINUOUS
 62
3
 10
-106.714339904150160
 20
-203.586296515415570
  0
VERTEX
  8
0
  6
CONTINUOUS
 62
3
 10
-105.797415390674360
 20
-203.655531733516340
  0
VERTEX
  8
0
  6
CONTINUOUS
 62
3
 10
-104.880490877198550
 20
-203.586296515415570
  0
VERTEX
  8
0
  6
CONTINUOUS
 62
3
 10
-103.998803258558430
 20
-203.381251531717310
  0
VERTEX
  8
0
  6
CONTINUOUS
 62
3
 10
-103.186235295482230
 20
-203.048276546154570
  0
VERTEX
  8
0
  6
CONTINUOUS
 62
3
 10
-102.474013519097590
 20
-202.600167600687940
  0
VERTEX
  8
0
  6
CONTINUOUS
 62
3
 10
-101.889508212852400
 20
-202.054145270789350
  0
VERTEX
  8
0
  6
CONTINUOUS
 62
3
 10
-101.455181587871320
 20
-201.431192888383950
  0
VERTEX
  8
0
  6
CONTINUOUS
 62
3
 10
-101.187724572779180
 20
-200.755250164171850
  0
SEQEND
  8
0
  6
CONTINUOUS
 62
3
  0
LINE
  8
0
  6
CONTINUOUS
 62
3
 10
-105.797415390674580
 20
-103.581041220898660
 11
-107.797415390674580
 21
-105.233682860022100
  0
LINE
  8
0
  6
CONTINUOUS
 62
3
 10
-103.797415390674580
 20
-102.405255735275880
 11
-105.797415390674580
 21
-103.581041220898660
  0
LINE
  8
0
  6
CONTINUOUS
 62
3
 10
-105.797415390674580
 20
-103.581041220898660
 11
-103.797415390674580
 21
-105.233682860022100
  0
LINE
  8
0
  6
CONTINUOUS
 62
3
 10
-107.797415390674580
 20
-102.405255735275880
 11
-105.797415390674580
 21
-103.581041220898660
  0
POLYLINE
  8
0
  6
CONTINUOUS
 62
3
 66
1
 70
1
  0
VERTEX
  8
0
  6
CONTINUOUS
 62
3
 10
-101.097415390674370
 20
-105.397631289276200
  0
VERTEX
  8
0
  6
CONTINUOUS
 62
3
 10
-101.187724572779180
 20
-104.694674323075840
  0
VERTEX
  8
0
  6
CONTINUOUS
 62
3
 10
-101.455181587871320
 20
-104.018731598863750
  0
VERTEX
  8
0
  6
CONTINUOUS
 62
3
 10
-101.889508212852400
 20
-103.395779216458350
  0
VERTEX
  8
0
  6
CONTINUOUS
 62
3
 10
-102.474013519097590
 20
-102.849756886559770
  0
VERTEX
  8
0
  6
CONTINUOUS
 62
3
 10
-103.186235295482230
 20
-102.401647941093150
  0
VERTEX
  8
0
  6
CONTINUOUS
 62
3
 10
-103.998803258558430
 20
-102.068672955530380
  0
VERTEX
  8
0
  6
CONTINUOUS
 62
3
 10
-104.880490877198550
 20
-101.863627971832140
  0
VERTEX
  8
0
  6
CONTINUOUS
 62
3
 10
-105.797415390674360
 20
-101.794392753731370
  0
VERTEX
  8
0
  6
CONTINUOUS
 62
3
 10
-106.714339904150160
 20
-101.863627971832140
  0
VERTEX
  8
0
  6
CONTINUOUS
 62
3
 10
-107.596027522790280
 20
-102.068672955530380
  0
VERTEX
  8
0
  6
CONTINUOUS
 62
3
 10
-108.408595485866480
 20
-102.401647941093150
  0
VERTEX
  8
0
  6
CONTINUOUS
 62
3
 10
-109.120817262251120
 20
-102.849756886559770
  0
VERTEX
  8
0
  6
CONTINUOUS
 62
3
 10
-109.705322568496310
 20
-103.395779216458350
  0
VERTEX
  8
0
  6
CONTINUOUS
 62
3
 10
-110.139649193477390
 20
-104.018731598863750
  0
VERTEX
  8
0
  6
CONTINUOUS
 62
3
 10
-110.407106208569530
 20
-104.694674323075840
  0
VERTEX
  8
0
  6
CONTINUOUS
 62
3
 10
-110.497415390674340
 20
-105.397631289276200
  0
VERTEX
  8
0
  6
CONTINUOUS
 62
3
 10
-110.407106208569530
 20
-106.100588255476560
  0
VERTEX
  8
0
  6
CONTINUOUS
 62
3
 10
-110.139649193477390
 20
-106.776530979688650
  0
VERTEX
  8
0
  6
CONTINUOUS
 62
3
 10
-109.705322568496310
 20
-107.399483362094060
  0
VERTEX
  8
0
  6
CONTINUOUS
 62
3
 10
-109.120817262251120
 20
-107.945505691992630
  0
VERTEX
  8
0
  6
CONTINUOUS
 62
3
 10
-108.408595485866480
 20
-108.393614637459250
  0
VERTEX
  8
0
  6
CONTINUOUS
 62
3
 10
-107.596027522790280
 20
-108.726589623022020
  0
VERTEX
  8
0
  6
CONTINUOUS
 62
3
 10
-106.714339904150160
 20
-108.931634606720260
  0
VERTEX
  8
0
  6
CONTINUOUS
 62
3
 10
-105.797415390674360
 20
-109.000869824821030
  0
VERTEX
  8
0
  6
CONTINUOUS
 62
3
 10
-104.880490877198550
 20
-108.931634606720260
  0
VERTEX
  8
0
  6
CONTINUOUS
 62
3
 10
-103.998803258558430
 20
-108.726589623022020
  0
VERTEX
  8
0
  6
CONTINUOUS
 62
3
 10
-103.186235295482230
 20
-108.393614637459250
  0
VERTEX
  8
0
  6
CONTINUOUS
 62
3
 10
-102.474013519097590
 20
-107.945505691992630
  0
VERTEX
  8
0
  6
CONTINUOUS
 62
3
 10
-101.889508212852400
 20
-107.399483362094060
  0
VERTEX
  8
0
  6
CONTINUOUS
 62
3
 10
-101.455181587871320
 20
-106.776530979688650
  0
VERTEX
  8
0
  6
CONTINUOUS
 62
3
 10
-101.187724572779180
 20
-106.100588255476560
  0
SEQEND
  8
0
  6
CONTINUOUS
 62
3
  0
LINE
  8
0
  6
CONTINUOUS
 62
3
 10
-104.797415390674580
 20
-152.724962243623850
 11
-104.797415390674580
 21
-117.724962243623850
  0
LINE
  8
0
  6
CONTINUOUS
 62
4
 10
-104.797415390674580
 20
-119.421361292115080
 11
-102.597415390652940
 21
-119.421361292115080
  0
LINE
  8
0
  6
CONTINUOUS
 62
4
 10
-104.797415390674580
 20
-121.010571084853830
 11
-102.597415390652940
 21
-121.010571084853830
  0
LINE
  8
0
  6
CONTINUOUS
 62
4
 10
-104.797415390674580
 20
-123.968566692986760
 11
-102.597415390652940
 21
-123.968566692986760
  0
LINE
  8
0
  6
CONTINUOUS
 62
4
 10
-104.797415390674580
 20
-125.447589846463870
 11
-102.597415390652940
 21
-125.447589846463870
  0
LINE
  8
0
  6
CONTINUOUS
 62
4
 10
-104.797415390674580
 20
-128.540320838129220
 11
-102.597415390652940
 21
-128.540320838129220
  0
LINE
  8
0
  6
CONTINUOUS
 62
4
 10
-104.797415390674580
 20
-129.886722563627700
 11
-102.597415390652940
 21
-129.886722563627700
  0
LINE
  8
0
  6
CONTINUOUS
 62
4
 10
-104.797415390674580
 20
-132.724962243623850
 11
-102.597415390652940
 21
-132.724962243623850
  0
ARC
  8
0
  6
CONTINUOUS
 62
3
 10
-13.597415390652941
 20
-117.724962243623850
 40
1.000000000000227
 50
0.000000000000000
 51
90.000000000000000
  0
LINE
  8
0
  6
CONTINUOUS
 62
3
 10
-13.597415390652941
 20
-116.724962243623850
 11
-101.597415390652940
 21
-116.724962243623850
  0
LINE
  8
0
  6
CONTINUOUS
 62
3
 10
-12.597415390652714
 20
-117.724962243623850
 11
-12.597415390653396
 21
-152.724962243625440
  0
ARC
  8
0
  6
CONTINUOUS
 62
3
 10
-101.597415390652940
 20
-117.724962243623850
 40
1.000000000000000
 50
90.000000000000000
 51
180.000000000000000
  0
LINE
  8
0
  6
CONTINUOUS
 62
3
 10
-102.597415390652710
 20
-117.724962243623850
 11
-102.597415390653390
 21
-152.724962243624080
  0
ARC
  8
0
  6
CONTINUOUS
 62
3
 10
-97.797415390674587
 20
-111.724962243623850
 40
3.000000000000000
 50
270.000000000000000
 51
0.000000000000000
  0
LINE
  8
0
  6
CONTINUOUS
 62
3
 10
-97.797415390674587
 20
-114.724962243623850
 11
-101.797415390674580
 21
-114.724962243623850
  0
ARC
  8
0
  6
CONTINUOUS
 62
3
 10
-101.797415390674580
 20
-117.724962243623850
 40
3.000000000000000
 50
90.000000000000000
 51
180.000000000000000
  0
LINE
  8
0
  6
CONTINUOUS
 62
3
 10
-184.117934928598740
 20
-102.450430131270190
 11
-191.688714125187520
 21
-107.751546794843080
  0
LINE
  8
0
  6
CONTINUOUS
 62
3
 10
-192.797415390674590
 20
-109.881342109994190
 11
-192.797415390674590
 21
-152.724962243623850
  0
ARC
  8
0
  6
CONTINUOUS
 62
3
 10
-190.197415390674680
 20
-109.881342109994190
 40
2.600000000000037
 50
125.000000000002600
 51
180.000000000000000
  0
ARC
  8
0
  6
CONTINUOUS
 62
3
 10
-172.302260339767370
 20
-119.324962243623530
 40
20.599999999999909
 50
90.000000000000000
 51
124.999999999999780
  0
LINE
  8
0
  6
CONTINUOUS
 62
3
 10
-104.797415390674580
 20
-152.724962243623850
 11
-104.797415390674580
 21
-187.724962243623850
  0
LINE
  8
0
  6
CONTINUOUS
 62
4
 10
-104.797415390674580
 20
-186.028563195132620
 11
-102.597415390652940
 21
-186.028563195132620
  0
LINE
  8
0
  6
CONTINUOUS
 62
4
 10
-104.797415390674580
 20
-184.439353402393860
 11
-102.597415390652940
 21
-184.439353402393860
  0
LINE
  8
0
  6
CONTINUOUS
 62
4
 10
-104.797415390674580
 20
-181.481357794260930
 11
-102.597415390652940
 21
-181.481357794260930
  0
LINE
  8
0
  6
CONTINUOUS
 62
4
 10
-104.797415390674580
 20
-180.002334640783830
 11
-102.597415390652940
 21
-180.002334640783830
  0
LINE
  8
0
  6
CONTINUOUS
 62
4
 10
-104.797415390674580
 20
-176.909603649118480
 11
-102.597415390652940
 21
-176.909603649118480
  0
LINE
  8
0
  6
CONTINUOUS
 62
4
 10
-104.797415390674580
 20
-175.563201923620000
 11
-102.597415390652940
 21
-175.563201923620000
  0
LINE
  8
0
  6
CONTINUOUS
 62
4
 10
-104.797415390674580
 20
-172.724962243623850
 11
-102.597415390652940
 21
-172.724962243623850
  0
ARC
  8
0
  6
CONTINUOUS
 62
3
 10
-13.597415390652941
 20
-187.724962243623850
 40
1.000000000000000
 50
270.000000000000000
 51
0.000000000000000
  0
LINE
  8
0
  6
CONTINUOUS
 62
3
 10
-13.597415390652941
 20
-188.724962243623850
 11
-101.597415390652940
 21
-188.724962243623850
  0
LINE
  8
0
  6
CONTINUOUS
 62
3
 10
-12.597415390652714
 20
-187.724962243623850
 11
-12.597415390653396
 21
-152.724962243622260
  0
ARC
  8
0
  6
CONTINUOUS
 62
3
 10
-101.597415390652940
 20
-187.724962243623850
 40
0.999999999999773
 50
180.000000000000000
 51
270.000000000000000
  0
LINE
  8
0
  6
CONTINUOUS
 62
3
 10
-102.597415390652710
 20
-187.724962243623850
 11
-102.597415390653390
 21
-152.724962243623620
  0
ARC
  8
0
  6
CONTINUOUS
 62
3
 10
-97.797415390674587
 20
-193.724962243623850
 40
3.000000000000000
 50
0.000000000000000
 51
90.000000000000000
  0
LINE
  8
0
  6
CONTINUOUS
 62
3
 10
-97.797415390674587
 20
-190.724962243623850
 11
-101.797415390674580
 21
-190.724962243623850
  0
ARC
  8
0
  6
CONTINUOUS
 62
3
 10
-101.797415390674580
 20
-187.724962243623850
 40
3.000000000000000
 50
180.000000000000000
 51
270.000000000000000
  0
LINE
  8
0
  6
CONTINUOUS
 62
3
 10
-184.117934928598740
 20
-202.999494355977280
 11
-191.688714125187520
 21
-197.698377692404620
  0
LINE
  8
0
  6
CONTINUOUS
 62
3
 10
-192.797415390674590
 20
-195.568582377253510
 11
-192.797415390674590
 21
-152.724962243623850
  0
ARC
  8
0
  6
CONTINUOUS
 62
3
 10
-190.197415390674680
 20
-195.568582377253510
 40
2.599999999999909
 50
180.000000000000000
 51
234.999999999994540
  0
ARC
  8
0
  6
CONTINUOUS
 62
3
 10
-172.302260339767370
 20
-186.124962243624170
 40
20.599999999999795
 50
235.000000000000260
 51
270.000000000000000
  0
LINE
  8
0
  6
CONTINUOUS
 62
3
 10
46.702584609346559
 20
-152.724962243623850
 11
46.702584609346559
 21
-114.465619822094590
  0
ARC
  8
0
  6
CONTINUOUS
 62
3
 10
45.702584609346559
 20
-114.465619822094590
 40
1.000000000000000
 50
0.000000000000000
 51
90.000000000000000
  0
LINE
  8
0
  6
CONTINUOUS
 62
3
 10
46.702584609346559
 20
-105.066674371762010
 11
46.702584609346559
 21
-102.724962243623850
  0
ARC
  8
0
  6
CONTINUOUS
 62
3
 10
47.702584609346559
 20
-102.724962243623850
 40
1.000000000000000
 50
90.000000000000000
 51
180.000000000000000
  0
ARC
  8
0
  6
CONTINUOUS
 62
3
 10
45.702584609346559
 20
-105.066674371762010
 40
1.000000000000000
 50
270.000000000000000
 51
0.000000000000000
  0
LINE
  8
0
  6
CONTINUOUS
 62
3
 10
46.702584609346559
 20
-152.724962243623850
 11
46.702584609346559
 21
-190.984304665154010
  0
ARC
  8
0
  6
CONTINUOUS
 62
3
 10
45.702584609346559
 20
-190.984304665154010
 40
1.000000000000000
 50
270.000000000000000
 51
0.000000000000000
  0
LINE
  8
0
  6
CONTINUOUS
 62
3
 10
46.702584609346559
 20
-200.383250115486590
 11
46.702584609346559
 21
-202.724962243624760
  0
ARC
  8
0
  6
CONTINUOUS
 62
3
 10
47.702584609346559
 20
-202.724962243624760
 40
1.000000000000000
 50
180.000000000000000
 51
270.000000000000000
  0
ARC
  8
0
  6
CONTINUOUS
 62
3
 10
45.702584609346559
 20
-200.383250115486590
 40
1.000000000000000
 50
0.000000000000000
 51
90.000000000000000
  0
LINE
  8
0
  6
CONTINUOUS
 62
3
 10
60.202584609344740
 20
-123.851978897418120
 11
60.202584609346559
 21
-87.118975264188521
  0
LINE
  8
0
  6
CONTINUOUS
 62
3
 10
55.464264390561766
 20
-99.660966504935459
 11
45.702584609346559
 21
-100.172554464341370
  0
LINE
  8
0
  6
CONTINUOUS
 62
3
 10
60.202584609345649
 20
-143.597945589832310
 11
60.202584609345649
 21
-147.724962243623850
  0
LINE
  8
0
  6
CONTINUOUS
 62
3
 10
55.464264390559947
 20
-205.788957982313150
 11
45.702584609345649
 21
-205.277370022907230
  0
ARC
  8
0
  6
CONTINUOUS
 62
3
 10
62.202584609347468
 20
-73.724962243623850
 40
2.000000000000000
 50
90.000000000000000
 51
180.000000000000000
  0
LINE
  8
0
  6
CONTINUOUS
 62
3
 10
60.202584609347468
 20
-81.724962243623850
 11
60.202584609347468
 21
-73.724962243623850
  0
LINE
  8
0
  6
CONTINUOUS
 62
3
 10
59.202584609345649
 20
-229.224962243623850
 11
59.202584609345649
 21
-219.224962243623850
  0
LINE
  8
0
  6
CONTINUOUS
 62
3
 10
59.202584609347468
 20
-91.724962243623850
 11
59.202584609347468
 21
-81.724962243623850
  0
LINE
  8
0
  6
CONTINUOUS
 62
3
 10
60.202584609346331
 20
-91.724962243623850
 11
59.202584609347468
 21
-91.724962243623850
  0
LINE
  8
0
  6
CONTINUOUS
 62
3
 10
60.202584609345649
 20
-157.724962243623850
 11
60.202584609345649
 21
-219.224962243623850
  0
ARC
  8
0
  6
CONTINUOUS
 62
3
 10
55.202584609346559
 20
-94.667818831162549
 40
5.000000000000066
 50
273.000000000005570
 51
0.000000000000000
  0
ARC
  8
0
  6
CONTINUOUS
 62
3
 10
55.202584609345649
 20
-210.782105656086060
 40
5.000000000000000
 50
0.000000000000000
 51
87.000000000004846
  0
LINE
  8
0
  6
CONTINUOUS
 62
3
 10
46.702584609346559
 20
-132.724962243623850
 11
57.202584609346559
 21
-132.724962243623850
  0
ARC
  8
0
  6
CONTINUOUS
 62
3
 10
61.202584609345649
 20
-217.702834969079960
 40
1.000000000000000
 50
180.000000000000000
 51
270.000000000000000
  0
LINE
  8
0
  6
CONTINUOUS
 62
3
 10
47.702584609346559
 20
-101.724962243623850
 11
55.377082092858473
 21
-101.456962886037210
  0
ARC
  8
0
  6
CONTINUOUS
 62
3
 10
61.202584609347468
 20
-74.315455503525300
 40
1.000000000000000
 50
180.000000000000000
 51
270.000000000000000
  0
ARC
  8
0
  6
CONTINUOUS
 62
3
 10
61.202584609347468
 20
-87.118975264188521
 40
1.000000000000000
 50
90.000000000000000
 51
180.000000000000000
  0
ARC
  8
0
  6
CONTINUOUS
 62
3
 10
55.202584609346559
 20
-96.460008750941597
 40
5.000000000000122
 50
271.999999999993180
 51
0.000000000000000
  0
LINE
  8
0
  6
CONTINUOUS
 62
3
 10
47.702584609346559
 20
-203.724962243624760
 11
55.377082092858473
 21
-203.992961601211390
  0
ARC
  8
0
  6
CONTINUOUS
 62
3
 10
55.202584609346559
 20
-208.989915736307010
 40
5.000000000000000
 50
0.000000000000000
 51
88.000000000006835
  0
LINE
  8
0
  6
CONTINUOUS
 62
3
 10
46.702584609346559
 20
-172.724962243623850
 11
60.202584609345649
 21
-172.724962243623850
  0
ARC
  8
0
  6
CONTINUOUS
 62
3
 10
61.202584609345649
 20
-144.724962243624760
 40
1.000000000000000
 50
180.000000000000000
 51
270.000000000000000
  0
ARC
  8
0
  6
CONTINUOUS
 62
3
 10
58.202584609345649
 20
-143.597945589832310
 40
2.000000000000000
 50
0.000000000000000
 51
75.522487814070544
  0
LINE
  8
0
  6
CONTINUOUS
 62
3
 10
57.202584609346559
 20
-139.724962243624760
 11
57.202584609346559
 21
-127.724962243624750
  0
ARC
  8
0
  6
CONTINUOUS
 62
3
 10
59.202584609346559
 20
-139.724962243624760
 40
2.000000000000000
 50
180.000000000000000
 51
255.522487814045290
  0
ARC
  8
0
  6
CONTINUOUS
 62
3
 10
58.202584609345649
 20
-123.851978897418120
 40
1.999999999999183
 50
284.477512185936010
 51
0.000000000000000
  0
ARC
  8
0
  6
CONTINUOUS
 62
3
 10
59.202584609346559
 20
-127.724962243624750
 40
2.000000000000290
 50
104.477512185954690
 51
180.000000000000000
  0
ARC
  8
0
  6
CONTINUOUS
 62
3
 10
61.202584609345649
 20
-160.724962243622940
 40
1.000000000000000
 50
90.000000000000000
 51
180.000000000000000
  0
LINE
  8
0
  6
CONTINUOUS
 62
3
 10
71.202584609345649
 20
-229.224962243623850
 11
65.202584609345649
 21
-229.224962243623850
  0
LINE
  8
0
  6
CONTINUOUS
 62
3
 10
71.202584609347468
 20
-71.724962243623850
 11
62.202585962088051
 21
-71.724962243623850
  0
LINE
  8
0
  6
CONTINUOUS
 62
3
 10
71.202584609345649
 20
-152.724962243623850
 11
71.202584609345649
 21
-229.224962243623850
  0
LINE
  8
0
  6
CONTINUOUS
 62
3
 10
71.202584609335645
 20
-152.724962243623850
 11
71.202584609347468
 21
-71.724962243623850
  0
LINE
  8
0
  6
CONTINUOUS
 62
3
 10
65.202584609345649
 20
-219.702834969079960
 11
65.202584609345649
 21
-229.224962243623850
  0
LINE
  8
0
  6
CONTINUOUS
 62
3
 10
65.081013694852928
 20
-219.224962243623850
 11
59.202584609345649
 21
-219.224962243623850
  0
LINE
  8
0
  6
CONTINUOUS
 62
3
 10
65.202584609345649
 20
-229.224962243623850
 11
59.202584609345649
 21
-229.224962243623850
  0
LINE
  8
0
  6
CONTINUOUS
 62
3
 10
65.202584609347468
 20
-80.624962815828439
 11
65.202584609347468
 21
-85.118975264188521
  0
LINE
  8
0
  6
CONTINUOUS
 62
3
 10
65.202584609347468
 20
-81.724962243623850
 11
59.202584609347468
 21
-81.724962243623850
  0
ARC
  8
0
  6
CONTINUOUS
 62
3
 10
66.202584609345649
 20
-228.224962243623850
 40
1.000000000000000
 50
180.000000000000000
 51
270.000000000000000
  0
ARC
  8
0
  6
CONTINUOUS
 62
3
 10
64.202584609345649
 20
-219.702834969079960
 40
1.000000000000000
 50
0.000000000000000
 51
90.000000000000000
  0
LINE
  8
0
  6
CONTINUOUS
 62
3
 10
61.202584609345649
 20
-218.702834969079960
 11
64.202584609345649
 21
-218.702834969079960
  0
ARC
  8
0
  6
CONTINUOUS
 62
3
 10
64.202584609347468
 20
-76.315455503525300
 40
1.000000000000000
 50
0.000000000000000
 51
90.000000000000000
  0
LINE
  8
0
  6
CONTINUOUS
 62
3
 10
61.202584609347468
 20
-75.315455503525300
 11
64.202584609347468
 21
-75.315455503525300
  0
ARC
  8
0
  6
CONTINUOUS
 62
3
 10
64.202584609347468
 20
-85.118975264188521
 40
1.000000000000000
 50
270.000000000000000
 51
0.000000000000000
  0
LINE
  8
0
  6
CONTINUOUS
 62
3
 10
61.202584609347468
 20
-86.118975264188521
 11
64.202584609347468
 21
-86.118975264188521
  0
LINE
  8
0
  6
CONTINUOUS
 62
3
 10
65.202584609347468
 20
-85.118975264188521
 11
65.202584609347468
 21
-76.315455503525300
  0
ARC
  8
0
  6
CONTINUOUS
 62
3
 10
64.202584609345649
 20
-146.724962243624760
 40
1.000000000000000
 50
0.000000000000000
 51
90.000000000000000
  0
LINE
  8
0
  6
CONTINUOUS
 62
3
 10
65.202584609345649
 20
-158.724962243622940
 11
65.202584609345649
 21
-146.724962243624760
  0
LINE
  8
0
  6
CONTINUOUS
 62
3
 10
61.202584609345649
 20
-145.724962243624760
 11
64.202584609345649
 21
-145.724962243624760
  0
ARC
  8
0
  6
CONTINUOUS
 62
3
 10
64.202584609345649
 20
-158.724962243622940
 40
1.000000000000000
 50
270.000000000000000
 51
0.000000000000000
  0
LINE
  8
0
  6
CONTINUOUS
 62
3
 10
61.202584609345649
 20
-159.724962243622940
 11
64.202584609345649
 21
-159.724962243622940
  0
LINE
  8
0
  6
DASHDOT
 62
4
 10
219.029950061511040
 20
-126.724962243623850
 11
59.840989059288404
 21
-126.724962243623850
  0
LINE
  8
0
  6
CONTINUOUS
 62
3
 10
165.202584609339280
 20
-126.724962243623850
 11
165.202584609339280
 21
-138.324962243624210
  0
LINE
  8
0
  6
CONTINUOUS
 62
3
 10
165.202584609339280
 20
-126.724962243623850
 11
165.202584609339280
 21
-115.124962243624390
  0
LINE
  8
0
  6
CONTINUOUS
 62
3
 10
128.632842945910850
 20
-81.660840676605403
 11
144.463392578208190
 21
-81.660840676605403
  0
LINE
  8
0
  6
CONTINUOUS
 62
3
 10
71.702584609339283
 20
-71.690041474132158
 11
134.937208614847350
 21
-69.481839745337311
  0
ARC
  8
0
  6
CONTINUOUS
 62
3
 10
141.702584609339280
 20
-57.227313589162804
 40
5.000000000000030
 50
310.170179485510800
 51
0.000000000000000
  0
LINE
  8
0
  6
CONTINUOUS
 62
3
 10
127.567297420424660
 20
-75.703325403827876
 11
144.927884960997060
 21
-61.047972909436794
  0
ARC
  8
0
  6
CONTINUOUS
 62
3
 10
124.341997068766880
 20
-71.882666083553886
 40
5.000000000000000
 50
270.000000000000000
 51
310.170179485510800
  0
ARC
  8
0
  6
CONTINUOUS
 62
3
 10
141.702584609339280
 20
-62.005488182214322
 40
5.000000000000030
 50
310.170179485510800
 51
0.000000000000000
  0
LINE
  8
0
  6
CONTINUOUS
 62
3
 10
127.567297420424660
 20
-80.481499996879393
 11
144.927884960997060
 21
-65.826147502488311
  0
ARC
  8
0
  6
CONTINUOUS
 62
3
 10
124.341997068766880
 20
-76.660840676605403
 40
5.000000000000000
 50
270.000000000000000
 51
310.170179485510800
  0
LINE
  8
0
  6
CONTINUOUS
 62
3
 10
158.702584609339280
 20
-131.724962243623850
 11
153.702584609339280
 21
-131.724962243623850
  0
LINE
  8
0
  6
CONTINUOUS
 62
3
 10
158.702584609339280
 20
-178.258357520642680
 11
153.702584609339280
 21
-178.258357520642680
  0
LINE
  8
0
  6
CONTINUOUS
 62
3
 10
158.702584609339280
 20
-201.925972370400810
 11
153.702584609339280
 21
-201.925972370400810
  0
ARC
  8
0
  6
CONTINUOUS
 62
3
 10
153.702584609339280
 20
-199.925972370400810
 40
2.000000000000000
 50
180.000000000000000
 51
270.000000000000000
  0
LINE
  8
0
  6
CONTINUOUS
 62
3
 10
151.702584609339280
 20
-199.925972370400810
 11
151.702584609339280
 21
-133.724962243623850
  0
ARC
  8
0
  6
CONTINUOUS
 62
3
 10
153.702584609339280
 20
-176.258357520642680
 40
2.000000000000000
 50
180.000000000000000
 51
270.000000000000000
  0
ARC
  8
0
  6
CONTINUOUS
 62
3
 10
153.702584609339280
 20
-133.724962243623850
 40
2.000000000000000
 50
90.000000000000000
 51
180.000000000000000
  0
LINE
  8
0
  6
CONTINUOUS
 62
3
 10
158.702584609339280
 20
-121.724962243623850
 11
153.702584609339280
 21
-121.724962243623850
  0
LINE
  8
0
  6
CONTINUOUS
 62
3
 10
158.702584609339280
 20
-75.191566966605023
 11
153.702584609339280
 21
-75.191566966605023
  0
LINE
  8
0
  6
CONTINUOUS
 62
3
 10
158.702584609339280
 20
-51.523952116846885
 11
153.702584609339280
 21
-51.523952116846885
  0
ARC
  8
0
  6
CONTINUOUS
 62
3
 10
153.702584609339280
 20
-53.523952116846885
 40
2.000000000000000
 50
90.000000000000000
 51
180.000000000000000
  0
LINE
  8
0
  6
CONTINUOUS
 62
3
 10
151.702584609339280
 20
-53.523952116846885
 11
151.702584609339280
 21
-119.724962243623850
  0
ARC
  8
0
  6
CONTINUOUS
 62
3
 10
153.702584609339280
 20
-77.191566966605023
 40
2.000000000000000
 50
90.000000000000000
 51
180.000000000000000
  0
ARC
  8
0
  6
CONTINUOUS
 62
3
 10
153.702584609339280
 20
-119.724962243623850
 40
2.000000000000000
 50
180.000000000000000
 51
270.000000000000000
  0
LINE
  8
0
  6
DASHDOT
 62
4
 10
169.321037019953110
 20
-209.810009033043570
 11
136.845576319589780
 21
-209.810009033043570
  0
LINE
  8
0
  6
DASHDOT
 62
4
 10
169.321037019953110
 20
-43.639915454204129
 11
136.845576319589780
 21
-43.639915454204129
  0
LINE
  8
0
  6
CONTINUOUS
 62
3
 10
158.702584609339280
 20
-221.236816145478770
 11
158.702584609339280
 21
-126.724962243623850
  0
LINE
  8
0
  6
CONTINUOUS
 62
3
 10
158.702584609339280
 20
-32.213108341769839
 11
158.702584609339280
 21
-126.724962243623850
  0
ARC
  8
0
  6
CONTINUOUS
 62
3
 10
148.702584609339280
 20
-33.140739807649879
 40
1.999999999999651
 50
87.000000000000398
 51
180.000000000000000
  0
ARC
  8
0
  6
CONTINUOUS
 62
3
 10
148.702584609339280
 20
-220.309184679597820
 40
2.000000000000000
 50
180.000000000000000
 51
272.999999999999600
  0
LINE
  8
0
  6
CONTINUOUS
 62
3
 10
146.702584609339280
 20
-33.140739807649879
 11
146.702584609339280
 21
-220.309184679597820
  0
LINE
  8
0
  6
CONTINUOUS
 62
3
 10
151.702584609339280
 20
-222.154706033745240
 11
151.702584609339280
 21
-230.630018806324190
  0
LINE
  8
0
  6
CONTINUOUS
 62
3
 10
158.152304350964410
 20
-221.816690545088930
 11
148.807256521825140
 21
-222.306443749107530
  0
LINE
  8
0
  6
CONTINUOUS
 62
3
 10
161.702584609339280
 20
-211.724962243623850
 11
161.702584609339280
 21
-126.724962243623850
  0
LINE
  8
0
  6
CONTINUOUS
 62
3
 10
161.702584609339280
 20
-41.724962243623850
 11
161.702584609339280
 21
-126.724962243623850
  0
ARC
  8
0
  6
CONTINUOUS
 62
3
 10
162.202584609339280
 20
-155.278742368905110
 40
0.999999999999832
 50
93.000000000006111
 51
120.000000000010300
  0
ARC
  8
0
  6
CONTINUOUS
 62
3
 10
162.202584609339280
 20
-98.171182118343495
 40
0.999999999999688
 50
239.999999999989710
 51
266.999999999993860
  0
ARC
  8
0
  6
CONTINUOUS
 62
3
 10
141.707570694867850
 20
-32.876580128001478
 40
5.000000000000016
 50
330.000000000000110
 51
357.837310087936940
  0
LINE
  8
0
  6
CONTINUOUS
 62
3
 10
161.702584609339280
 20
-211.724962243623850
 11
158.702584609339280
 21
-211.724962243623850
  0
LINE
  8
0
  6
CONTINUOUS
 62
3
 10
161.702584609339280
 20
-41.724962243623850
 11
158.702584609339280
 21
-41.724962243623850
  0
LINE
  8
0
  6
CONTINUOUS
 62
3
 10
71.702584609339283
 20
-229.742417308551920
 11
71.702584609339283
 21
-71.690041474132158
  0
ARC
  8
0
  6
CONTINUOUS
 62
3
 10
148.702584609339280
 20
-33.140739807649879
 40
2.000000000000025
 50
177.837310087963030
 51
180.000000000000000
  0
LINE
  8
0
  6
CONTINUOUS
 62
3
 10
146.037697713790070
 20
-35.376580128001478
 11
127.556034589255660
 21
-67.387759668067702
  0
ARC
  8
0
  6
CONTINUOUS
 62
3
 10
123.225907570333440
 20
-64.887759668067702
 40
5.000000000000146
 50
272.000000000000970
 51
330.000000000000110
  0
LINE
  8
0
  6
CONTINUOUS
 62
3
 10
163.202584609339280
 20
-126.724962243623850
 11
163.202584609339280
 21
-100.224962243623850
  0
LINE
  8
0
  6
CONTINUOUS
 62
3
 10
163.202584609339280
 20
-126.724962243623850
 11
163.202584609339280
 21
-153.224962243623850
  0
LINE
  8
0
  6
CONTINUOUS
 62
3
 10
158.152304350964410
 20
-31.633233942159677
 11
148.807256521825140
 21
-31.143480738141079
  0
LINE
  8
0
  6
CONTINUOUS
 62
3
 10
158.152304350964410
 20
-31.633233942159677
 11
158.702584609339280
 21
-32.213108341769839
  0
LINE
  8
0
  6
CONTINUOUS
 62
3
 10
158.152304350964410
 20
-221.816690545088930
 11
158.702584609339280
 21
-221.236816145478770
  0
LINE
  8
0
  6
CONTINUOUS
 62
3
 10
151.193858406120630
 20
-231.129942653901710
 11
71.702584609339283
 21
-229.742417308551920
  0
LINE
  8
0
  6
CONTINUOUS
 62
3
 10
162.202584609339280
 20
-99.224962243623850
 11
162.150248653096240
 21
-99.169811653097895
  0
LINE
  8
0
  6
CONTINUOUS
 62
3
 10
162.202584609339280
 20
-154.224962243623850
 11
162.150248653096240
 21
-154.280112834150710
  0
ARC
  8
0
  6
CONTINUOUS
 62
3
 10
162.202584609339280
 20
-100.224962243623850
 40
1.000000000000000
 50
0.000000000000000
 51
90.000000000000000
  0
ARC
  8
0
  6
CONTINUOUS
 62
3
 10
162.202584609339280
 20
-153.224962243623850
 40
1.000000000000000
 50
270.000000000000000
 51
0.000000000000000
  0
ARC
  8
0
  6
CONTINUOUS
 62
3
 10
151.202584609339280
 20
-230.630018806324190
 40
0.500000000000234
 50
268.999999999998690
 51
0.000000000000000
  0
LINE
  8
0
  6
CONTINUOUS
 62
3
 10
165.002584609339010
 20
-141.224962243623850
 11
163.202584609338830
 21
-141.224962243623850
  0
LINE
  8
0
  6
CONTINUOUS
 62
3
 10
165.202584609339280
 20
-126.724962243623850
 11
165.202584609339280
 21
-141.024962243624030
  0
LINE
  8
0
  6
CONTINUOUS
 62
3
 10
165.202584609339280
 20
-141.024962243624030
 11
165.002584609339010
 21
-141.224962243623850
  0
ARC
  8
0
  6
CONTINUOUS
 62
3
 10
165.602584609338920
 20
-140.974962243623850
 40
0.399999999999636
 50
90.000000000000000
 51
180.000000000000000
  0
LINE
  8
0
  6
CONTINUOUS
 62
3
 10
167.762392230474230
 20
-140.724962243623850
 11
167.202584609339280
 21
-140.574962243624210
  0
LINE
  8
0
  6
CONTINUOUS
 62
3
 10
167.202584609339280
 20
-140.574962243624210
 11
165.602584609338920
 21
-140.574962243624210
  0
LINE
  8
0
  6
CONTINUOUS
 62
3
 10
165.002584609339010
 20
-112.224962243623850
 11
163.202584609338830
 21
-112.224962243623850
  0
LINE
  8
0
  6
CONTINUOUS
 62
3
 10
165.202584609339280
 20
-126.724962243623850
 11
165.202584609339280
 21
-112.424962243623660
  0
LINE
  8
0
  6
CONTINUOUS
 62
3
 10
165.202584609339280
 20
-112.424962243623660
 11
165.002584609339010
 21
-112.224962243623850
  0
ARC
  8
0
  6
CONTINUOUS
 62
3
 10
165.602584609338920
 20
-112.474962243623850
 40
0.399999999999636
 50
180.000000000000000
 51
270.000000000000000
  0
LINE
  8
0
  6
CONTINUOUS
 62
3
 10
167.762392230474230
 20
-112.724962243623850
 11
167.202584609339280
 21
-112.874962243623480
  0
LINE
  8
0
  6
CONTINUOUS
 62
3
 10
167.202584609339280
 20
-112.874962243623480
 11
165.602584609338920
 21
-112.874962243623480
  0
LINE
  8
0
  6
CONTINUOUS
 62
3
 10
207.202584609339280
 20
-113.124962243623480
 11
207.202584609339280
 21
-126.724962243623850
  0
LINE
  8
0
  6
CONTINUOUS
 62
3
 10
206.802584609339190
 20
-112.724962243623850
 11
167.762392230474230
 21
-112.724962243623850
  0
ARC
  8
0
  6
CONTINUOUS
 62
3
 10
206.802584609339190
 20
-113.124962243623480
 40
0.400000000000091
 50
0.000000000000000
 51
90.000000000000000
  0
LINE
  8
0
  6
CONTINUOUS
 62
3
 10
207.202584609339280
 20
-140.324962243624210
 11
207.202584609339280
 21
-126.724962243623850
  0
LINE
  8
0
  6
CONTINUOUS
 62
3
 10
206.802584609339190
 20
-140.724962243623850
 11
167.762392230474230
 21
-140.724962243623850
  0
ARC
  8
0
  6
CONTINUOUS
 62
3
 10
206.802584609339190
 20
-140.324962243624210
 40
0.399999999999636
 50
270.000000000000000
 51
0.000000000000000
  0
ARC
  8
0
  6
CONTINUOUS
 62
3
 10
175.202584609339740
 20
-126.724962243623850
 40
4.000000000000000
 50
90.000000000000000
 51
270.000000000000000
  0
LINE
  8
0
  6
CONTINUOUS
 62
3
 10
207.202584609339740
 20
-130.724962243623850
 11
175.202584609339740
 21
-130.724962243623850
  0
LINE
  8
0
  6
CONTINUOUS
 62
3
 10
207.202584609339740
 20
-122.724962243623850
 11
175.202584609339740
 21
-122.724962243623850
  0
CIRCLE
  8
0
  6
CONTINUOUS
 62
3
 10
340.806197759286080
 20
-126.724962243623850
 40
80.000000000000000
  0
ARC
  8
0
  6
CONTINUOUS
 62
3
 10
266.613269775986280
 20
-147.326162142291650
 40
3.000000000000000
 50
180.000000000000000
 51
195.518413527626140
  0
ARC
  8
0
  6
CONTINUOUS
 62
3
 10
266.804410380038230
 20
-132.224962243623850
 40
3.000000000000000
 50
90.000000000000000
 51
175.413634931327380
  0
ARC
  8
0
  6
CONTINUOUS
 62
3
 10
326.306197759286080
 20
-136.998111088381850
 40
62.692927983299832
 50
123.385956680340820
 51
164.678311543432840
  0
ARC
  8
0
  6
CONTINUOUS
 62
3
 10
326.306197759286080
 20
-136.998111088381850
 40
62.692927983300045
 50
175.413634931334310
 51
180.000000000000000
  0
ARC
  8
0
  6
CONTINUOUS
 62
3
 10
340.806197759286080
 20
-126.724962243623850
 40
87.999999999999858
 50
185.043502368947570
 51
210.824196484133130
  0
ARC
  8
0
  6
CONTINUOUS
 62
3
 10
264.002877518556940
 20
-121.224962243623850
 40
2.999999999999968
 50
175.903956241837680
 51
270.000000000000000
  0
ARC
  8
0
  6
CONTINUOUS
 62
3
 10
264.002877518556940
 20
-132.224962243623850
 40
3.000000000000000
 50
90.000000000000000
 51
184.096043758145020
  0
CIRCLE
  8
0
  6
CONTINUOUS
 62
3
 10
257.721150969867270
 20
-209.810009033043570
 40
6.000000000000000
  0
ARC
  8
0
  6
CONTINUOUS
 62
3
 10
255.806197759286080
 20
-211.724962243623850
 40
10.000000000000000
 50
180.000000000000000
 51
270.000000000000000
  0
ARC
  8
0
  6
CONTINUOUS
 62
3
 10
340.806197759286080
 20
-126.724962243623850
 40
88.000000000000213
 50
149.175803515866870
 51
174.956497631052430
  0
ARC
  8
0
  6
CONTINUOUS
 62
3
 10
247.806197759286080
 20
-202.754399495146570
 40
2.000000000000016
 50
134.999999999990790
 51
180.000000000000000
  0
ARC
  8
0
  6
CONTINUOUS
 62
3
 10
290.590452378799910
 20
-210.881833121064120
 40
9.999999999999561
 50
59.175803515865844
 51
134.999999999999090
  0
ARC
  8
0
  6
CONTINUOUS
 62
3
 10
256.649326881845580
 20
-176.940707624109560
 40
10.000000000000242
 50
314.999999999999090
 51
30.824196484129473
  0
ARC
  8
0
  6
CONTINUOUS
 62
3
 10
287.002603774129060
 20
-181.808292519492170
 40
2.999999999999730
 50
225.673360121561220
 51
4.263738012311998
  0
ARC
  8
0
  6
CONTINUOUS
 62
3
 10
250.158528180857270
 20
-118.724962243623850
 40
3.000000000000000
 50
270.000000000000000
 51
354.956497631056660
  0
ARC
  8
0
  6
CONTINUOUS
 62
3
 10
247.806197759286080
 20
-123.724962243623850
 40
2.000000000000000
 50
90.000000000000000
 51
180.000000000000000
  0
ARC
  8
0
  6
CONTINUOUS
 62
3
 10
250.158528180857500
 20
-134.724962243623850
 40
2.999999999999949
 50
5.043502368943697
 51
90.000000000000000
  0
ARC
  8
0
  6
CONTINUOUS
 62
3
 10
247.806197759286080
 20
-129.724962243623850
 40
2.000000000000000
 50
180.000000000000000
 51
270.000000000000000
  0
ARC
  8
0
  6
CONTINUOUS
 62
3
 10
316.919575389452350
 20
-179.577864451174720
 40
27.000000000000110
 50
101.549996895618790
 51
184.263738012298520
  0
LINE
  8
0
  6
CONTINUOUS
 62
3
 10
263.613269775986280
 20
-147.326162142291650
 11
263.613269775986280
 21
-136.998111088381850
  0
LINE
  8
0
  6
CONTINUOUS
 62
3
 10
245.806197759286080
 20
-41.724962243623850
 11
245.806197759286080
 21
-211.724962243623850
  0
LINE
  8
0
  6
DASHDOT
 62
4
 10
265.499325562919240
 20
-202.031834439991140
 11
249.942976376815300
 21
-217.588183626095090
  0
LINE
  8
0
  6
DASHDOT
 62
4
 10
231.446054300299690
 20
-126.724962243623850
 11
448.916873100529300
 21
-126.724962243623850
  0
LINE
  8
0
  6
CONTINUOUS
 62
3
 10
283.519384566934380
 20
-203.810765309198360
 11
266.190974070136240
 21
-221.139175805997180
  0
LINE
  8
0
  6
CONTINUOUS
 62
3
 10
263.720394693711110
 20
-184.011775435975320
 11
246.391984196913200
 21
-201.340185932773240
  0
LINE
  8
0
  6
CONTINUOUS
 62
3
 10
250.158528180857270
 20
-121.724962243623850
 11
247.806197759286080
 21
-121.724962243623850
  0
LINE
  8
0
  6
CONTINUOUS
 62
3
 10
250.158528180857270
 20
-131.724962243623850
 11
247.806197759286080
 21
-131.724962243623850
  0
LINE
  8
0
  6
CONTINUOUS
 62
3
 10
264.002877518556940
 20
-124.224962243623850
 11
303.206330738244790
 21
-124.224962243623850
  0
LINE
  8
0
  6
CONTINUOUS
 62
3
 10
264.002877518556940
 20
-129.224962243623850
 11
303.206330738244790
 21
-129.224962243623850
  0
ARC
  8
0
  6
CONTINUOUS
 62
3
 10
268.734907807257510
 20
-121.224962243623850
 40
2.999999999999927
 50
164.678311543428240
 51
270.000000000000000
  0
LINE
  8
0
  6
DASHED
 62
3
 10
286.806197759286080
 20
-132.224962243623820
 11
286.806197759286080
 21
-173.024962243623800
  0
LINE
  8
0
  6
DASHED
 62
3
 10
288.306197759286080
 20
-132.224962243623820
 11
286.806197759286080
 21
-132.224962243623820
  0
LINE
  8
0
  6
DASHED
 62
3
 10
288.306197759286080
 20
-173.224962243623850
 11
287.006197759286070
 21
-173.224962243623850
  0
ARC
  8
0
  6
DASHED
 62
3
 10
287.006197759286070
 20
-173.024962243623800
 40
0.199999999999989
 50
180.000000000000000
 51
270.000000000000000
  0
LINE
  8
0
  6
DASHED
 62
3
 10
288.306197759286080
 20
-132.224962243623820
 11
288.306197759286080
 21
-116.724962243623850
  0
LINE
  8
0
  6
DASHED
 62
3
 10
288.306197759286080
 20
-173.224962243623850
 11
288.306197759286080
 21
-188.724962243623850
  0
LINE
  8
0
  6
DASHED
 62
3
 10
283.306197759286080
 20
-188.724962243623850
 11
283.306197759286080
 21
-116.724962243623850
  0
ARC
  8
0
  6
DASHED
 62
3
 10
549.306197759286080
 20
-152.724962243623850
 40
299.999999999999940
 50
173.967950853630190
 51
186.032049146369810
  0
LINE
  8
0
  6
DASHED
 62
3
 10
249.316614606803910
 20
-155.224962243623850
 11
248.806197759286080
 21
-155.224962243623850
  0
LINE
  8
0
  6
CONTINUOUS
 62
3
 10
249.306199616483700
 20
-150.224962243623850
 11
248.806197759286080
 21
-150.224962243623850
  0
LINE
  8
0
  6
DASHED
 62
3
 10
264.642822095528800
 20
-155.330658921785530
 11
264.642445394173820
 21
-155.330658921785530
  0
LINE
  8
0
  6
DASHED
 62
3
 10
248.806197759286080
 20
-155.224962243623850
 11
248.806197759286080
 21
-150.224962243623850
  0
ARC
  8
0
  6
DASHED
 62
3
 10
255.939532986343640
 20
-183.724962243623850
 40
4.999999999999968
 50
186.032049146369900
 51
270.000000000000000
  0
LINE
  8
0
  6
DASHED
 62
3
 10
288.306197759286080
 20
-188.724962243623850
 11
255.939532986343640
 21
-188.724962243623850
  0
LINE
  8
0
  6
DASHED
 62
3
 10
288.306197759286080
 20
-116.724962243623850
 11
255.939532986343640
 21
-116.724962243623850
  0
ARC
  8
0
  6
DASHED
 62
3
 10
255.939532986343640
 20
-121.724962243623850
 40
5.000000000000000
 50
90.000000000000000
 51
173.967950853630100
  0
LINE
  8
0
  6
CONTINUOUS
 62
3
 10
283.306197759286080
 20
-187.224962243623850
 11
283.306197759286080
 21
-188.724962243623850
  0
LINE
  8
0
  6
CONTINUOUS
 62
3
 10
323.806197759285850
 20
-130.724962243624760
 11
323.806197759285850
 21
-122.724962243624750
  0
LINE
  8
0
  6
CONTINUOUS
 62
3
 10
323.806197759285850
 20
-130.724962243624760
 11
330.806197759285850
 21
-130.724962243624760
  0
LINE
  8
0
  6
CONTINUOUS
 62
3
 10
330.806197759285850
 20
-130.724962243624760
 11
330.806197759285850
 21
-122.724962243624750
  0
LINE
  8
0
  6
CONTINUOUS
 62
3
 10
323.806197759285850
 20
-122.724962243624750
 11
330.806197759285850
 21
-122.724962243624750
  0
ARC
  8
0
  6
CONTINUOUS
 62
3
 10
340.806197759285850
 20
-126.724962243624750
 40
13.999999999999572
 50
196.601549599020760
 51
163.398450400979240
  0
CIRCLE
  8
0
  6
CONTINUOUS
 62
3
 10
340.806197759285850
 20
-126.724962243623850
 40
3.323500000000024
  0
CIRCLE
  8
0
  6
CONTINUOUS
 62
4
 10
340.806197759285850
 20
-126.724962243623850
 40
4.000000000000000
  0
LINE
  8
0
  6
DASHDOT
 62
4
 10
361.738054206037530
 20
-152.724962243623850
 11
319.662478096469610
 21
-152.724962243623850
  0
LINE
  8
0
  6
DASHDOT
 62
4
 10
340.806197759286080
 20
-19.300568018918966
 11
340.806197759286080
 21
-248.704703431310010
  0
ARC
  8
0
  6
DASHDOT
 62
4
 10
340.806197759286080
 20
-126.724962243623850
 40
117.499999999999840
 50
219.796735883285490
 51
230.364178174483900
  0
ARC
  8
0
  6
DASHDOT
 62
4
 10
340.806197759286080
 20
-126.724962243623850
 40
117.499999999999850
 50
39.788646815325841
 51
50.364178174483833
  0
CIRCLE
  8
0
  6
CONTINUOUS
 62
3
 10
340.806197759286080
 20
-126.724962243623850
 40
22.499999999999545
  0
CIRCLE
  8
0
  6
CONTINUOUS
 62
3
 10
340.806197759286080
 20
-126.724962243623850
 40
35.000000000000000
  0
LINE
  8
0
  6
CONTINUOUS
 62
3
 10
417.609518000015210
 20
-129.224962243623850
 11
378.406064780327600
 21
-129.224962243623850
  0
LINE
  8
0
  6
CONTINUOUS
 62
3
 10
417.609518000015210
 20
-124.224962243623850
 11
378.406064780327600
 21
-124.224962243623850
  0
LINE
  8
0
  6
CONTINUOUS
 62
3
 10
343.306197759286080
 20
-49.921642002894259
 11
343.306197759286080
 21
-89.125095222581876
  0
LINE
  8
0
  6
CONTINUOUS
 62
3
 10
338.306197759286080
 20
-49.921642002894259
 11
338.306197759286080
 21
-89.125095222581876
  0
LINE
  8
0
  6
CONTINUOUS
 62
3
 10
431.453867337714880
 20
-121.724962243623850
 11
433.806197759286080
 21
-121.724962243623850
  0
LINE
  8
0
  6
CONTINUOUS
 62
3
 10
431.453867337714880
 20
-131.724962243623850
 11
433.806197759286080
 21
-131.724962243623850
  0
LINE
  8
0
  6
CONTINUOUS
 62
3
 10
398.093010951637550
 20
-203.810765309198360
 11
415.421421448435470
 21
-221.139175805997180
  0
LINE
  8
0
  6
CONTINUOUS
 62
3
 10
263.720394693711110
 20
-69.438149051272376
 11
246.391984196913200
 21
-52.109738554473552
  0
LINE
  8
0
  6
CONTINUOUS
 62
3
 10
283.519384566934600
 20
-49.639159178048430
 11
266.190974070136690
 21
-32.310748681250516
  0
LINE
  8
0
  6
CONTINUOUS
 62
3
 10
398.093010951637550
 20
-49.639159178048430
 11
415.421421448435470
 21
-32.310748681250516
  0
LINE
  8
0
  6
DASHDOT
 62
4
 10
266.564681721197530
 20
-52.483446205534904
 11
249.400535362495480
 21
-35.319299846832791
  0
LINE
  8
0
  6
CONTINUOUS
 62
3
 10
255.806197759286080
 20
-31.724962243623850
 11
425.806197759286080
 21
-31.724962243623850
  0
LINE
  8
0
  6
CONTINUOUS
 62
3
 10
417.892000824861040
 20
-184.011775435975320
 11
435.220411321658960
 21
-201.340185932774150
  0
LINE
  8
0
  6
CONTINUOUS
 62
3
 10
435.806197759286080
 20
-41.724962243623850
 11
435.806197759286080
 21
-211.724962243623850
  0
LINE
  8
0
  6
CONTINUOUS
 62
3
 10
417.892000824861040
 20
-69.438149051272376
 11
435.220411321658960
 21
-52.109738554473552
  0
LINE
  8
0
  6
DASHDOT
 62
4
 10
415.397696665784680
 20
-52.133463337125193
 11
431.669419141757320
 21
-35.861740861152612
  0
LINE
  8
0
  6
DASHDOT
 62
4
 10
416.044819879122310
 20
-201.963584363461050
 11
431.669248180476870
 21
-217.588012664815920
  0
LINE
  8
0
  6
DASHED
 62
4
 10
285.437654443633390
 20
-221.724962243623850
 11
286.817567271368260
 21
-221.724962243623850
  0
LINE
  8
0
  6
CONTINUOUS
 62
3
 10
255.806197759286080
 20
-221.724962243623850
 11
285.437654443633390
 21
-221.724962243623850
  0
LINE
  8
0
  6
CONTINUOUS
 62
3
 10
396.174741074938770
 20
-221.724962243623850
 11
425.806197759286080
 21
-221.724962243623850
  0
LINE
  8
0
  6
CONTINUOUS
 62
3
 10
417.999125742586100
 20
-136.998111088381850
 11
417.999125742586100
 21
-147.326162142291650
  0
LINE
  8
0
  6
CONTINUOUS
 62
3
 10
288.265816152390930
 20
-70.649046730795817
 11
315.986843769961750
 21
-98.370074348366870
  0
LINE
  8
0
  6
CONTINUOUS
 62
3
 10
284.730282246458270
 20
-74.184580636728242
 11
312.451309864028870
 21
-101.905608254299290
  0
LINE
  8
0
  6
CONTINUOUS
 62
3
 10
393.346579366181460
 20
-70.649046730795817
 11
365.625551748610630
 21
-98.370074348366870
  0
LINE
  8
0
  6
CONTINUOUS
 62
3
 10
396.882113272114110
 20
-74.184580636728242
 11
369.161085654543290
 21
-101.905608254299290
  0
LINE
  8
0
  6
CONTINUOUS
 62
3
 10
396.882113272113880
 20
-179.265343850519460
 11
369.161085654543290
 21
-151.544316232948400
  0
CIRCLE
  8
0
  6
CONTINUOUS
 62
3
 10
340.806197759286080
 20
-126.724962243623850
 40
27.500000000000000
  0
ARC
  8
0
  6
CONTINUOUS
 62
3
 10
433.806197759286080
 20
-123.724962243623850
 40
2.000000000000000
 50
0.000000000000000
 51
90.000000000000000
  0
ARC
  8
0
  6
CONTINUOUS
 62
3
 10
431.453867337714880
 20
-118.724962243623850
 40
2.999999999999949
 50
185.043502368943710
 51
270.000000000000000
  0
ARC
  8
0
  6
CONTINUOUS
 62
3
 10
433.806197759286080
 20
-129.724962243623850
 40
2.000000000000000
 50
270.000000000000000
 51
0.000000000000000
  0
ARC
  8
0
  6
CONTINUOUS
 62
3
 10
431.453867337714880
 20
-134.724962243623850
 40
3.000000000000000
 50
90.000000000000000
 51
174.956497631056290
  0
ARC
  8
0
  6
CONTINUOUS
 62
3
 10
391.021943139772250
 20
-210.881833121064120
 40
10.000000000000082
 50
45.000000000001855
 51
120.824196484135270
  0
ARC
  8
0
  6
CONTINUOUS
 62
3
 10
264.776760507763130
 20
-219.724962243623850
 40
2.000000000000000
 50
270.000000000000000
 51
314.999999999995400
  0
ARC
  8
0
  6
CONTINUOUS
 62
3
 10
340.806197759286080
 20
-126.724962243623850
 40
88.000000000000185
 50
239.175803515867240
 51
300.824196484132760
  0
ARC
  8
0
  6
CONTINUOUS
 62
3
 10
340.806197759286080
 20
-126.724962243623850
 40
88.000000000000185
 50
59.175803515867223
 51
120.824196484132780
  0
ARC
  8
0
  6
CONTINUOUS
 62
3
 10
256.649326881845810
 20
-76.509216863137226
 40
10.000000000000068
 50
329.175803515866050
 51
44.999999999998167
  0
ARC
  8
0
  6
CONTINUOUS
 62
3
 10
290.590452378799910
 20
-42.568091366183580
 40
9.999999999999437
 50
224.999999999998180
 51
300.824196484135310
  0
ARC
  8
0
  6
CONTINUOUS
 62
3
 10
264.776760507763360
 20
-33.724962243623850
 40
2.000000000000338
 50
45.000000000000000
 51
90.000000000000000
  0
ARC
  8
0
  6
CONTINUOUS
 62
3
 10
247.806197759286080
 20
-50.695524992101127
 40
2.000000000000000
 50
180.000000000000000
 51
224.999999999990790
  0
ARC
  8
0
  6
CONTINUOUS
 62
3
 10
391.021943139772250
 20
-42.568091366183580
 40
9.999999999999677
 50
239.175803515864690
 51
315.000000000001820
  0
ARC
  8
0
  6
DASHDOT
 62
4
 10
340.806197759286080
 20
-126.724962243623850
 40
117.499999999999780
 50
129.635821825516160
 51
140.364178174483360
  0
ARC
  8
0
  6
CONTINUOUS
 62
3
 10
255.806197759286080
 20
-41.724962243623850
 40
10.000000000000000
 50
90.000000000000000
 51
180.000000000000000
  0
CIRCLE
  8
0
  6
CONTINUOUS
 62
3
 10
257.721150969866810
 20
-43.639915454204129
 40
6.000000000000000
  0
ARC
  8
0
  6
CONTINUOUS
 62
3
 10
433.806197759286080
 20
-202.754399495146570
 40
2.000000000000000
 50
0.000000000000000
 51
44.999999999990798
  0
ARC
  8
0
  6
CONTINUOUS
 62
3
 10
425.806197759286080
 20
-211.724962243623850
 40
10.000000000000000
 50
270.000000000000000
 51
0.000000000000000
  0
ARC
  8
0
  6
DASHDOT
 62
4
 10
340.806197759286080
 20
-126.724962243623850
 40
117.499999999999640
 50
309.635821825516080
 51
320.364178174483240
  0
CIRCLE
  8
0
  6
CONTINUOUS
 62
3
 10
423.891244548705120
 20
-209.810009033043570
 40
6.000000000000000
  0
ARC
  8
0
  6
CONTINUOUS
 62
3
 10
424.963068636726350
 20
-176.940707624109560
 40
9.999999999999602
 50
149.175803515870540
 51
225.000000000001850
  0
ARC
  8
0
  6
CONTINUOUS
 62
3
 10
340.806197759286080
 20
-126.724962243623850
 40
88.000000000000213
 50
329.175803515866900
 51
354.956497631052460
  0
ARC
  8
0
  6
CONTINUOUS
 62
3
 10
433.806197759286080
 20
-50.695524992101127
 40
1.999999999999373
 50
315.000000000009210
 51
0.000000000000000
  0
ARC
  8
0
  6
CONTINUOUS
 62
3
 10
416.835635010808800
 20
-33.724962243623850
 40
2.000000000000000
 50
90.000000000000000
 51
135.000000000000000
  0
ARC
  8
0
  6
CONTINUOUS
 62
3
 10
424.963068636726350
 20
-76.509216863137226
 40
9.999999999999437
 50
135.000000000001820
 51
210.824196484133950
  0
ARC
  8
0
  6
CONTINUOUS
 62
3
 10
425.806197759286080
 20
-41.724962243623850
 40
10.000000000000000
 50
0.000000000000000
 51
90.000000000000000
  0
CIRCLE
  8
0
  6
CONTINUOUS
 62
3
 10
423.891244548705340
 20
-43.639915454204129
 40
6.000000000000000
  0
ARC
  8
0
  6
CONTINUOUS
 62
3
 10
416.835635010808800
 20
-219.724962243623850
 40
2.000000000000338
 50
225.000000000000000
 51
270.000000000000000
  0
ARC
  8
0
  6
CONTINUOUS
 62
3
 10
346.306197759286080
 20
-49.921642002894259
 40
2.999999999999255
 50
85.903956241845407
 51
180.000000000000000
  0
ARC
  8
0
  6
CONTINUOUS
 62
3
 10
335.306197759286080
 20
-49.921642002894259
 40
3.000000000000000
 50
0.000000000000000
 51
94.096043758150259
  0
ARC
  8
0
  6
CONTINUOUS
 62
3
 10
417.609518000015440
 20
-121.224962243623850
 40
3.000000000000000
 50
270.000000000000000
 51
4.096043758162328
  0
ARC
  8
0
  6
CONTINUOUS
 62
3
 10
417.609518000015440
 20
-132.224962243623850
 40
2.999999999999903
 50
355.903956241854980
 51
90.000000000000000
  0
ARC
  8
0
  6
CONTINUOUS
 62
3
 10
340.806197759286080
 20
-126.724962243623850
 40
88.000000000000085
 50
5.043502368947569
 51
30.824196484133129
  0
ARC
  8
0
  6
CONTINUOUS
 62
3
 10
285.437654443633390
 20
-224.724962243623850
 40
2.999999999999998
 50
2.314929004306987
 51
90.000000000000000
  0
ARC
  8
0
  6
CONTINUOUS
 62
3
 10
297.806197759286080
 20
-224.224962243623850
 40
9.378645473200079
 50
182.314929004302910
 51
228.277461126551540
  0
ARC
  8
0
  6
CONTINUOUS
 62
3
 10
383.806197759286310
 20
-224.224962243623850
 40
9.378645473199995
 50
311.722538873448460
 51
357.685070995697000
  0
ARC
  8
0
  6
CONTINUOUS
 62
3
 10
396.174741074938770
 20
-224.724962243623850
 40
3.000000000000000
 50
90.000000000000000
 51
177.685070995693020
  0
ARC
  8
0
  6
CONTINUOUS
 62
3
 10
326.306197759286080
 20
-136.998111088381850
 40
62.692927983299825
 50
92.158403465040607
 51
112.319350801796530
  0
ARC
  8
0
  6
CONTINUOUS
 62
3
 10
340.806197759286310
 20
-521.724962243847590
 40
447.692927983299800
 50
90.708657147836760
 51
92.158403465040607
  0
ARC
  8
0
  6
CONTINUOUS
 62
3
 10
355.306197759286080
 20
-136.998111088381850
 40
62.692927983300024
 50
0.000000000000000
 51
4.586365068665685
  0
ARC
  8
0
  6
CONTINUOUS
 62
3
 10
340.806197759286080
 20
-521.724962243847590
 40
447.692927983299680
 50
87.841596534959422
 51
89.291342852163240
  0
ARC
  8
0
  6
CONTINUOUS
 62
3
 10
355.306197759286080
 20
-136.998111088381850
 40
62.692927983300109
 50
15.321688456567088
 51
20.350598527481885
  0
ARC
  8
0
  6
CONTINUOUS
 62
3
 10
290.387136495950470
 20
-68.527726387235816
 40
2.999999999999567
 50
130.903956241853850
 51
225.000000000006170
  0
ARC
  8
0
  6
CONTINUOUS
 62
3
 10
282.608961902898500
 20
-76.305900980288243
 40
3.000000000000185
 50
45.000000000006146
 51
139.096043758148540
  0
ARC
  8
0
  6
CONTINUOUS
 62
3
 10
399.003433615673880
 20
-76.305900980288243
 40
3.000000000000060
 50
40.903956241851461
 51
134.999999999996930
  0
ARC
  8
0
  6
CONTINUOUS
 62
3
 10
391.225259022621690
 20
-68.527726387235816
 40
3.000000000000346
 50
314.999999999996870
 51
49.096043758146152
  0
ARC
  8
0
  6
CONTINUOUS
 62
3
 10
355.306197759286080
 20
-136.998111088381850
 40
62.692927983300230
 50
67.680649198203270
 51
87.841596534959393
  0
ARC
  8
0
  6
CONTINUOUS
 62
3
 10
399.003433615673430
 20
-177.144023506959460
 40
3.000000000000185
 50
225.000000000006170
 51
319.096043758151380
  0
ARC
  8
0
  6
CONTINUOUS
 62
3
 10
303.206330738244790
 20
-121.224962243623850
 40
3.000000000000000
 50
270.000000000000000
 51
351.677959400821810
  0
ARC
  8
0
  6
CONTINUOUS
 62
3
 10
303.206330738244790
 20
-132.224962243623850
 40
2.999999999999894
 50
8.322040599178212
 51
90.000000000000000
  0
ARC
  8
0
  6
CONTINUOUS
 62
3
 10
378.406064780327600
 20
-121.224962243623850
 40
2.999999999999894
 50
188.322040599178190
 51
270.000000000000000
  0
ARC
  8
0
  6
CONTINUOUS
 62
3
 10
378.406064780327600
 20
-132.224962243623850
 40
3.000000000000000
 50
90.000000000000000
 51
171.677959400821810
  0
ARC
  8
0
  6
CONTINUOUS
 62
3
 10
335.306197759286080
 20
-89.125095222581876
 40
3.000000000000119
 50
278.322040599177570
 51
0.000000000000000
  0
ARC
  8
0
  6
CONTINUOUS
 62
3
 10
346.306197759286080
 20
-89.125095222581876
 40
3.000000000000000
 50
180.000000000000000
 51
261.677959400826750
  0
ARC
  8
0
  6
CONTINUOUS
 62
3
 10
340.806197759286080
 20
-126.724962243623850
 40
41.999999999999993
 50
93.412480210152708
 51
131.587519789847140
  0
ARC
  8
0
  6
CONTINUOUS
 62
3
 10
340.806197759286080
 20
-126.724962243623850
 40
41.999999999999993
 50
3.412480210152714
 51
41.587519789847612
  0
ARC
  8
0
  6
CONTINUOUS
 62
3
 10
340.806197759286080
 20
-126.724962243623850
 40
41.999999999999993
 50
183.412480210152720
 51
220.223497577760330
  0
ARC
  8
0
  6
CONTINUOUS
 62
3
 10
310.912886861362270
 20
-150.185353620582650
 40
2.999999999999245
 50
281.549996895624300
 51
38.124966414613354
  0
ARC
  8
0
  6
CONTINUOUS
 62
3
 10
346.306197759286080
 20
-77.066047795525265
 40
2.999999999999795
 50
89.291342852161520
 51
180.000000000000000
  0
ARC
  8
0
  6
CONTINUOUS
 62
3
 10
335.306197759286080
 20
-77.066047795525265
 40
3.000000000000000
 50
0.000000000000000
 51
90.708657147834131
  0
ARC
  8
0
  6
CONTINUOUS
 62
3
 10
414.807985138533920
 20
-132.224962243623850
 40
3.000000000000105
 50
4.586365068672618
 51
90.000000000000000
  0
ARC
  8
0
  6
CONTINUOUS
 62
3
 10
412.877487711314640
 20
-121.224962243623850
 40
3.000000000000000
 50
270.000000000000000
 51
15.321688456570628
  0
ARC
  8
0
  6
CONTINUOUS
 62
3
 10
414.999125742586100
 20
-147.326162142291650
 40
2.999999999999850
 50
344.481586472372670
 51
0.000000000000000
  0
ARC
  8
0
  6
CONTINUOUS
 62
3
 10
318.108164113521300
 20
-96.248754004806869
 40
3.000000000000185
 50
225.000000000006170
 51
306.677959400819820
  0
ARC
  8
0
  6
CONTINUOUS
 62
3
 10
310.329989520469330
 20
-104.026928597859290
 40
2.999999999999790
 50
323.322040599181890
 51
45.000000000006146
  0
ARC
  8
0
  6
CONTINUOUS
 62
3
 10
340.806197759286080
 20
-126.724962243623850
 40
42.000000000000107
 50
138.412480210152180
 51
176.587519789847280
  0
ARC
  8
0
  6
CONTINUOUS
 62
3
 10
293.458606119272870
 20
-87.155545196662388
 40
2.999999999999703
 50
44.999999999990798
 51
123.385956680341920
  0
ARC
  8
0
  6
CONTINUOUS
 62
3
 10
303.636697246901350
 20
-81.777287138186693
 40
2.999999999999996
 50
112.319350801796900
 51
225.000000000006170
  0
ARC
  8
0
  6
CONTINUOUS
 62
3
 10
371.282405998103060
 20
-104.026928597859290
 40
3.000000000000346
 50
134.999999999996930
 51
216.677959400818080
  0
ARC
  8
0
  6
CONTINUOUS
 62
3
 10
363.504231405050860
 20
-96.248754004806869
 40
3.000000000000291
 50
233.322040599183650
 51
314.999999999996870
  0
ARC
  8
0
  6
CONTINUOUS
 62
3
 10
377.975698271671040
 20
-81.777287138186693
 40
3.000000000000185
 50
314.999999999993860
 51
67.680649198203099
  0
ARC
  8
0
  6
CONTINUOUS
 62
3
 10
388.153789399299280
 20
-87.155545196662388
 40
2.999999999999778
 50
56.614043319654456
 51
135.000000000006140
  0
ARC
  8
0
  6
CONTINUOUS
 62
3
 10
340.806197759286080
 20
-126.724962243623850
 40
42.000000000000128
 50
48.412480210152623
 51
86.587519789847292
  0
ARC
  8
0
  6
CONTINUOUS
 62
3
 10
371.282405998102830
 20
-149.422995889388400
 40
2.999999999999790
 50
143.322040599181920
 51
225.000000000006170
  0
ARC
  8
0
  6
CONTINUOUS
 62
3
 10
340.806197759286080
 20
-126.724962243623850
 40
42.000000000000107
 50
318.412480210152130
 51
356.587519789847310
  0
ARC
  8
0
  6
CONTINUOUS
 62
3
 10
355.306197759286080
 20
-136.998111088381850
 40
62.692927983299960
 50
52.533621004833066
 51
56.614043319659004
  0
LINE
  8
0
  6
CONTINUOUS
 62
3
 10
45.702584609346559
 20
-152.724962243623850
 11
45.702584609346559
 21
-100.224962243623850
  0
LINE
  8
0
  6
CONTINUOUS
 62
3
 10
45.702584609346559
 20
-152.724962243623850
 11
45.702584609346559
 21
-205.224962243623850
  0
LINE
  8
0
  6
CONTINUOUS
 62
3
 10
45.702584609345649
 20
-205.277370022907230
 11
45.702584609345649
 21
-152.724962243624300
  0
LINE
  8
0
  6
CONTINUOUS
 62
3
 10
45.702584609346559
 20
-100.172554464341370
 11
45.702584609346559
 21
-152.724962243624300
  0
LINE
  8
0
  6
CONTINUOUS
 62
3
 10
45.702584609345649
 20
-152.724962243623960
 11
45.702584609345649
 21
-205.224962243623960
  0
LINE
  8
0
  6
CONTINUOUS
 62
3
 10
45.702584609345649
 20
-152.724962243623960
 11
45.702584609345649
 21
-100.224962243623960
  0
ENDSEC
  0
EOF
