  0
SECTION
  2
HEADER
  9
$FILLMODE
 70
1
  9
$TEXTSTYLE
  7
STANDARD1
  9
$ACADVER
  1
AC1009
  9
$DIMASZ
 40
1.931851648807023
  9
$DIMEXE
 40
2.000000000000000
  9
$DIMEXO
 40
1.000000000000000
  9
$DIMLFAC
 40
1.000000000000000
  9
$DIMSCALE
 40
1.000000000000000
  9
$DIMTAD
 70
1
  9
$DIMTFAC
 40
0.714285731315613
  9
$DIMTXT
 40
2.799999952316284
  9
$LUPREC
 70
3
  9
$TEXTSIZE
 40
2.799999952316284
  9
$REGENMODE
 70
1
  0
ENDSEC
  0
SECTION
  2
TABLES
  0
TABLE
  2
LTYPE
 70
4
  0
LTYPE
  2
CONTINUOUS
 70
64
  3
Solid line
 72
65
 73
0
 40
0.0
  0
LTYPE
  2
DASHED
 70
64
  3
-- -- -- -- -- -- -- -- -- -- -- -- -- -- --
 72
65
 73
2
 40
0.75
 49
0.5
 49
-0.25
  0
LTYPE
  2
DASHDOT
 70
64
  3
__ . __ . __ . __ . __ . __ . __ . __ . __ . __
 72
65
 73
4
 40
1.0
 49
0.5
 49
-0.25
 49
0.0
 49
-0.25
  0
LTYPE
  2
DIVIDE
 70
64
  3
__ . . __ . . __ . . __ . . __ . . __ . . __
 72
65
 73
6
 40
1.25
 49
0.5
 49
-0.25
 49
0.0
 49
-0.25
 49
0.0
 49
-0.25
  0
ENDTAB
  0
TABLE
  2
LAYER
 70
3
  0
LAYER
  2
0
 70
64
 62
2
  6
CONTINUOUS
  0
LAYER
  2
1
 70
64
 62
1
  6
CONTINUOUS
  0
LAYER
  2
3
 70
64
 62
2
  6
CONTINUOUS
  0
ENDTAB
  0
TABLE
  2
STYLE
 70
4
  0
STYLE
  2
STANDARD1
 70
64
 40
0.0
 41
1.0
 50
0.0
 71
0
 42
2.799999952316284
  3
MONOTXT
  4
BIGFONT
  0
STYLE
  2
STANDARD2
 70
68
 40
0.0
 41
1.0
 50
0.0
 71
0
 42
2.799999952316284
  3
MONOTXT
  4
BIGFONT
  0
STYLE
  2
STANDARD3
 70
64
 40
0.0
 41
1.0
 50
0.0
 71
0
 42
2.799999952316284
  3
MONOTXT
  4

  0
STYLE
  2
STANDARD4
 70
68
 40
0.0
 41
1.0
 50
0.0
 71
0
 42
2.799999952316284
  3
MONOTXT
  4

  0
ENDTAB
  0
TABLE
  2
VIEW
 70
0
  0
ENDTAB
  0
ENDSEC
  0
SECTION
  2
BLOCKS
  0
BLOCK
  8
0
  2
SYM1
 70
64
 10
0.000000000000000
 20
0.000000000000000
  0
ARC
  8
0
  6
CONTINUOUS
 62
3
 10
-0.979025304317474
 20
-2.200000762939453
 40
1.299999237060547
 50
196.601531107481040
 51
270.000000000000000
  0
ARC
  8
0
  6
CONTINUOUS
 62
3
 10
-0.979025304317474
 20
2.200000762939453
 40
1.299999237060547
 50
90.000000000000000
 51
163.398451589674950
  0
LINE
  8
0
  6
CONTINUOUS
 62
3
 10
-0.000000000000000
 20
-3.500000000000000
 11
-0.979025304317474
 21
-3.500000000000000
  0
LINE
  8
0
  6
CONTINUOUS
 62
3
 10
0.000000000000000
 20
3.500000000000000
 11
-0.979025304317474
 21
3.500000000000000
  0
LINE
  8
0
  6
CONTINUOUS
 62
3
 10
0.000000000000000
 20
-3.500000000000000
 11
-0.000000000000000
 21
3.500000000000000
  0
LINE
  8
0
  6
CONTINUOUS
 62
3
 10
0.000000000000000
 20
-3.500000000000000
 11
-0.000000000000000
 21
3.500000000000000
  0
POINT
  8
0
  6
CONTINUOUS
 62
3
 10
0.000000000000000
 20
0.000000000000000
  0
ARC
  8
0
  6
CONTINUOUS
 62
3
 10
6.399999618530273
 20
0.000000000000000
 40
9.000000000000000
 50
163.398451589674950
 51
196.601531107481040
  0
ENDBLK
  8
0
  0
BLOCK
  8
0
  2
SYM2
 70
64
 10
0.000000000000000
 20
0.000000000000000
  0
POINT
  8
0
  6
CONTINUOUS
 62
3
 10
0.000000000000000
 20
0.000000000000000
  0
LINE
  8
0
  6
CONTINUOUS
 62
3
 10
0.000000000000000
 20
-6.500000000000000
 11
-0.000000000000000
 21
6.500000000000000
  0
LINE
  8
0
  6
CONTINUOUS
 62
3
 10
-7.999999046325684
 20
5.633875846862793
 11
-7.999999046325684
 21
-5.634070396423340
  0
LINE
  8
0
  6
CONTINUOUS
 62
3
 10
0.000000000000000
 20
6.500000000000000
 11
-7.499999046325684
 21
6.500000000000000
  0
LINE
  8
0
  6
CONTINUOUS
 62
3
 10
-0.000000000000000
 20
-6.500000000000000
 11
-7.499998092651367
 21
-6.500000000000000
  0
LINE
  8
0
  6
CONTINUOUS
 62
3
 10
-7.499999203818277
 20
6.499999909101064
 11
-7.999999021366804
 21
5.633876130311293
  0
LINE
  8
0
  6
CONTINUOUS
 62
3
 10
-7.499997911632022
 20
-6.499999445138201
 11
-7.999998623386432
 21
-5.634070287011241
  0
LINE
  8
0
  6
CONTINUOUS
 62
3
 10
-7.499999046325684
 20
6.500000000000000
 11
-7.499999046325684
 21
-6.500000000000000
  0
ENDBLK
  8
0
  0
BLOCK
  8
0
  2
SYM3
 70
64
 10
0.000000000000000
 20
0.000000000000000
  0
POINT
  8
0
  6
CONTINUOUS
 62
3
 10
0.000000000000000
 20
0.000000000000000
  0
LINE
  8
0
  6
CONTINUOUS
 62
3
 10
0.000000000000000
 20
-6.500000000000000
 11
-0.000000000000000
 21
6.500000000000000
  0
LINE
  8
0
  6
CONTINUOUS
 62
3
 10
-7.999999046325684
 20
5.633875846862793
 11
-7.999999046325684
 21
-5.634070396423340
  0
LINE
  8
0
  6
CONTINUOUS
 62
3
 10
0.000000000000000
 20
6.500000000000000
 11
-7.499999046325684
 21
6.500000000000000
  0
LINE
  8
0
  6
CONTINUOUS
 62
3
 10
-0.000000000000000
 20
-6.500000000000000
 11
-7.499998092651367
 21
-6.500000000000000
  0
LINE
  8
0
  6
CONTINUOUS
 62
3
 10
-7.499999203818277
 20
6.499999909101064
 11
-7.999999021366804
 21
5.633876130311293
  0
LINE
  8
0
  6
CONTINUOUS
 62
3
 10
-7.499997911632022
 20
-6.499999445138201
 11
-7.999998623386432
 21
-5.634070287011241
  0
LINE
  8
0
  6
CONTINUOUS
 62
3
 10
-7.499999046325684
 20
6.500000000000000
 11
-7.499999046325684
 21
-6.500000000000000
  0
ENDBLK
  8
0
  0
BLOCK
  8
0
  2
SYM4
 70
64
 10
0.000000000000000
 20
0.000000000000000
  0
POINT
  8
0
  6
CONTINUOUS
 62
3
 10
0.000000000000000
 20
0.000000000000000
  0
LINE
  8
0
  6
CONTINUOUS
 62
3
 10
0.000000000000000
 20
5.000000000000000
 11
0.000000000000000
 21
-5.000000000000000
  0
LINE
  8
0
  6
CONTINUOUS
 62
3
 10
-6.000000000000000
 20
-5.000000000000000
 11
-6.000000000000000
 21
5.000000000000000
  0
LINE
  8
0
  6
CONTINUOUS
 62
3
 10
0.000000000000000
 20
5.000000000000000
 11
-6.000000000000000
 21
5.000000000000000
  0
LINE
  8
0
  6
CONTINUOUS
 62
3
 10
-0.000000000000000
 20
-5.000000000000000
 11
-6.000000000000000
 21
-5.000000000000000
  0
ENDBLK
  8
0
  0
BLOCK
  8
0
  2
SYM5
 70
64
 10
0.000000000000000
 20
0.000000000000000
  0
POINT
  8
0
  6
CONTINUOUS
 62
3
 10
0.000000000000000
 20
0.000000000000000
  0
LINE
  8
0
  6
CONTINUOUS
 62
3
 10
0.000000000000000
 20
5.000000000000000
 11
0.000000000000000
 21
-5.000000000000000
  0
LINE
  8
0
  6
CONTINUOUS
 62
3
 10
-6.000000000000000
 20
-5.000000000000000
 11
-6.000000000000000
 21
5.000000000000000
  0
LINE
  8
0
  6
CONTINUOUS
 62
3
 10
0.000000000000000
 20
5.000000000000000
 11
-6.000000000000000
 21
5.000000000000000
  0
LINE
  8
0
  6
CONTINUOUS
 62
3
 10
-0.000000000000000
 20
-5.000000000000000
 11
-6.000000000000000
 21
-5.000000000000000
  0
ENDBLK
  8
0
  0
BLOCK
  8
0
  2
SYM6
 70
64
 10
0.000000000000000
 20
0.000000000000000
  0
POINT
  8
0
  6
CONTINUOUS
 62
3
 10
0.000000000000000
 20
0.000000000000000
  0
LINE
  8
0
  6
CONTINUOUS
 62
3
 10
0.000000000000000
 20
-6.500000000000000
 11
-0.000000000000000
 21
6.500000000000000
  0
LINE
  8
0
  6
CONTINUOUS
 62
3
 10
-7.999999046325684
 20
5.633875846862793
 11
-7.999999046325684
 21
-5.634070396423340
  0
LINE
  8
0
  6
CONTINUOUS
 62
3
 10
0.000000000000000
 20
6.500000000000000
 11
-7.499999046325684
 21
6.500000000000000
  0
LINE
  8
0
  6
CONTINUOUS
 62
3
 10
-0.000000000000000
 20
-6.500000000000000
 11
-7.499998092651367
 21
-6.500000000000000
  0
LINE
  8
0
  6
CONTINUOUS
 62
3
 10
-7.499999203818277
 20
6.499999909101064
 11
-7.999999021366804
 21
5.633876130311293
  0
LINE
  8
0
  6
CONTINUOUS
 62
3
 10
-7.499997911632022
 20
-6.499999445138201
 11
-7.999998623386432
 21
-5.634070287011241
  0
LINE
  8
0
  6
CONTINUOUS
 62
3
 10
-7.499999046325684
 20
6.500000000000000
 11
-7.499999046325684
 21
-6.500000000000000
  0
ENDBLK
  8
0
  0
BLOCK
  8
0
  2
SYM7
 70
64
 10
0.000000000000000
 20
0.000000000000000
  0
POINT
  8
0
  6
CONTINUOUS
 62
3
 10
0.000000000000000
 20
0.000000000000000
  0
LINE
  8
0
  6
CONTINUOUS
 62
3
 10
0.000000000000000
 20
-6.500000000000000
 11
-0.000000000000000
 21
6.500000000000000
  0
LINE
  8
0
  6
CONTINUOUS
 62
3
 10
-7.999999046325684
 20
5.633875846862793
 11
-7.999999046325684
 21
-5.634070396423340
  0
LINE
  8
0
  6
CONTINUOUS
 62
3
 10
0.000000000000000
 20
6.500000000000000
 11
-7.499999046325684
 21
6.500000000000000
  0
LINE
  8
0
  6
CONTINUOUS
 62
3
 10
-0.000000000000000
 20
-6.500000000000000
 11
-7.499998092651367
 21
-6.500000000000000
  0
LINE
  8
0
  6
CONTINUOUS
 62
3
 10
-7.499999203818277
 20
6.499999909101064
 11
-7.999999021366804
 21
5.633876130311293
  0
LINE
  8
0
  6
CONTINUOUS
 62
3
 10
-7.499997911632022
 20
-6.499999445138201
 11
-7.999998623386432
 21
-5.634070287011241
  0
LINE
  8
0
  6
CONTINUOUS
 62
3
 10
-7.499999046325684
 20
6.500000000000000
 11
-7.499999046325684
 21
-6.500000000000000
  0
ENDBLK
  8
0
  0
BLOCK
  8
0
  2
SYM8
 70
64
 10
0.000000000000000
 20
0.000000000000000
  0
POINT
  8
0
  6
CONTINUOUS
 62
3
 10
0.000000000000000
 20
0.000000000000000
  0
LINE
  8
0
  6
CONTINUOUS
 62
3
 10
0.000000000000000
 20
-6.500000000000000
 11
-0.000000000000000
 21
6.500000000000000
  0
LINE
  8
0
  6
CONTINUOUS
 62
3
 10
-7.999999046325684
 20
5.633875846862793
 11
-7.999999046325684
 21
-5.634070396423340
  0
LINE
  8
0
  6
CONTINUOUS
 62
3
 10
0.000000000000000
 20
6.500000000000000
 11
-7.499999046325684
 21
6.500000000000000
  0
LINE
  8
0
  6
CONTINUOUS
 62
3
 10
-0.000000000000000
 20
-6.500000000000000
 11
-7.499998092651367
 21
-6.500000000000000
  0
LINE
  8
0
  6
CONTINUOUS
 62
3
 10
-7.499999203818277
 20
6.499999909101064
 11
-7.999999021366804
 21
5.633876130311293
  0
LINE
  8
0
  6
CONTINUOUS
 62
3
 10
-7.499997911632022
 20
-6.499999445138201
 11
-7.999998623386432
 21
-5.634070287011241
  0
LINE
  8
0
  6
CONTINUOUS
 62
3
 10
-7.499999046325684
 20
6.500000000000000
 11
-7.499999046325684
 21
-6.500000000000000
  0
ENDBLK
  8
0
  0
BLOCK
  8
0
  2
SYM9
 70
64
 10
0.000000000000000
 20
0.000000000000000
  0
ARC
  8
0
  6
CONTINUOUS
 62
3
 10
1.981662750244141
 20
-0.000008163610801
 40
5.981661796569824
 50
150.999363302540700
 51
209.000072979481700
  0
ARC
  8
0
  6
CONTINUOUS
 62
3
 10
-2.269982337951660
 20
4.325008392333984
 40
1.729999542236328
 50
179.999745461767870
 51
235.499786279783790
  0
ARC
  8
0
  6
CONTINUOUS
 62
3
 10
-2.270017623901367
 20
-4.324990272521973
 40
1.729999542236328
 50
124.499759285265280
 51
179.999745461767870
  0
LINE
  8
0
  6
CONTINUOUS
 62
3
 10
-3.249984168999890
 20
2.900012016287064
 11
0.000013133145058
 21
2.899999618522375
  0
LINE
  8
0
  6
CONTINUOUS
 62
3
 10
-3.250009052584916
 20
-2.899986267083180
 11
-0.000013285950788
 21
-2.899999618524636
  0
LINE
  8
0
  6
CONTINUOUS
 62
3
 10
0.000023687533422
 20
5.749999046325684
 11
-0.000023687533422
 21
-5.749999046325684
  0
LINE
  8
0
  6
CONTINUOUS
 62
3
 10
-3.249972343459831
 20
5.750005722029982
 11
0.000027906669402
 21
5.749993324257003
  0
LINE
  8
0
  6
CONTINUOUS
 62
3
 10
-3.999972830514309
 20
4.900008662670757
 11
-3.249970339875063
 21
5.750006850331147
  0
LINE
  8
0
  6
CONTINUOUS
 62
3
 10
-4.000014781949545
 20
-4.899978112209579
 11
-3.999973773958658
 21
4.900011588107803
  0
LINE
  8
0
  6
CONTINUOUS
 62
3
 10
-3.250024308998832
 20
-5.749987011620533
 11
-4.000020133420207
 21
-4.899982163000686
  0
LINE
  8
0
  6
CONTINUOUS
 62
3
 10
-0.000027060931608
 20
-5.749995231614290
 11
-3.250020760774497
 21
-5.749981880178368
  0
POINT
  8
0
  6
CONTINUOUS
 62
3
 10
0.000000000000000
 20
0.000000000000000
  0
ENDBLK
  8
0
  0
BLOCK
  8
0
  2
SYM10
 70
64
 10
0.000000000000000
 20
0.000000000000000
  0
ARC
  8
0
  6
CONTINUOUS
 62
3
 10
1.981662750244141
 20
-0.000008163610801
 40
5.981661796569824
 50
150.999363302540700
 51
209.000072979481700
  0
ARC
  8
0
  6
CONTINUOUS
 62
3
 10
-2.269982337951660
 20
4.325008392333984
 40
1.729999542236328
 50
179.999745461767870
 51
235.499786279783790
  0
ARC
  8
0
  6
CONTINUOUS
 62
3
 10
-2.270017623901367
 20
-4.324990272521973
 40
1.729999542236328
 50
124.499759285265280
 51
179.999745461767870
  0
LINE
  8
0
  6
CONTINUOUS
 62
3
 10
-3.249984168999890
 20
2.900012016287064
 11
0.000013133145058
 21
2.899999618522375
  0
LINE
  8
0
  6
CONTINUOUS
 62
3
 10
-3.250009052584916
 20
-2.899986267083180
 11
-0.000013285950788
 21
-2.899999618524636
  0
LINE
  8
0
  6
CONTINUOUS
 62
3
 10
0.000023687533422
 20
5.749999046325684
 11
-0.000023687533422
 21
-5.749999046325684
  0
LINE
  8
0
  6
CONTINUOUS
 62
3
 10
-3.249972343459831
 20
5.750005722029982
 11
0.000027906669402
 21
5.749993324257003
  0
LINE
  8
0
  6
CONTINUOUS
 62
3
 10
-3.999972830514309
 20
4.900008662670757
 11
-3.249970339875063
 21
5.750006850331147
  0
LINE
  8
0
  6
CONTINUOUS
 62
3
 10
-4.000014781949545
 20
-4.899978112209579
 11
-3.999973773958658
 21
4.900011588107803
  0
LINE
  8
0
  6
CONTINUOUS
 62
3
 10
-3.250024308998832
 20
-5.749987011620533
 11
-4.000020133420207
 21
-4.899982163000686
  0
LINE
  8
0
  6
CONTINUOUS
 62
3
 10
-0.000027060931608
 20
-5.749995231614290
 11
-3.250020760774497
 21
-5.749981880178368
  0
POINT
  8
0
  6
CONTINUOUS
 62
3
 10
0.000000000000000
 20
0.000000000000000
  0
ENDBLK
  8
0
  0
BLOCK
  8
0
  2
SYM11
 70
64
 10
0.000000000000000
 20
0.000000000000000
  0
POINT
  8
0
  6
CONTINUOUS
 62
3
 10
0.000000000000000
 20
0.000000000000000
  0
LINE
  8
0
  6
CONTINUOUS
 62
3
 10
0.000000000000000
 20
-6.500000000000000
 11
-0.000000000000000
 21
6.500000000000000
  0
LINE
  8
0
  6
CONTINUOUS
 62
3
 10
-7.999999046325684
 20
5.633875846862793
 11
-7.999999046325684
 21
-5.634070396423340
  0
LINE
  8
0
  6
CONTINUOUS
 62
3
 10
0.000000000000000
 20
6.500000000000000
 11
-7.499999046325684
 21
6.500000000000000
  0
LINE
  8
0
  6
CONTINUOUS
 62
3
 10
-0.000000000000000
 20
-6.500000000000000
 11
-7.499998092651367
 21
-6.500000000000000
  0
LINE
  8
0
  6
CONTINUOUS
 62
3
 10
-7.499999203818277
 20
6.499999909101064
 11
-7.999999021366804
 21
5.633876130311293
  0
LINE
  8
0
  6
CONTINUOUS
 62
3
 10
-7.499997911632022
 20
-6.499999445138201
 11
-7.999998623386432
 21
-5.634070287011241
  0
LINE
  8
0
  6
CONTINUOUS
 62
3
 10
-7.499999046325684
 20
6.500000000000000
 11
-7.499999046325684
 21
-6.500000000000000
  0
ENDBLK
  8
0
  0
BLOCK
  8
0
  2
SYM12
 70
64
 10
0.000000000000000
 20
0.000000000000000
  0
POINT
  8
0
  6
CONTINUOUS
 62
3
 10
0.000000000000000
 20
0.000000000000000
  0
LINE
  8
0
  6
CONTINUOUS
 62
3
 10
0.000000000000000
 20
-6.500000000000000
 11
-0.000000000000000
 21
6.500000000000000
  0
LINE
  8
0
  6
CONTINUOUS
 62
3
 10
-7.999999046325684
 20
5.633875846862793
 11
-7.999999046325684
 21
-5.634070396423340
  0
LINE
  8
0
  6
CONTINUOUS
 62
3
 10
0.000000000000000
 20
6.500000000000000
 11
-7.499999046325684
 21
6.500000000000000
  0
LINE
  8
0
  6
CONTINUOUS
 62
3
 10
-0.000000000000000
 20
-6.500000000000000
 11
-7.499998092651367
 21
-6.500000000000000
  0
LINE
  8
0
  6
CONTINUOUS
 62
3
 10
-7.499999203818277
 20
6.499999909101064
 11
-7.999999021366804
 21
5.633876130311293
  0
LINE
  8
0
  6
CONTINUOUS
 62
3
 10
-7.499997911632022
 20
-6.499999445138201
 11
-7.999998623386432
 21
-5.634070287011241
  0
LINE
  8
0
  6
CONTINUOUS
 62
3
 10
-7.499999046325684
 20
6.500000000000000
 11
-7.499999046325684
 21
-6.500000000000000
  0
ENDBLK
  8
0
  0
BLOCK
  8
0
  2
SYM13
 70
64
 10
0.000000000000000
 20
0.000000000000000
  0
POINT
  8
0
  6
CONTINUOUS
 62
3
 10
0.000000000000000
 20
0.000000000000000
  0
LINE
  8
0
  6
CONTINUOUS
 62
3
 10
0.000000000000000
 20
-6.500000000000000
 11
-0.000000000000000
 21
6.500000000000000
  0
LINE
  8
0
  6
CONTINUOUS
 62
3
 10
-7.999999046325684
 20
5.633875846862793
 11
-7.999999046325684
 21
-5.634070396423340
  0
LINE
  8
0
  6
CONTINUOUS
 62
3
 10
0.000000000000000
 20
6.500000000000000
 11
-7.499999046325684
 21
6.500000000000000
  0
LINE
  8
0
  6
CONTINUOUS
 62
3
 10
-0.000000000000000
 20
-6.500000000000000
 11
-7.499998092651367
 21
-6.500000000000000
  0
LINE
  8
0
  6
CONTINUOUS
 62
3
 10
-7.499999203818277
 20
6.499999909101064
 11
-7.999999021366804
 21
5.633876130311293
  0
LINE
  8
0
  6
CONTINUOUS
 62
3
 10
-7.499997911632022
 20
-6.499999445138201
 11
-7.999998623386432
 21
-5.634070287011241
  0
LINE
  8
0
  6
CONTINUOUS
 62
3
 10
-7.499999046325684
 20
6.500000000000000
 11
-7.499999046325684
 21
-6.500000000000000
  0
ENDBLK
  8
0
  0
BLOCK
  8
0
  2
SYM14
 70
64
 10
0.000000000000000
 20
0.000000000000000
  0
POINT
  8
0
  6
CONTINUOUS
 62
3
 10
0.000000000000000
 20
0.000000000000000
  0
LINE
  8
0
  6
CONTINUOUS
 62
3
 10
0.000000000000000
 20
-6.500000000000000
 11
-0.000000000000000
 21
6.500000000000000
  0
LINE
  8
0
  6
CONTINUOUS
 62
3
 10
-7.999999046325684
 20
5.633875846862793
 11
-7.999999046325684
 21
-5.634070396423340
  0
LINE
  8
0
  6
CONTINUOUS
 62
3
 10
0.000000000000000
 20
6.500000000000000
 11
-7.499999046325684
 21
6.500000000000000
  0
LINE
  8
0
  6
CONTINUOUS
 62
3
 10
-0.000000000000000
 20
-6.500000000000000
 11
-7.499998092651367
 21
-6.500000000000000
  0
LINE
  8
0
  6
CONTINUOUS
 62
3
 10
-7.499999203818277
 20
6.499999909101064
 11
-7.999999021366804
 21
5.633876130311293
  0
LINE
  8
0
  6
CONTINUOUS
 62
3
 10
-7.499997911632022
 20
-6.499999445138201
 11
-7.999998623386432
 21
-5.634070287011241
  0
LINE
  8
0
  6
CONTINUOUS
 62
3
 10
-7.499999046325684
 20
6.500000000000000
 11
-7.499999046325684
 21
-6.500000000000000
  0
ENDBLK
  8
0
  0
BLOCK
  8
0
  2
SYM15
 70
64
 10
0.000000000000000
 20
0.000000000000000
  0
POINT
  8
0
  6
CONTINUOUS
 62
3
 10
0.000000000000000
 20
0.000000000000000
  0
LINE
  8
0
  6
CONTINUOUS
 62
3
 10
0.010171198458579
 20
-5.767622839547471
 11
-4.979645433681753
 21
-2.874994469174567
  0
LINE
  8
0
  6
CONTINUOUS
 62
3
 10
-4.979648434603448
 20
-2.874994693650046
 11
-4.989821279270270
 21
2.892629961559101
  0
LINE
  8
0
  6
CONTINUOUS
 62
3
 10
-4.989816965891634
 20
2.892629271321994
 11
-0.010171343047148
 21
5.767622431692701
  0
LINE
  8
0
  6
CONTINUOUS
 62
3
 10
-0.010171198458579
 20
5.767622839547471
 11
4.979645433681753
 21
2.874994469174567
  0
LINE
  8
0
  6
CONTINUOUS
 62
3
 10
4.979648434603448
 20
2.874994693650046
 11
4.989821279270270
 21
-2.892629961559101
  0
LINE
  8
0
  6
CONTINUOUS
 62
3
 10
4.989816965891634
 20
-2.892629271321994
 11
0.010171343047148
 21
-5.767622431692701
  0
CIRCLE
  8
0
  6
CONTINUOUS
 62
3
 10
0.000000000000000
 20
0.000000000000000
 40
5.000000000000000
  0
ENDBLK
  8
0
  0
BLOCK
  8
0
  2
SYM16
 70
64
 10
0.000000000000000
 20
0.000000000000000
  0
POINT
  8
0
  6
CONTINUOUS
 62
3
 10
0.000000000000000
 20
0.000000000000000
  0
LINE
  8
0
  6
CONTINUOUS
 62
3
 10
0.010171198458579
 20
-5.767622839547471
 11
-4.979645433681753
 21
-2.874994469174567
  0
LINE
  8
0
  6
CONTINUOUS
 62
3
 10
-4.979648434603448
 20
-2.874994693650046
 11
-4.989821279270270
 21
2.892629961559101
  0
LINE
  8
0
  6
CONTINUOUS
 62
3
 10
-4.989816965891634
 20
2.892629271321994
 11
-0.010171343047148
 21
5.767622431692701
  0
LINE
  8
0
  6
CONTINUOUS
 62
3
 10
-0.010171198458579
 20
5.767622839547471
 11
4.979645433681753
 21
2.874994469174567
  0
LINE
  8
0
  6
CONTINUOUS
 62
3
 10
4.979648434603448
 20
2.874994693650046
 11
4.989821279270270
 21
-2.892629961559101
  0
LINE
  8
0
  6
CONTINUOUS
 62
3
 10
4.989816965891634
 20
-2.892629271321994
 11
0.010171343047148
 21
-5.767622431692701
  0
CIRCLE
  8
0
  6
CONTINUOUS
 62
3
 10
0.000000000000000
 20
0.000000000000000
 40
5.000000000000000
  0
ENDBLK
  8
0
  0
BLOCK
  8
0
  2
SYM17
 70
64
 10
0.000000000000000
 20
0.000000000000000
  0
CIRCLE
  8
0
  6
CONTINUOUS
 62
3
 10
0.000000000000000
 20
0.000000000000000
 40
5.633955001831055
  0
CIRCLE
  8
0
  6
CONTINUOUS
 62
3
 10
0.000000000000000
 20
0.000000000000000
 40
6.500000000000000
  0
POINT
  8
0
  6
CONTINUOUS
 62
3
 10
0.000000000000000
 20
0.000000000000000
  0
LINE
  8
0
  6
CONTINUOUS
 62
3
 10
-2.999996662140960
 20
-1.732045999551255
 11
-2.999997615815242
 21
1.732051977133316
  0
LINE
  8
0
  6
CONTINUOUS
 62
3
 10
2.999996662140697
 20
1.732046953225571
 11
2.999997615814979
 21
-1.732051023458999
  0
LINE
  8
0
  6
CONTINUOUS
 62
3
 10
0.000006701720849
 20
3.464096999935236
 11
-2.999997939551520
 21
1.732051821705568
  0
LINE
  8
0
  6
CONTINUOUS
 62
3
 10
2.999998112093635
 20
-1.732051392778772
 11
-0.000004464412200
 21
-3.464098365415111
  0
LINE
  8
0
  6
CONTINUOUS
 62
3
 10
0.000006618601731
 20
3.464096896385627
 11
2.999997425948948
 21
1.732046782136365
  0
LINE
  8
0
  6
CONTINUOUS
 62
3
 10
-0.000004704988612
 20
-3.464098175748802
 11
-2.999997577100373
 21
-1.732046218032735
  0
POINT
  8
0
  6
CONTINUOUS
 62
3
 10
0.500000119209290
 20
6.500000000000000
  0
POINT
  8
0
  6
CONTINUOUS
 62
3
 10
0.000000000000000
 20
5.633955001831055
  0
ENDBLK
  8
0
  0
BLOCK
  8
0
  2
SYM18
 70
64
 10
0.000000000000000
 20
0.000000000000000
  0
CIRCLE
  8
0
  6
CONTINUOUS
 62
3
 10
0.000000000000000
 20
0.000000000000000
 40
5.633955001831055
  0
CIRCLE
  8
0
  6
CONTINUOUS
 62
3
 10
0.000000000000000
 20
0.000000000000000
 40
6.500000000000000
  0
POINT
  8
0
  6
CONTINUOUS
 62
3
 10
0.000000000000000
 20
0.000000000000000
  0
LINE
  8
0
  6
CONTINUOUS
 62
3
 10
-2.999996662140960
 20
-1.732045999551255
 11
-2.999997615815242
 21
1.732051977133316
  0
LINE
  8
0
  6
CONTINUOUS
 62
3
 10
2.999996662140697
 20
1.732046953225571
 11
2.999997615814979
 21
-1.732051023458999
  0
LINE
  8
0
  6
CONTINUOUS
 62
3
 10
0.000006701720849
 20
3.464096999935236
 11
-2.999997939551520
 21
1.732051821705568
  0
LINE
  8
0
  6
CONTINUOUS
 62
3
 10
2.999998112093635
 20
-1.732051392778772
 11
-0.000004464412200
 21
-3.464098365415111
  0
LINE
  8
0
  6
CONTINUOUS
 62
3
 10
0.000006618601731
 20
3.464096896385627
 11
2.999997425948948
 21
1.732046782136365
  0
LINE
  8
0
  6
CONTINUOUS
 62
3
 10
-0.000004704988612
 20
-3.464098175748802
 11
-2.999997577100373
 21
-1.732046218032735
  0
POINT
  8
0
  6
CONTINUOUS
 62
3
 10
0.500000119209290
 20
6.500000000000000
  0
POINT
  8
0
  6
CONTINUOUS
 62
3
 10
0.000000000000000
 20
5.633955001831055
  0
ENDBLK
  8
0
  0
BLOCK
  8
0
  2
SYM19
 70
64
 10
0.000000000000000
 20
0.000000000000000
  0
CIRCLE
  8
0
  6
CONTINUOUS
 62
3
 10
0.000000000000000
 20
0.000000000000000
 40
5.633955001831055
  0
CIRCLE
  8
0
  6
CONTINUOUS
 62
3
 10
0.000000000000000
 20
0.000000000000000
 40
6.500000000000000
  0
POINT
  8
0
  6
CONTINUOUS
 62
3
 10
0.000000000000000
 20
0.000000000000000
  0
LINE
  8
0
  6
CONTINUOUS
 62
3
 10
-2.999996662140960
 20
-1.732045999551255
 11
-2.999997615815242
 21
1.732051977133316
  0
LINE
  8
0
  6
CONTINUOUS
 62
3
 10
2.999996662140697
 20
1.732046953225571
 11
2.999997615814979
 21
-1.732051023458999
  0
LINE
  8
0
  6
CONTINUOUS
 62
3
 10
0.000006701720849
 20
3.464096999935236
 11
-2.999997939551520
 21
1.732051821705568
  0
LINE
  8
0
  6
CONTINUOUS
 62
3
 10
2.999998112093635
 20
-1.732051392778772
 11
-0.000004464412200
 21
-3.464098365415111
  0
LINE
  8
0
  6
CONTINUOUS
 62
3
 10
0.000006618601731
 20
3.464096896385627
 11
2.999997425948948
 21
1.732046782136365
  0
LINE
  8
0
  6
CONTINUOUS
 62
3
 10
-0.000004704988612
 20
-3.464098175748802
 11
-2.999997577100373
 21
-1.732046218032735
  0
POINT
  8
0
  6
CONTINUOUS
 62
3
 10
0.500000119209290
 20
6.500000000000000
  0
POINT
  8
0
  6
CONTINUOUS
 62
3
 10
0.000000000000000
 20
5.633955001831055
  0
ENDBLK
  8
0
  0
BLOCK
  8
0
  2
SYM20
 70
64
 10
0.000000000000000
 20
0.000000000000000
  0
CIRCLE
  8
0
  6
CONTINUOUS
 62
3
 10
0.000000000000000
 20
0.000000000000000
 40
5.633955001831055
  0
CIRCLE
  8
0
  6
CONTINUOUS
 62
3
 10
0.000000000000000
 20
0.000000000000000
 40
6.500000000000000
  0
POINT
  8
0
  6
CONTINUOUS
 62
3
 10
0.000000000000000
 20
0.000000000000000
  0
LINE
  8
0
  6
CONTINUOUS
 62
3
 10
-2.999996662140960
 20
-1.732045999551255
 11
-2.999997615815242
 21
1.732051977133316
  0
LINE
  8
0
  6
CONTINUOUS
 62
3
 10
2.999996662140697
 20
1.732046953225571
 11
2.999997615814979
 21
-1.732051023458999
  0
LINE
  8
0
  6
CONTINUOUS
 62
3
 10
0.000006701720849
 20
3.464096999935236
 11
-2.999997939551520
 21
1.732051821705568
  0
LINE
  8
0
  6
CONTINUOUS
 62
3
 10
2.999998112093635
 20
-1.732051392778772
 11
-0.000004464412200
 21
-3.464098365415111
  0
LINE
  8
0
  6
CONTINUOUS
 62
3
 10
0.000006618601731
 20
3.464096896385627
 11
2.999997425948948
 21
1.732046782136365
  0
LINE
  8
0
  6
CONTINUOUS
 62
3
 10
-0.000004704988612
 20
-3.464098175748802
 11
-2.999997577100373
 21
-1.732046218032735
  0
POINT
  8
0
  6
CONTINUOUS
 62
3
 10
0.500000119209290
 20
6.500000000000000
  0
POINT
  8
0
  6
CONTINUOUS
 62
3
 10
0.000000000000000
 20
5.633955001831055
  0
ENDBLK
  8
0
  0
BLOCK
  8
0
  2
SYM21
 70
64
 10
0.000000000000000
 20
0.000000000000000
  0
CIRCLE
  8
0
  6
CONTINUOUS
 62
3
 10
0.000000000000000
 20
0.000000000000000
 40
5.633955001831055
  0
CIRCLE
  8
0
  6
CONTINUOUS
 62
3
 10
0.000000000000000
 20
0.000000000000000
 40
6.500000000000000
  0
POINT
  8
0
  6
CONTINUOUS
 62
3
 10
0.000000000000000
 20
0.000000000000000
  0
LINE
  8
0
  6
CONTINUOUS
 62
3
 10
-2.999996662140960
 20
-1.732045999551255
 11
-2.999997615815242
 21
1.732051977133316
  0
LINE
  8
0
  6
CONTINUOUS
 62
3
 10
2.999996662140697
 20
1.732046953225571
 11
2.999997615814979
 21
-1.732051023458999
  0
LINE
  8
0
  6
CONTINUOUS
 62
3
 10
0.000006701720849
 20
3.464096999935236
 11
-2.999997939551520
 21
1.732051821705568
  0
LINE
  8
0
  6
CONTINUOUS
 62
3
 10
2.999998112093635
 20
-1.732051392778772
 11
-0.000004464412200
 21
-3.464098365415111
  0
LINE
  8
0
  6
CONTINUOUS
 62
3
 10
0.000006618601731
 20
3.464096896385627
 11
2.999997425948948
 21
1.732046782136365
  0
LINE
  8
0
  6
CONTINUOUS
 62
3
 10
-0.000004704988612
 20
-3.464098175748802
 11
-2.999997577100373
 21
-1.732046218032735
  0
POINT
  8
0
  6
CONTINUOUS
 62
3
 10
0.500000119209290
 20
6.500000000000000
  0
POINT
  8
0
  6
CONTINUOUS
 62
3
 10
0.000000000000000
 20
5.633955001831055
  0
ENDBLK
  8
0
  0
BLOCK
  8
0
  2
SYM22
 70
64
 10
0.000000000000000
 20
0.000000000000000
  0
CIRCLE
  8
0
  6
CONTINUOUS
 62
3
 10
0.000000000000000
 20
0.000000000000000
 40
5.633955001831055
  0
CIRCLE
  8
0
  6
CONTINUOUS
 62
3
 10
0.000000000000000
 20
0.000000000000000
 40
6.500000000000000
  0
POINT
  8
0
  6
CONTINUOUS
 62
3
 10
0.000000000000000
 20
0.000000000000000
  0
LINE
  8
0
  6
CONTINUOUS
 62
3
 10
-2.999996662140960
 20
-1.732045999551255
 11
-2.999997615815242
 21
1.732051977133316
  0
LINE
  8
0
  6
CONTINUOUS
 62
3
 10
2.999996662140697
 20
1.732046953225571
 11
2.999997615814979
 21
-1.732051023458999
  0
LINE
  8
0
  6
CONTINUOUS
 62
3
 10
0.000006701720849
 20
3.464096999935236
 11
-2.999997939551520
 21
1.732051821705568
  0
LINE
  8
0
  6
CONTINUOUS
 62
3
 10
2.999998112093635
 20
-1.732051392778772
 11
-0.000004464412200
 21
-3.464098365415111
  0
LINE
  8
0
  6
CONTINUOUS
 62
3
 10
0.000006618601731
 20
3.464096896385627
 11
2.999997425948948
 21
1.732046782136365
  0
LINE
  8
0
  6
CONTINUOUS
 62
3
 10
-0.000004704988612
 20
-3.464098175748802
 11
-2.999997577100373
 21
-1.732046218032735
  0
POINT
  8
0
  6
CONTINUOUS
 62
3
 10
0.500000119209290
 20
6.500000000000000
  0
POINT
  8
0
  6
CONTINUOUS
 62
3
 10
0.000000000000000
 20
5.633955001831055
  0
ENDBLK
  8
0
  0
BLOCK
  8
0
  2
SYM23
 70
64
 10
0.000000000000000
 20
0.000000000000000
  0
CIRCLE
  8
0
  6
CONTINUOUS
 62
3
 10
0.000000000000000
 20
0.000000000000000
 40
5.633955001831055
  0
CIRCLE
  8
0
  6
CONTINUOUS
 62
3
 10
0.000000000000000
 20
0.000000000000000
 40
6.500000000000000
  0
POINT
  8
0
  6
CONTINUOUS
 62
3
 10
0.000000000000000
 20
0.000000000000000
  0
LINE
  8
0
  6
CONTINUOUS
 62
3
 10
-2.999996662140960
 20
-1.732045999551255
 11
-2.999997615815242
 21
1.732051977133316
  0
LINE
  8
0
  6
CONTINUOUS
 62
3
 10
2.999996662140697
 20
1.732046953225571
 11
2.999997615814979
 21
-1.732051023458999
  0
LINE
  8
0
  6
CONTINUOUS
 62
3
 10
0.000006701720849
 20
3.464096999935236
 11
-2.999997939551520
 21
1.732051821705568
  0
LINE
  8
0
  6
CONTINUOUS
 62
3
 10
2.999998112093635
 20
-1.732051392778772
 11
-0.000004464412200
 21
-3.464098365415111
  0
LINE
  8
0
  6
CONTINUOUS
 62
3
 10
0.000006618601731
 20
3.464096896385627
 11
2.999997425948948
 21
1.732046782136365
  0
LINE
  8
0
  6
CONTINUOUS
 62
3
 10
-0.000004704988612
 20
-3.464098175748802
 11
-2.999997577100373
 21
-1.732046218032735
  0
POINT
  8
0
  6
CONTINUOUS
 62
3
 10
0.500000119209290
 20
6.500000000000000
  0
POINT
  8
0
  6
CONTINUOUS
 62
3
 10
0.000000000000000
 20
5.633955001831055
  0
ENDBLK
  8
0
  0
BLOCK
  8
0
  2
SYM24
 70
64
 10
0.000000000000000
 20
0.000000000000000
  0
CIRCLE
  8
0
  6
CONTINUOUS
 62
3
 10
0.000000000000000
 20
0.000000000000000
 40
5.633955001831055
  0
CIRCLE
  8
0
  6
CONTINUOUS
 62
3
 10
0.000000000000000
 20
0.000000000000000
 40
6.500000000000000
  0
POINT
  8
0
  6
CONTINUOUS
 62
3
 10
0.000000000000000
 20
0.000000000000000
  0
LINE
  8
0
  6
CONTINUOUS
 62
3
 10
-2.999996662140960
 20
-1.732045999551255
 11
-2.999997615815242
 21
1.732051977133316
  0
LINE
  8
0
  6
CONTINUOUS
 62
3
 10
2.999996662140697
 20
1.732046953225571
 11
2.999997615814979
 21
-1.732051023458999
  0
LINE
  8
0
  6
CONTINUOUS
 62
3
 10
0.000006701720849
 20
3.464096999935236
 11
-2.999997939551520
 21
1.732051821705568
  0
LINE
  8
0
  6
CONTINUOUS
 62
3
 10
2.999998112093635
 20
-1.732051392778772
 11
-0.000004464412200
 21
-3.464098365415111
  0
LINE
  8
0
  6
CONTINUOUS
 62
3
 10
0.000006618601731
 20
3.464096896385627
 11
2.999997425948948
 21
1.732046782136365
  0
LINE
  8
0
  6
CONTINUOUS
 62
3
 10
-0.000004704988612
 20
-3.464098175748802
 11
-2.999997577100373
 21
-1.732046218032735
  0
POINT
  8
0
  6
CONTINUOUS
 62
3
 10
0.500000119209290
 20
6.500000000000000
  0
POINT
  8
0
  6
CONTINUOUS
 62
3
 10
0.000000000000000
 20
5.633955001831055
  0
ENDBLK
  8
0
  0
BLOCK
  8
0
  2
SYM25
 70
64
 10
0.000000000000000
 20
0.000000000000000
  0
CIRCLE
  8
0
  6
CONTINUOUS
 62
3
 10
0.000000000000000
 20
0.000000000000000
 40
5.633955001831055
  0
CIRCLE
  8
0
  6
CONTINUOUS
 62
3
 10
0.000000000000000
 20
0.000000000000000
 40
6.500000000000000
  0
POINT
  8
0
  6
CONTINUOUS
 62
3
 10
0.000000000000000
 20
0.000000000000000
  0
LINE
  8
0
  6
CONTINUOUS
 62
3
 10
-2.999996662140960
 20
-1.732045999551255
 11
-2.999997615815242
 21
1.732051977133316
  0
LINE
  8
0
  6
CONTINUOUS
 62
3
 10
2.999996662140697
 20
1.732046953225571
 11
2.999997615814979
 21
-1.732051023458999
  0
LINE
  8
0
  6
CONTINUOUS
 62
3
 10
0.000006701720849
 20
3.464096999935236
 11
-2.999997939551520
 21
1.732051821705568
  0
LINE
  8
0
  6
CONTINUOUS
 62
3
 10
2.999998112093635
 20
-1.732051392778772
 11
-0.000004464412200
 21
-3.464098365415111
  0
LINE
  8
0
  6
CONTINUOUS
 62
3
 10
0.000006618601731
 20
3.464096896385627
 11
2.999997425948948
 21
1.732046782136365
  0
LINE
  8
0
  6
CONTINUOUS
 62
3
 10
-0.000004704988612
 20
-3.464098175748802
 11
-2.999997577100373
 21
-1.732046218032735
  0
POINT
  8
0
  6
CONTINUOUS
 62
3
 10
0.500000119209290
 20
6.500000000000000
  0
POINT
  8
0
  6
CONTINUOUS
 62
3
 10
0.000000000000000
 20
5.633955001831055
  0
ENDBLK
  8
0
  0
BLOCK
  8
0
  2
SYM26
 70
64
 10
0.000000000000000
 20
0.000000000000000
  0
CIRCLE
  8
0
  6
CONTINUOUS
 62
3
 10
0.000000000000000
 20
0.000000000000000
 40
5.633955001831055
  0
CIRCLE
  8
0
  6
CONTINUOUS
 62
3
 10
0.000000000000000
 20
0.000000000000000
 40
6.500000000000000
  0
POINT
  8
0
  6
CONTINUOUS
 62
3
 10
0.000000000000000
 20
0.000000000000000
  0
LINE
  8
0
  6
CONTINUOUS
 62
3
 10
-2.999996662140960
 20
-1.732045999551255
 11
-2.999997615815242
 21
1.732051977133316
  0
LINE
  8
0
  6
CONTINUOUS
 62
3
 10
2.999996662140697
 20
1.732046953225571
 11
2.999997615814979
 21
-1.732051023458999
  0
LINE
  8
0
  6
CONTINUOUS
 62
3
 10
0.000006701720849
 20
3.464096999935236
 11
-2.999997939551520
 21
1.732051821705568
  0
LINE
  8
0
  6
CONTINUOUS
 62
3
 10
2.999998112093635
 20
-1.732051392778772
 11
-0.000004464412200
 21
-3.464098365415111
  0
LINE
  8
0
  6
CONTINUOUS
 62
3
 10
0.000006618601731
 20
3.464096896385627
 11
2.999997425948948
 21
1.732046782136365
  0
LINE
  8
0
  6
CONTINUOUS
 62
3
 10
-0.000004704988612
 20
-3.464098175748802
 11
-2.999997577100373
 21
-1.732046218032735
  0
POINT
  8
0
  6
CONTINUOUS
 62
3
 10
0.500000119209290
 20
6.500000000000000
  0
POINT
  8
0
  6
CONTINUOUS
 62
3
 10
0.000000000000000
 20
5.633955001831055
  0
ENDBLK
  8
0
  0
BLOCK
  8
0
  2
SYM27
 70
64
 10
0.000000000000000
 20
0.000000000000000
  0
ARC
  8
0
  6
CONTINUOUS
 62
3
 10
-0.979025304317474
 20
-2.200000762939453
 40
1.299999237060547
 50
196.601531107481040
 51
270.000000000000000
  0
ARC
  8
0
  6
CONTINUOUS
 62
3
 10
-0.979025304317474
 20
2.200000762939453
 40
1.299999237060547
 50
90.000000000000000
 51
163.398451589674950
  0
LINE
  8
0
  6
CONTINUOUS
 62
3
 10
-0.000000000000000
 20
-3.500000000000000
 11
-0.979025304317474
 21
-3.500000000000000
  0
LINE
  8
0
  6
CONTINUOUS
 62
3
 10
0.000000000000000
 20
3.500000000000000
 11
-0.979025304317474
 21
3.500000000000000
  0
LINE
  8
0
  6
CONTINUOUS
 62
3
 10
0.000000000000000
 20
-3.500000000000000
 11
-0.000000000000000
 21
3.500000000000000
  0
LINE
  8
0
  6
CONTINUOUS
 62
3
 10
0.000000000000000
 20
-3.500000000000000
 11
-0.000000000000000
 21
3.500000000000000
  0
POINT
  8
0
  6
CONTINUOUS
 62
3
 10
0.000000000000000
 20
0.000000000000000
  0
ARC
  8
0
  6
CONTINUOUS
 62
3
 10
6.399999618530273
 20
0.000000000000000
 40
9.000000000000000
 50
163.398451589674950
 51
196.601531107481040
  0
ENDBLK
  8
0
  0
ENDSEC
  0
SECTION
  2
ENTITIES
  0
LINE
  8
0
  6
CONTINUOUS
 62
3
 10
381.539905012897860
 20
-310.781981206140700
 11
367.984179361238150
 21
-310.781981206140700
  0
LINE
  8
0
  6
CONTINUOUS
 62
3
 10
501.984179361237860
 20
-310.781981206140700
 11
515.539905012897630
 21
-310.781981206140700
  0
LINE
  8
0
  6
CONTINUOUS
 62
3
 10
418.762042187067890
 20
-170.781981206140700
 11
426.762042187067890
 21
-170.781981206140700
  0
LINE
  8
0
  6
CONTINUOUS
 62
3
 10
418.762042187067890
 20
-158.781981206140700
 11
426.762042187067890
 21
-158.781981206140700
  0
ARC
  8
0
  6
CONTINUOUS
 62
3
 10
220.939042823745690
 20
-164.781981206140700
 40
6.000000000000000
 50
180.000000000000000
 51
270.000000000000000
  0
LINE
  8
0
  6
CONTINUOUS
 62
3
 10
220.939042823745690
 20
-170.781981206140700
 11
269.939042823745690
 21
-170.781981206140700
  0
ARC
  8
0
  6
CONTINUOUS
 62
3
 10
220.939042823745690
 20
-164.781981206140700
 40
6.000000000000000
 50
90.000000000000000
 51
180.000000000000000
  0
LINE
  8
0
  6
CONTINUOUS
 62
3
 10
214.939042823745690
 20
-164.781994870727890
 11
214.939042823745690
 21
-164.781981206140700
  0
LINE
  8
0
  6
CONTINUOUS
 62
3
 10
220.939042823745690
 20
-158.781981206140700
 11
269.939042823745690
 21
-158.781981206140700
  0
ARC
  8
0
  6
CONTINUOUS
 62
3
 10
-488.342190189940250
 20
-217.112551268237330
 40
6.099999427795398
 50
174.601910595264880
 51
275.398072101891500
  0
POINT
  8
0
  6
CONTINUOUS
 62
3
 10
-490.604931754867270
 20
-219.375292833164370
  0
LINE
  8
0
  6
CONTINUOUS
 62
3
 10
-493.928333491574110
 20
-216.051891096457500
 11
-487.281530018160420
 21
-222.698694569871240
  0
LINE
  8
0
  6
CONTINUOUS
 62
3
 10
-494.241472100542920
 20
-216.304438047307880
 11
-487.564372798070000
 21
-222.981537349780810
  0
LINE
  8
0
  6
CONTINUOUS
 62
3
 10
-487.281530018160420
 20
-222.698694569871240
 11
-487.768333409866050
 21
-223.185497961576830
  0
LINE
  8
0
  6
CONTINUOUS
 62
3
 10
-493.928333491574110
 20
-216.051891096457500
 11
-494.415136883279730
 21
-216.538694488163120
  0
ARC
  8
0
  6
CONTINUOUS
 62
3
 10
-398.681050065746430
 20
-217.112551268237330
 40
6.099999427795406
 50
264.601927898108500
 51
5.398089404735109
  0
POINT
  8
0
  6
CONTINUOUS
 62
3
 10
-396.418308500819420
 20
-219.375292833164370
  0
LINE
  8
0
  6
CONTINUOUS
 62
3
 10
-393.094906764112580
 20
-216.051891096457500
 11
-399.741710237526260
 21
-222.698694569871240
  0
LINE
  8
0
  6
CONTINUOUS
 62
3
 10
-392.781768155143770
 20
-216.304438047307880
 11
-399.458867457616690
 21
-222.981537349780810
  0
LINE
  8
0
  6
CONTINUOUS
 62
3
 10
-399.741710237526260
 20
-222.698694569871240
 11
-399.254906845820640
 21
-223.185497961576830
  0
LINE
  8
0
  6
CONTINUOUS
 62
3
 10
-393.094906764112580
 20
-216.051891096457500
 11
-392.608103372406960
 21
-216.538694488163120
  0
ARC
  8
0
  6
CONTINUOUS
 62
3
 10
-398.681050065746430
 20
-127.451411144043330
 40
6.099999427795398
 50
354.601910595264880
 51
95.398072101891515
  0
POINT
  8
0
  6
CONTINUOUS
 62
3
 10
-396.418308500819420
 20
-125.188669579116290
  0
LINE
  8
0
  6
CONTINUOUS
 62
3
 10
-393.094906764112580
 20
-128.512071315823160
 11
-399.741710237526260
 21
-121.865267842409430
  0
LINE
  8
0
  6
CONTINUOUS
 62
3
 10
-392.781768155143770
 20
-128.259524364972780
 11
-399.458867457616690
 21
-121.582425062499860
  0
LINE
  8
0
  6
CONTINUOUS
 62
3
 10
-399.741710237526260
 20
-121.865267842409430
 11
-399.254906845820640
 21
-121.378464450703810
  0
LINE
  8
0
  6
CONTINUOUS
 62
3
 10
-393.094906764112580
 20
-128.512071315823160
 11
-392.608103372406960
 21
-128.025267924117540
  0
INSERT
  8
0
  2
SYM1
 10
523.206864393411250
 20
-213.200937817401380
 41
-1.000000000000000
 42
1.000000000000000
 43
1.000000000000000
 50
2.862405226113666
  0
INSERT
  8
0
  2
SYM2
 10
49.939036772537293
 20
-92.781969196250429
  0
INSERT
  8
0
  2
SYM3
 10
66.439036772540021
 20
-100.274528704911970
  0
INSERT
  8
0
  2
SYM4
 10
30.939036772539112
 20
-141.981205664183340
  0
INSERT
  8
0
  2
SYM5
 10
30.939036772539112
 20
-251.582756748098060
  0
INSERT
  8
0
  2
SYM6
 10
66.439036772540476
 20
-299.781969196249070
  0
INSERT
  8
0
  2
SYM7
 10
66.439036772540021
 20
-241.781969196249520
  0
INSERT
  8
0
  2
SYM8
 10
66.439036772540021
 20
-175.781969196249520
  0
INSERT
  8
0
  2
SYM9
 10
30.939036772539566
 20
119.785004072706130
  0
INSERT
  8
0
  2
SYM10
 10
30.939036772539566
 20
229.386555156620940
 41
-1.000000000000000
 50
180.000000000000000
  0
INSERT
  8
0
  2
SYM11
 10
49.939036772530471
 20
164.085779614663150
 50
0.000000000000014
  0
INSERT
  8
0
  2
SYM12
 10
66.439036772540931
 20
107.585779614663150
 50
0.000000000000014
  0
INSERT
  8
0
  2
SYM13
 10
49.939036772530471
 20
185.085779614663150
 41
-1.000000000000000
 50
180.000000000000000
  0
INSERT
  8
0
  2
SYM14
 10
66.439036772540931
 20
241.585779614663120
 41
-1.000000000000000
 50
180.000000000000000
  0
INSERT
  8
0
  2
SYM15
 10
-498.312395669800940
 20
-251.582756748100000
  0
INSERT
  8
0
  2
SYM16
 10
-388.710844585885520
 20
-251.582756748100000
  0
INSERT
  8
0
  2
SYM17
 10
-433.011620127843340
 20
-92.781981206141921
  0
INSERT
  8
0
  2
SYM18
 10
-376.511620127843340
 20
-99.781981206141694
  0
INSERT
  8
0
  2
SYM19
 10
-337.511620127843340
 20
-175.781981206141690
  0
INSERT
  8
0
  2
SYM20
 10
-336.511620127843340
 20
-241.781981206141950
  0
INSERT
  8
0
  2
SYM21
 10
-376.511620127843340
 20
-299.781981206141950
  0
INSERT
  8
0
  2
SYM22
 10
-510.511620127843340
 20
-299.781981206141950
 41
-1.000000000000000
  0
INSERT
  8
0
  2
SYM23
 10
-550.511620127843340
 20
-241.781981206141950
 41
-1.000000000000000
  0
INSERT
  8
0
  2
SYM24
 10
-549.511620127843340
 20
-175.781981206141690
 41
-1.000000000000000
  0
INSERT
  8
0
  2
SYM25
 10
-510.511620127843340
 20
-99.781981206141694
 41
-1.000000000000000
  0
INSERT
  8
0
  2
SYM26
 10
-454.011620127843340
 20
-92.781981206141921
 41
-1.000000000000000
  0
INSERT
  8
0
  2
SYM27
 10
-524.956442334186700
 20
-213.200937817400900
 41
1.000000000000000
 42
1.000000000000000
 43
1.000000000000000
 50
357.137594773886350
  0
TEXT
  8
0
  6
CONTINUOUS
 62
3
 10
-514.292968750000000
 20
191.528213500976560
 40
12.458159446716309
  1
Ｓ２００
 50
0.000002504478167
 41
0.984848589235091
  7
STANDARD1
  0
TEXT
  8
0
  6
CONTINUOUS
 62
3
 10
-514.292968750000000
 20
171.519653320312500
 40
12.458159446716309
  1
三菱ギヤードモートル
 50
0.000002504478167
 41
0.984848589235090
  7
STANDARD1
  0
TEXT
  8
0
  6
CONTINUOUS
 62
3
 10
-514.292968750000000
 20
151.511093139648440
 40
12.458159446716309
  1
ＧＭ－ＳＦＳＢ
 50
0.000002504478167
 41
0.984848589235090
  7
STANDARD1
  0
TEXT
  8
0
  6
CONTINUOUS
 62
3
 10
-514.292968750000000
 20
131.502532958984380
 40
12.458159446716309
  1
０．２ｋＷ
 50
0.000002504478167
 41
0.984848589235090
  7
STANDARD1
  0
TEXT
  8
0
  6
CONTINUOUS
 62
3
 10
-514.292968750000000
 20
111.493965148925780
 40
12.458159446716309
  1
１／５４０～１／９００
 50
0.000002504478167
 41
0.984848589235091
  7
STANDARD1
  0
TEXT
  8
0
  6
CONTINUOUS
 62
3
 10
-514.292968750000000
 20
91.485404968261719
 40
12.458159446716309
  1
ＳＣＡＬＥ１／１
 50
0.000002504478167
 41
0.984848589235091
  7
STANDARD1
  0
LINE
  8
0
  6
DASHDOT
 62
4
 10
333.252493489907470
 20
-56.272432508996985
 11
307.725346026040820
 21
-30.745285045134324
  0
LINE
  8
0
  6
DASHDOT
 62
4
 10
550.271590884228320
 20
-56.272432508996985
 11
575.798738348094960
 21
-30.745285045134324
  0
LINE
  8
0
  6
DASHDOT
 62
4
 10
334.120770797279870
 20
-272.423252595945660
 11
307.842824878625380
 21
-298.701198514604470
  0
LINE
  8
0
  6
CONTINUOUS
 62
3
 10
579.762042187067890
 20
-159.781981206140700
 11
579.529962981423750
 21
-159.781981206140700
  0
LINE
  8
0
  6
CONTINUOUS
 62
3
 10
579.762042187067890
 20
-169.781981206140930
 11
579.529962981423750
 21
-169.781981206140930
  0
LINE
  8
0
  6
CONTINUOUS
 62
3
 10
303.762042187067890
 20
-169.781981206140700
 11
303.994121392711800
 21
-169.781981206140700
  0
LINE
  8
0
  6
CONTINUOUS
 62
3
 10
441.762042187067890
 20
-309.869789566322200
 11
382.835179555775310
 21
-309.869789566322200
  0
LINE
  8
0
  6
CONTINUOUS
 62
3
 10
303.762042187067890
 20
-159.781981206140700
 11
303.994121392711800
 21
-159.781981206140700
  0
LINE
  8
0
  6
CONTINUOUS
 62
3
 10
556.216191049486500
 20
-78.612103591168307
 11
580.297576093000770
 21
-54.530718547650395
  0
LINE
  8
0
  6
CONTINUOUS
 62
3
 10
527.931919802022550
 20
-50.327832343708906
 11
552.013304845519090
 21
-26.246447300208274
  0
LINE
  8
0
  6
CONTINUOUS
 62
3
 10
311.762042187067890
 20
-24.781981206140699
 11
571.762042187067890
 21
-24.781981206140699
  0
LINE
  8
0
  6
CONTINUOUS
 62
3
 10
327.307893324635640
 20
-78.612103591186496
 11
303.226508281135240
 21
-54.530718547689503
  0
LINE
  8
0
  6
CONTINUOUS
 62
3
 10
355.592164572095040
 20
-50.327832343722093
 11
331.510779528577360
 21
-26.246447300207819
  0
LINE
  8
0
  6
CONTINUOUS
 62
3
 10
556.216191049500140
 20
-250.951858821095360
 11
580.297576093000090
 21
-275.033243864592120
  0
LINE
  8
0
  6
CONTINUOUS
 62
3
 10
581.762042187067890
 20
-294.781981206140700
 11
581.762042187067890
 21
-34.781981206140699
  0
LINE
  8
0
  6
CONTINUOUS
 62
3
 10
441.762042187067890
 20
-304.781981206140700
 11
571.762042187067890
 21
-304.781981206140700
  0
LINE
  8
0
  6
CONTINUOUS
 62
3
 10
527.931919802040280
 20
-279.236130068559760
 11
552.013304845558200
 21
-303.317515112074030
  0
LINE
  8
0
  6
CONTINUOUS
 62
3
 10
441.762042187067660
 20
-309.869789566322200
 11
500.688904818360240
 21
-309.869789566322200
  0
LINE
  8
0
  6
CONTINUOUS
 62
3
 10
301.762042187067890
 20
-294.781981206140700
 11
301.762042187067890
 21
-34.781981206140699
  0
LINE
  8
0
  6
CONTINUOUS
 62
3
 10
311.762042187067890
 20
-304.781981206140700
 11
441.762042187067890
 21
-304.781981206140700
  0
LINE
  8
0
  6
CONTINUOUS
 62
3
 10
355.592164572113230
 20
-279.236130068572950
 11
331.510779528616690
 21
-303.317515112073350
  0
LINE
  8
0
  6
CONTINUOUS
 62
3
 10
327.307893324648830
 20
-250.951858821113550
 11
303.226508281134560
 21
-275.033243864631230
  0
LINE
  8
0
  6
CONTINUOUS
 62
3
 10
555.950360402769550
 20
-173.031981206140930
 11
555.950360402769550
 21
-210.827189048288570
  0
LINE
  8
0
  6
CONTINUOUS
 62
3
 10
562.099847967296000
 20
-161.531981206140700
 11
497.412190708288790
 21
-161.531981206140700
  0
LINE
  8
0
  6
CONTINUOUS
 62
3
 10
562.099847967296000
 20
-168.031981206140700
 11
497.412190708288790
 21
-168.031981206140700
  0
LINE
  8
0
  6
CONTINUOUS
 62
3
 10
438.512042187067890
 20
-44.444175425912363
 11
438.512042187067890
 21
-109.131832684919800
  0
LINE
  8
0
  6
CONTINUOUS
 62
3
 10
445.012042187067890
 20
-44.444175425912363
 11
445.012042187067890
 21
-109.131832684919800
  0
LINE
  8
0
  6
CONTINUOUS
 62
3
 10
426.762042187067890
 20
-158.781981206140700
 11
426.762042187067890
 21
-170.781981206140700
  0
LINE
  8
0
  6
CONTINUOUS
 62
3
 10
418.762042187067890
 20
-158.781981206140700
 11
418.762042187067890
 21
-170.781981206140700
  0
LINE
  8
0
  6
DASHDOT
 62
4
 10
289.493943556315120
 20
-164.781981206140700
 11
599.244228508073770
 21
-164.781981206140700
  0
LINE
  8
0
  6
CONTINUOUS
 62
3
 10
321.424236406839550
 20
-168.031981206140700
 11
386.111893665846760
 21
-168.031981206140700
  0
LINE
  8
0
  6
CONTINUOUS
 62
3
 10
321.424236406839550
 20
-161.531981206140700
 11
386.111893665846760
 21
-161.531981206140700
  0
LINE
  8
0
  6
CONTINUOUS
 62
3
 10
327.573723971365780
 20
-173.031981206140700
 11
327.573723971365780
 21
-210.827189048288570
  0
LINE
  8
0
  6
DASHED
 62
3
 10
365.598666523310380
 20
-174.887677884302550
 11
365.598289821955400
 21
-174.887677884302550
  0
ARC
  8
0
  6
CONTINUOUS
 62
3
 10
441.762042187067890
 20
-164.781981206140700
 40
41.000000000000000
 50
0.000000000000000
 51
180.000000000000000
  0
ARC
  8
0
  6
CONTINUOUS
 62
3
 10
441.762042187067890
 20
-164.781981206140700
 40
134.999999999999830
 50
183.323357673986610
 51
213.059456039395680
  0
ARC
  8
0
  6
CONTINUOUS
 62
3
 10
441.762042187067890
 20
-164.781981206140700
 40
135.000000000000030
 50
3.323357673986484
 51
33.059456039395677
  0
ARC
  8
0
  6
CONTINUOUS
 62
3
 10
579.762042187067890
 20
-161.781981206140700
 40
2.000000000000000
 50
0.000000000000000
 51
90.000000000000000
  0
ARC
  8
0
  6
CONTINUOUS
 62
3
 10
579.529962981423750
 20
-156.781981206140700
 40
3.000000000000096
 50
183.323357673986180
 51
270.000000000000000
  0
ARC
  8
0
  6
CONTINUOUS
 62
3
 10
579.762042187067890
 20
-167.781981206140930
 40
2.000000000000000
 50
270.000000000000000
 51
0.000000000000000
  0
ARC
  8
0
  6
CONTINUOUS
 62
3
 10
555.548838751451970
 20
-29.781981206140699
 40
5.000000000000000
 50
90.000000000000000
 51
135.000000000003670
  0
ARC
  8
0
  6
CONTINUOUS
 62
3
 10
576.762042187067890
 20
-50.995184641717969
 40
4.999999999999879
 50
315.000000000003640
 51
0.000000000000000
  0
ARC
  8
0
  6
CONTINUOUS
 62
3
 10
576.762042187067890
 20
-278.568777770525000
 40
5.000000000000000
 50
0.000000000000000
 51
45.000000000003688
  0
ARC
  8
0
  6
CONTINUOUS
 62
3
 10
555.548838751490620
 20
-299.781981206140700
 40
5.000000000000041
 50
225.000000000005540
 51
270.000000000000000
  0
ARC
  8
0
  6
CONTINUOUS
 62
3
 10
327.975245622683590
 20
-299.781981206140700
 40
5.000000000000000
 50
270.000000000000000
 51
315.000000000003640
  0
ARC
  8
0
  6
CONTINUOUS
 62
3
 10
306.762042187067890
 20
-278.568777770563880
 40
5.000000000000041
 50
135.000000000005510
 51
180.000000000000000
  0
ARC
  8
0
  6
CONTINUOUS
 62
3
 10
579.529962981423750
 20
-172.781981206140930
 40
3.000000000000000
 50
90.000000000000000
 51
176.676642326013820
  0
ARC
  8
0
  6
CONTINUOUS
 62
3
 10
303.762042187067890
 20
-167.781981206140700
 40
2.000000000000000
 50
180.000000000000000
 51
270.000000000000000
  0
ARC
  8
0
  6
CONTINUOUS
 62
3
 10
303.994121392711800
 20
-172.781981206140930
 40
3.000000000000096
 50
3.323357673986185
 51
90.000000000000000
  0
ARC
  8
0
  6
CONTINUOUS
 62
3
 10
306.762042187067890
 20
-50.995184641756623
 40
5.000000000000000
 50
180.000000000000000
 51
225.000000000003690
  0
ARC
  8
0
  6
CONTINUOUS
 62
3
 10
303.762042187067890
 20
-161.781981206140700
 40
2.000000000000000
 50
90.000000000000000
 51
180.000000000000000
  0
ARC
  8
0
  6
CONTINUOUS
 62
3
 10
374.762042187067660
 20
-299.781981206140700
 40
12.920504033734950
 50
202.766828500557860
 51
238.359897358094540
  0
ARC
  8
0
  6
CONTINUOUS
 62
3
 10
374.762042187067660
 20
-299.781981206140700
 40
12.920504033735121
 50
301.640102641905460
 51
308.669817960896750
  0
ARC
  8
0
  6
CONTINUOUS
 62
3
 10
441.762042187067890
 20
-164.781981206140700
 40
41.000000000000000
 50
180.000000000000000
 51
0.000000000000000
  0
ARC
  8
0
  6
CONTINUOUS
 62
3
 10
327.975245622644710
 20
-29.781981206140699
 40
4.999999999999879
 50
45.000000000003688
 51
90.000000000000000
  0
ARC
  8
0
  6
CONTINUOUS
 62
3
 10
576.762042187067890
 20
-50.995184641717969
 40
4.999999999999879
 50
315.000000000003640
 51
0.000000000000000
  0
ARC
  8
0
  6
CONTINUOUS
 62
3
 10
555.548838751451970
 20
-29.781981206140699
 40
5.000000000000000
 50
90.000000000000000
 51
135.000000000003670
  0
ARC
  8
0
  6
CONTINUOUS
 62
3
 10
441.762042187067890
 20
-579.781981206140700
 40
497.197605165242980
 50
90.960411656887317
 51
94.422377585978097
  0
ARC
  8
0
  6
CONTINUOUS
 62
3
 10
441.762042187067890
 20
-164.781981206140700
 40
31.000000000000000
 50
0.000000000000000
 51
180.000000000000000
  0
ARC
  8
0
  6
CONTINUOUS
 62
3
 10
441.762042187067890
 20
-164.781981206140700
 40
31.000000000000000
 50
180.000000000000000
 51
0.000000000000000
  0
ARC
  8
0
  6
CONTINUOUS
 62
3
 10
441.762042187067890
 20
-164.781981206140700
 40
135.000000000000260
 50
326.940543960613130
 51
356.676642326013450
  0
ARC
  8
0
  6
CONTINUOUS
 62
3
 10
563.287258861352710
 20
-85.683171403033157
 40
10.000000000000082
 50
135.000000000005510
 51
213.059456039395710
  0
ARC
  8
0
  6
CONTINUOUS
 62
3
 10
520.860851990156330
 20
-43.256764531843601
 40
10.000000000000053
 50
236.940543960613670
 51
315.000000000003640
  0
CIRCLE
  8
0
  6
CONTINUOUS
 62
3
 10
561.970194988771710
 20
-44.573828404418236
 40
9.500000000000000
  0
ARC
  8
0
  6
CONTINUOUS
 62
3
 10
571.762042187067890
 20
-34.781981206140699
 40
10.000000000000000
 50
0.000000000000000
 51
90.000000000000000
  0
ARC
  8
0
  6
CONTINUOUS
 62
3
 10
441.762042187067660
 20
-579.781981206140700
 40
497.197605165242980
 50
85.577622414021931
 51
89.039588343112683
  0
ARC
  8
0
  6
CONTINUOUS
 62
3
 10
450.012042187067890
 20
-87.653522335491289
 40
4.999999999999934
 50
89.039588343113039
 51
180.000000000000000
  0
ARC
  8
0
  6
CONTINUOUS
 62
3
 10
441.762042187067890
 20
-164.781981206140700
 40
135.000000000000000
 50
56.940543960613276
 51
123.059456039395760
  0
ARC
  8
0
  6
CONTINUOUS
 62
3
 10
320.236825512770340
 20
-85.683171403052256
 40
10.000000000000053
 50
326.940543960613700
 51
45.000000000001855
  0
ARC
  8
0
  6
CONTINUOUS
 62
3
 10
350.064831068323200
 20
-231.668986469079070
 40
10.000000000000107
 50
216.108259096316600
 51
351.603097720444510
  0
ARC
  8
0
  6
CONTINUOUS
 62
3
 10
362.663232383960350
 20
-43.256764531855879
 40
10.000000000000401
 50
225.000000000003690
 51
303.059456039395680
  0
CIRCLE
  8
0
  6
CONTINUOUS
 62
3
 10
321.553889385345430
 20
-44.573828404437336
 40
9.500000000000000
  0
ARC
  8
0
  6
CONTINUOUS
 62
3
 10
311.762042187067890
 20
-34.781981206140699
 40
10.000000000000000
 50
90.000000000000000
 51
180.000000000000000
  0
ARC
  8
0
  6
CONTINUOUS
 62
3
 10
550.374665977305540
 20
-156.531981206140930
 40
5.000000000000000
 50
270.000000000000000
 51
7.057995290449153
  0
ARC
  8
0
  6
CONTINUOUS
 62
3
 10
441.762042187067890
 20
-164.781981206140700
 40
134.999999999999740
 50
146.940543960613410
 51
176.676642326013510
  0
ARC
  8
0
  6
CONTINUOUS
 62
3
 10
550.950360402769550
 20
-210.827189048288570
 40
5.000000000000118
 50
337.134627072876410
 51
0.000000000000000
  0
ARC
  8
0
  6
CONTINUOUS
 62
3
 10
563.287258861364990
 20
-243.880791009229600
 40
10.000000000000053
 50
146.940543960613670
 51
225.000000000003690
  0
ARC
  8
0
  6
CONTINUOUS
 62
3
 10
494.418751993344590
 20
-199.369155622616740
 40
9.999999999999941
 50
146.701382572444940
 51
241.540294027493160
  0
CIRCLE
  8
0
  6
CONTINUOUS
 62
3
 10
561.970194988790810
 20
-284.990134007844520
 40
9.500000000000000
  0
ARC
  8
0
  6
CONTINUOUS
 62
3
 10
571.762042187067890
 20
-294.781981206140700
 40
10.000000000000000
 50
270.000000000000000
 51
0.000000000000000
  0
ARC
  8
0
  6
CONTINUOUS
 62
3
 10
520.860851990174980
 20
-286.307197880425970
 40
10.000000000000401
 50
45.000000000003688
 51
123.059456039393490
  0
ARC
  8
0
  6
CONTINUOUS
 62
3
 10
441.762042187067890
 20
-164.781981206140700
 40
135.000000000000000
 50
236.940543960613270
 51
303.059456039395570
  0
ARC
  8
0
  6
CONTINUOUS
 62
3
 10
508.762042187067890
 20
-299.781981206140700
 40
12.920504033735355
 50
231.330182039103220
 51
238.359897358093660
  0
ARC
  8
0
  6
CONTINUOUS
 62
3
 10
508.762042187067890
 20
-299.781981206140700
 40
12.920504033735210
 50
301.640102641906080
 51
337.233171499442110
  0
ARC
  8
0
  6
CONTINUOUS
 62
3
 10
362.663232383978990
 20
-286.307197880438250
 40
10.000000000000053
 50
56.940543960613702
 51
135.000000000001820
  0
ARC
  8
0
  6
CONTINUOUS
 62
3
 10
470.353451574128940
 20
-243.766355035787910
 40
34.000000000000107
 50
348.145311946518920
 51
62.705659254348859
  0
ARC
  8
0
  6
CONTINUOUS
 62
3
 10
320.236825512782620
 20
-243.880791009248240
 40
10.000000000000401
 50
315.000000000003640
 51
33.059456039395712
  0
CIRCLE
  8
0
  6
CONTINUOUS
 62
3
 10
321.553889385364530
 20
-284.990134007863620
 40
9.500000000000000
  0
ARC
  8
0
  6
CONTINUOUS
 62
3
 10
311.762042187067890
 20
-294.781981206140700
 40
10.000000000000000
 50
180.000000000000000
 51
270.000000000000000
  0
ARC
  8
0
  6
CONTINUOUS
 62
3
 10
520.792523121122490
 20
-246.246286784302360
 40
10.000000000000245
 50
177.185211996777720
 51
314.131204225173580
  0
ARC
  8
0
  6
CONTINUOUS
 62
3
 10
513.415008756959650
 20
-252.805287107100870
 40
10.000000000000044
 50
168.145311946518550
 51
309.146370585137730
  0
ARC
  8
0
  6
CONTINUOUS
 62
3
 10
470.353451574128940
 20
-243.766355035787910
 40
40.499999999999986
 50
357.185211996778430
 51
61.540294027493751
  0
ARC
  8
0
  6
CONTINUOUS
 62
3
 10
490.530169946642670
 20
-204.665203700868460
 40
10.000000000000023
 50
140.723243944674460
 51
242.705659254349090
  0
ARC
  8
0
  6
CONTINUOUS
 62
3
 10
550.950360402769550
 20
-173.031981206140930
 40
5.000000000000000
 50
0.000000000000000
 51
90.000000000000000
  0
ARC
  8
0
  6
CONTINUOUS
 62
3
 10
433.512042187067890
 20
-87.653522335491289
 40
5.000000000000000
 50
0.000000000000000
 51
90.960411656889562
  0
ARC
  8
0
  6
CONTINUOUS
 62
3
 10
562.099847967296000
 20
-158.531981206140700
 40
3.000000000000000
 50
270.000000000000000
 51
2.973106860036494
  0
ARC
  8
0
  6
CONTINUOUS
 62
3
 10
562.099847967296000
 20
-171.031981206140700
 40
2.999999999999917
 50
357.026893139963530
 51
90.000000000000000
  0
ARC
  8
0
  6
CONTINUOUS
 62
3
 10
497.412190708288790
 20
-171.031981206140930
 40
3.000000000000227
 50
90.000000000000000
 51
173.592032960374920
  0
ARC
  8
0
  6
CONTINUOUS
 62
3
 10
497.412190708288790
 20
-158.531981206140700
 40
2.999999999999978
 50
186.407967039629400
 51
270.000000000000000
  0
ARC
  8
0
  6
CONTINUOUS
 62
3
 10
435.512042187067890
 20
-44.444175425912363
 40
3.000000000000000
 50
0.000000000000000
 51
92.973106860036722
  0
ARC
  8
0
  6
CONTINUOUS
 62
3
 10
448.012042187067890
 20
-44.444175425912363
 40
2.999999999999690
 50
87.026893139963278
 51
180.000000000000000
  0
ARC
  8
0
  6
CONTINUOUS
 62
3
 10
448.012042187067890
 20
-109.131832684919800
 40
3.000000000000000
 50
180.000000000000000
 51
263.592032960370600
  0
ARC
  8
0
  6
CONTINUOUS
 62
3
 10
321.424236406839550
 20
-171.031981206140700
 40
3.000000000000000
 50
90.000000000000000
 51
182.973106860036270
  0
ARC
  8
0
  6
CONTINUOUS
 62
3
 10
435.512042187067890
 20
-109.131832684919800
 40
2.999999999999952
 50
276.407967039625080
 51
0.000000000000000
  0
ARC
  8
0
  6
CONTINUOUS
 62
3
 10
321.424236406839550
 20
-158.531981206140700
 40
3.000000000000144
 50
177.026893139963730
 51
270.000000000000000
  0
ARC
  8
0
  6
CONTINUOUS
 62
3
 10
441.762042187067890
 20
-164.781981206140700
 40
20.000000000000014
 50
197.457603123722070
 51
162.542396876277930
  0
CIRCLE
  8
0
  6
CONTINUOUS
 62
3
 10
441.762042187067890
 20
-164.781981206140700
 40
31.000000000000057
  0
ARC
  8
0
  6
CONTINUOUS
 62
3
 10
441.762042187067890
 20
-164.781981206140700
 40
31.000000000000256
 50
70.008590721901967
 51
180.000000000000000
  0
CIRCLE
  8
0
  6
CONTINUOUS
 62
4
 10
441.762042187067890
 20
-164.781981206140700
 40
4.000000000000000
  0
CIRCLE
  8
0
  6
CONTINUOUS
 62
3
 10
441.762042187067890
 20
-164.781981206140700
 40
3.324999999999989
  0
ARC
  8
0
  6
CONTINUOUS
 62
3
 10
303.994121392711800
 20
-156.781981206140700
 40
3.000000000000000
 50
270.000000000000000
 51
356.676642326013850
  0
CIRCLE
  8
0
  6
CONTINUOUS
 62
3
 10
441.762042187067890
 20
-164.781981206140700
 40
123.500000000000000
  0
ARC
  8
0
  6
CONTINUOUS
 62
3
 10
403.485963464432190
 20
-239.554581786959260
 40
44.000000000000121
 50
111.461978362654540
 51
171.603097720444280
  0
ARC
  8
0
  6
CONTINUOUS
 62
3
 10
409.762042187067890
 20
-166.017555475750210
 40
82.197605165243203
 50
94.422377585978424
 51
172.942004709553000
  0
ARC
  8
0
  6
CONTINUOUS
 62
3
 10
403.485963464432190
 20
-239.554581786959260
 40
50.500000000000078
 50
111.298869871463080
 51
165.196482760921950
  0
ARC
  8
0
  6
DASHED
 62
3
 10
387.962042187067710
 20
-192.581981206140880
 40
0.199999999999818
 50
180.000000000000000
 51
270.000000000000000
  0
ARC
  8
0
  6
CONTINUOUS
 62
3
 10
381.510375840248120
 20
-183.186829050382810
 40
10.000000000000039
 50
291.298869871463920
 51
16.986140903216128
  0
ARC
  8
0
  6
CONTINUOUS
 62
3
 10
383.728242670456210
 20
-189.298910773358330
 40
9.999999999999874
 50
291.461978362654920
 51
22.902088473504499
  0
ARC
  8
0
  6
CONTINUOUS
 62
3
 10
386.111893665846760
 20
-158.531981206140700
 40
3.000000000000000
 50
270.000000000000000
 51
353.592032960371110
  0
ARC
  8
0
  6
CONTINUOUS
 62
3
 10
386.111893665846760
 20
-171.031981206140700
 40
3.000000000000179
 50
6.407967039624588
 51
90.000000000000000
  0
ARC
  8
0
  6
CONTINUOUS
 62
3
 10
344.994097273743590
 20
-224.096522738987690
 40
10.000000000000037
 50
211.506485838553940
 51
345.196482760921980
  0
ARC
  8
0
  6
CONTINUOUS
 62
3
 10
332.573723971366010
 20
-210.827189048288570
 40
5.000000000000227
 50
180.000000000000000
 51
202.865372927123560
  0
ARC
  8
0
  6
CONTINUOUS
 62
3
 10
332.573723971365780
 20
-173.031981206140700
 40
5.000000000000000
 50
90.000000000000000
 51
180.000000000000000
  0
ARC
  8
0
  6
CONTINUOUS
 62
3
 10
333.149418396830240
 20
-156.531981206140700
 40
5.000000000000173
 50
172.942004709554080
 51
270.000000000000000
  0
CIRCLE
  8
0
  6
CONTINUOUS
 62
3
 10
441.762042187067890
 20
-164.781981206140700
 40
130.000000000000000
  0
ARC
  8
0
  6
DASHED
 62
3
 10
387.962042187067710
 20
-192.581981206140880
 40
0.199999999999818
 50
180.000000000000000
 51
270.000000000000000
  0
CIRCLE
  8
0
  6
CONTINUOUS
 62
3
 10
441.762042187067890
 20
-164.781981206140700
 40
53.000013664587186
  0
ARC
  8
0
  6
CONTINUOUS
 62
3
 10
473.762042187067660
 20
-166.017555475750210
 40
82.197605165243075
 50
77.164955485988742
 51
85.577622414021747
  0
ARC
  8
0
  6
CONTINUOUS
 62
3
 10
473.762042187067890
 20
-166.017555475750210
 40
82.197605165243260
 50
7.057995290446983
 51
85.577622414021576
  0
ARC
  8
0
  6
DASHED
 62
3
 10
521.062042187067850
 20
-186.324481206140940
 40
20.799999999999955
 50
180.000000000000000
 51
265.808273843992540
  0
ARC
  8
0
  6
DASHED
 62
3
 10
524.988508018400130
 20
-208.783841528184440
 40
1.999999999999995
 50
99.916536608232732
 51
182.862405226112400
  0
ARC
  8
0
  6
DASHED
 62
3
 10
519.395494920684310
 20
-209.063492183070250
 40
1.999999999999927
 50
2.862405226112724
 51
85.808273843998350
  0
LINE
  8
0
  6
DASHED
 62
3
 10
521.858548735925750
 20
-218.274599698901510
 11
523.456552478130330
 21
-218.194699511790530
  0
LINE
  8
0
  6
DASHED
 62
3
 10
500.262042187067890
 20
-186.324481206140940
 11
500.262042187067890
 21
-146.324481206140940
  0
LINE
  8
0
  6
DASHED
 62
3
 10
516.764911807648790
 20
-116.401861133360740
 11
521.858548735925750
 21
-218.274599698901510
  0
LINE
  8
0
  6
DASHED
 62
3
 10
518.362915549853370
 20
-116.321960946250550
 11
523.456552478130330
 21
-218.194699511790530
  0
LINE
  8
0
  6
DASHED
 62
3
 10
517.563913678751080
 20
-116.361911039805700
 11
522.657550607028040
 21
-218.234649605345790
  0
LINE
  8
0
  6
DASHED
 62
3
 10
518.787385293875790
 20
-124.811355826712080
 11
519.765189106383560
 21
-124.762465636086740
  0
LINE
  8
0
  6
DASHED
 62
3
 10
518.437821975268660
 20
-117.820089454567210
 11
518.787385293875790
 21
-124.811355826712080
  0
LINE
  8
0
  6
DASHED
 62
3
 10
518.437821975268660
 20
-117.820089454567210
 11
518.787385293875790
 21
-124.811355826712080
  0
ARC
  8
0
  6
DASHED
 62
3
 10
519.700270242455870
 20
-123.464088357533110
 40
1.299999237060550
 50
272.862387240019760
 51
346.260856815788600
  0
ARC
  8
0
  6
DASHED
 62
3
 10
512.220589046747820
 20
-121.635323370030840
 40
8.999999999999948
 50
346.260856815786500
 51
19.463936333592187
  0
ARC
  8
0
  6
DASHED
 62
3
 10
520.829300650696720
 20
-125.599694174117410
 40
1.999999999999927
 50
182.862405226112710
 51
265.126025186159040
  0
ARC
  8
0
  6
DASHED
 62
3
 10
515.236287552980910
 20
-125.879344829003230
 40
1.999999999999958
 50
280.598785266065990
 51
2.862405226112724
  0
ARC
  8
0
  6
DASHED
 62
3
 10
519.062042187067850
 20
-146.324481206140940
 40
18.799999999999983
 50
100.598785266066050
 51
180.000000000000000
  0
ARC
  8
0
  6
DASHED
 62
3
 10
519.062042187067850
 20
-146.324481206140940
 40
18.799999999999933
 50
35.808626813495749
 51
85.126025186157264
  0
LINE
  8
0
  6
DASHED
 62
3
 10
518.437821975268660
 20
-117.820089454567210
 11
519.415625787776210
 21
-117.771199263941860
  0
ARC
  8
0
  6
DASHED
 62
3
 10
519.480544651703890
 20
-119.069576542495380
 40
1.299999237060645
 50
19.463936333587132
 51
92.862405909348169
  0
POINT
  8
0
  6
DASHED
 62
3
 10
518.612603634572220
 20
-121.315722640639590
  0
LINE
  8
0
  6
DASHED
 62
3
 10
518.362915549853370
 20
-116.321960946250550
 11
516.764911807648790
 21
-116.401861133360740
  0
ARC
  8
0
  6
DASHED
 62
3
 10
521.062042187067850
 20
-186.324481206140940
 40
20.800000000000040
 50
279.916536608230560
 51
334.359929784105190
  0
ARC
  8
0
  6
DASHED
 62
3
 10
521.062042187067850
 20
-186.324481206140940
 40
20.799999999999926
 50
334.359929784105190
 51
5.724810452223396
  0
ARC
  8
0
  6
DASHED
 62
3
 10
521.062042187067850
 20
-186.324481206140940
 40
20.799999999999926
 50
334.359929784105190
 51
5.724810452223396
  0
ARC
  8
0
  6
DASHED
 62
3
 10
519.062042187067850
 20
-146.324481206140940
 40
18.799999999999837
 50
5.724810452223617
 51
35.808626813495749
  0
LINE
  8
0
  6
DASHED
 62
3
 10
541.758301538688780
 20
-184.249668238559930
 11
537.768276601032770
 21
-144.449169485442670
  0
LINE
  8
0
  6
DASHED
 62
3
 10
384.262042187067890
 20
-208.281981206140930
 11
384.262042187067890
 21
-136.281981206140930
  0
LINE
  8
0
  6
DASHED
 62
3
 10
389.262042187067890
 20
-136.281981206140930
 11
356.895377414125510
 21
-136.281981206140930
  0
LINE
  8
0
  6
DASHED
 62
3
 10
389.262042187067890
 20
-151.781981206140930
 11
389.262042187067890
 21
-136.281981206140930
  0
LINE
  8
0
  6
DASHED
 62
3
 10
389.262042187067890
 20
-208.281981206140930
 11
356.895377414125510
 21
-208.281981206140930
  0
LINE
  8
0
  6
DASHED
 62
3
 10
389.262042187067890
 20
-192.781981206140930
 11
389.262042187067890
 21
-208.281981206140930
  0
LINE
  8
0
  6
DASHED
 62
3
 10
389.262042187067890
 20
-192.781981206140930
 11
387.962042187067710
 21
-192.781981206140930
  0
LINE
  8
0
  6
DASHED
 62
3
 10
387.762042187067890
 20
-151.781981206140930
 11
387.762042187067890
 21
-192.581981206140880
  0
LINE
  8
0
  6
DASHED
 62
3
 10
389.262042187067890
 20
-151.781981206140930
 11
387.762042187067890
 21
-151.781981206140930
  0
ARC
  8
0
  6
DASHED
 62
3
 10
650.262042187067890
 20
-172.281981206140930
 40
300.000000000000060
 50
173.967950853630190
 51
186.032049146369810
  0
ARC
  8
0
  6
DASHED
 62
3
 10
356.895377414125510
 20
-203.281981206140930
 40
5.000000000000143
 50
186.032049146370330
 51
270.000000000000000
  0
LINE
  8
0
  6
DASHED
 62
3
 10
350.272459034585610
 20
-174.781981206140930
 11
349.762042187067890
 21
-174.781981206140930
  0
LINE
  8
0
  6
DASHED
 62
3
 10
350.262044044265620
 20
-169.781981206140930
 11
349.762042187067890
 21
-169.781981206140930
  0
LINE
  8
0
  6
DASHED
 62
3
 10
349.762042187067890
 20
-174.781981206140930
 11
349.762042187067890
 21
-169.781981206140930
  0
ARC
  8
0
  6
DASHED
 62
3
 10
356.895377414125510
 20
-141.281981206140930
 40
5.000000000000000
 50
90.000000000000000
 51
173.967950853629670
  0
ARC
  8
0
  6
DASHDOT
 62
4
 10
441.762042187067890
 20
-164.781981206140700
 40
169.999999999999940
 50
129.395488238759640
 51
140.303481949301160
  0
ARC
  8
0
  6
DASHDOT
 62
4
 10
441.762042187067890
 20
-164.781981206140700
 40
169.999999999999970
 50
39.490906242088272
 51
50.553892142497496
  0
ARC
  8
0
  6
DASHDOT
 62
4
 10
441.762042187067440
 20
-164.781981206141150
 40
169.999999999999940
 50
309.338981033362760
 51
320.793506661284770
  0
LINE
  8
0
  6
DASHDOT
 62
4
 10
549.608284755003070
 20
-272.628223774059220
 11
575.798738348094960
 21
-298.818677367147070
  0
ARC
  8
0
  6
DASHDOT
 62
4
 10
441.762042187067440
 20
-164.781981206140700
 40
169.999999999999940
 50
219.319530077535120
 51
230.294554916351500
  0
LINE
  8
0
  6
DASHDOT
 62
4
 10
398.135773795391290
 20
-172.281981206140930
 11
484.644208908168370
 21
-172.281981206140930
  0
LINE
  8
0
  6
DASHDOT
 62
4
 10
441.762042187067890
 20
-325.597366494312150
 11
441.762042187067890
 21
-1.748169493901514
  0
LINE
  8
0
  6
CONTINUOUS
 62
3
 10
-264.060978581621040
 20
-215.125601339770360
 11
-264.060978581621040
 21
-172.281981206140700
  0
LINE
  8
0
  6
CONTINUOUS
 62
3
 10
-255.381498119545200
 20
-222.556513318494130
 11
-262.952277316133970
 21
-217.255396654921470
  0
LINE
  8
0
  6
CONTINUOUS
 62
3
 10
-169.060978581621040
 20
-210.281981206140700
 11
-173.060978581621040
 21
-210.281981206140700
  0
LINE
  8
0
  6
CONTINUOUS
 62
4
 10
-176.060978581621040
 20
-192.281981206140700
 11
-173.860978581599400
 21
-192.281981206140700
  0
LINE
  8
0
  6
CONTINUOUS
 62
4
 10
-176.060978581621040
 20
-195.120220886136850
 11
-173.860978581599400
 21
-195.120220886136850
  0
LINE
  8
0
  6
CONTINUOUS
 62
4
 10
-176.060978581621040
 20
-196.466622611635330
 11
-173.860978581599400
 21
-196.466622611635330
  0
LINE
  8
0
  6
CONTINUOUS
 62
4
 10
-176.060978581621040
 20
-199.559353603300680
 11
-173.860978581599400
 21
-199.559353603300680
  0
LINE
  8
0
  6
CONTINUOUS
 62
4
 10
-176.060978581621040
 20
-201.038376756777780
 11
-173.860978581599400
 21
-201.038376756777780
  0
LINE
  8
0
  6
CONTINUOUS
 62
4
 10
-176.060978581621040
 20
-203.996372364910710
 11
-173.860978581599400
 21
-203.996372364910710
  0
LINE
  8
0
  6
CONTINUOUS
 62
4
 10
-176.060978581621040
 20
-205.585582157649470
 11
-173.860978581599400
 21
-205.585582157649470
  0
LINE
  8
0
  6
CONTINUOUS
 62
3
 10
-176.060978581621040
 20
-172.281981206140700
 11
-176.060978581621040
 21
-207.281981206140700
  0
LINE
  8
0
  6
CONTINUOUS
 62
3
 10
-264.060978581621040
 20
-129.438361072511040
 11
-264.060978581621040
 21
-172.281981206140700
  0
LINE
  8
0
  6
CONTINUOUS
 62
3
 10
-255.381498119545200
 20
-122.007449093787040
 11
-262.952277316133970
 21
-127.308565757359920
  0
LINE
  8
0
  6
CONTINUOUS
 62
3
 10
-169.060978581621040
 20
-134.281981206140700
 11
-173.060978581621040
 21
-134.281981206140700
  0
LINE
  8
0
  6
CONTINUOUS
 62
4
 10
-176.060978581621040
 20
-152.281981206140700
 11
-173.860978581599400
 21
-152.281981206140700
  0
LINE
  8
0
  6
CONTINUOUS
 62
4
 10
-176.060978581621040
 20
-149.443741526144550
 11
-173.860978581599400
 21
-149.443741526144550
  0
LINE
  8
0
  6
CONTINUOUS
 62
4
 10
-176.060978581621040
 20
-148.097339800646070
 11
-173.860978581599400
 21
-148.097339800646070
  0
LINE
  8
0
  6
CONTINUOUS
 62
4
 10
-176.060978581621040
 20
-145.004608808980720
 11
-173.860978581599400
 21
-145.004608808980720
  0
LINE
  8
0
  6
CONTINUOUS
 62
4
 10
-176.060978581621040
 20
-143.525585655503620
 11
-173.860978581599400
 21
-143.525585655503620
  0
LINE
  8
0
  6
CONTINUOUS
 62
4
 10
-176.060978581621040
 20
-140.567590047370690
 11
-173.860978581599400
 21
-140.567590047370690
  0
LINE
  8
0
  6
CONTINUOUS
 62
4
 10
-176.060978581621040
 20
-138.978380254631930
 11
-173.860978581599400
 21
-138.978380254631930
  0
LINE
  8
0
  6
CONTINUOUS
 62
3
 10
-176.060978581621040
 20
-172.281981206140700
 11
-176.060978581621040
 21
-137.281981206140700
  0
LINE
  8
0
  6
CONTINUOUS
 62
3
 10
-179.060978581621040
 20
-121.962274697792730
 11
-177.060978581621040
 21
-123.138060183415510
  0
LINE
  8
0
  6
CONTINUOUS
 62
3
 10
-177.060978581621040
 20
-123.138060183415510
 11
-175.060978581621040
 21
-124.790701822538940
  0
LINE
  8
0
  6
CONTINUOUS
 62
3
 10
-175.060978581621040
 20
-121.962274697792730
 11
-177.060978581621040
 21
-123.138060183415510
  0
LINE
  8
0
  6
CONTINUOUS
 62
3
 10
-177.060978581621040
 20
-123.138060183415510
 11
-179.060978581621040
 21
-124.790701822538940
  0
LINE
  8
0
  6
CONTINUOUS
 62
3
 10
-179.060978581621040
 20
-222.601687714488660
 11
-177.060978581621040
 21
-221.425902228865880
  0
LINE
  8
0
  6
CONTINUOUS
 62
3
 10
-177.060978581621040
 20
-221.425902228865880
 11
-175.060978581621040
 21
-219.773260589742450
  0
LINE
  8
0
  6
CONTINUOUS
 62
3
 10
-175.060978581621040
 20
-222.601687714488660
 11
-177.060978581621040
 21
-221.425902228865880
  0
LINE
  8
0
  6
CONTINUOUS
 62
3
 10
-177.060978581621040
 20
-221.425902228865880
 11
-179.060978581621040
 21
-219.773260589742450
  0
LINE
  8
0
  6
CONTINUOUS
 62
3
 10
-166.060978581621040
 20
-118.281981206140470
 11
-243.565823530713830
 21
-118.281981206140470
  0
LINE
  8
0
  6
CONTINUOUS
 62
3
 10
-166.060978581621040
 20
-118.281981206140470
 11
-166.060978581621040
 21
-131.281981206140700
  0
LINE
  8
0
  6
CONTINUOUS
 62
3
 10
-166.060978581621040
 20
-226.281981206140930
 11
-243.565823530713830
 21
-226.281981206140930
  0
LINE
  8
0
  6
CONTINUOUS
 62
3
 10
-25.560978581599898
 20
-119.781981206140690
 11
-166.060978581621040
 21
-119.781981206140690
  0
LINE
  8
0
  6
CONTINUOUS
 62
4
 10
-166.060978581621040
 20
-121.781981206140690
 11
-25.560978581599898
 21
-121.781981206140690
  0
LINE
  8
0
  6
CONTINUOUS
 62
4
 10
-166.060978581621040
 20
-121.281981206140470
 11
-25.560978581599898
 21
-121.281981206140470
  0
LINE
  8
0
  6
CONTINUOUS
 62
4
 10
-166.060978581621040
 20
-126.148898611257890
 11
-25.560978581599898
 21
-126.148898611257890
  0
LINE
  8
0
  6
CONTINUOUS
 62
4
 10
-166.060978581621040
 20
-127.777325679035810
 11
-25.560978581599898
 21
-127.777325679035810
  0
LINE
  8
0
  6
CONTINUOUS
 62
4
 10
-166.060978581621040
 20
-131.240067435800940
 11
-25.560978581599898
 21
-131.240067435800940
  0
LINE
  8
0
  6
CONTINUOUS
 62
4
 10
-166.218578927992330
 20
-132.241545799616230
 11
-25.560978581599898
 21
-132.241545799616230
  0
LINE
  8
0
  6
CONTINUOUS
 62
4
 10
-83.860978581599397
 20
-143.525585655503620
 11
-25.560978581599898
 21
-143.525585655503620
  0
LINE
  8
0
  6
CONTINUOUS
 62
4
 10
-83.860978581599397
 20
-145.004608808980720
 11
-25.560978581599898
 21
-145.004608808980720
  0
LINE
  8
0
  6
CONTINUOUS
 62
4
 10
-83.860978581599397
 20
-148.097339800646070
 11
-25.560978581599898
 21
-148.097339800646070
  0
LINE
  8
0
  6
CONTINUOUS
 62
4
 10
-83.860978581599397
 20
-149.443741526144550
 11
-25.560978581599898
 21
-149.443741526144550
  0
LINE
  8
0
  6
CONTINUOUS
 62
4
 10
-83.860978581599397
 20
-152.281981206140700
 11
-25.560978581599898
 21
-152.281981206140700
  0
LINE
  8
0
  6
CONTINUOUS
 62
4
 10
-83.860978581599397
 20
-140.567590047370690
 11
-25.560978581599898
 21
-140.567590047370690
  0
LINE
  8
0
  6
CONTINUOUS
 62
4
 10
-83.860978581599397
 20
-138.978380254631930
 11
-25.560978581599898
 21
-138.978380254631930
  0
LINE
  8
0
  6
CONTINUOUS
 62
3
 10
-25.560978581599898
 20
-224.781981206140700
 11
-166.060978581621040
 21
-224.781981206140700
  0
LINE
  8
0
  6
CONTINUOUS
 62
4
 10
-166.060978581621040
 20
-222.781981206140700
 11
-25.560978581599898
 21
-222.781981206140700
  0
LINE
  8
0
  6
CONTINUOUS
 62
4
 10
-166.060978581621040
 20
-223.281981206140930
 11
-25.560978581599898
 21
-223.281981206140930
  0
LINE
  8
0
  6
CONTINUOUS
 62
4
 10
-166.060978581621040
 20
-218.415063801023510
 11
-25.560978581599898
 21
-218.415063801023510
  0
LINE
  8
0
  6
CONTINUOUS
 62
4
 10
-166.060978581621040
 20
-216.786636733245590
 11
-25.560978581599898
 21
-216.786636733245590
  0
LINE
  8
0
  6
CONTINUOUS
 62
4
 10
-166.060978581621040
 20
-213.323894976480230
 11
-25.560978581599898
 21
-213.323894976480230
  0
LINE
  8
0
  6
CONTINUOUS
 62
4
 10
-166.218578927992330
 20
-212.322416612664940
 11
-25.560978581599898
 21
-212.322416612664940
  0
LINE
  8
0
  6
CONTINUOUS
 62
4
 10
-83.860978581599397
 20
-201.038376756777780
 11
-25.560978581599898
 21
-201.038376756777780
  0
LINE
  8
0
  6
CONTINUOUS
 62
4
 10
-83.860978581599397
 20
-199.559353603300680
 11
-25.560978581599898
 21
-199.559353603300680
  0
LINE
  8
0
  6
CONTINUOUS
 62
4
 10
-83.860978581599397
 20
-196.466622611635330
 11
-25.560978581599898
 21
-196.466622611635330
  0
LINE
  8
0
  6
CONTINUOUS
 62
4
 10
-83.860978581599397
 20
-195.120220886136850
 11
-25.560978581599898
 21
-195.120220886136850
  0
LINE
  8
0
  6
CONTINUOUS
 62
4
 10
-83.860978581599397
 20
-192.281981206140700
 11
-25.560978581599898
 21
-192.281981206140700
  0
LINE
  8
0
  6
CONTINUOUS
 62
4
 10
-83.860978581599397
 20
-203.996372364910710
 11
-25.560978581599898
 21
-203.996372364910710
  0
LINE
  8
0
  6
CONTINUOUS
 62
4
 10
-83.860978581599397
 20
-205.585582157649470
 11
-25.560978581599898
 21
-205.585582157649470
  0
LINE
  8
0
  6
CONTINUOUS
 62
3
 10
40.939036772539566
 20
-113.281981206140690
 11
40.939036772539566
 21
-280.281981206140700
  0
LINE
  8
0
  6
DASHDOT
 62
4
 10
204.487183477266170
 20
-284.990134007863160
 11
150.555624083283420
 21
-284.990134007863160
  0
LINE
  8
0
  6
DASHDOT
 62
4
 10
204.487183477266170
 20
-44.573828404437336
 11
150.555624083283420
 21
-44.573828404437336
  0
LINE
  8
0
  6
CONTINUOUS
 62
3
 10
269.939042823745690
 20
-164.781994870727890
 11
269.939042823745690
 21
-184.381994870728250
  0
LINE
  8
0
  6
CONTINUOUS
 62
3
 10
269.939042823745690
 20
-164.781994870727890
 11
269.939042823745690
 21
-145.181994870728430
  0
LINE
  8
0
  6
CONTINUOUS
 62
3
 10
77.939036772540476
 20
-307.781984693456930
 11
180.351275535005700
 21
-310.779415894913650
  0
LINE
  8
0
  6
CONTINUOUS
 62
3
 10
77.939036772540476
 20
-79.782015780393067
 11
164.393611306483080
 21
-76.762955511586370
  0
LINE
  8
0
  6
CONTINUOUS
 62
3
 10
77.939036772540476
 20
-79.782015780393067
 11
77.939036772540476
 21
-307.781984693456930
  0
LINE
  8
0
  6
CONTINUOUS
 62
3
 10
195.439042823746380
 20
-304.781981206140700
 11
180.439042823746380
 21
-304.781981206140700
  0
LINE
  8
0
  6
CONTINUOUS
 62
3
 10
199.439042823746600
 20
-35.781994870727885
 11
199.439042823746830
 21
-164.781981206140700
  0
LINE
  8
0
  6
CONTINUOUS
 62
3
 10
177.439042823746600
 20
-27.781994870727885
 11
177.439042823746600
 21
-301.781967541553510
  0
LINE
  8
0
  6
CONTINUOUS
 62
3
 10
195.439042823746600
 20
-24.781994870727885
 11
195.439042823749790
 21
-164.781981206140700
  0
LINE
  8
0
  6
CONTINUOUS
 62
3
 10
195.439042823746600
 20
-24.781994870727885
 11
180.439042823746380
 21
-24.781994870727885
  0
LINE
  8
0
  6
CONTINUOUS
 62
3
 10
198.439042823746600
 20
-34.781994870727885
 11
195.439042823746830
 21
-34.781994870727885
  0
LINE
  8
0
  6
CONTINUOUS
 62
3
 10
199.439042823746830
 20
-111.441104941120550
 11
203.096050642655880
 21
-111.632760599730090
  0
LINE
  8
0
  6
CONTINUOUS
 62
3
 10
205.939042773926990
 20
-114.628649203993970
 11
205.939042773926990
 21
-164.781981206140700
  0
LINE
  8
0
  6
CONTINUOUS
 62
3
 10
207.939042823746600
 20
-123.781994870727880
 11
207.939042823746600
 21
-205.781994870727890
  0
LINE
  8
0
  6
CONTINUOUS
 62
3
 10
205.939042773926990
 20
-214.935114835170450
 11
205.939042773926990
 21
-164.781981206140700
  0
LINE
  8
0
  6
CONTINUOUS
 62
3
 10
199.439042823746830
 20
-293.781981206140700
 11
199.439042823746830
 21
-164.781981206140700
  0
LINE
  8
0
  6
CONTINUOUS
 62
3
 10
203.096050642655880
 20
-217.931003439434330
 11
199.439042823746830
 21
-218.122659098043870
  0
LINE
  8
0
  6
CONTINUOUS
 62
3
 10
195.439042823746380
 20
-304.781981206140700
 11
195.439042823746380
 21
-164.781981206140700
  0
LINE
  8
0
  6
CONTINUOUS
 62
3
 10
198.439042823746830
 20
-294.781981206140700
 11
195.439042823746380
 21
-294.781981206140700
  0
LINE
  8
0
  6
CONTINUOUS
 62
3
 10
198.439042823746600
 20
-34.781994870727885
 11
199.439042823746600
 21
-35.781994870727885
  0
LINE
  8
0
  6
CONTINUOUS
 62
3
 10
206.939042798837140
 20
-205.781994870727890
 11
207.939042823746600
 21
-205.781994870727890
  0
LINE
  8
0
  6
CONTINUOUS
 62
3
 10
199.439042823746830
 20
-293.781981206140700
 11
198.439042823746830
 21
-294.781981206140700
  0
LINE
  8
0
  6
CONTINUOUS
 62
3
 10
206.939042798837140
 20
-123.781994870727880
 11
207.939042823746600
 21
-123.781994870727880
  0
LINE
  8
0
  6
CONTINUOUS
 62
3
 10
177.037119035099980
 20
-40.478168203099813
 11
156.748653387445300
 21
-75.618821512453451
  0
LINE
  8
0
  6
CONTINUOUS
 62
3
 10
156.816848157567390
 20
-85.879796777032197
 11
176.746269096812510
 21
-61.899455350977405
  0
LINE
  8
0
  6
CONTINUOUS
 62
3
 10
156.816848157567390
 20
-91.718631541864170
 11
176.746269096812510
 21
-67.738290115809377
  0
LINE
  8
0
  6
CONTINUOUS
 62
3
 10
174.135918670676570
 20
-92.801157441680516
 11
158.965157572599080
 21
-92.801157441680516
  0
LINE
  8
0
  6
CONTINUOUS
 62
3
 10
212.998857570749810
 20
-184.781994870727890
 11
212.439049949614400
 21
-184.631994870728250
  0
LINE
  8
0
  6
CONTINUOUS
 62
3
 10
269.539042823745600
 20
-184.781994870727890
 11
212.998857570750260
 21
-184.781994870727890
  0
LINE
  8
0
  6
CONTINUOUS
 62
3
 10
209.939042823745690
 20
-164.781994870727890
 11
209.939042823745690
 21
-186.881994870728250
  0
LINE
  8
0
  6
CONTINUOUS
 62
3
 10
209.539042823745600
 20
-187.281994870727890
 11
209.939042823745690
 21
-186.881994870728250
  0
LINE
  8
0
  6
CONTINUOUS
 62
3
 10
212.439049949614400
 20
-184.631994870728250
 11
211.539042823745600
 21
-184.631994870728250
  0
LINE
  8
0
  6
CONTINUOUS
 62
3
 10
212.998857570749810
 20
-144.781994870727890
 11
212.439049949614400
 21
-144.931994870728430
  0
LINE
  8
0
  6
CONTINUOUS
 62
3
 10
209.939042823745690
 20
-164.781994870727890
 11
209.939042823745690
 21
-142.681994870728430
  0
LINE
  8
0
  6
CONTINUOUS
 62
3
 10
209.539042823745600
 20
-142.281994870727890
 11
209.939042823745690
 21
-142.681994870728430
  0
LINE
  8
0
  6
CONTINUOUS
 62
3
 10
212.439049949614400
 20
-144.931994870728430
 11
211.539042823745600
 21
-144.931994870728430
  0
LINE
  8
0
  6
CONTINUOUS
 62
3
 10
269.539042823745600
 20
-144.781994870727890
 11
212.998857570750260
 21
-144.781994870727890
  0
LINE
  8
0
  6
CONTINUOUS
 62
3
 10
209.539042823745600
 20
-142.281994870727890
 11
207.939042823746600
 21
-142.281994870727890
  0
LINE
  8
0
  6
CONTINUOUS
 62
3
 10
209.539042823745600
 20
-187.281994870727890
 11
207.939042823746600
 21
-187.281994870727890
  0
LINE
  8
0
  6
DASHDOT
 62
4
 10
34.638583984250090
 20
-92.781969196249975
 11
57.714392430762473
 21
-92.781969196249975
  0
LINE
  8
0
  6
CONTINUOUS
 62
3
 10
49.939036772536838
 20
-102.781969196249970
 11
49.939036772540476
 21
-44.781969196249975
  0
LINE
  8
0
  6
CONTINUOUS
 62
3
 10
54.439036772540476
 20
-44.781969196249975
 11
54.439036772540476
 21
-102.781969196249970
  0
LINE
  8
0
  6
CONTINUOUS
 62
3
 10
49.939036772540476
 20
-44.781969196249975
 11
54.439036772540476
 21
-44.781969196249975
  0
LINE
  8
0
  6
DASHDOT
 62
4
 10
44.208789371723924
 20
-64.781969196249975
 11
62.308055387015429
 21
-64.781969196249975
  0
LINE
  8
0
  6
CONTINUOUS
 62
3
 10
49.939036772536838
 20
-102.781969196249970
 11
54.439036772536838
 21
-102.781969196249970
  0
LINE
  8
0
  6
CONTINUOUS
 62
3
 10
54.439036772540476
 20
-82.781960296475518
 11
54.439036772540476
 21
-99.781948286584793
  0
LINE
  8
0
  6
CONTINUOUS
 62
3
 10
54.439036772540476
 20
-82.781981206141154
 11
54.439036772540476
 21
-99.781969196250429
  0
LINE
  8
0
  6
CONTINUOUS
 62
3
 10
77.939036772540476
 20
-79.781981206140699
 11
57.439036772540476
 21
-79.781981206140699
  0
LINE
  8
0
  6
CONTINUOUS
 62
3
 10
40.939036772534109
 20
-113.351790622668880
 11
61.613534256053299
 21
-112.629821261689350
  0
LINE
  8
0
  6
CONTINUOUS
 62
3
 10
66.439036772540476
 20
-164.514020003818590
 11
66.439036772540476
 21
-196.781981206140700
  0
LINE
  8
0
  6
CONTINUOUS
 62
3
 10
66.439036772540476
 20
-82.781981206140699
 11
66.439036772540476
 21
-135.049918388680450
  0
LINE
  8
0
  6
CONTINUOUS
 62
3
 10
64.439036772540476
 20
-137.049918388680450
 11
61.439036772540476
 21
-137.049918388680450
  0
LINE
  8
0
  6
CONTINUOUS
 62
3
 10
59.439036772540476
 20
-139.049918388680450
 11
59.439036772540476
 21
-160.514020003818590
  0
LINE
  8
0
  6
CONTINUOUS
 62
3
 10
64.439036772540476
 20
-162.514020003818590
 11
61.439036772540476
 21
-162.514020003818590
  0
LINE
  8
0
  6
CONTINUOUS
 62
3
 10
66.439036772540476
 20
-303.781983896355540
 11
66.439036772540476
 21
-196.781981206140700
  0
LINE
  8
0
  6
CONTINUOUS
 62
3
 10
77.439036772540476
 20
-79.782002115805881
 11
77.439036772540476
 21
-196.781981206140700
  0
LINE
  8
0
  6
CONTINUOUS
 62
3
 10
77.939036772540476
 20
-307.781983896355540
 11
69.439036772540476
 21
-307.781983896355540
  0
LINE
  8
0
  6
CONTINUOUS
 62
3
 10
77.439036772540476
 20
-307.781983896355540
 11
77.439036772540476
 21
-196.781981206140700
  0
LINE
  8
0
  6
CONTINUOUS
 62
3
 10
40.939036772534109
 20
-280.212107544701670
 11
61.613534256053299
 21
-280.934076905682100
  0
ARC
  8
0
  6
CONTINUOUS
 62
3
 10
-243.565823530713830
 20
-205.681981206141020
 40
20.599999999999795
 50
235.000000000000260
 51
270.000000000000000
  0
ARC
  8
0
  6
CONTINUOUS
 62
3
 10
-261.460978581621130
 20
-215.125601339770360
 40
2.599999999999909
 50
180.000000000000000
 51
234.999999999994540
  0
ARC
  8
0
  6
CONTINUOUS
 62
3
 10
-173.060978581621040
 20
-207.281981206140700
 40
3.000000000000000
 50
180.000000000000000
 51
270.000000000000000
  0
ARC
  8
0
  6
CONTINUOUS
 62
3
 10
-169.060978581621040
 20
-213.281981206140700
 40
3.000000000000000
 50
0.000000000000000
 51
90.000000000000000
  0
ARC
  8
0
  6
CONTINUOUS
 62
3
 10
-243.565823530713830
 20
-138.881981206140380
 40
20.599999999999909
 50
90.000000000000000
 51
124.999999999999780
  0
ARC
  8
0
  6
CONTINUOUS
 62
3
 10
-261.460978581621130
 20
-129.438361072511040
 40
2.600000000000037
 50
125.000000000002600
 51
180.000000000000000
  0
ARC
  8
0
  6
CONTINUOUS
 62
3
 10
-173.060978581621040
 20
-137.281981206140700
 40
3.000000000000000
 50
90.000000000000000
 51
180.000000000000000
  0
ARC
  8
0
  6
CONTINUOUS
 62
3
 10
-169.060978581621040
 20
-131.281981206140700
 40
3.000000000000000
 50
270.000000000000000
 51
0.000000000000000
  0
ARC
  8
0
  6
CONTINUOUS
 62
3
 10
269.539042823745600
 20
-184.381994870728250
 40
0.399999999999636
 50
270.000000000000000
 51
0.000000000000000
  0
ARC
  8
0
  6
CONTINUOUS
 62
3
 10
269.539042823745600
 20
-145.181994870728430
 40
0.400000000000091
 50
0.000000000000000
 51
90.000000000000000
  0
ARC
  8
0
  6
CONTINUOUS
 62
3
 10
180.439042823746380
 20
-27.781994870727885
 40
3.000000000000000
 50
90.000000000000000
 51
180.000000000000000
  0
ARC
  8
0
  6
CONTINUOUS
 62
3
 10
206.939042798837140
 20
-122.781994845818640
 40
1.000000024909241
 50
180.000000000000000
 51
270.000000000000000
  0
ARC
  8
0
  6
CONTINUOUS
 62
3
 10
206.939042798837140
 20
-206.781994895637130
 40
1.000000024909241
 50
90.000000000000000
 51
180.000000000000000
  0
ARC
  8
0
  6
CONTINUOUS
 62
3
 10
202.939042773926990
 20
-214.935114835170450
 40
3.000000000000164
 50
273.000000000001080
 51
0.000000000000000
  0
ARC
  8
0
  6
CONTINUOUS
 62
3
 10
180.439042823746380
 20
-307.780700019238340
 40
3.000000000000011
 50
268.323529052110760
 51
0.000000000000000
  0
ARC
  8
0
  6
CONTINUOUS
 62
3
 10
186.439042823746380
 20
-307.781981206140700
 40
3.000000000000000
 50
90.000000000000000
 51
180.000000000000000
  0
ARC
  8
0
  6
CONTINUOUS
 62
3
 10
202.939042773926990
 20
-114.628649203993970
 40
3.000000000000000
 50
0.000000000000000
 51
86.999999999998920
  0
ARC
  8
0
  6
CONTINUOUS
 62
3
 10
174.439042823746600
 20
-38.978168203099813
 40
3.000000000000049
 50
330.000000000000570
 51
0.000000000000000
  0
ARC
  8
0
  6
CONTINUOUS
 62
3
 10
154.150577176091930
 20
-74.118821512453451
 40
2.999999999999993
 50
271.999999999999320
 51
330.000000000000570
  0
ARC
  8
0
  6
CONTINUOUS
 62
3
 10
154.509621884501030
 20
-89.801157441680289
 40
3.000000000000227
 50
270.000000000000000
 51
320.270935214703170
  0
ARC
  8
0
  6
CONTINUOUS
 62
3
 10
174.439042823746600
 20
-65.820816015625951
 40
2.999999999999973
 50
320.270935214704250
 51
0.000000000000000
  0
ARC
  8
0
  6
CONTINUOUS
 62
3
 10
154.509621884501030
 20
-83.962322676848316
 40
3.000000000000227
 50
270.000000000000000
 51
320.270935214703170
  0
ARC
  8
0
  6
CONTINUOUS
 62
3
 10
174.439042823746600
 20
-59.981981250793979
 40
2.999999999999973
 50
320.270935214704250
 51
0.000000000000000
  0
ARC
  8
0
  6
CONTINUOUS
 62
3
 10
180.439042823746380
 20
-301.781967541553510
 40
2.999999999999773
 50
180.000000000000000
 51
270.000000000000000
  0
ARC
  8
0
  6
CONTINUOUS
 62
3
 10
211.539042823745600
 20
-186.231994870727700
 40
1.599999999999454
 50
90.000000000000000
 51
180.000000000000000
  0
ARC
  8
0
  6
CONTINUOUS
 62
3
 10
211.539042823745600
 20
-143.331994870728070
 40
1.599999999999909
 50
180.000000000000000
 51
270.000000000000000
  0
ARC
  8
0
  6
CONTINUOUS
 62
3
 10
57.439036772540476
 20
-82.781960296475518
 40
3.000000000000000
 50
90.000000000000000
 51
180.000000000000000
  0
ARC
  8
0
  6
CONTINUOUS
 62
3
 10
61.439036772540476
 20
-107.632867126593730
 40
5.000000000000153
 50
272.000000000003580
 51
356.081795638019740
  0
ARC
  8
0
  6
CONTINUOUS
 62
3
 10
61.439036772540476
 20
-285.931031040776820
 40
5.000000000000000
 50
0.000000000000000
 51
87.999999999996049
  0
ARC
  8
0
  6
CONTINUOUS
 62
3
 10
61.439036772540476
 20
-139.049918388680450
 40
2.000000000000000
 50
90.000000000000000
 51
180.000000000000000
  0
ARC
  8
0
  6
CONTINUOUS
 62
3
 10
61.439036772540476
 20
-160.514020003818590
 40
2.000000000000000
 50
180.000000000000000
 51
270.000000000000000
  0
ARC
  8
0
  6
CONTINUOUS
 62
3
 10
64.439036772540476
 20
-164.514020003818590
 40
2.000000000000000
 50
0.000000000000000
 51
90.000000000000000
  0
ARC
  8
0
  6
CONTINUOUS
 62
3
 10
64.439036772540476
 20
-135.049918388680450
 40
2.000000000000000
 50
270.000000000000000
 51
0.000000000000000
  0
ARC
  8
0
  6
CONTINUOUS
 62
3
 10
69.439036772540476
 20
-82.781981206140699
 40
3.000000000000000
 50
90.000000000000000
 51
180.000000000000000
  0
ARC
  8
0
  6
CONTINUOUS
 62
3
 10
69.439036772540476
 20
-304.781983896355540
 40
3.000000000000000
 50
180.000000000000000
 51
270.000000000000000
  0
POLYLINE
  8
0
  6
CONTINUOUS
 62
3
 66
1
 70
1
  0
VERTEX
  8
0
  6
CONTINUOUS
 62
3
 10
-172.360978581620830
 20
-124.954650251793050
  0
VERTEX
  8
0
  6
CONTINUOUS
 62
3
 10
-172.451287763725650
 20
-124.251693285592690
  0
VERTEX
  8
0
  6
CONTINUOUS
 62
3
 10
-172.718744778817780
 20
-123.575750561380600
  0
VERTEX
  8
0
  6
CONTINUOUS
 62
3
 10
-173.153071403798860
 20
-122.952798178975200
  0
VERTEX
  8
0
  6
CONTINUOUS
 62
3
 10
-173.737576710044040
 20
-122.406775849076620
  0
VERTEX
  8
0
  6
CONTINUOUS
 62
3
 10
-174.449798486428700
 20
-121.958666903610000
  0
VERTEX
  8
0
  6
CONTINUOUS
 62
3
 10
-175.262366449504900
 20
-121.625691918047230
  0
VERTEX
  8
0
  6
CONTINUOUS
 62
3
 10
-176.144054068145010
 20
-121.420646934348990
  0
VERTEX
  8
0
  6
CONTINUOUS
 62
3
 10
-177.060978581620820
 20
-121.351411716248220
  0
VERTEX
  8
0
  6
CONTINUOUS
 62
3
 10
-177.977903095096620
 20
-121.420646934348990
  0
VERTEX
  8
0
  6
CONTINUOUS
 62
3
 10
-178.859590713736740
 20
-121.625691918047230
  0
VERTEX
  8
0
  6
CONTINUOUS
 62
3
 10
-179.672158676812930
 20
-121.958666903610000
  0
VERTEX
  8
0
  6
CONTINUOUS
 62
3
 10
-180.384380453197590
 20
-122.406775849076620
  0
VERTEX
  8
0
  6
CONTINUOUS
 62
3
 10
-180.968885759442770
 20
-122.952798178975200
  0
VERTEX
  8
0
  6
CONTINUOUS
 62
3
 10
-181.403212384423850
 20
-123.575750561380600
  0
VERTEX
  8
0
  6
CONTINUOUS
 62
3
 10
-181.670669399515990
 20
-124.251693285592690
  0
VERTEX
  8
0
  6
CONTINUOUS
 62
3
 10
-181.760978581620800
 20
-124.954650251793050
  0
VERTEX
  8
0
  6
CONTINUOUS
 62
3
 10
-181.670669399515990
 20
-125.657607217993410
  0
VERTEX
  8
0
  6
CONTINUOUS
 62
3
 10
-181.403212384423850
 20
-126.333549942205500
  0
VERTEX
  8
0
  6
CONTINUOUS
 62
3
 10
-180.968885759442770
 20
-126.956502324610900
  0
VERTEX
  8
0
  6
CONTINUOUS
 62
3
 10
-180.384380453197560
 20
-127.502524654509480
  0
VERTEX
  8
0
  6
CONTINUOUS
 62
3
 10
-179.672158676812930
 20
-127.950633599976100
  0
VERTEX
  8
0
  6
CONTINUOUS
 62
3
 10
-178.859590713736740
 20
-128.283608585538870
  0
VERTEX
  8
0
  6
CONTINUOUS
 62
3
 10
-177.977903095096620
 20
-128.488653569237130
  0
VERTEX
  8
0
  6
CONTINUOUS
 62
3
 10
-177.060978581620820
 20
-128.557888787337870
  0
VERTEX
  8
0
  6
CONTINUOUS
 62
3
 10
-176.144054068145010
 20
-128.488653569237130
  0
VERTEX
  8
0
  6
CONTINUOUS
 62
3
 10
-175.262366449504900
 20
-128.283608585538870
  0
VERTEX
  8
0
  6
CONTINUOUS
 62
3
 10
-174.449798486428700
 20
-127.950633599976100
  0
VERTEX
  8
0
  6
CONTINUOUS
 62
3
 10
-173.737576710044070
 20
-127.502524654509480
  0
VERTEX
  8
0
  6
CONTINUOUS
 62
3
 10
-173.153071403798860
 20
-126.956502324610900
  0
VERTEX
  8
0
  6
CONTINUOUS
 62
3
 10
-172.718744778817780
 20
-126.333549942205500
  0
VERTEX
  8
0
  6
CONTINUOUS
 62
3
 10
-172.451287763725650
 20
-125.657607217993410
  0
SEQEND
  8
0
  6
CONTINUOUS
 62
3
  0
POLYLINE
  8
0
  6
CONTINUOUS
 62
3
 66
1
 70
1
  0
VERTEX
  8
0
  6
CONTINUOUS
 62
3
 10
-172.360978581620830
 20
-219.609312160488340
  0
VERTEX
  8
0
  6
CONTINUOUS
 62
3
 10
-172.451287763725650
 20
-218.906355194287980
  0
VERTEX
  8
0
  6
CONTINUOUS
 62
3
 10
-172.718744778817780
 20
-218.230412470075890
  0
VERTEX
  8
0
  6
CONTINUOUS
 62
3
 10
-173.153071403798860
 20
-217.607460087670490
  0
VERTEX
  8
0
  6
CONTINUOUS
 62
3
 10
-173.737576710044040
 20
-217.061437757771900
  0
VERTEX
  8
0
  6
CONTINUOUS
 62
3
 10
-174.449798486428700
 20
-216.613328812305270
  0
VERTEX
  8
0
  6
CONTINUOUS
 62
3
 10
-175.262366449504900
 20
-216.280353826742530
  0
VERTEX
  8
0
  6
CONTINUOUS
 62
3
 10
-176.144054068145010
 20
-216.075308843044270
  0
VERTEX
  8
0
  6
CONTINUOUS
 62
3
 10
-177.060978581620820
 20
-216.006073624943500
  0
VERTEX
  8
0
  6
CONTINUOUS
 62
3
 10
-177.977903095096620
 20
-216.075308843044270
  0
VERTEX
  8
0
  6
CONTINUOUS
 62
3
 10
-178.859590713736740
 20
-216.280353826742530
  0
VERTEX
  8
0
  6
CONTINUOUS
 62
3
 10
-179.672158676812930
 20
-216.613328812305270
  0
VERTEX
  8
0
  6
CONTINUOUS
 62
3
 10
-180.384380453197590
 20
-217.061437757771900
  0
VERTEX
  8
0
  6
CONTINUOUS
 62
3
 10
-180.968885759442770
 20
-217.607460087670490
  0
VERTEX
  8
0
  6
CONTINUOUS
 62
3
 10
-181.403212384423850
 20
-218.230412470075890
  0
VERTEX
  8
0
  6
CONTINUOUS
 62
3
 10
-181.670669399515990
 20
-218.906355194287980
  0
VERTEX
  8
0
  6
CONTINUOUS
 62
3
 10
-181.760978581620800
 20
-219.609312160488340
  0
VERTEX
  8
0
  6
CONTINUOUS
 62
3
 10
-181.670669399515990
 20
-220.312269126688700
  0
VERTEX
  8
0
  6
CONTINUOUS
 62
3
 10
-181.403212384423850
 20
-220.988211850900800
  0
VERTEX
  8
0
  6
CONTINUOUS
 62
3
 10
-180.968885759442770
 20
-221.611164233306200
  0
VERTEX
  8
0
  6
CONTINUOUS
 62
3
 10
-180.384380453197560
 20
-222.157186563204790
  0
VERTEX
  8
0
  6
CONTINUOUS
 62
3
 10
-179.672158676812930
 20
-222.605295508671420
  0
VERTEX
  8
0
  6
CONTINUOUS
 62
3
 10
-178.859590713736740
 20
-222.938270494234160
  0
VERTEX
  8
0
  6
CONTINUOUS
 62
3
 10
-177.977903095096620
 20
-223.143315477932420
  0
VERTEX
  8
0
  6
CONTINUOUS
 62
3
 10
-177.060978581620820
 20
-223.212550696033190
  0
VERTEX
  8
0
  6
CONTINUOUS
 62
3
 10
-176.144054068145010
 20
-223.143315477932420
  0
VERTEX
  8
0
  6
CONTINUOUS
 62
3
 10
-175.262366449504900
 20
-222.938270494234160
  0
VERTEX
  8
0
  6
CONTINUOUS
 62
3
 10
-174.449798486428700
 20
-222.605295508671420
  0
VERTEX
  8
0
  6
CONTINUOUS
 62
3
 10
-173.737576710044070
 20
-222.157186563204790
  0
VERTEX
  8
0
  6
CONTINUOUS
 62
3
 10
-173.153071403798860
 20
-221.611164233306200
  0
VERTEX
  8
0
  6
CONTINUOUS
 62
3
 10
-172.718744778817780
 20
-220.988211850900800
  0
VERTEX
  8
0
  6
CONTINUOUS
 62
3
 10
-172.451287763725650
 20
-220.312269126688700
  0
SEQEND
  8
0
  6
CONTINUOUS
 62
3
  0
ARC
  8
0
  6
CONTINUOUS
 62
3
 10
57.439036772540021
 20
-99.781948286585248
 40
3.000000000000000
 50
180.000000000000000
 51
239.999999999989710
  0
ARC
  8
0
  6
CONTINUOUS
 62
3
 10
54.439036772540021
 20
-104.978121618956720
 40
3.000000000000000
 50
0.000000000000000
 51
59.999999999998380
  0
LINE
  8
0
  6
CONTINUOUS
 62
3
 10
57.439036772540021
 20
-104.978121618956720
 11
57.439036772540021
 21
-109.878531601633760
  0
ARC
  8
0
  6
CONTINUOUS
 62
3
 10
54.439036772540021
 20
-109.878531601633760
 40
3.000000000000455
 50
272.000000000003350
 51
0.000000000000000
  0
ARC
  8
0
  6
CONTINUOUS
 62
3
 10
191.439042823747290
 20
-56.066238789035197
 40
3.000000000000000
 50
90.000000000000000
 51
180.000000000000000
  0
LINE
  8
0
  6
CONTINUOUS
 62
3
 10
188.439042823747290
 20
-56.066238789035197
 11
188.439042823749620
 21
-156.781981206140760
  0
ARC
  8
0
  6
CONTINUOUS
 62
3
 10
191.439042823747970
 20
-87.518065222797304
 40
3.000000000000000
 50
90.000000000000000
 51
180.000000000000000
  0
LINE
  8
0
  6
CONTINUOUS
 62
3
 10
195.439042823747290
 20
-53.066238789035197
 11
191.439042823747290
 21
-53.066238789035197
  0
LINE
  8
0
  6
CONTINUOUS
 62
3
 10
195.439042823747970
 20
-84.518065222797304
 11
191.439042823747970
 21
-84.518065222797304
  0
ARC
  8
0
  6
CONTINUOUS
 62
3
 10
191.439042823747290
 20
-273.497696294071830
 40
3.000000000000000
 50
179.999999999997840
 51
270.000000000000000
  0
LINE
  8
0
  6
CONTINUOUS
 62
3
 10
188.439042823747290
 20
-273.497696294071720
 11
188.439042823749620
 21
-172.781981206140640
  0
ARC
  8
0
  6
CONTINUOUS
 62
3
 10
191.439042823747970
 20
-242.045869860309720
 40
3.000000000000000
 50
180.000000000000000
 51
270.000000000000000
  0
ARC
  8
0
  6
CONTINUOUS
 62
3
 10
-84.860978581599397
 20
-207.281981206140700
 40
1.000000000000000
 50
270.000000000000000
 51
0.000000000000000
  0
LINE
  8
0
  6
CONTINUOUS
 62
3
 10
-84.860978581599397
 20
-208.281981206140700
 11
-172.860978581599400
 21
-208.281981206140700
  0
LINE
  8
0
  6
CONTINUOUS
 62
3
 10
-83.860978581599170
 20
-207.281981206140700
 11
-83.860978581599852
 21
-172.281981206139110
  0
ARC
  8
0
  6
CONTINUOUS
 62
3
 10
-84.860978581599397
 20
-137.281981206140700
 40
1.000000000000227
 50
0.000000000000000
 51
90.000000000000000
  0
LINE
  8
0
  6
CONTINUOUS
 62
3
 10
-84.860978581599397
 20
-136.281981206140700
 11
-172.860978581599400
 21
-136.281981206140700
  0
LINE
  8
0
  6
CONTINUOUS
 62
3
 10
-83.860978581599170
 20
-137.281981206140700
 11
-83.860978581599852
 21
-172.281981206142290
  0
ARC
  8
0
  6
CONTINUOUS
 62
3
 10
-172.860978581599400
 20
-137.281981206140700
 40
1.000000000000000
 50
90.000000000000000
 51
180.000000000000000
  0
LINE
  8
0
  6
CONTINUOUS
 62
3
 10
-173.860978581599170
 20
-137.281981206140700
 11
-173.860978581599850
 21
-172.281981206140930
  0
ARC
  8
0
  6
CONTINUOUS
 62
3
 10
-172.860978581599400
 20
-207.281981206140700
 40
0.999999999999773
 50
180.000000000000000
 51
270.000000000000000
  0
LINE
  8
0
  6
CONTINUOUS
 62
3
 10
-173.860978581599170
 20
-207.281981206140700
 11
-173.860978581599850
 21
-172.281981206140470
  0
ARC
  8
0
  6
CONTINUOUS
 62
3
 10
27.939036772534564
 20
-276.342202926825390
 40
3.000000000000000
 50
0.000000000000000
 51
38.927553831336432
  0
ARC
  8
0
  6
CONTINUOUS
 62
3
 10
-12.494234014011568
 20
-226.281981206138200
 40
3.000000000000041
 50
38.927553831334741
 51
90.000000000000000
  0
LINE
  8
0
  6
CONTINUOUS
 62
3
 10
30.272859976301220
 20
-274.457191188516840
 11
-10.160410810244912
 21
-224.396969467829760
  0
LINE
  8
0
  6
CONTINUOUS
 62
3
 10
19.874815192160781
 20
-223.281981206138200
 11
-8.172170405066026
 21
-223.281981206138200
  0
LINE
  8
0
  6
CONTINUOUS
 62
3
 10
30.939036772534564
 20
-264.574218290293170
 11
28.797731105958974
 21
-256.582756748098060
  0
LINE
  8
0
  6
CONTINUOUS
 62
3
 10
33.939036772534564
 20
-280.281981206140700
 11
40.939036772534564
 21
-280.281981206140700
  0
ARC
  8
0
  6
CONTINUOUS
 62
3
 10
33.939036772534564
 20
-277.281981206140700
 40
3.000000000000000
 50
180.000000000000000
 51
270.000000000000000
  0
LINE
  8
0
  6
CONTINUOUS
 62
3
 10
30.939036772534564
 20
-264.574218290293170
 11
30.939036772534564
 21
-277.281981206140700
  0
LINE
  8
0
  6
CONTINUOUS
 62
3
 10
40.939036772534564
 20
-274.572563076938310
 11
30.939036772534564
 21
-274.572563076938310
  0
LINE
  8
0
  6
CONTINUOUS
 62
3
 10
40.939036772534564
 20
-267.854488444254000
 11
30.939036772534564
 21
-267.854488444254000
  0
POINT
  8
0
  6
CONTINUOUS
 62
3
 10
30.939036772534564
 20
-275.281981206140700
  0
LINE
  8
0
  6
CONTINUOUS
 62
3
 10
26.118239181647823
 20
-246.582756748098060
 11
21.079584502117200
 21
-227.778241482295240
  0
ARC
  8
0
  6
CONTINUOUS
 62
3
 10
27.939036772534564
 20
-195.281981206138430
 40
3.000000000000000
 50
0.000000000000000
 51
90.000000000000000
  0
LINE
  8
0
  6
CONTINUOUS
 62
3
 10
30.939036772534564
 20
-201.769473383859800
 11
40.939036772534564
 21
-201.769473383859800
  0
ARC
  8
0
  6
CONTINUOUS
 62
3
 10
27.939036772534564
 20
-153.781981206140810
 40
3.000000000000000
 50
270.000000000000000
 51
0.000000000000000
  0
LINE
  8
0
  6
CONTINUOUS
 62
3
 10
40.939036772534564
 20
-181.795291992188140
 11
30.939036772534564
 21
-181.795291992188140
  0
LINE
  8
0
  6
CONTINUOUS
 62
3
 10
40.939036366641403
 20
-114.555274305520810
 11
33.939036772534564
 21
-114.555274305520810
  0
ARC
  8
0
  6
CONTINUOUS
 62
3
 10
33.939036772534564
 20
-117.555274305520810
 40
3.000000000000000
 50
90.000000000000000
 51
180.000000000000000
  0
ARC
  8
0
  6
CONTINUOUS
 62
3
 10
29.939036772534564
 20
-120.781981206140690
 40
1.000000000000000
 50
0.000000000000000
 51
90.000000000000000
  0
LINE
  8
0
  6
CONTINUOUS
 62
3
 10
30.939036772534564
 20
-121.781981206140690
 11
30.939036772534564
 21
-264.574218290293170
  0
LINE
  8
0
  6
CONTINUOUS
 62
3
 10
30.939036772534564
 20
-117.555274305520810
 11
30.939036772534564
 21
-121.781981206140690
  0
ARC
  8
0
  6
CONTINUOUS
 62
3
 10
27.939036772534564
 20
-127.781981206140920
 40
3.000000000000000
 50
270.000000000000000
 51
0.000000000000000
  0
LINE
  8
0
  6
CONTINUOUS
 62
3
 10
40.939036772534564
 20
-117.771812343645470
 11
30.939036772534564
 21
-117.771812343645470
  0
LINE
  8
0
  6
CONTINUOUS
 62
3
 10
40.939036772534564
 20
-127.161836425819950
 11
30.939036772534564
 21
-127.161836425819950
  0
LINE
  8
0
  6
CONTINUOUS
 62
3
 10
-9.617615993729487
 20
-225.069000899742830
 11
-25.560963227465436
 21
-224.790708738604850
  0
ARC
  8
0
  6
CONTINUOUS
 62
3
 10
-19.060978581604559
 20
-213.281981206138200
 40
5.000000000000000
 50
359.999999999997390
 51
90.000000000000000
  0
LINE
  8
0
  6
CONTINUOUS
 62
3
 10
-14.060978581604559
 20
-213.281981206138430
 11
-14.060978581605241
 21
-224.991441717271870
  0
LINE
  8
0
  6
CONTINUOUS
 62
3
 10
-25.560978581604331
 20
-208.281981206138200
 11
-19.060978581604559
 21
-208.281981206138200
  0
LINE
  8
0
  6
CONTINUOUS
 62
3
 10
27.939036772534564
 20
-192.281981206138430
 11
-25.560978581603536
 21
-192.281981206138430
  0
LINE
  8
0
  6
CONTINUOUS
 62
3
 10
-25.560978581599898
 20
-119.781981206140690
 11
-25.560978581605241
 21
-224.790708470597340
  0
LINE
  8
0
  6
DASHDOT
 62
4
 10
9.939036772534564
 20
-144.526093197859840
 11
9.939036772534564
 21
-115.886190937044370
  0
ARC
  8
0
  6
CONTINUOUS
 62
3
 10
-6.060978581600466
 20
-127.781981206140920
 40
3.000000000000000
 50
180.000000000002160
 51
270.000000000000000
  0
LINE
  8
0
  6
CONTINUOUS
 62
3
 10
29.939036772534564
 20
-119.781981206140690
 11
-25.560978581599898
 21
-119.781981206140690
  0
LINE
  8
0
  6
CONTINUOUS
 62
3
 10
-10.060991525217105
 20
-135.281981206141150
 11
-10.060992982067546
 21
-135.281981206141150
  0
ARC
  8
0
  6
CONTINUOUS
 62
3
 10
-14.060978581600580
 20
-124.781981206140690
 40
5.000000000000000
 50
0.000000000001303
 51
90.000000000000000
  0
LINE
  8
0
  6
CONTINUOUS
 62
3
 10
-9.060978581600580
 20
-124.781981206140580
 11
-9.060978581599784
 21
-153.781981206140930
  0
ARC
  8
0
  6
CONTINUOUS
 62
3
 10
-6.060978581599784
 20
-153.781981206140810
 40
3.000000000000000
 50
180.000000000002160
 51
270.000000000000000
  0
LINE
  8
0
  6
CONTINUOUS
 62
3
 10
27.939036772534564
 20
-130.781981206140930
 11
-6.060978581600466
 21
-130.781981206140930
  0
LINE
  8
0
  6
CONTINUOUS
 62
3
 10
27.939036772534564
 20
-156.781981206140810
 11
-6.060978581599784
 21
-156.781981206140810
  0
LINE
  8
0
  6
CONTINUOUS
 62
3
 10
-25.560978581601489
 20
-152.281981206138430
 11
-9.060978581599784
 21
-152.281981206138430
  0
LINE
  8
0
  6
CONTINUOUS
 62
3
 10
40.939036772534564
 20
-114.555274305520810
 11
40.939036772534564
 21
-280.281981206140700
  0
LINE
  8
0
  6
CONTINUOUS
 62
3
 10
191.439042823749620
 20
-159.781981206140700
 11
195.439042823749670
 21
-159.781981206140700
  0
LINE
  8
0
  6
CONTINUOUS
 62
3
 10
191.439042823749590
 20
-169.781981206140700
 11
195.439042823746380
 21
-169.781981206140700
  0
ARC
  8
0
  6
CONTINUOUS
 62
3
 10
191.439042823749590
 20
-172.781981206140700
 40
3.000000000000000
 50
90.000000000000000
 51
179.999999999998890
  0
ARC
  8
0
  6
CONTINUOUS
 62
3
 10
191.439042823749620
 20
-156.781981206140700
 40
3.000000000000000
 50
180.000000000001080
 51
270.000000000000000
  0
LINE
  8
0
  6
DASHDOT
 62
4
 10
153.752550071945730
 20
-164.781981206140700
 11
286.347598488930090
 21
-164.781981206140700
  0
LINE
  8
0
  6
DASHDOT
 62
4
 10
-152.860978581602690
 20
97.085779614663380
 11
-170.860978581602690
 21
97.085779614663380
  0
LINE
  8
0
  6
DASHDOT
 62
4
 10
-161.860978581602690
 20
88.085779614663380
 11
-161.860978581602690
 21
115.087378937213110
  0
LINE
  8
0
  6
DASHED
 62
4
 10
-168.860978581602690
 20
117.085779614663380
 11
-168.860978581602690
 21
97.085779614663380
  0
LINE
  8
0
  6
DASHED
 62
4
 10
-154.860978581602690
 20
117.085779614663380
 11
-154.860978581602690
 21
97.085779614663380
  0
ARC
  8
0
  6
DASHED
 62
4
 10
-161.860978581602690
 20
97.085779614663380
 40
7.000000000000000
 50
180.000000000000000
 51
0.000000000000000
  0
CIRCLE
  8
0
  6
DASHED
 62
4
 10
-161.860978581602690
 20
97.085779614663380
 40
6.000000000000000
  0
LINE
  8
0
  6
CONTINUOUS
 62
3
 10
-25.560978581602740
 20
121.085779614663380
 11
-25.560978581602740
 21
174.585779614663380
  0
LINE
  8
0
  6
CONTINUOUS
 62
4
 10
-166.060978581623890
 20
133.543865844323620
 11
-25.560978581602740
 21
133.543865844323620
  0
LINE
  8
0
  6
CONTINUOUS
 62
4
 10
-166.060978581623890
 20
128.452697019780690
 11
-25.560978581602740
 21
128.452697019780690
  0
LINE
  8
0
  6
CONTINUOUS
 62
4
 10
-166.060978581623890
 20
124.085779614663380
 11
-25.560978581602740
 21
124.085779614663380
  0
LINE
  8
0
  6
CONTINUOUS
 62
4
 10
-166.060978581623890
 20
123.585779614663380
 11
-25.560978581602740
 21
123.585779614663380
  0
LINE
  8
0
  6
CONTINUOUS
 62
3
 10
-25.560978581602740
 20
121.085779614663380
 11
-83.860978581602694
 21
121.085779614663380
  0
LINE
  8
0
  6
CONTINUOUS
 62
4
 10
-166.060978581623890
 20
160.585779614663380
 11
-25.560978581602740
 21
160.585779614663380
  0
LINE
  8
0
  6
CONTINUOUS
 62
4
 10
-166.060978581623660
 20
156.199664822913430
 11
-25.560978581602740
 21
156.199664822913430
  0
LINE
  8
0
  6
CONTINUOUS
 62
4
 10
-166.060978581623660
 20
154.957744958025530
 11
-25.560978581602740
 21
154.957744958025530
  0
LINE
  8
0
  6
CONTINUOUS
 62
4
 10
-166.060978581623660
 20
151.747539934667230
 11
-25.560978581602740
 21
151.747539934667230
  0
LINE
  8
0
  6
CONTINUOUS
 62
4
 10
-166.060978581623890
 20
150.401138209168640
 11
-25.560978581602740
 21
150.401138209168640
  0
LINE
  8
0
  6
CONTINUOUS
 62
4
 10
-166.060978581623890
 20
147.308407217503400
 11
-25.560978581602740
 21
147.308407217503400
  0
LINE
  8
0
  6
CONTINUOUS
 62
4
 10
-166.060978581623890
 20
145.829384064026300
 11
-25.560978581602740
 21
145.829384064026300
  0
LINE
  8
0
  6
CONTINUOUS
 62
4
 10
-166.060978581623890
 20
142.871388455893370
 11
-25.560978581602740
 21
142.871388455893370
  0
LINE
  8
0
  6
CONTINUOUS
 62
4
 10
-166.060978581623890
 20
141.282178663154610
 11
-25.560978581602740
 21
141.282178663154610
  0
LINE
  8
0
  6
CONTINUOUS
 62
4
 10
-166.060978581623890
 20
225.585779614663350
 11
-25.560978581602740
 21
225.585779614663350
  0
LINE
  8
0
  6
CONTINUOUS
 62
4
 10
-166.060978581623890
 20
225.085779614663350
 11
-25.560978581602740
 21
225.085779614663350
  0
LINE
  8
0
  6
CONTINUOUS
 62
4
 10
-166.060978581623890
 20
220.718862209546050
 11
-25.560978581602740
 21
220.718862209546050
  0
LINE
  8
0
  6
CONTINUOUS
 62
4
 10
-166.060978581623890
 20
215.627693385003110
 11
-25.560978581602740
 21
215.627693385003110
  0
LINE
  8
0
  6
CONTINUOUS
 62
4
 10
-166.060978581623890
 20
207.889380566172120
 11
-25.560978581602740
 21
207.889380566172120
  0
LINE
  8
0
  6
CONTINUOUS
 62
4
 10
-166.060978581623890
 20
206.300170773433360
 11
-25.560978581602740
 21
206.300170773433360
  0
LINE
  8
0
  6
CONTINUOUS
 62
4
 10
-166.060978581623890
 20
203.342175165300430
 11
-25.560978581602740
 21
203.342175165300430
  0
LINE
  8
0
  6
CONTINUOUS
 62
4
 10
-166.060978581623890
 20
201.863152011823330
 11
-25.560978581602740
 21
201.863152011823330
  0
LINE
  8
0
  6
CONTINUOUS
 62
4
 10
-166.060978581623890
 20
198.770421020158120
 11
-25.560978581602740
 21
198.770421020158120
  0
LINE
  8
0
  6
CONTINUOUS
 62
4
 10
-166.060978581623890
 20
197.424019294659530
 11
-25.560978581602740
 21
197.424019294659530
  0
LINE
  8
0
  6
CONTINUOUS
 62
4
 10
-166.060978581623890
 20
192.971894406413330
 11
-25.560978581602740
 21
192.971894406413330
  0
LINE
  8
0
  6
CONTINUOUS
 62
4
 10
-166.060978581623890
 20
194.213814271301230
 11
-25.560978581602740
 21
194.213814271301230
  0
LINE
  8
0
  6
CONTINUOUS
 62
4
 10
-166.060978581623890
 20
188.585779614663380
 11
-25.560978581602740
 21
188.585779614663380
  0
LINE
  8
0
  6
CONTINUOUS
 62
3
 10
-25.560978581602740
 20
228.085779614663350
 11
-166.060978581623890
 21
228.085779614663350
  0
LINE
  8
0
  6
CONTINUOUS
 62
3
 10
-166.060978581623890
 20
233.585779614663350
 11
-243.565823530716670
 21
233.585779614663350
  0
LINE
  8
0
  6
CONTINUOUS
 62
3
 10
-255.381498119548040
 20
229.860311727016550
 11
-262.952277316136810
 21
224.559195063444010
  0
LINE
  8
0
  6
CONTINUOUS
 62
3
 10
-264.060978581623890
 20
222.429399748292670
 11
-264.060978581623890
 21
174.585779614663380
  0
ARC
  8
0
  6
CONTINUOUS
 62
3
 10
-261.460978581623980
 20
222.429399748292670
 40
2.600000000000131
 50
125.000000000001180
 51
180.000000000000000
  0
ARC
  8
0
  6
CONTINUOUS
 62
3
 10
-243.565823530716670
 20
212.985779614663330
 40
20.600000000000023
 50
90.000000000000000
 51
124.999999999999600
  0
LINE
  8
0
  6
CONTINUOUS
 62
3
 10
-166.060978581623890
 20
233.585779614663350
 11
-166.060978581623660
 21
174.585779614663380
  0
LINE
  8
0
  6
CONTINUOUS
 62
3
 10
-177.060978581623890
 20
223.729700637388530
 11
-179.060978581623890
 21
222.077058998265100
  0
LINE
  8
0
  6
CONTINUOUS
 62
3
 10
-175.060978581623890
 20
224.905486123011310
 11
-177.060978581623890
 21
223.729700637388530
  0
LINE
  8
0
  6
CONTINUOUS
 62
3
 10
-177.060978581623890
 20
223.729700637388530
 11
-175.060978581623890
 21
222.077058998265100
  0
LINE
  8
0
  6
CONTINUOUS
 62
3
 10
-179.060978581623890
 20
224.905486123011310
 11
-177.060978581623890
 21
223.729700637388530
  0
POLYLINE
  8
0
  6
CONTINUOUS
 62
3
 66
1
 70
1
  0
VERTEX
  8
0
  6
CONTINUOUS
 62
3
 10
-172.360978581623670
 20
221.913110569010880
  0
VERTEX
  8
0
  6
CONTINUOUS
 62
3
 10
-172.451287763728490
 20
222.616067535211240
  0
VERTEX
  8
0
  6
CONTINUOUS
 62
3
 10
-172.718744778820620
 20
223.292010259423340
  0
VERTEX
  8
0
  6
CONTINUOUS
 62
3
 10
-173.153071403801700
 20
223.914962641828740
  0
VERTEX
  8
0
  6
CONTINUOUS
 62
3
 10
-173.737576710046880
 20
224.460984971727330
  0
VERTEX
  8
0
  6
CONTINUOUS
 62
3
 10
-174.449798486431550
 20
224.909093917193960
  0
VERTEX
  8
0
  6
CONTINUOUS
 62
3
 10
-175.262366449507740
 20
225.242068902756700
  0
VERTEX
  8
0
  6
CONTINUOUS
 62
3
 10
-176.144054068147850
 20
225.447113886454960
  0
VERTEX
  8
0
  6
CONTINUOUS
 62
3
 10
-177.060978581623660
 20
225.516349104555730
  0
VERTEX
  8
0
  6
CONTINUOUS
 62
3
 10
-177.977903095099460
 20
225.447113886454960
  0
VERTEX
  8
0
  6
CONTINUOUS
 62
3
 10
-178.859590713739580
 20
225.242068902756700
  0
VERTEX
  8
0
  6
CONTINUOUS
 62
3
 10
-179.672158676815770
 20
224.909093917193960
  0
VERTEX
  8
0
  6
CONTINUOUS
 62
3
 10
-180.384380453200440
 20
224.460984971727330
  0
VERTEX
  8
0
  6
CONTINUOUS
 62
3
 10
-180.968885759445610
 20
223.914962641828740
  0
VERTEX
  8
0
  6
CONTINUOUS
 62
3
 10
-181.403212384426690
 20
223.292010259423340
  0
VERTEX
  8
0
  6
CONTINUOUS
 62
3
 10
-181.670669399518830
 20
222.616067535211240
  0
VERTEX
  8
0
  6
CONTINUOUS
 62
3
 10
-181.760978581623650
 20
221.913110569010880
  0
VERTEX
  8
0
  6
CONTINUOUS
 62
3
 10
-181.670669399518830
 20
221.210153602810520
  0
VERTEX
  8
0
  6
CONTINUOUS
 62
3
 10
-181.403212384426690
 20
220.534210878598430
  0
VERTEX
  8
0
  6
CONTINUOUS
 62
3
 10
-180.968885759445610
 20
219.911258496193030
  0
VERTEX
  8
0
  6
CONTINUOUS
 62
3
 10
-180.384380453200410
 20
219.365236166294440
  0
VERTEX
  8
0
  6
CONTINUOUS
 62
3
 10
-179.672158676815770
 20
218.917127220827810
  0
VERTEX
  8
0
  6
CONTINUOUS
 62
3
 10
-178.859590713739580
 20
218.584152235265070
  0
VERTEX
  8
0
  6
CONTINUOUS
 62
3
 10
-177.977903095099460
 20
218.379107251566810
  0
VERTEX
  8
0
  6
CONTINUOUS
 62
3
 10
-177.060978581623660
 20
218.309872033466040
  0
VERTEX
  8
0
  6
CONTINUOUS
 62
3
 10
-176.144054068147850
 20
218.379107251566810
  0
VERTEX
  8
0
  6
CONTINUOUS
 62
3
 10
-175.262366449507740
 20
218.584152235265070
  0
VERTEX
  8
0
  6
CONTINUOUS
 62
3
 10
-174.449798486431550
 20
218.917127220827810
  0
VERTEX
  8
0
  6
CONTINUOUS
 62
3
 10
-173.737576710046910
 20
219.365236166294440
  0
VERTEX
  8
0
  6
CONTINUOUS
 62
3
 10
-173.153071403801700
 20
219.911258496193030
  0
VERTEX
  8
0
  6
CONTINUOUS
 62
3
 10
-172.718744778820620
 20
220.534210878598430
  0
VERTEX
  8
0
  6
CONTINUOUS
 62
3
 10
-172.451287763728490
 20
221.210153602810520
  0
SEQEND
  8
0
  6
CONTINUOUS
 62
3
  0
LINE
  8
0
  6
CONTINUOUS
 62
3
 10
-173.860978581602690
 20
117.085779614663380
 11
-83.860978581602694
 21
117.085779614663380
  0
LINE
  8
0
  6
CONTINUOUS
 62
3
 10
-173.860978581602690
 20
120.137449712820420
 11
-173.860978581602690
 21
84.085779614663380
  0
LINE
  8
0
  6
CONTINUOUS
 62
3
 10
-176.060978581623890
 20
115.585779614663380
 11
-176.060978581623890
 21
117.246083253854430
  0
LINE
  8
0
  6
CONTINUOUS
 62
3
 10
-176.060978581623890
 20
115.585779614663380
 11
-243.565823530716670
 21
115.585779614663380
  0
ARC
  8
0
  6
CONTINUOUS
 62
3
 10
-173.060978581623890
 20
117.246083253854430
 40
3.000000000000000
 50
90.000000000000000
 51
180.000000000000000
  0
LINE
  8
0
  6
CONTINUOUS
 62
3
 10
-173.060978581623890
 20
120.246083253854430
 11
-169.060978581623890
 21
120.246083253854430
  0
ARC
  8
0
  6
CONTINUOUS
 62
3
 10
-169.060978581623890
 20
123.246083253854430
 40
3.000000000000000
 50
270.000000000000000
 51
359.999999999997780
  0
LINE
  8
0
  6
CONTINUOUS
 62
3
 10
-166.060978581623890
 20
123.246083253854320
 11
-166.060978581623660
 21
174.585779614663380
  0
LINE
  8
0
  6
CONTINUOUS
 62
3
 10
-177.060978581623890
 20
125.441858591938310
 11
-179.060978581623890
 21
127.094500231061630
  0
LINE
  8
0
  6
CONTINUOUS
 62
3
 10
-175.060978581623890
 20
124.266073106315410
 11
-177.060978581623890
 21
125.441858591938310
  0
LINE
  8
0
  6
CONTINUOUS
 62
3
 10
-177.060978581623890
 20
125.441858591938310
 11
-175.060978581623890
 21
127.094500231061630
  0
LINE
  8
0
  6
CONTINUOUS
 62
3
 10
-179.060978581623890
 20
124.266073106315410
 11
-177.060978581623890
 21
125.441858591938310
  0
POLYLINE
  8
0
  6
CONTINUOUS
 62
3
 66
1
 70
1
  0
VERTEX
  8
0
  6
CONTINUOUS
 62
3
 10
-172.360978581623670
 20
127.258448660315850
  0
VERTEX
  8
0
  6
CONTINUOUS
 62
3
 10
-172.451287763728490
 20
127.961405626516210
  0
VERTEX
  8
0
  6
CONTINUOUS
 62
3
 10
-172.718744778820620
 20
128.637348350728300
  0
VERTEX
  8
0
  6
CONTINUOUS
 62
3
 10
-173.153071403801700
 20
129.260300733133700
  0
VERTEX
  8
0
  6
CONTINUOUS
 62
3
 10
-173.737576710046880
 20
129.806323063032270
  0
VERTEX
  8
0
  6
CONTINUOUS
 62
3
 10
-174.449798486431550
 20
130.254432008498900
  0
VERTEX
  8
0
  6
CONTINUOUS
 62
3
 10
-175.262366449507740
 20
130.587406994061640
  0
VERTEX
  8
0
  6
CONTINUOUS
 62
3
 10
-176.144054068147850
 20
130.792451977759900
  0
VERTEX
  8
0
  6
CONTINUOUS
 62
3
 10
-177.060978581623660
 20
130.861687195860670
  0
VERTEX
  8
0
  6
CONTINUOUS
 62
3
 10
-177.977903095099460
 20
130.792451977759900
  0
VERTEX
  8
0
  6
CONTINUOUS
 62
3
 10
-178.859590713739580
 20
130.587406994061640
  0
VERTEX
  8
0
  6
CONTINUOUS
 62
3
 10
-179.672158676815770
 20
130.254432008498900
  0
VERTEX
  8
0
  6
CONTINUOUS
 62
3
 10
-180.384380453200440
 20
129.806323063032270
  0
VERTEX
  8
0
  6
CONTINUOUS
 62
3
 10
-180.968885759445610
 20
129.260300733133700
  0
VERTEX
  8
0
  6
CONTINUOUS
 62
3
 10
-181.403212384426690
 20
128.637348350728300
  0
VERTEX
  8
0
  6
CONTINUOUS
 62
3
 10
-181.670669399518830
 20
127.961405626516210
  0
VERTEX
  8
0
  6
CONTINUOUS
 62
3
 10
-181.760978581623650
 20
127.258448660315850
  0
VERTEX
  8
0
  6
CONTINUOUS
 62
3
 10
-181.670669399518830
 20
126.555491694115480
  0
VERTEX
  8
0
  6
CONTINUOUS
 62
3
 10
-181.403212384426690
 20
125.879548969903390
  0
VERTEX
  8
0
  6
CONTINUOUS
 62
3
 10
-180.968885759445610
 20
125.256596587498000
  0
VERTEX
  8
0
  6
CONTINUOUS
 62
3
 10
-180.384380453200410
 20
124.710574257599430
  0
VERTEX
  8
0
  6
CONTINUOUS
 62
3
 10
-179.672158676815770
 20
124.262465312132800
  0
VERTEX
  8
0
  6
CONTINUOUS
 62
3
 10
-178.859590713739580
 20
123.929490326570040
  0
VERTEX
  8
0
  6
CONTINUOUS
 62
3
 10
-177.977903095099460
 20
123.724445342871800
  0
VERTEX
  8
0
  6
CONTINUOUS
 62
3
 10
-177.060978581623660
 20
123.655210124771030
  0
VERTEX
  8
0
  6
CONTINUOUS
 62
3
 10
-176.144054068147850
 20
123.724445342871800
  0
VERTEX
  8
0
  6
CONTINUOUS
 62
3
 10
-175.262366449507740
 20
123.929490326570040
  0
VERTEX
  8
0
  6
CONTINUOUS
 62
3
 10
-174.449798486431550
 20
124.262465312132810
  0
VERTEX
  8
0
  6
CONTINUOUS
 62
3
 10
-173.737576710046910
 20
124.710574257599430
  0
VERTEX
  8
0
  6
CONTINUOUS
 62
3
 10
-173.153071403801700
 20
125.256596587498000
  0
VERTEX
  8
0
  6
CONTINUOUS
 62
3
 10
-172.718744778820620
 20
125.879548969903390
  0
VERTEX
  8
0
  6
CONTINUOUS
 62
3
 10
-172.451287763728490
 20
126.555491694115480
  0
SEQEND
  8
0
  6
CONTINUOUS
 62
3
  0
LINE
  8
0
  6
CONTINUOUS
 62
3
 10
-83.860978581602694
 20
122.085779614663380
 11
-166.060978581623890
 21
122.085779614663380
  0
LINE
  8
0
  6
CONTINUOUS
 62
3
 10
-166.860978581602690
 20
83.085779614663380
 11
-166.860978581602690
 21
82.585779614663380
  0
LINE
  8
0
  6
CONTINUOUS
 62
3
 10
-158.860978581602690
 20
83.085779614663380
 11
-158.860978581602690
 21
82.585779614663380
  0
LINE
  8
0
  6
CONTINUOUS
 62
3
 10
-90.860978581602694
 20
83.085779614663380
 11
-90.860978581602694
 21
82.585779614663380
  0
LINE
  8
0
  6
CONTINUOUS
 62
3
 10
-98.860978581602694
 20
83.085779614663380
 11
-98.860978581602694
 21
82.585779614663380
  0
LINE
  8
0
  6
CONTINUOUS
 62
3
 10
-98.860978581602694
 20
82.585779614663380
 11
-90.860978581602694
 21
82.585779614663380
  0
LINE
  8
0
  6
CONTINUOUS
 62
3
 10
-166.860978581602690
 20
82.585779614663380
 11
-158.860978581602690
 21
82.585779614663380
  0
ARC
  8
0
  6
CONTINUOUS
 62
3
 10
-172.860978581602690
 20
84.085779614663380
 40
1.000000000000000
 50
180.000000000000000
 51
270.000000000000000
  0
LINE
  8
0
  6
CONTINUOUS
 62
3
 10
-172.860978581602690
 20
83.085779614663380
 11
-84.860978581602694
 21
83.085779614663380
  0
ARC
  8
0
  6
CONTINUOUS
 62
3
 10
-84.860978581602694
 20
84.085779614663380
 40
1.000000000000000
 50
270.000000000000000
 51
0.000000000000000
  0
LINE
  8
0
  6
CONTINUOUS
 62
3
 10
-83.860978581602694
 20
122.085779614663380
 11
-83.860978581602694
 21
84.085779614663380
  0
LINE
  8
0
  6
CONTINUOUS
 62
3
 10
-264.060978581623890
 20
126.742159481034060
 11
-264.060978581623890
 21
174.585779614663380
  0
LINE
  8
0
  6
CONTINUOUS
 62
3
 10
-255.381498119548040
 20
119.311247502310180
 11
-262.952277316136810
 21
124.612364165882720
  0
ARC
  8
0
  6
CONTINUOUS
 62
3
 10
-261.460978581623980
 20
126.742159481034060
 40
2.599999999999909
 50
180.000000000000000
 51
234.999999999998810
  0
ARC
  8
0
  6
CONTINUOUS
 62
3
 10
-243.565823530716670
 20
136.185779614663400
 40
20.599999999999891
 50
235.000000000000400
 51
270.000000000000000
  0
ARC
  8
0
  6
CONTINUOUS
 62
3
 10
-40.560978581602740
 20
251.588649235244250
 40
2.000000000000000
 50
270.000000000000000
 51
0.000000000000000
  0
ARC
  8
0
  6
CONTINUOUS
 62
3
 10
-40.560978581602740
 20
252.387651106363140
 40
2.000000000000000
 50
270.000000000000000
 51
0.000000000000000
  0
ARC
  8
0
  6
CONTINUOUS
 62
3
 10
-40.560978581602740
 20
253.186652977448380
 40
2.000000000000000
 50
270.000000000000000
 51
0.000000000000000
  0
ARC
  8
0
  6
CONTINUOUS
 62
3
 10
-40.560978581602740
 20
254.280289905725570
 40
2.000000000000000
 50
0.000000000000000
 51
90.000000000000000
  0
LINE
  8
0
  6
CONTINUOUS
 62
3
 10
-41.560978581602740
 20
256.280289905725570
 11
-40.560978581602740
 21
256.280289905725570
  0
LINE
  8
0
  6
CONTINUOUS
 62
3
 10
-40.560978581602740
 20
249.588649235244250
 11
-166.560978581602740
 21
249.588649235244250
  0
LINE
  8
0
  6
CONTINUOUS
 62
3
 10
-40.560978581602740
 20
250.387651106346310
 11
-166.560978581602740
 21
250.387651106346310
  0
LINE
  8
0
  6
CONTINUOUS
 62
3
 10
-38.560978581602740
 20
254.280289905725570
 11
-38.560978581602740
 21
251.588649235244250
  0
LINE
  8
0
  6
CONTINUOUS
 62
3
 10
-41.560978581602740
 20
238.085779614663350
 11
-41.560978581602740
 21
249.387651106363140
  0
LINE
  8
0
  6
CONTINUOUS
 62
3
 10
-160.560978581602740
 20
274.685779614663260
 11
-46.560978581602740
 21
274.685779614663260
  0
ARC
  8
0
  6
CONTINUOUS
 62
3
 10
-46.560978581602740
 20
269.685779614663260
 40
5.000000000000000
 50
0.000000000000000
 51
90.000000000000000
  0
LINE
  8
0
  6
CONTINUOUS
 62
3
 10
-165.560978581602740
 20
238.085779614663350
 11
-165.560978581602740
 21
249.588649235244250
  0
ARC
  8
0
  6
CONTINUOUS
 62
3
 10
-166.560978581602740
 20
251.588649235244250
 40
2.000000000000000
 50
180.000000000000000
 51
270.000000000000000
  0
LINE
  8
0
  6
CONTINUOUS
 62
3
 10
-168.560978581602740
 20
254.280289905725570
 11
-168.560978581602740
 21
251.588649235244250
  0
ARC
  8
0
  6
CONTINUOUS
 62
3
 10
-166.560978581602740
 20
252.387651106363140
 40
2.000000000000000
 50
180.000000000000000
 51
270.000000000000000
  0
ARC
  8
0
  6
CONTINUOUS
 62
3
 10
-166.560978581602740
 20
253.186652977448380
 40
2.000000000000000
 50
180.000000000000000
 51
270.000000000000000
  0
ARC
  8
0
  6
CONTINUOUS
 62
3
 10
-166.560978581602740
 20
254.280289905725570
 40
2.000000000000000
 50
90.000000000000000
 51
180.000000000000000
  0
ARC
  8
0
  6
CONTINUOUS
 62
3
 10
-160.560978581602740
 20
269.685779614663260
 40
5.000000000000000
 50
90.000000000000000
 51
180.000000000000000
  0
LINE
  8
0
  6
CONTINUOUS
 62
3
 10
-40.560978581602740
 20
251.186652977448380
 11
-166.560978581602740
 21
251.186652977448380
  0
LINE
  8
0
  6
CONTINUOUS
 62
3
 10
-165.560978581602740
 20
256.280289905725570
 11
-166.560978581602740
 21
256.280289905725570
  0
LINE
  8
0
  6
CONTINUOUS
 62
3
 10
-165.560978581602740
 20
256.746804674350190
 11
-165.560978581602740
 21
269.685779614663260
  0
LINE
  8
0
  6
CONTINUOUS
 62
3
 10
-41.560978581602740
 20
256.746804674350190
 11
-41.560978581602740
 21
269.685779614663260
  0
POLYLINE
  8
0
  6
CONTINUOUS
 62
3
 66
1
  0
VERTEX
  8
0
  6
CONTINUOUS
 62
3
 10
-162.060978581602740
 20
251.436341062168140
  0
VERTEX
  8
0
  6
CONTINUOUS
 62
3
 10
-161.993727063014030
 20
251.402242851972150
  0
VERTEX
  8
0
  6
CONTINUOUS
 62
3
 10
-161.794556945392230
 20
251.369455016871510
  0
VERTEX
  8
0
  6
CONTINUOUS
 62
3
 10
-161.471122224661660
 20
251.339237574981500
  0
VERTEX
  8
0
  6
CONTINUOUS
 62
3
 10
-161.035852315755650
 20
251.312751765647790
  0
VERTEX
  8
0
  6
CONTINUOUS
 62
3
 10
-160.505474397171350
 20
251.291015423669710
  0
VERTEX
  8
0
  6
CONTINUOUS
 62
3
 10
-159.900370594880540
 20
251.274863864479530
  0
VERTEX
  8
0
  6
CONTINUOUS
 62
3
 10
-159.243794708659180
 20
251.264917783439070
  0
VERTEX
  8
0
  6
CONTINUOUS
 62
3
 10
-158.560978581602740
 20
251.261559402864920
  0
VERTEX
  8
0
  6
CONTINUOUS
 62
3
 10
-157.878162454546300
 20
251.264917783439070
  0
VERTEX
  8
0
  6
CONTINUOUS
 62
3
 10
-157.221586568324940
 20
251.274863864479530
  0
VERTEX
  8
0
  6
CONTINUOUS
 62
3
 10
-156.616482766034120
 20
251.291015423669710
  0
VERTEX
  8
0
  6
CONTINUOUS
 62
3
 10
-156.086104847449830
 20
251.312751765647790
  0
VERTEX
  8
0
  6
CONTINUOUS
 62
3
 10
-155.650834938543820
 20
251.339237574981500
  0
VERTEX
  8
0
  6
CONTINUOUS
 62
3
 10
-155.327400217813250
 20
251.369455016871510
  0
VERTEX
  8
0
  6
CONTINUOUS
 62
3
 10
-155.128230100191440
 20
251.402242851972150
  0
VERTEX
  8
0
  6
CONTINUOUS
 62
3
 10
-155.060978581602740
 20
251.436341062168140
  0
SEQEND
  8
0
  6
CONTINUOUS
 62
3
  0
ARC
  8
0
  6
CONTINUOUS
 62
3
 10
-156.360978581602920
 20
252.423350800092520
 40
1.300000000000182
 50
0.000000000000000
 51
73.398450400977637
  0
ARC
  8
0
  6
CONTINUOUS
 62
3
 10
-158.560978581602740
 20
245.044326474343050
 40
9.000000000000123
 50
73.398450400980877
 51
106.601549599019120
  0
ARC
  8
0
  6
CONTINUOUS
 62
3
 10
-160.760978581602560
 20
252.423350800092520
 40
1.300000000000019
 50
106.601549599022360
 51
180.000000000000000
  0
LINE
  8
0
  6
CONTINUOUS
 62
3
 10
-155.060978581602740
 20
252.423350800092520
 11
-155.060978581602740
 21
251.436341062168140
  0
LINE
  8
0
  6
CONTINUOUS
 62
3
 10
-162.060978581602740
 20
252.423350800092520
 11
-162.060978581602740
 21
251.436341062168140
  0
ARC
  8
0
  6
CONTINUOUS
 62
3
 10
-160.560978581602740
 20
256.746804674350190
 40
5.000000000000000
 50
180.000000000000000
 51
252.542396876278160
  0
LINE
  8
0
  6
CONTINUOUS
 62
3
 10
-52.060978581602740
 20
252.423350800092520
 11
-52.060978581602740
 21
251.436341062168140
  0
POLYLINE
  8
0
  6
CONTINUOUS
 62
3
 66
1
  0
VERTEX
  8
0
  6
CONTINUOUS
 62
3
 10
-52.060978581602740
 20
251.436341062168140
  0
VERTEX
  8
0
  6
CONTINUOUS
 62
3
 10
-51.993727063014049
 20
251.402242851972150
  0
VERTEX
  8
0
  6
CONTINUOUS
 62
3
 10
-51.794556945392245
 20
251.369455016871510
  0
VERTEX
  8
0
  6
CONTINUOUS
 62
3
 10
-51.471122224661649
 20
251.339237574981500
  0
VERTEX
  8
0
  6
CONTINUOUS
 62
3
 10
-51.035852315755655
 20
251.312751765647790
  0
VERTEX
  8
0
  6
CONTINUOUS
 62
3
 10
-50.505474397171348
 20
251.291015423669710
  0
VERTEX
  8
0
  6
CONTINUOUS
 62
3
 10
-49.900370594880556
 20
251.274863864479530
  0
VERTEX
  8
0
  6
CONTINUOUS
 62
3
 10
-49.243794708659188
 20
251.264917783439070
  0
VERTEX
  8
0
  6
CONTINUOUS
 62
3
 10
-48.560978581602740
 20
251.261559402864920
  0
VERTEX
  8
0
  6
CONTINUOUS
 62
3
 10
-47.878162454546292
 20
251.264917783439070
  0
VERTEX
  8
0
  6
CONTINUOUS
 62
3
 10
-47.221586568324923
 20
251.274863864479530
  0
VERTEX
  8
0
  6
CONTINUOUS
 62
3
 10
-46.616482766034132
 20
251.291015423669710
  0
VERTEX
  8
0
  6
CONTINUOUS
 62
3
 10
-46.086104847449825
 20
251.312751765647790
  0
VERTEX
  8
0
  6
CONTINUOUS
 62
3
 10
-45.650834938543831
 20
251.339237574981500
  0
VERTEX
  8
0
  6
CONTINUOUS
 62
3
 10
-45.327400217813235
 20
251.369455016871510
  0
VERTEX
  8
0
  6
CONTINUOUS
 62
3
 10
-45.128230100191438
 20
251.402242851972150
  0
VERTEX
  8
0
  6
CONTINUOUS
 62
3
 10
-45.060978581602740
 20
251.436341062168140
  0
SEQEND
  8
0
  6
CONTINUOUS
 62
3
  0
LINE
  8
0
  6
CONTINUOUS
 62
3
 10
-45.060978581602740
 20
252.423350800092520
 11
-45.060978581602740
 21
251.436341062168140
  0
ARC
  8
0
  6
CONTINUOUS
 62
3
 10
-50.760978581602558
 20
252.423350800092520
 40
1.300000000000019
 50
106.601549599022360
 51
180.000000000000000
  0
ARC
  8
0
  6
CONTINUOUS
 62
3
 10
-48.560978581602740
 20
245.044326474343050
 40
9.000000000000123
 50
73.398450400980877
 51
106.601549599019120
  0
ARC
  8
0
  6
CONTINUOUS
 62
3
 10
-46.360978581602922
 20
252.423350800092520
 40
1.300000000000182
 50
0.000000000000000
 51
73.398450400977637
  0
ARC
  8
0
  6
CONTINUOUS
 62
3
 10
-46.560978581602740
 20
256.746804674350190
 40
5.000000000000072
 50
287.457603123721870
 51
0.000000000000000
  0
LINE
  8
0
  6
CONTINUOUS
 62
3
 10
-52.060978581602740
 20
251.746804674350190
 11
-155.060978581602740
 21
251.746804674350190
  0
LINE
  8
0
  6
CONTINUOUS
 62
3
 10
-165.560978581602740
 20
233.085779614663350
 11
-41.560978581602740
 21
233.085779614663350
  0
ARC
  8
0
  6
CONTINUOUS
 62
3
 10
-46.560978581602740
 20
238.085779614663350
 40
5.000000000000000
 50
270.000000000000000
 51
0.000000000000000
  0
LINE
  8
0
  6
DASHDOT
 62
3
 10
-41.560978581602740
 20
228.085779614663350
 11
-41.560978581602740
 21
233.085779614663350
  0
LINE
  8
0
  6
DASHDOT
 62
3
 10
-41.560978581602740
 20
228.085779614663350
 11
-41.560978581602740
 21
233.085779614663350
  0
LINE
  8
0
  6
CONTINUOUS
 62
3
 10
-165.560978581602740
 20
228.085779614663350
 11
-165.560978581602740
 21
233.085779614663350
  0
ARC
  8
0
  6
CONTINUOUS
 62
3
 10
-160.560978581602740
 20
238.085779614663350
 40
5.000000000000000
 50
180.000000000000000
 51
270.000000000000000
  0
LINE
  8
0
  6
DASHDOT
 62
4
 10
204.487183477266170
 20
54.377626812940889
 11
150.555624083283420
 21
54.377626812940889
  0
LINE
  8
0
  6
DASHDOT
 62
4
 10
204.487183477266170
 20
294.793932416366720
 11
150.555624083283420
 21
294.793932416366720
  0
LINE
  8
0
  6
CONTINUOUS
 62
3
 10
195.439042823746600
 20
314.585765950076170
 11
180.439042823746380
 21
314.585765950076170
  0
LINE
  8
0
  6
CONTINUOUS
 62
3
 10
198.439042823746600
 20
304.585765950076170
 11
195.439042823746830
 21
304.585765950076170
  0
LINE
  8
0
  6
CONTINUOUS
 62
3
 10
207.939042823746600
 20
215.585765950076170
 11
207.939042823746600
 21
133.585765950076190
  0
LINE
  8
0
  6
CONTINUOUS
 62
3
 10
198.439042823746830
 20
44.585779614663352
 11
195.439042823746380
 21
44.585779614663352
  0
LINE
  8
0
  6
CONTINUOUS
 62
3
 10
198.439042823746600
 20
304.585765950076170
 11
199.439042823746600
 21
303.585765950076170
  0
LINE
  8
0
  6
CONTINUOUS
 62
3
 10
206.939042798837140
 20
133.585765950076190
 11
207.939042823746600
 21
133.585765950076190
  0
LINE
  8
0
  6
CONTINUOUS
 62
3
 10
199.439042823746830
 20
45.585779614663352
 11
198.439042823746830
 21
44.585779614663352
  0
LINE
  8
0
  6
CONTINUOUS
 62
3
 10
206.939042798837140
 20
215.585765950076170
 11
207.939042823746600
 21
215.585765950076170
  0
ARC
  8
0
  6
CONTINUOUS
 62
3
 10
180.439042823746380
 20
311.585765950076170
 40
3.000000000000000
 50
90.000000000000000
 51
180.000000000000000
  0
ARC
  8
0
  6
CONTINUOUS
 62
3
 10
171.439042823746600
 20
300.854529039247150
 40
5.999999999999986
 50
271.999999999999320
 51
0.000000000000000
  0
ARC
  8
0
  6
CONTINUOUS
 62
3
 10
206.939042798837140
 20
216.585765974985410
 40
1.000000024909241
 50
180.000000000000000
 51
270.000000000000000
  0
ARC
  8
0
  6
CONTINUOUS
 62
3
 10
206.939042798837140
 20
132.585765925166950
 40
1.000000024909241
 50
90.000000000000000
 51
180.000000000000000
  0
ARC
  8
0
  6
CONTINUOUS
 62
3
 10
202.939042773926990
 20
124.432645985633400
 40
2.999999999999937
 50
273.000000000001360
 51
0.000000000000000
  0
ARC
  8
0
  6
CONTINUOUS
 62
3
 10
202.939042773926990
 20
224.739111616810080
 40
3.000000000000000
 50
0.000000000000000
 51
86.999999999998678
  0
LINE
  8
0
  6
CONTINUOUS
 62
3
 10
203.096050642655880
 20
121.436757381369740
 11
199.439042823746830
 21
121.245101722759980
  0
ARC
  8
0
  6
CONTINUOUS
 62
3
 10
180.439042823746380
 20
37.585793279250538
 40
2.999999999999773
 50
180.000000000000000
 51
270.000000000000000
  0
LINE
  8
0
  6
CONTINUOUS
 62
3
 10
195.439042823746380
 20
34.585779614663352
 11
180.439042823746380
 21
34.585779614663352
  0
LINE
  8
0
  6
CONTINUOUS
 62
3
 10
177.439042823746600
 20
311.585765950076170
 11
177.439042823746600
 21
37.585793279250538
  0
LINE
  8
0
  6
CONTINUOUS
 62
3
 10
199.439042823746830
 20
227.926655879683490
 11
203.096050642655880
 21
227.735000221073730
  0
LINE
  8
0
  6
CONTINUOUS
 62
3
 10
199.439042823746600
 20
303.585765950076170
 11
199.439042823746830
 21
174.585779614663380
  0
LINE
  8
0
  6
CONTINUOUS
 62
3
 10
195.439042823746600
 20
314.585765950076170
 11
195.439042823749790
 21
174.585779614663380
  0
LINE
  8
0
  6
CONTINUOUS
 62
3
 10
205.939042773926990
 20
224.739111616810080
 11
205.939042773926990
 21
174.585779614663380
  0
LINE
  8
0
  6
CONTINUOUS
 62
3
 10
205.939042773926990
 20
124.432645985633400
 11
205.939042773926990
 21
174.585779614663380
  0
LINE
  8
0
  6
CONTINUOUS
 62
3
 10
199.439042823746830
 20
45.585779614663352
 11
199.439042823746830
 21
174.585779614663380
  0
LINE
  8
0
  6
CONTINUOUS
 62
3
 10
195.439042823746380
 20
34.585779614663352
 11
195.439042823746380
 21
174.585779614663380
  0
ARC
  8
0
  6
CONTINUOUS
 62
3
 10
174.439042823746600
 20
75.698862338311756
 40
3.000000000000000
 50
0.000000000000000
 51
37.200872172621544
  0
LINE
  8
0
  6
CONTINUOUS
 62
3
 10
156.817567480829890
 20
103.875431032820440
 11
176.828604967404090
 21
77.512696057702243
  0
ARC
  8
0
  6
CONTINUOUS
 62
3
 10
154.428005337172180
 20
102.061597313429530
 40
3.000000000000254
 50
37.200872172625409
 51
90.000000000000000
  0
ARC
  8
0
  6
CONTINUOUS
 62
3
 10
154.428005337172180
 20
96.222762548597103
 40
3.000000000000254
 50
37.200872172625409
 51
90.000000000000000
  0
ARC
  8
0
  6
CONTINUOUS
 62
3
 10
174.439042823746600
 20
69.860027573479329
 40
3.000000000000000
 50
0.000000000000000
 51
37.200872172621111
  0
LINE
  8
0
  6
CONTINUOUS
 62
3
 10
156.817567480829890
 20
98.036596267988017
 11
176.828604967404090
 21
71.673861292869788
  0
LINE
  8
0
  6
CONTINUOUS
 62
3
 10
174.407060671114550
 20
105.061597313429530
 11
158.810238868449910
 21
105.061597313429530
  0
ARC
  8
0
  6
CONTINUOUS
 62
3
 10
154.428005337172180
 20
247.109961915897200
 40
3.000000000000000
 50
270.000000000000000
 51
322.799127827374600
  0
ARC
  8
0
  6
CONTINUOUS
 62
3
 10
174.439042823746600
 20
273.472696891014950
 40
2.999999999999797
 50
322.799127827378920
 51
0.000000000000000
  0
ARC
  8
0
  6
CONTINUOUS
 62
3
 10
154.428005337172180
 20
252.948796680729630
 40
3.000000000000000
 50
270.000000000000000
 51
322.799127827374600
  0
ARC
  8
0
  6
CONTINUOUS
 62
3
 10
174.439042823746600
 20
279.311531655847380
 40
2.999999999999797
 50
322.799127827378920
 51
0.000000000000000
  0
LINE
  8
0
  6
CONTINUOUS
 62
3
 10
156.817567480829890
 20
251.134962961338720
 11
176.828604967404090
 21
277.497697936456920
  0
ARC
  8
0
  6
CONTINUOUS
 62
3
 10
158.917189810266340
 20
180.835779614663380
 40
3.000000000000000
 50
180.000000000000000
 51
270.000000000000000
  0
LINE
  8
0
  6
CONTINUOUS
 62
3
 10
156.817567480829890
 20
245.296128196506290
 11
176.828604967404090
 21
271.658863171624490
  0
ARC
  8
0
  6
CONTINUOUS
 62
3
 10
158.917189810266340
 20
168.335779614663380
 40
3.000000000000000
 50
90.000000000000000
 51
180.000000000000000
  0
ARC
  8
0
  6
CONTINUOUS
 62
3
 10
174.439042823746600
 20
168.335779614663380
 40
3.000000000000000
 50
0.000000000000000
 51
90.000000000000000
  0
ARC
  8
0
  6
CONTINUOUS
 62
3
 10
174.439042823746600
 20
180.835779614663380
 40
3.000000000000000
 50
270.000000000000000
 51
0.000000000000000
  0
LINE
  8
0
  6
CONTINUOUS
 62
3
 10
174.407060671114550
 20
244.109961915897200
 11
158.810238868449910
 21
244.109961915897200
  0
LINE
  8
0
  6
CONTINUOUS
 62
3
 10
158.917189810266340
 20
171.335779614663380
 11
174.439042823746600
 21
171.335779614663380
  0
LINE
  8
0
  6
CONTINUOUS
 62
3
 10
158.917189810266340
 20
177.835779614663380
 11
174.439042823746600
 21
177.835779614663380
  0
ARC
  8
0
  6
CONTINUOUS
 62
3
 10
171.439042823746600
 20
48.317030190079549
 40
6.000000000000000
 50
0.000000000000000
 51
88.000000000000682
  0
LINE
  8
0
  6
CONTINUOUS
 62
3
 10
214.939042823745690
 20
154.585765950076190
 11
214.939042823745690
 21
151.585765950076190
  0
ARC
  8
0
  6
CONTINUOUS
 62
3
 10
211.539042823745600
 20
196.035765950076010
 40
1.599999999999909
 50
180.000000000000000
 51
270.000000000000000
  0
LINE
  8
0
  6
CONTINUOUS
 62
3
 10
212.439049949614400
 20
194.435765950075650
 11
211.539042823745600
 21
194.435765950075650
  0
LINE
  8
0
  6
CONTINUOUS
 62
3
 10
209.539042823745600
 20
197.085765950076190
 11
209.939042823745690
 21
196.685765950075650
  0
LINE
  8
0
  6
CONTINUOUS
 62
3
 10
209.539042823745600
 20
197.085765950076190
 11
207.939042823746600
 21
197.085765950076190
  0
LINE
  8
0
  6
CONTINUOUS
 62
3
 10
209.939042823745690
 20
174.585765950076190
 11
209.939042823745690
 21
196.685765950075650
  0
LINE
  8
0
  6
CONTINUOUS
 62
3
 10
212.998857570749810
 20
194.585765950075280
 11
212.439049949614400
 21
194.435765950075650
  0
LINE
  8
0
  6
CONTINUOUS
 62
3
 10
209.539042823745600
 20
152.085765950076190
 11
207.939042823746600
 21
152.085765950076190
  0
ARC
  8
0
  6
CONTINUOUS
 62
3
 10
211.539042823745600
 20
153.135765950076380
 40
1.599999999999454
 50
90.000000000000000
 51
180.000000000000000
  0
LINE
  8
0
  6
CONTINUOUS
 62
3
 10
212.439049949614400
 20
154.735765950075830
 11
211.539042823745600
 21
154.735765950075830
  0
LINE
  8
0
  6
CONTINUOUS
 62
3
 10
209.539042823745600
 20
152.085765950076190
 11
209.939042823745690
 21
152.485765950075830
  0
LINE
  8
0
  6
CONTINUOUS
 62
3
 10
209.939042823745690
 20
174.585765950076190
 11
209.939042823745690
 21
152.485765950075830
  0
LINE
  8
0
  6
CONTINUOUS
 62
3
 10
212.998857570749810
 20
154.585765950076190
 11
212.439049949614400
 21
154.735765950075830
  0
LINE
  8
0
  6
CONTINUOUS
 62
3
 10
269.939049949614400
 20
151.585765950076190
 11
214.939049949614400
 21
151.585765950076190
  0
LINE
  8
0
  6
CONTINUOUS
 62
3
 10
269.539042823745600
 20
194.585765950076190
 11
212.998857570750260
 21
194.585765950075280
  0
LINE
  8
0
  6
CONTINUOUS
 62
3
 10
269.539042823745600
 20
154.585765950076190
 11
212.998857570750260
 21
154.585765950076190
  0
LINE
  8
0
  6
CONTINUOUS
 62
3
 10
195.439042823747970
 20
254.849681933419560
 11
191.439042823747970
 21
254.849681933419560
  0
LINE
  8
0
  6
CONTINUOUS
 62
3
 10
195.439042823747290
 20
286.301508367181670
 11
191.439042823747290
 21
286.301508367181670
  0
ARC
  8
0
  6
CONTINUOUS
 62
3
 10
191.439042823747970
 20
251.849681933419560
 40
3.000000000000000
 50
90.000000000000000
 51
180.000000000000000
  0
LINE
  8
0
  6
CONTINUOUS
 62
3
 10
188.439042823747290
 20
283.301508367181670
 11
188.439042823749790
 21
174.585779614663380
  0
ARC
  8
0
  6
CONTINUOUS
 62
3
 10
191.439042823747290
 20
283.301508367181670
 40
3.000000000000000
 50
90.000000000000000
 51
180.000000000000000
  0
LINE
  8
0
  6
CONTINUOUS
 62
3
 10
195.439042823747970
 20
94.321877295907115
 11
191.439042823747970
 21
94.321877295907115
  0
LINE
  8
0
  6
CONTINUOUS
 62
3
 10
195.439042823747290
 20
62.870050862145035
 11
191.439042823747290
 21
62.870050862145035
  0
ARC
  8
0
  6
CONTINUOUS
 62
3
 10
191.439042823747970
 20
97.321877295907115
 40
3.000000000000000
 50
179.999999999998890
 51
270.000000000000000
  0
LINE
  8
0
  6
CONTINUOUS
 62
3
 10
188.439042823747290
 20
65.870050862145149
 11
188.439042823749790
 21
174.585779614663380
  0
ARC
  8
0
  6
CONTINUOUS
 62
3
 10
191.439042823747290
 20
65.870050862145035
 40
3.000000000000000
 50
179.999999999997840
 51
270.000000000000000
  0
LINE
  8
0
  6
CONTINUOUS
 62
3
 10
30.939036772539566
 20
174.585779614663380
 11
30.939036772539566
 21
94.085779614663494
  0
ARC
  8
0
  6
CONTINUOUS
 62
3
 10
33.939036772539566
 20
94.085779614663494
 40
3.000000000000000
 50
180.000000000000000
 51
270.000000000000000
  0
LINE
  8
0
  6
CONTINUOUS
 62
3
 10
33.939036772539566
 20
91.085779614663494
 11
40.939036772539566
 21
91.085779614663494
  0
LINE
  8
0
  6
CONTINUOUS
 62
3
 10
30.939036772539566
 20
174.585779614663380
 11
30.939036772539566
 21
255.085779614663350
  0
ARC
  8
0
  6
CONTINUOUS
 62
3
 10
33.939036772539566
 20
255.085779614663350
 40
3.000000000000000
 50
90.000000000000000
 51
180.000000000000000
  0
LINE
  8
0
  6
CONTINUOUS
 62
3
 10
33.939036772539566
 20
258.085779614663350
 11
40.939036772539566
 21
258.085779614663350
  0
LINE
  8
0
  6
CONTINUOUS
 62
3
 10
77.439036772540931
 20
57.585779614663579
 11
77.439036772540476
 21
174.585779614663150
  0
ARC
  8
0
  6
CONTINUOUS
 62
3
 10
61.439036772540931
 20
83.585779614663153
 40
2.000000000000000
 50
90.000000000000000
 51
180.000000000000000
  0
LINE
  8
0
  6
CONTINUOUS
 62
3
 10
64.439036772540931
 20
85.585779614662698
 11
61.439036772540931
 21
85.585779614663153
  0
ARC
  8
0
  6
CONTINUOUS
 62
3
 10
64.439036772540931
 20
87.585779614662698
 40
2.000000000000000
 50
270.000000000000000
 51
0.000000000000000
  0
LINE
  8
0
  6
CONTINUOUS
 62
3
 10
59.439036772540931
 20
83.585779614663153
 11
59.439036772540931
 21
60.585779614663124
  0
LINE
  8
0
  6
CONTINUOUS
 62
3
 10
77.939036772540703
 20
57.585779614663579
 11
62.439036772540931
 21
57.585779614663124
  0
ARC
  8
0
  6
CONTINUOUS
 62
3
 10
62.439036772540931
 20
60.585779614663124
 40
3.000000000000000
 50
180.000000000000000
 51
270.000000000000000
  0
LINE
  8
0
  6
CONTINUOUS
 62
3
 10
58.439037726215247
 20
74.219655461525917
 11
58.439037726215247
 21
62.951709218239785
  0
LINE
  8
0
  6
CONTINUOUS
 62
3
 10
58.939038364072985
 20
75.085779638731537
 11
58.439038337925922
 21
74.219655498597376
  0
LINE
  8
0
  6
CONTINUOUS
 62
3
 10
58.939038990700283
 20
62.085779637364112
 11
58.439038040507057
 21
62.951709208432703
  0
LINE
  8
0
  6
CONTINUOUS
 62
3
 10
58.939037726215247
 20
75.085779614663124
 11
58.939037726215247
 21
62.085779614663124
  0
LINE
  8
0
  6
CONTINUOUS
 62
3
 10
59.439036772540931
 20
62.085779614663124
 11
58.939038679889563
 21
62.085779614663124
  0
LINE
  8
0
  6
CONTINUOUS
 62
3
 10
59.439036772540931
 20
75.085779614663238
 11
58.939037726215247
 21
75.085779614663124
  0
ARC
  8
0
  6
CONTINUOUS
 62
3
 10
69.439036772540931
 20
60.585779614663124
 40
3.000000000000000
 50
180.000000000000000
 51
270.000000000000000
  0
ARC
  8
0
  6
CONTINUOUS
 62
3
 10
63.439036772540931
 20
151.085779614663150
 40
3.000000000000000
 50
0.000000000000000
 51
90.000000000000000
  0
ARC
  8
0
  6
CONTINUOUS
 62
3
 10
57.439036772540931
 20
157.085779614663150
 40
3.000000000000000
 50
180.000000000000000
 51
270.000000000000000
  0
LINE
  8
0
  6
CONTINUOUS
 62
3
 10
54.439036772540931
 20
174.585779614663150
 11
54.439036772540931
 21
154.085779614663150
  0
LINE
  8
0
  6
CONTINUOUS
 62
3
 10
49.939036772530017
 20
154.085779614663150
 11
49.939036772531381
 21
174.585779614663150
  0
LINE
  8
0
  6
CONTINUOUS
 62
3
 10
49.939036772530017
 20
154.085779614663150
 11
54.439036772540931
 21
154.085779614663150
  0
LINE
  8
0
  6
CONTINUOUS
 62
3
 10
57.439036772540931
 20
154.085779614663150
 11
63.439036772540931
 21
154.085779614663150
  0
LINE
  8
0
  6
CONTINUOUS
 62
3
 10
66.439036772540931
 20
60.585779614663124
 11
66.439036772540931
 21
151.085779614663150
  0
LINE
  8
0
  6
CONTINUOUS
 62
3
 10
40.939036772534109
 20
91.155653276102186
 11
61.613534256053299
 21
90.433683915121748
  0
LINE
  8
0
  6
CONTINUOUS
 62
3
 10
40.939036772534109
 20
91.155653276102186
 11
40.939036772539566
 21
174.585779614663380
  0
ARC
  8
0
  6
CONTINUOUS
 62
3
 10
61.439036772540476
 20
85.436729780027036
 40
4.999999999999970
 50
15.348930286009365
 51
87.999999999996049
  0
LINE
  8
0
  6
CONTINUOUS
 62
3
 10
77.439036772540703
 20
291.585779614662670
 11
77.439036772540476
 21
174.585779614663150
  0
ARC
  8
0
  6
CONTINUOUS
 62
3
 10
61.439036772540931
 20
265.585779614663120
 40
2.000000000000000
 50
180.000000000000000
 51
270.000000000000000
  0
LINE
  8
0
  6
CONTINUOUS
 62
3
 10
64.439036772540931
 20
263.585779614663580
 11
61.439036772540931
 21
263.585779614663120
  0
ARC
  8
0
  6
CONTINUOUS
 62
3
 10
64.439036772540931
 20
261.585779614663580
 40
2.000000000000000
 50
0.000000000000000
 51
90.000000000000000
  0
LINE
  8
0
  6
CONTINUOUS
 62
3
 10
59.439036772540931
 20
265.585779614663120
 11
59.439036772540703
 21
288.585779614663120
  0
LINE
  8
0
  6
CONTINUOUS
 62
3
 10
77.939036772540703
 20
291.585779614662670
 11
62.439036772540703
 21
291.585779614663120
  0
ARC
  8
0
  6
CONTINUOUS
 62
3
 10
62.439036772540703
 20
288.585779614663120
 40
3.000000000000000
 50
90.000000000000000
 51
180.000000000000000
  0
LINE
  8
0
  6
CONTINUOUS
 62
3
 10
58.439037726215020
 20
274.951903767800330
 11
58.439037726215020
 21
286.219850011086460
  0
LINE
  8
0
  6
CONTINUOUS
 62
3
 10
58.939038364072758
 20
274.085779590594710
 11
58.439038337925695
 21
274.951903730728870
  0
LINE
  8
0
  6
CONTINUOUS
 62
3
 10
58.939038990700055
 20
287.085779591962140
 11
58.439038040506830
 21
286.219850020893550
  0
LINE
  8
0
  6
CONTINUOUS
 62
3
 10
58.939037726215020
 20
274.085779614663120
 11
58.939037726215020
 21
287.085779614663120
  0
LINE
  8
0
  6
CONTINUOUS
 62
3
 10
59.439036772540703
 20
287.085779614663120
 11
58.939038679889336
 21
287.085779614663120
  0
LINE
  8
0
  6
CONTINUOUS
 62
3
 10
59.439036772540931
 20
274.085779614663120
 11
58.939037726215020
 21
274.085779614663120
  0
ARC
  8
0
  6
CONTINUOUS
 62
3
 10
69.439036772540703
 20
288.585779614663120
 40
3.000000000000000
 50
90.000000000000000
 51
180.000000000000000
  0
ARC
  8
0
  6
CONTINUOUS
 62
3
 10
63.439036772540931
 20
198.085779614663150
 40
3.000000000000000
 50
270.000000000000000
 51
0.000000000000000
  0
ARC
  8
0
  6
CONTINUOUS
 62
3
 10
57.439036772540931
 20
192.085779614663150
 40
3.000000000000000
 50
90.000000000000000
 51
180.000000000000000
  0
LINE
  8
0
  6
CONTINUOUS
 62
3
 10
54.439036772540931
 20
174.585779614663150
 11
54.439036772540931
 21
195.085779614663150
  0
LINE
  8
0
  6
CONTINUOUS
 62
3
 10
49.939036772530017
 20
195.085779614663150
 11
49.939036772531381
 21
174.585779614663150
  0
LINE
  8
0
  6
CONTINUOUS
 62
3
 10
49.939036772530017
 20
195.085779614663150
 11
54.439036772540931
 21
195.085779614663150
  0
LINE
  8
0
  6
CONTINUOUS
 62
3
 10
57.439036772540931
 20
195.085779614663150
 11
63.439036772540931
 21
195.085779614663150
  0
LINE
  8
0
  6
CONTINUOUS
 62
3
 10
66.439036772540703
 20
288.585779614663120
 11
66.439036772540931
 21
198.085779614663150
  0
LINE
  8
0
  6
CONTINUOUS
 62
3
 10
40.939036772534109
 20
258.015905953224090
 11
61.613534256053299
 21
258.737875314204530
  0
LINE
  8
0
  6
CONTINUOUS
 62
3
 10
40.939036772534109
 20
258.015905953224090
 11
40.939036772539566
 21
174.585779614663380
  0
ARC
  8
0
  6
CONTINUOUS
 62
3
 10
61.439036772540476
 20
263.734829449299240
 40
4.999999999999244
 50
272.000000000003920
 51
344.651069713990640
  0
LINE
  8
0
  6
CONTINUOUS
 62
3
 10
77.939036772540476
 20
291.585779614663350
 11
171.648439803961540
 21
294.858184077132590
  0
LINE
  8
0
  6
CONTINUOUS
 62
3
 10
77.939036772540476
 20
291.585779614663810
 11
77.939036772540476
 21
57.585779614663352
  0
LINE
  8
0
  6
CONTINUOUS
 62
3
 10
77.939036772540476
 20
57.585779614663352
 11
171.648439803961540
 21
54.313375152194112
  0
LINE
  8
0
  6
DASHDOT
 62
4
 10
-292.216811763405760
 20
174.585779614663380
 11
286.885094073991010
 21
174.585779614663380
  0
LINE
  8
0
  6
CONTINUOUS
 62
3
 10
-9.060978581603649
 20
192.585779614663380
 11
-9.060978581603649
 21
223.085779614663350
  0
ARC
  8
0
  6
CONTINUOUS
 62
3
 10
-14.060978581603649
 20
223.085779614663350
 40
5.000000000000000
 50
0.000000000000000
 51
90.000000000000000
  0
LINE
  8
0
  6
CONTINUOUS
 62
3
 10
-6.060978581603649
 20
189.585779614663380
 11
27.939036772534109
 21
189.585779614663380
  0
ARC
  8
0
  6
CONTINUOUS
 62
3
 10
-6.060978581603649
 20
192.585779614663380
 40
3.000000000000000
 50
180.000000000000000
 51
270.000000000000000
  0
ARC
  8
0
  6
CONTINUOUS
 62
3
 10
27.939036772534109
 20
192.585779614663380
 40
3.000000000000000
 50
270.000000000000000
 51
0.000000000000000
  0
LINE
  8
0
  6
DASHDOT
 62
4
 10
9.939036772534109
 20
160.835014806513560
 11
9.939036772534109
 21
188.611097578154640
  0
LINE
  8
0
  6
CONTINUOUS
 62
3
 10
-6.060978581603649
 20
159.585779614663380
 11
27.939036772534109
 21
159.585779614663380
  0
ARC
  8
0
  6
CONTINUOUS
 62
3
 10
-6.060978581603649
 20
156.585779614663380
 40
3.000000000000000
 50
90.000000000000000
 51
180.000000000000000
  0
CIRCLE
  8
0
  6
CONTINUOUS
 62
3
 10
9.939036772534109
 20
174.585779614663380
 40
10.500000000000000
  0
LINE
  8
0
  6
CONTINUOUS
 62
3
 10
-9.060978581603649
 20
156.585779614663380
 11
-9.060978581603649
 21
126.085779614663380
  0
ARC
  8
0
  6
CONTINUOUS
 62
3
 10
27.939036772534109
 20
156.585779614663380
 40
3.000000000000000
 50
0.000000000000000
 51
90.000000000000000
  0
ARC
  8
0
  6
CONTINUOUS
 62
3
 10
-14.060978581603649
 20
126.085779614663380
 40
5.000000000000000
 50
270.000000000000000
 51
0.000000000000000
  0
LINE
  8
0
  6
CONTINUOUS
 62
3
 10
26.939047937596570
 20
228.085779614663350
 11
-25.560978581613654
 21
228.085779614663350
  0
LINE
  8
0
  6
CONTINUOUS
 62
3
 10
26.939495678377853
 20
121.085779614663380
 11
-25.560978581613654
 21
121.085779614663380
  0
LINE
  8
0
  6
CONTINUOUS
 62
3
 10
-25.560978581602740
 20
174.585779614663490
 11
-25.560978581608197
 21
228.085779614663350
  0
LINE
  8
0
  6
CONTINUOUS
 62
3
 10
30.939036772539566
 20
198.085779614663380
 11
40.939036772537975
 21
198.085779614663380
  0
LINE
  8
0
  6
CONTINUOUS
 62
3
 10
30.939036772539566
 20
212.751779614663290
 11
40.939036772537065
 21
212.751779614663290
  0
LINE
  8
0
  6
CONTINUOUS
 62
3
 10
30.939036772539566
 20
229.399779614663430
 11
40.939036772535928
 21
229.399779614663430
  0
LINE
  8
0
  6
CONTINUOUS
 62
3
 10
30.939036772539566
 20
119.771779614663300
 11
40.939036772535928
 21
119.771779614663300
  0
LINE
  8
0
  6
CONTINUOUS
 62
3
 10
30.939036772539566
 20
136.419779614663440
 11
40.939036772537065
 21
136.419779614663440
  0
LINE
  8
0
  6
CONTINUOUS
 62
3
 10
30.939036772539566
 20
151.085779614663380
 11
40.939036772537975
 21
151.085779614663380
  0
ARC
  8
0
  6
CONTINUOUS
 62
3
 10
269.539042823745600
 20
154.985765950075830
 40
0.399999999999636
 50
270.000000000000000
 51
0.000000000000000
  0
LINE
  8
0
  6
CONTINUOUS
 62
3
 10
269.939042823745690
 20
174.585765950076190
 11
269.939042823745690
 21
151.585765950076190
  0
LINE
  8
0
  6
CONTINUOUS
 62
3
 10
269.939042823745690
 20
174.585765950076190
 11
269.939042823745690
 21
194.185765950075650
  0
ARC
  8
0
  6
CONTINUOUS
 62
3
 10
269.539042823745600
 20
194.185765950075650
 40
0.400000000000091
 50
0.000000000000000
 51
90.000000000000000
  0
ARC
  8
0
  6
CONTINUOUS
 62
3
 10
-454.011620127843340
 20
-92.781969196249946
 40
10.000000000000000
 50
180.000000000000000
 51
270.000000000000000
  0
ARC
  8
0
  6
CONTINUOUS
 62
3
 10
-433.011620127843340
 20
-92.781969196249946
 40
10.000000000000000
 50
270.000000000000000
 51
0.000000000000000
  0
LINE
  8
0
  6
CONTINUOUS
 62
3
 10
-454.011620127843340
 20
-102.781969196249940
 11
-433.011620127843340
 21
-102.781969196249940
  0
LINE
  8
0
  6
CONTINUOUS
 62
3
 10
-527.011620127843340
 20
-206.696029993603790
 11
-527.011620127843340
 21
-210.281981206142600
  0
LINE
  8
0
  6
CONTINUOUS
 62
3
 10
-360.011620127843120
 20
-208.281981206140440
 11
-360.011620127843120
 21
-210.281981206142600
  0
LINE
  8
0
  6
CONTINUOUS
 62
3
 10
-430.011620127843120
 20
-113.281981206142600
 11
-457.011620127843120
 21
-113.281981206142600
  0
ARC
  8
0
  6
CONTINUOUS
 62
3
 10
-418.011620127843120
 20
-226.281981206140100
 40
3.000000000000874
 50
167.756347132299480
 51
180.000000000000000
  0
ARC
  8
0
  6
CONTINUOUS
 62
3
 10
-429.011620127843120
 20
-226.756242664608490
 40
3.000000000000000
 50
0.000000000000000
 51
16.485334242760718
  0
ARC
  8
0
  6
CONTINUOUS
 62
3
 10
-458.011620127843120
 20
-226.756242664608490
 40
2.999999999999656
 50
163.514665757239300
 51
180.000000000000000
  0
ARC
  8
0
  6
CONTINUOUS
 62
3
 10
-469.011620127843120
 20
-226.281981206140330
 40
3.000000000000000
 50
0.000000000000000
 51
12.243652867704768
  0
ARC
  8
0
  6
CONTINUOUS
 62
3
 10
-503.668304402941430
 20
-149.522872697558430
 40
3.000000000000228
 50
54.618555413447936
 51
56.479995948265923
  0
ARC
  8
0
  6
CONTINUOUS
 62
3
 10
-498.312395669800940
 20
-141.981205664185240
 40
6.249999999999694
 50
234.618555413461590
 51
239.573505486895330
  0
LINE
  8
0
  6
CONTINUOUS
 62
3
 10
-466.011620127843120
 20
-226.281981206140330
 11
-466.011620127843120
 21
-273.398595196850810
  0
LINE
  8
0
  6
CONTINUOUS
 62
3
 10
-461.011620127843120
 20
-226.756242664608490
 11
-461.011620127843120
 21
-274.481981206142680
  0
LINE
  8
0
  6
CONTINUOUS
 62
3
 10
-426.011620127843120
 20
-226.756242664608490
 11
-426.011620127843120
 21
-274.481981206142680
  0
LINE
  8
0
  6
CONTINUOUS
 62
3
 10
-421.011620127843120
 20
-226.281981206140100
 11
-421.011620127843120
 21
-273.398595196850810
  0
ARC
  8
0
  6
CONTINUOUS
 62
3
 10
-429.011620127843120
 20
-274.481981206142680
 40
3.000000000000000
 50
270.000000000000000
 51
0.000000000000000
  0
ARC
  8
0
  6
CONTINUOUS
 62
3
 10
-418.011620127843120
 20
-273.398595196850810
 40
3.000000000000000
 50
180.000000000000000
 51
280.317602512868580
  0
ARC
  8
0
  6
CONTINUOUS
 62
3
 10
-458.011620127843120
 20
-274.481981206142680
 40
3.000000000000000
 50
180.000000000000000
 51
270.000000000000000
  0
ARC
  8
0
  6
CONTINUOUS
 62
3
 10
-469.011620127843120
 20
-273.398595196850810
 40
2.999999999999893
 50
259.682397487131420
 51
0.000000000000000
  0
ARC
  8
0
  6
CONTINUOUS
 62
3
 10
-430.011620127843120
 20
-183.281981206142600
 40
70.000000000000000
 50
42.177418600901539
 51
59.666372164055055
  0
ARC
  8
0
  6
CONTINUOUS
 62
3
 10
-389.197417601355260
 20
-130.148179609354510
 40
2.999999999999952
 50
52.470689430266106
 51
106.715133671082380
  0
ARC
  8
0
  6
CONTINUOUS
 62
3
 10
-393.511620127843120
 20
-115.781981206142710
 40
12.000000000000204
 50
196.481075114644030
 51
201.440250913326930
  0
ARC
  8
0
  6
CONTINUOUS
 62
3
 10
-407.895322526964040
 20
-120.037460649581100
 40
2.999999999999918
 50
16.481075114643080
 51
70.725519355451723
  0
ARC
  8
0
  6
CONTINUOUS
 62
3
 10
-417.011620127843120
 20
-117.555274305522820
 40
3.000000000000028
 50
78.811944248677634
 51
180.000000000000000
  0
LINE
  8
0
  6
CONTINUOUS
 62
3
 10
-420.011620127843120
 20
-118.971853802495010
 11
-420.011620127843120
 21
-117.555274305522820
  0
ARC
  8
0
  6
CONTINUOUS
 62
3
 10
-470.011620127843120
 20
-117.555274305522820
 40
3.000000000000000
 50
0.000000000000000
 51
101.188055751322360
  0
LINE
  8
0
  6
CONTINUOUS
 62
3
 10
-467.011620127843120
 20
-118.971853802495010
 11
-467.011620127843120
 21
-117.555274305522820
  0
ARC
  8
0
  6
CONTINUOUS
 62
3
 10
-479.127917728722200
 20
-120.037460649581100
 40
3.000000000000082
 50
109.274480644548270
 51
163.518924885356910
  0
ARC
  8
0
  6
CONTINUOUS
 62
3
 10
-493.511620127843340
 20
-115.781981206142710
 40
11.999999999999977
 50
253.284866328922110
 51
265.586570225725100
  0
ARC
  8
0
  6
CONTINUOUS
 62
3
 10
-497.825822654331200
 20
-130.148179609354510
 40
3.000000000000005
 50
73.284866328917616
 51
127.529310569726980
  0
ARC
  8
0
  6
CONTINUOUS
 62
3
 10
-457.011620127843120
 20
-183.281981206142600
 40
70.000000000000000
 50
90.000000000000000
 51
118.266240031649130
  0
ARC
  8
0
  6
CONTINUOUS
 62
3
 10
-457.011620127843120
 20
-210.281981206142600
 40
70.000000000000227
 50
180.000000000000000
 51
180.116959156176820
  0
ARC
  8
0
  6
CONTINUOUS
 62
3
 10
-495.511620127843340
 20
-279.781981206142630
 40
12.000000000000282
 50
30.268861166778397
 51
91.762018045748349
  0
ARC
  8
0
  6
CONTINUOUS
 62
3
 10
-495.972842665439200
 20
-264.789073757258280
 40
3.000000000000193
 50
234.443126549156720
 51
271.762018045752540
  0
ARC
  8
0
  6
CONTINUOUS
 62
3
 10
-482.556575808068150
 20
-272.221106476809270
 40
3.000000000000099
 50
210.268861166779320
 51
247.587752663367470
  0
LINE
  8
0
  6
CONTINUOUS
 62
3
 10
-430.011620127843120
 20
-280.281981206142630
 11
-457.011620127843120
 21
-280.281981206142630
  0
ARC
  8
0
  6
CONTINUOUS
 62
3
 10
-391.511620127843120
 20
-279.781981206142630
 40
12.000000000000021
 50
88.237981954247360
 51
149.731138833220510
  0
ARC
  8
0
  6
CONTINUOUS
 62
3
 10
-404.466664447617630
 20
-272.221106476809270
 40
2.999999999999907
 50
292.412247336624550
 51
329.731138833218490
  0
ARC
  8
0
  6
CONTINUOUS
 62
3
 10
-430.011620127843120
 20
-210.281981206142600
 40
70.000000000000028
 50
270.000000000000000
 51
0.000000000000000
  0
ARC
  8
0
  6
CONTINUOUS
 62
3
 10
-391.050397590246800
 20
-264.789073757258280
 40
2.999999999999935
 50
268.237981954255990
 51
305.556873450843280
  0
ARC
  8
0
  6
CONTINUOUS
 62
3
 10
-443.511620127843120
 20
-196.781981206142600
 40
29.999999999999950
 50
259.111672490974630
 51
280.888327509025320
  0
ARC
  8
0
  6
CONTINUOUS
 62
3
 10
-388.710844585885520
 20
-251.582756748100220
 40
6.249999999999958
 50
54.618555413458211
 51
215.381444586544720
  0
ARC
  8
0
  6
CONTINUOUS
 62
3
 10
-396.252511619258940
 20
-256.938665481240950
 40
3.000000000000133
 50
308.153187915560180
 51
35.381444586539963
  0
ARC
  8
0
  6
CONTINUOUS
 62
3
 10
-383.354935852745030
 20
-244.041089714727040
 40
2.999999999999964
 50
234.618555413455030
 51
321.846812084445900
  0
ARC
  8
0
  6
CONTINUOUS
 62
3
 10
-503.668304402941430
 20
-244.041089714727040
 40
2.999999999999813
 50
218.153187915559470
 51
305.381444586552050
  0
ARC
  8
0
  6
CONTINUOUS
 62
3
 10
-498.312395669800940
 20
-251.582756748100220
 40
6.250000000000274
 50
324.618555413457670
 51
125.381444586538400
  0
ARC
  8
0
  6
CONTINUOUS
 62
3
 10
-490.770728636427520
 20
-256.938665481240950
 40
2.999999999999964
 50
144.618555413455000
 51
231.846812084446610
  0
LINE
  8
0
  6
CONTINUOUS
 62
3
 10
-503.302212635692740
 20
-139.088576392863250
 11
-499.825979262102690
 21
-137.081576712590130
  0
LINE
  8
0
  6
CONTINUOUS
 62
3
 10
-503.301525227943100
 20
-139.480755861236300
 11
-503.302216949071410
 21
-139.088575702626120
  0
LINE
  8
0
  6
CONTINUOUS
 62
3
 10
-501.358466050773360
 20
-145.977105863178760
 11
-502.025967103806810
 21
-145.590151266326270
  0
ARC
  8
0
  6
CONTINUOUS
 62
3
 10
-498.312395669800940
 20
-141.981205664185240
 40
4.999999999999963
 50
108.289857495548070
 51
160.034302033855710
  0
LINE
  8
0
  6
CONTINUOUS
 62
3
 10
-446.761620127843340
 20
-44.781981206141921
 11
-446.761620127843340
 21
-42.782015780394289
  0
LINE
  8
0
  6
CONTINUOUS
 62
3
 10
-440.261620127843340
 20
-44.781981206141921
 11
-440.261620127843340
 21
-42.782015780394289
  0
LINE
  8
0
  6
CONTINUOUS
 62
3
 10
-522.209958313575950
 20
-90.679837098121851
 11
-545.106414861809300
 21
-67.783380549888506
  0
LINE
  8
0
  6
CONTINUOUS
 62
3
 10
-515.157122772636740
 20
-88.540284483635872
 11
-540.510220784096870
 21
-63.187186472175739
  0
LINE
  8
0
  6
CONTINUOUS
 62
3
 10
-573.511620127843340
 20
-304.781981206141840
 11
-519.171874165687770
 21
-304.781981206141840
  0
LINE
  8
0
  6
CONTINUOUS
 62
3
 10
-583.511620127843340
 20
-294.781981206141840
 11
-583.511620127843340
 21
-34.781981206141921
  0
LINE
  8
0
  6
CONTINUOUS
 62
3
 10
-367.851366089998920
 20
-304.781981206141840
 11
-313.511620127843340
 21
-304.781981206141840
  0
LINE
  8
0
  6
CONTINUOUS
 62
3
 10
-303.511620127843340
 20
-294.781981206141840
 11
-303.511620127843340
 21
-34.781981206141921
  0
LINE
  8
0
  6
CONTINUOUS
 62
3
 10
-573.511620127843340
 20
-24.781981206141921
 11
-313.511620127843340
 21
-24.781981206141921
  0
LINE
  8
0
  6
CONTINUOUS
 62
3
 10
-371.866117483049950
 20
-88.540284483635872
 11
-346.513019471589810
 21
-63.187186472175739
  0
LINE
  8
0
  6
CONTINUOUS
 62
3
 10
-364.813281942110730
 20
-90.679837098121851
 11
-341.916825393877390
 21
-67.783380549888506
  0
ARC
  8
0
  6
CONTINUOUS
 62
3
 10
-449.761620127843340
 20
-42.782015780394289
 40
3.000000000000000
 50
0.000000000000000
 51
90.000000000000000
  0
ARC
  8
0
  6
CONTINUOUS
 62
3
 10
-573.511620127843340
 20
-294.781981206141840
 40
10.000000000000000
 50
180.000000000000000
 51
270.000000000000000
  0
CIRCLE
  8
0
  6
CONTINUOUS
 62
3
 10
-563.719772929546710
 20
-284.990134007864750
 40
9.500000000000000
  0
ARC
  8
0
  6
CONTINUOUS
 62
3
 10
-313.511620127843340
 20
-294.781981206141840
 40
10.000000000000000
 50
270.000000000000000
 51
0.000000000000000
  0
CIRCLE
  8
0
  6
CONTINUOUS
 62
3
 10
-323.303467326120430
 20
-284.990134007845650
 40
9.500000000000000
  0
ARC
  8
0
  6
CONTINUOUS
 62
3
 10
-573.511620127843340
 20
-34.781981206141921
 40
10.000000000000000
 50
90.000000000000000
 51
180.000000000000000
  0
CIRCLE
  8
0
  6
CONTINUOUS
 62
3
 10
-563.719772929565810
 20
-44.573828404438558
 40
9.500000000000000
  0
ARC
  8
0
  6
CONTINUOUS
 62
3
 10
-513.035802429077190
 20
-86.418964140076326
 40
2.999999999999864
 50
225.000000000000000
 51
295.240018135852320
  0
ARC
  8
0
  6
CONTINUOUS
 62
3
 10
-313.511620127843340
 20
-34.781981206141921
 40
10.000000000000000
 50
0.000000000000000
 51
90.000000000000000
  0
CIRCLE
  8
0
  6
CONTINUOUS
 62
3
 10
-323.303467326139530
 20
-44.573828404419459
 40
9.500000000000000
  0
ARC
  8
0
  6
CONTINUOUS
 62
3
 10
-538.388900440536870
 20
-61.065866128616079
 40
3.000000000000009
 50
132.451607436421090
 51
224.999999999995400
  0
ARC
  8
0
  6
CONTINUOUS
 62
3
 10
-547.227735205368840
 20
-69.904700893448052
 40
2.999999999999864
 50
45.000000000000000
 51
137.548392563578910
  0
ARC
  8
0
  6
CONTINUOUS
 62
3
 10
-348.634339815149810
 20
-61.065866128616079
 40
3.000000000000265
 50
315.000000000004600
 51
47.548392563578922
  0
ARC
  8
0
  6
CONTINUOUS
 62
3
 10
-373.987437826609490
 20
-86.418964140076326
 40
3.000000000000066
 50
244.759981864147700
 51
315.000000000000000
  0
ARC
  8
0
  6
CONTINUOUS
 62
3
 10
-339.795505050317840
 20
-69.904700893448052
 40
2.999999999999933
 50
42.451607436419486
 51
135.000000000000000
  0
ARC
  8
0
  6
CONTINUOUS
 62
3
 10
-524.331278657135500
 20
-92.801157441681625
 40
2.999999999999895
 50
303.694795008801920
 51
45.000000000003077
  0
ARC
  8
0
  6
CONTINUOUS
 62
3
 10
-362.691961598551190
 20
-92.801157441681625
 40
3.000000000000024
 50
134.999999999996930
 51
236.305204991199280
  0
ARC
  8
0
  6
CONTINUOUS
 62
3
 10
-437.261620127843340
 20
-42.782015780394289
 40
3.000000000000000
 50
90.000000000000000
 51
180.000000000000000
  0
LINE
  8
0
  6
CONTINUOUS
 62
3
 10
-446.761620127843340
 20
-74.239121365830755
 11
-446.761620127843340
 21
-55.324841046453088
  0
LINE
  8
0
  6
CONTINUOUS
 62
3
 10
-440.261620127843340
 20
-74.239121365830755
 11
-440.261620127843340
 21
-55.324841046453088
  0
LINE
  8
0
  6
CONTINUOUS
 62
3
 10
-560.511620127843340
 20
-242.378034463954580
 11
-560.511620127843340
 21
-166.017555475751210
  0
ARC
  8
0
  6
CONTINUOUS
 62
3
 10
-558.511620127843340
 20
-164.781981206141690
 40
2.000000000000000
 50
90.000000000000000
 51
180.000000000000000
  0
ARC
  8
0
  6
CONTINUOUS
 62
3
 10
-554.511620127843340
 20
-242.378034463954580
 40
6.000000000000000
 50
180.000000000000000
 51
202.331645009221920
  0
LINE
  8
0
  6
CONTINUOUS
 62
3
 10
-545.511620127843340
 20
-162.781981206141690
 11
-558.511620127843340
 21
-162.781981206141690
  0
LINE
  8
0
  6
CONTINUOUS
 62
3
 10
-545.511620127843340
 20
-136.781981206141690
 11
-552.409857429147450
 21
-136.781981206141690
  0
LINE
  8
0
  6
CONTINUOUS
 62
3
 10
-341.511620127843340
 20
-162.781981206141690
 11
-329.511620127843340
 21
-162.781981206141690
  0
LINE
  8
0
  6
CONTINUOUS
 62
3
 10
-341.511620127843340
 20
-136.781981206141690
 11
-336.113558140094030
 21
-136.781981206141690
  0
LINE
  8
0
  6
CONTINUOUS
 62
3
 10
-443.511620127843340
 20
-306.781984693458410
 11
-383.653045138130890
 21
-306.781984693458410
  0
LINE
  8
0
  6
CONTINUOUS
 62
3
 10
-443.511620127843340
 20
-306.781984693458410
 11
-503.370195117556250
 21
-306.781984693458410
  0
LINE
  8
0
  6
CONTINUOUS
 62
3
 10
-326.511620127843340
 20
-242.378034463954580
 11
-326.511620127843340
 21
-164.781981206141690
  0
LINE
  8
0
  6
CONTINUOUS
 62
3
 10
-382.511615478085330
 20
-307.781984693458410
 11
-370.511624777601360
 21
-307.781984693458410
  0
LINE
  8
0
  6
CONTINUOUS
 62
3
 10
-504.511624777601360
 20
-307.781984693458410
 11
-516.511615478085330
 21
-307.781984693458410
  0
LINE
  8
0
  6
CONTINUOUS
 62
3
 10
-443.511620127843340
 20
-104.781981206141920
 11
-426.011620127843340
 21
-104.781981206141920
  0
LINE
  8
0
  6
CONTINUOUS
 62
3
 10
-443.511620127843340
 20
-104.781981206141920
 11
-461.011620127843340
 21
-104.781981206141920
  0
LINE
  8
0
  6
CONTINUOUS
 62
3
 10
-446.761620127843340
 20
-110.281982003242630
 11
-446.761620127843340
 21
-107.781981206141920
  0
LINE
  8
0
  6
CONTINUOUS
 62
3
 10
-440.261620127843340
 20
-110.281982003242630
 11
-440.261620127843340
 21
-107.781981206141920
  0
LINE
  8
0
  6
CONTINUOUS
 62
3
 10
-376.284263420973280
 20
-134.150819374085220
 11
-351.973314660958290
 21
-109.839870614070690
  0
LINE
  8
0
  6
CONTINUOUS
 62
3
 10
-380.880457498685700
 20
-129.554625296372560
 11
-356.663963718276140
 21
-105.338131515963450
  0
LINE
  8
0
  6
CONTINUOUS
 62
3
 10
-506.142782757000990
 20
-129.554625296372560
 11
-518.551682947071410
 21
-117.145725106302190
  0
LINE
  8
0
  6
CONTINUOUS
 62
3
 10
-516.968266811747300
 20
-127.921529397051380
 11
-518.989415716377380
 21
-125.900380492421360
  0
LINE
  8
0
  6
CONTINUOUS
 62
3
 10
-510.738976834713410
 20
-259.413144632400300
 11
-532.671496736312750
 21
-281.345664533999180
  0
LINE
  8
0
  6
CONTINUOUS
 62
3
 10
-506.142782757000990
 20
-264.009338710112730
 11
-528.075302658599870
 21
-285.941858611711610
  0
LINE
  8
0
  6
CONTINUOUS
 62
3
 10
-372.474966298386790
 20
-263.222441754986560
 11
-354.351743519373940
 21
-281.345664533998960
  0
LINE
  8
0
  6
CONTINUOUS
 62
3
 10
-376.375412885447080
 20
-268.514383323351130
 11
-358.947937597086820
 21
-285.941858611711610
  0
ARC
  8
0
  6
CONTINUOUS
 62
3
 10
-545.511620127843340
 20
-149.781981206141690
 40
13.000000000000000
 50
270.000000000000000
 51
288.973483096825870
  0
ARC
  8
0
  6
CONTINUOUS
 62
3
 10
-552.409857429147450
 20
-134.781981206141690
 40
2.000000000000116
 50
157.893323870137750
 51
270.000000000000000
  0
ARC
  8
0
  6
CONTINUOUS
 62
3
 10
-341.511620127843340
 20
-149.781981206141690
 40
13.000000000000000
 50
90.000000000000000
 51
155.235003976838640
  0
ARC
  8
0
  6
CONTINUOUS
 62
3
 10
-443.511620127843340
 20
-196.781982003242630
 40
125.999999999999880
 50
309.364679251356730
 51
337.668354990778480
  0
ARC
  8
0
  6
CONTINUOUS
 62
3
 10
-332.511620127843340
 20
-242.378034463954580
 40
6.000000000000214
 50
337.668354990778080
 51
0.000000000000000
  0
ARC
  8
0
  6
CONTINUOUS
 62
3
 10
-443.511620127843340
 20
-196.781982003242630
 40
126.000000000000190
 50
202.331645009221520
 51
230.635320748643100
  0
ARC
  8
0
  6
CONTINUOUS
 62
3
 10
-411.511620127843340
 20
-166.017555475751210
 40
85.000000000000000
 50
0.000000000000000
 51
85.577622414021803
  0
ARC
  8
0
  6
CONTINUOUS
 62
3
 10
-358.521580015192280
 20
-300.380693779258420
 40
8.000000000000215
 50
129.364679251358580
 51
178.093887109017460
  0
ARC
  8
0
  6
CONTINUOUS
 62
3
 10
-510.511620127843340
 20
-299.781981206141950
 40
10.000000000000053
 50
306.869864344412290
 51
315.572968020398260
  0
ARC
  8
0
  6
CONTINUOUS
 62
3
 10
-528.501660240494400
 20
-300.380693779258420
 40
7.999999999999923
 50
1.906112890982627
 51
50.635320748643942
  0
ARC
  8
0
  6
CONTINUOUS
 62
3
 10
-510.511620127843340
 20
-299.781981206141950
 40
10.000000000000130
 50
181.906112890982260
 51
233.130135655587680
  0
ARC
  8
0
  6
CONTINUOUS
 62
3
 10
-376.511620127843340
 20
-299.781981206141950
 40
10.000000000000158
 50
224.427031979599950
 51
233.130135655587680
  0
ARC
  8
0
  6
CONTINUOUS
 62
3
 10
-376.511620127843340
 20
-299.781981206141950
 40
10.000000000000053
 50
306.869864344412290
 51
358.093887109017660
  0
ARC
  8
0
  6
CONTINUOUS
 62
3
 10
-426.011620127843340
 20
-101.781981206141920
 40
3.000000000000000
 50
270.000000000000000
 51
0.000000000000000
  0
ARC
  8
0
  6
CONTINUOUS
 62
3
 10
-461.011620127843340
 20
-101.781981206141920
 40
3.000000000000000
 50
180.000000000000000
 51
270.000000000000000
  0
ARC
  8
0
  6
CONTINUOUS
 62
3
 10
-405.235541405208100
 20
-239.554581786960280
 40
37.999999999999936
 50
264.588104602568250
 51
355.900478402576140
  0
ARC
  8
0
  6
CONTINUOUS
 62
3
 10
-362.345562070437150
 20
-242.628613774908100
 40
4.999999999999917
 50
154.450645436618710
 51
175.900478402575570
  0
ARC
  8
0
  6
CONTINUOUS
 62
3
 10
-409.291086566123790
 20
-282.362905200144610
 40
5.000000000000205
 50
84.588104602569331
 51
106.037937568522150
  0
ARC
  8
0
  6
CONTINUOUS
 62
3
 10
-437.261620127843340
 20
-110.281982003242630
 40
3.000000000000000
 50
180.000000000000000
 51
270.000000000000000
  0
ARC
  8
0
  6
CONTINUOUS
 62
3
 10
-437.261620127843340
 20
-107.781981206141920
 40
3.000000000000000
 50
90.000000000000000
 51
180.000000000000000
  0
ARC
  8
0
  6
CONTINUOUS
 62
3
 10
-449.761620127843340
 20
-107.781981206141920
 40
3.000000000000000
 50
0.000000000000000
 51
90.000000000000000
  0
ARC
  8
0
  6
CONTINUOUS
 62
3
 10
-449.761620127843340
 20
-110.281982003242630
 40
3.000000000000000
 50
270.000000000000000
 51
0.000000000000000
  0
ARC
  8
0
  6
CONTINUOUS
 62
3
 10
-374.162943077413730
 20
-136.272139717644760
 40
2.999999999999864
 50
135.000000000000000
 51
180.187958922106560
  0
ARC
  8
0
  6
CONTINUOUS
 62
3
 10
-349.851994317398750
 20
-111.961190957630230
 40
3.000000000000097
 50
41.240714208219508
 51
135.000000000000000
  0
ARC
  8
0
  6
CONTINUOUS
 62
3
 10
-383.001777842245250
 20
-127.433304952813010
 40
3.000000000000124
 50
229.911473410096960
 51
315.000000000000000
  0
ARC
  8
0
  6
CONTINUOUS
 62
3
 10
-358.785284061835680
 20
-103.216811172403680
 40
3.000000000000024
 50
314.999999999996870
 51
49.983805954135455
  0
ARC
  8
0
  6
CONTINUOUS
 62
3
 10
-528.237956193851010
 20
-103.216811172403680
 40
2.999999999999794
 50
130.016194045864520
 51
225.000000000003070
  0
ARC
  8
0
  6
CONTINUOUS
 62
3
 10
-504.021462413441440
 20
-127.433304952813010
 40
2.999999999999864
 50
225.000000000000000
 51
310.088526589903040
  0
ARC
  8
0
  6
CONTINUOUS
 62
3
 10
-537.171245938287940
 20
-111.961190957630230
 40
2.999999999999864
 50
45.000000000000000
 51
138.759285791780480
  0
ARC
  8
0
  6
CONTINUOUS
 62
3
 10
-336.113558140094030
 20
-133.781981206141690
 40
3.000000000000000
 50
270.000000000000000
 51
23.148572820069919
  0
ARC
  8
0
  6
CONTINUOUS
 62
3
 10
-329.511620127843340
 20
-165.781981206141690
 40
3.000000000000000
 50
0.000000000000000
 51
90.000000000000000
  0
ARC
  8
0
  6
CONTINUOUS
 62
3
 10
-512.860297178272960
 20
-257.291824288840530
 40
3.000000000000024
 50
314.999999999996870
 51
40.088526589902528
  0
ARC
  8
0
  6
CONTINUOUS
 62
3
 10
-504.021462413441440
 20
-266.130659053672280
 40
3.000000000000124
 50
49.911473410096967
 51
135.000000000000000
  0
ARC
  8
0
  6
CONTINUOUS
 62
3
 10
-534.792817079872290
 20
-279.224344190439410
 40
3.000000000000218
 50
222.087374790476100
 51
314.999999999996870
  0
ARC
  8
0
  6
CONTINUOUS
 62
3
 10
-525.953982315040320
 20
-288.063178955271380
 40
3.000000000000024
 50
134.999999999996930
 51
227.912625209521000
  0
ARC
  8
0
  6
CONTINUOUS
 62
3
 10
-361.069257940646370
 20
-288.063178955271160
 40
3.000000000000218
 50
312.087374790476080
 51
45.000000000000000
  0
ARC
  8
0
  6
CONTINUOUS
 62
3
 10
-352.230423175814390
 20
-279.224344190439410
 40
2.999999999999864
 50
225.000000000000000
 51
317.912625209518070
  0
ARC
  8
0
  6
CONTINUOUS
 62
3
 10
-378.496733229007080
 20
-270.635703666910670
 40
3.000000000000185
 50
44.999999999993868
 51
130.705112768216340
  0
ARC
  8
0
  6
CONTINUOUS
 62
3
 10
-370.353645954827240
 20
-261.101121411426790
 40
2.999999999999677
 50
148.296383256597580
 51
225.000000000003070
  0
ARC
  8
0
  6
CONTINUOUS
 62
3
 10
-475.511620127843340
 20
-166.017555475751210
 40
84.999999999999972
 50
94.422377585978197
 51
180.000000000000000
  0
LINE
  8
0
  6
CONTINUOUS
 62
3
 10
-423.011620127843340
 20
-80.202407964801381
 11
-423.011620127843340
 21
-101.781981206141920
  0
LINE
  8
0
  6
CONTINUOUS
 62
3
 10
-464.011620127843340
 20
-80.202407964801381
 11
-464.011620127843340
 21
-101.781981206141920
  0
ARC
  8
0
  6
CONTINUOUS
 62
3
 10
-443.511620127843340
 20
-579.781981206141950
 40
499.999999999999940
 50
92.349785605460426
 51
94.422377585978055
  0
ARC
  8
0
  6
CONTINUOUS
 62
3
 10
-443.511620127843340
 20
-579.781981206141950
 40
499.999999999999940
 50
85.577622414021945
 51
87.650214394539574
  0
ARC
  8
0
  6
CONTINUOUS
 62
3
 10
-433.011620127843340
 20
-54.781981206141921
 40
10.000000000000000
 50
0.000000000000000
 51
90.000000000000000
  0
LINE
  8
0
  6
CONTINUOUS
 62
3
 10
-423.011620127843340
 20
-54.781981206141921
 11
-423.011620127843340
 21
-80.202407964801154
  0
LINE
  8
0
  6
CONTINUOUS
 62
3
 10
-433.011620127843340
 20
-44.781981206141921
 11
-454.011620127843340
 21
-44.781981206141921
  0
ARC
  8
0
  6
CONTINUOUS
 62
3
 10
-454.011620127843340
 20
-54.781981206141921
 40
10.000000000000000
 50
90.000000000000000
 51
180.000000000000000
  0
LINE
  8
0
  6
DASHDOT
 62
4
 10
-420.343707128961800
 20
-64.781981206141921
 11
-467.366221030496490
 21
-64.781981206141921
  0
CIRCLE
  8
0
  6
CONTINUOUS
 62
3
 10
-443.511620127843340
 20
-64.781981206141921
 40
10.000000000000000
  0
LINE
  8
0
  6
CONTINUOUS
 62
3
 10
-464.011620127843340
 20
-54.781981206141921
 11
-464.011620127843340
 21
-80.202407964801154
  0
ARC
  8
0
  6
CONTINUOUS
 62
3
 10
-430.011620127843120
 20
-183.281981206142600
 40
69.999999999999986
 50
61.733759968350427
 51
90.000000000000000
  0
ARC
  8
0
  6
CONTINUOUS
 62
3
 10
-393.511620127843120
 20
-115.781981206142710
 40
11.999999999999968
 50
274.413429774273820
 51
286.715133671077920
  0
ARC
  8
0
  6
CONTINUOUS
 62
3
 10
-457.011620127843120
 20
-183.281981206142600
 40
69.999999999999972
 50
120.333627835946060
 51
135.181622685887850
  0
ARC
  8
0
  6
CONTINUOUS
 62
3
 10
-493.511620127843340
 20
-115.781981206142710
 40
12.000000000000043
 50
338.559749086673040
 51
343.518924885356280
  0
ARC
  8
0
  6
CONTINUOUS
 62
3
 10
-498.312395669800940
 20
-141.981205664185240
 40
5.000000000000003
 50
221.817788613224310
 51
232.504024278708410
  0
LINE
  8
0
  6
CONTINUOUS
 62
3
 10
-519.336655192202440
 20
-116.360752861171390
 11
-530.359276537410550
 21
-105.338131515963450
  0
LINE
  8
0
  6
CONTINUOUS
 62
3
 10
-522.965527490913470
 20
-121.924268717885380
 11
-535.049925594728390
 21
-109.839870614070690
  0
ARC
  8
0
  6
CONTINUOUS
 62
3
 10
-545.511620127843340
 20
-149.781981206141690
 40
13.000000000000075
 50
55.527136891666025
 51
90.000000000000000
  0
ARC
  8
0
  6
CONTINUOUS
 62
3
 10
-457.011620127843120
 20
-210.281981206142600
 40
69.999999999999901
 50
185.192316552097110
 51
270.000000000000000
  0
ARC
  8
0
  6
CONTINUOUS
 62
3
 10
-522.811620127843300
 20
-186.324481206140460
 40
20.799999999999986
 50
174.275189547776620
 51
205.640070215894870
  0
POINT
  8
0
  6
DASHDOT
 62
4
 10
-502.011620127843340
 20
-172.295711699266430
  0
ARC
  8
0
  6
CONTINUOUS
 62
3
 10
-522.811620127843300
 20
-186.324481206140460
 40
20.799999999999926
 50
205.640070215894870
 51
260.083463391769440
  0
POINT
  8
0
  6
DASHDOT
 62
4
 10
-502.011620127843340
 20
-172.295711699266430
  0
ARC
  8
0
  6
CONTINUOUS
 62
3
 10
-522.811620127843300
 20
-186.324481206140460
 40
20.799999999999986
 50
174.275189547776620
 51
205.640070215894870
  0
ARC
  8
0
  6
CONTINUOUS
 62
3
 10
-520.811620127843300
 20
-146.324481206140460
 40
18.799999999999955
 50
0.000000000000000
 51
79.401214733933941
  0
ARC
  8
0
  6
CONTINUOUS
 62
3
 10
-516.985865493756360
 20
-125.879344829002740
 40
1.999999999999927
 50
177.137594773887290
 51
259.401214733934010
  0
ARC
  8
0
  6
CONTINUOUS
 62
3
 10
-522.578878591472180
 20
-125.599694174116930
 40
1.999999999999928
 50
274.873974813840960
 51
357.137594773887320
  0
ARC
  8
0
  6
CONTINUOUS
 62
3
 10
-521.145072861459770
 20
-209.063492183069770
 40
1.999999999999962
 50
94.191726156001650
 51
177.137594773887290
  0
LINE
  8
0
  6
CONTINUOUS
 62
3
 10
-519.313491619526530
 20
-116.361911039805220
 11
-524.407128547803500
 21
-218.234649605345310
  0
ARC
  8
0
  6
CONTINUOUS
 62
3
 10
-526.738085959175580
 20
-208.783841528183960
 40
2.000000000000154
 50
357.137594773887600
 51
80.083463391767268
  0
LINE
  8
0
  6
CONTINUOUS
 62
3
 10
-543.507879479464240
 20
-184.249668238559450
 11
-539.517854541808220
 21
-144.449169485442180
  0
ARC
  8
0
  6
CONTINUOUS
 62
3
 10
-522.811620127843300
 20
-186.324481206140460
 40
20.800000000000082
 50
274.191726156007460
 51
354.952683218992150
  0
ARC
  8
0
  6
CONTINUOUS
 62
3
 10
-520.811620127843300
 20
-146.324481206140460
 40
18.800000000000036
 50
94.873974813842736
 51
144.191373186504250
  0
ARC
  8
0
  6
CONTINUOUS
 62
3
 10
-520.811620127843300
 20
-146.324481206140460
 40
18.799999999999933
 50
144.191373186504250
 51
174.275189547776390
  0
LINE
  8
0
  6
CONTINUOUS
 62
3
 10
-520.112493490628820
 20
-116.321960946250070
 11
-518.514489748424240
 21
-116.401861133360250
  0
LINE
  8
0
  6
CONTINUOUS
 62
3
 10
-502.011620127843340
 20
-154.951372445920900
 11
-502.011620127843340
 21
-146.324481206140460
  0
ARC
  8
0
  6
CONTINUOUS
 62
3
 10
-513.970166987523270
 20
-121.635323370030360
 40
9.000000000000060
 50
160.536063666407810
 51
193.739143184213500
  0
POINT
  8
0
  6
CONTINUOUS
 62
3
 10
-520.362181575347680
 20
-121.315722640639100
  0
LINE
  8
0
  6
CONTINUOUS
 62
3
 10
-520.187399916044110
 20
-117.820089454566720
 11
-520.536963234651240
 21
-124.811355826711600
  0
LINE
  8
0
  6
CONTINUOUS
 62
3
 10
-520.187399916044110
 20
-117.820089454566720
 11
-520.536963234651240
 21
-124.811355826711600
  0
LINE
  8
0
  6
CONTINUOUS
 62
3
 10
-520.536963234651240
 20
-124.811355826711600
 11
-521.514767047159010
 21
-124.762465636086260
  0
LINE
  8
0
  6
CONTINUOUS
 62
3
 10
-520.187399916044110
 20
-117.820089454566720
 11
-521.165203728551660
 21
-117.771199263941380
  0
ARC
  8
0
  6
CONTINUOUS
 62
3
 10
-521.449848183231320
 20
-123.464088357532630
 40
1.299999237060493
 50
193.739143184211430
 51
267.137612759980240
  0
ARC
  8
0
  6
CONTINUOUS
 62
3
 10
-521.230122592479350
 20
-119.069576542494900
 40
1.299999237060474
 50
87.137594090651831
 51
160.536063666412870
  0
LINE
  8
0
  6
CONTINUOUS
 62
3
 10
-520.112493490628820
 20
-116.321960946250070
 11
-525.206130418905790
 21
-218.194699511790050
  0
LINE
  8
0
  6
CONTINUOUS
 62
3
 10
-523.608126676701200
 20
-218.274599698901030
 11
-525.206130418905790
 21
-218.194699511790050
  0
LINE
  8
0
  6
CONTINUOUS
 62
3
 10
-518.514489748424240
 20
-116.401861133360250
 11
-523.608126676701200
 21
-218.274599698901030
  0
ARC
  8
0
  6
CONTINUOUS
 62
4
 10
-201.911620127843210
 20
-172.281981206140440
 40
290.796999999999910
 50
174.998349729065040
 51
180.000000000000000
  0
LINE
  8
0
  6
CONTINUOUS
 62
4
 10
-485.589210443699360
 20
-134.036483819891800
 11
-482.248905410421680
 21
-130.696178786613900
  0
ARC
  8
0
  6
CONTINUOUS
 62
4
 10
-470.883510715362720
 20
-148.742183548228440
 40
20.797000000000015
 50
135.000000000000000
 51
174.998349729064670
  0
ARC
  8
0
  6
CONTINUOUS
 62
4
 10
-443.511620127843340
 20
-518.881981206140610
 40
390.797000000000030
 50
90.000000000000000
 51
95.417963762360529
  0
ARC
  8
0
  6
CONTINUOUS
 62
4
 10
-480.127585066861680
 20
-132.817499130173670
 40
3.000000000000067
 50
95.417963762365673
 51
135.000000000003040
  0
ARC
  8
0
  6
CONTINUOUS
 62
4
 10
-201.911620127843210
 20
-172.281981206140440
 40
290.797000000000250
 50
180.000000000000000
 51
185.001650270934930
  0
LINE
  8
0
  6
CONTINUOUS
 62
4
 10
-485.589210443699360
 20
-210.527478592389090
 11
-482.248905410421680
 21
-213.867783625666990
  0
ARC
  8
0
  6
CONTINUOUS
 62
4
 10
-470.883510715362720
 20
-195.821778864052450
 40
20.796999999999880
 50
185.001650270935330
 51
225.000000000000000
  0
ARC
  8
0
  6
CONTINUOUS
 62
4
 10
-443.511620127843340
 20
174.318018793859690
 40
390.797000000000030
 50
264.582036237639500
 51
270.000000000000000
  0
ARC
  8
0
  6
CONTINUOUS
 62
4
 10
-480.127585066861680
 20
-211.746463282107210
 40
3.000000000000346
 50
224.999999999996960
 51
264.582036237634270
  0
ARC
  8
0
  6
CONTINUOUS
 62
4
 10
-685.111620127843710
 20
-172.281981206140440
 40
290.797000000000140
 50
354.998349729065010
 51
0.000000000000000
  0
LINE
  8
0
  6
CONTINUOUS
 62
4
 10
-401.434029811987330
 20
-210.527478592389090
 11
-404.774334845265000
 21
-213.867783625666990
  0
ARC
  8
0
  6
CONTINUOUS
 62
4
 10
-416.139729540323970
 20
-195.821778864052450
 40
20.797000000000015
 50
315.000000000000000
 51
354.998349729064670
  0
ARC
  8
0
  6
CONTINUOUS
 62
4
 10
-443.511620127843340
 20
174.318018793859690
 40
390.797000000000030
 50
270.000000000000000
 51
275.417963762360500
  0
ARC
  8
0
  6
CONTINUOUS
 62
4
 10
-406.895655188825000
 20
-211.746463282107210
 40
3.000000000000067
 50
275.417963762365730
 51
315.000000000003070
  0
ARC
  8
0
  6
CONTINUOUS
 62
4
 10
-685.111620127843710
 20
-172.281981206140440
 40
290.797000000000480
 50
0.000000000000000
 51
5.752282731536624
  0
ARC
  8
0
  6
CONTINUOUS
 62
4
 10
-406.895655188825000
 20
-132.817499130173670
 40
3.000000000000346
 50
44.999999999996930
 51
84.582036237634313
  0
ARC
  8
0
  6
CONTINUOUS
 62
4
 10
-443.511620127843340
 20
-518.881981206140610
 40
390.797000000000030
 50
84.582036237639471
 51
90.000000000000000
  0
LINE
  8
0
  6
CONTINUOUS
 62
4
 10
-398.886920973225640
 20
-136.583592658653940
 11
-404.774334845265000
 21
-130.696178786613900
  0
ARC
  8
0
  6
CONTINUOUS
 62
3
 10
-482.942487127930690
 20
-126.860034463842080
 40
6.600000000000009
 50
95.743681810995099
 51
135.000000000002790
  0
ARC
  8
0
  6
CONTINUOUS
 62
3
 10
-482.942487127930690
 20
-217.703927948438800
 40
6.600000000000278
 50
224.999999999997190
 51
264.256318189004900
  0
ARC
  8
0
  6
CONTINUOUS
 62
3
 10
-404.080753127756000
 20
-217.703927948438800
 40
6.600000000000009
 50
275.743681810995100
 51
315.000000000002790
  0
ARC
  8
0
  6
CONTINUOUS
 62
3
 10
-404.080753127756000
 20
-126.860034463842080
 40
6.600000000000278
 50
44.999999999997215
 51
84.256318189004901
  0
ARC
  8
0
  6
CONTINUOUS
 62
3
 10
-443.511620127843340
 20
-518.881981206140610
 40
400.599999999999910
 50
90.000000000000000
 51
95.743681810993436
  0
ARC
  8
0
  6
CONTINUOUS
 62
3
 10
-443.511620127843340
 20
174.318018793859690
 40
400.599999999999910
 50
264.256318189006550
 51
270.000000000000000
  0
ARC
  8
0
  6
CONTINUOUS
 62
3
 10
-443.511620127843340
 20
174.318018793859690
 40
400.599999999999910
 50
270.000000000000000
 51
275.743681810993450
  0
ARC
  8
0
  6
CONTINUOUS
 62
3
 10
-443.511620127843340
 20
-518.881981206140610
 40
400.599999999999910
 50
84.256318189006564
 51
90.000000000000000
  0
ARC
  8
0
  6
CONTINUOUS
 62
3
 10
-201.911620127842980
 20
-172.281981206140440
 40
300.599999999999910
 50
174.247717268463390
 51
180.000000000000000
  0
ARC
  8
0
  6
CONTINUOUS
 62
3
 10
-201.911620127842980
 20
-172.281981206140440
 40
300.600000000000360
 50
180.000000000000000
 51
185.752282731536610
  0
ARC
  8
0
  6
CONTINUOUS
 62
3
 10
-685.111620127843710
 20
-172.281981206140440
 40
300.599999999999910
 50
354.247717268463420
 51
0.000000000000000
  0
ARC
  8
0
  6
CONTINUOUS
 62
3
 10
-685.111620127843710
 20
-172.281981206140440
 40
300.600000000000360
 50
0.000000000000000
 51
5.752282731536604
  0
ARC
  8
0
  6
CONTINUOUS
 62
3
 10
-447.011620127843340
 20
-207.106541504872180
 40
1.000000000000000
 50
0.000000000000000
 51
84.260829522738291
  0
ARC
  8
0
  6
CONTINUOUS
 62
3
 10
-447.011620127843340
 20
-210.120453691165470
 40
1.000000000000042
 50
264.715267045464260
 51
0.000000000000000
  0
ARC
  8
0
  6
CONTINUOUS
 62
3
 10
-447.011620127843340
 20
-201.573618237894120
 40
1.000000000000077
 50
263.186145655820330
 51
0.000000000000000
  0
LINE
  8
0
  6
CONTINUOUS
 62
3
 10
-446.011620127843340
 20
-210.120453691165470
 11
-446.011620127843340
 21
-207.106541504872180
  0
ARC
  8
0
  6
CONTINUOUS
 62
3
 10
-460.552548811216180
 20
-178.079114084399610
 40
0.999999999999885
 50
300.000000000003810
 51
18.787728582346993
  0
LINE
  8
0
  6
CONTINUOUS
 62
3
 10
-462.693783968272780
 20
-180.470057317103480
 11
-460.052548811216180
 21
-178.945139488183910
  0
ARC
  8
0
  6
CONTINUOUS
 62
3
 10
-463.193783968272780
 20
-179.604031913319180
 40
1.000000000000094
 50
200.405931773138690
 51
300.000000000003810
  0
ARC
  8
0
  6
CONTINUOUS
 62
3
 10
-468.010246459997690
 20
-182.384817829458800
 40
1.000000000000082
 50
299.999999999997270
 51
22.410457608146043
  0
ARC
  8
0
  6
CONTINUOUS
 62
3
 10
-475.420574022167780
 20
-186.663172442260670
 40
1.000000000000082
 50
299.999999999997270
 51
24.260829522733715
  0
LINE
  8
0
  6
CONTINUOUS
 62
3
 10
-470.128921915775210
 20
-184.762736212556290
 11
-467.510246459997690
 21
-183.250843233243330
  0
ARC
  8
0
  6
CONTINUOUS
 62
3
 10
-470.628921915775210
 20
-183.896710808771760
 40
0.999999999999730
 50
203.186145655819840
 51
299.999999999997270
  0
LINE
  8
0
  6
CONTINUOUS
 62
3
 10
-477.530698540273530
 20
-189.036153939191730
 11
-474.920574022167780
 21
-187.529197846045210
  0
ARC
  8
0
  6
CONTINUOUS
 62
3
 10
-478.030698540273530
 20
-188.170128535407430
 40
1.000000000000248
 50
204.715267045455480
 51
300.000000000003810
  0
ARC
  8
0
  6
CONTINUOUS
 62
3
 10
-474.530698540273530
 20
-194.232306361898710
 40
1.000000000000082
 50
119.999999999997270
 51
215.284732954534320
  0
ARC
  8
0
  6
CONTINUOUS
 62
3
 10
-471.920574022167780
 20
-192.725350268751730
 40
0.999999999999807
 50
35.739170477263521
 51
120.000000000003780
  0
ARC
  8
0
  6
CONTINUOUS
 62
3
 10
-447.011620127843340
 20
-198.549832279267750
 40
1.000000000000000
 50
0.000000000000000
 51
82.410457608145762
  0
ARC
  8
0
  6
CONTINUOUS
 62
3
 10
-467.128921915775210
 20
-189.958888635262580
 40
0.999999999999885
 50
120.000000000003780
 51
216.813854344197100
  0
ARC
  8
0
  6
CONTINUOUS
 62
3
 10
-464.510246459998140
 20
-188.446995655949620
 40
1.000000000000194
 50
37.589542391851793
 51
119.999999999997270
  0
ARC
  8
0
  6
CONTINUOUS
 62
3
 10
-447.011620127843340
 20
-192.988260446988960
 40
1.000000000000268
 50
260.405931773124510
 51
0.000000000000000
  0
ARC
  8
0
  6
CONTINUOUS
 62
3
 10
-447.011620127843340
 20
-189.938424789150050
 40
1.000000000000000
 50
0.000000000000000
 51
78.787728582355996
  0
ARC
  8
0
  6
CONTINUOUS
 62
3
 10
-459.693783968272330
 20
-185.666209739810230
 40
0.999999999999885
 50
120.000000000003780
 51
219.594068226860460
  0
ARC
  8
0
  6
CONTINUOUS
 62
3
 10
-457.052548811216180
 20
-184.141291910890890
 40
1.000000000000165
 50
41.212271417643841
 51
119.999999999997270
  0
ARC
  8
0
  6
CONTINUOUS
 62
3
 10
-452.153924973256840
 20
-181.313070119385860
 40
0.999999999999885
 50
120.000000000003780
 51
226.260204708328700
  0
ARC
  8
0
  6
CONTINUOUS
 62
3
 10
-447.011620127843340
 20
-184.281981206140440
 40
0.999999999999964
 50
253.739795291702650
 51
0.000000000000000
  0
ARC
  8
0
  6
CONTINUOUS
 62
3
 10
-447.011620127843340
 20
-181.113742072468280
 40
1.000000000000000
 50
0.000000000000000
 51
68.381727577838021
  0
ARC
  8
0
  6
CONTINUOUS
 62
3
 10
-449.410149398232530
 20
-179.728950552549780
 40
0.999999999999961
 50
51.618272422159777
 51
120.000000000003780
  0
ARC
  8
0
  6
CONTINUOUS
 62
3
 10
-443.511620127843340
 20
-172.281981206140440
 40
38.999999999999865
 50
215.284732954534800
 51
264.715267045465400
  0
ARC
  8
0
  6
CONTINUOUS
 62
3
 10
-443.511620127843340
 20
-172.281981206140440
 40
30.499999999999964
 50
216.813854344181070
 51
263.186145655818960
  0
ARC
  8
0
  6
CONTINUOUS
 62
3
 10
-443.511620127843340
 20
-172.281981206140440
 40
33.999999999999964
 50
215.739170477266950
 51
264.260829522733050
  0
ARC
  8
0
  6
CONTINUOUS
 62
3
 10
-443.511620127843340
 20
-172.281981206140440
 40
25.499999999999890
 50
217.589542391857950
 51
262.410457608141830
  0
ARC
  8
0
  6
CONTINUOUS
 62
3
 10
-443.511620127843340
 20
-172.281981206140440
 40
22.000000000000025
 50
219.594068226860800
 51
260.405931773138780
  0
ARC
  8
0
  6
CONTINUOUS
 62
3
 10
-443.511620127843340
 20
-172.281981206140440
 40
16.999999999999773
 50
221.212271417650780
 51
258.787728582349980
  0
ARC
  8
0
  6
CONTINUOUS
 62
3
 10
-443.511620127843340
 20
-172.281981206140440
 40
13.499999999999927
 50
226.260204708312130
 51
253.739795291689150
  0
ARC
  8
0
  6
CONTINUOUS
 62
3
 10
-443.511620127843340
 20
-172.281981206140440
 40
8.499999999999948
 50
231.618272422157330
 51
248.381727577842330
  0
LINE
  8
0
  6
CONTINUOUS
 62
3
 10
-467.628921915775210
 20
-189.092863231478280
 11
-465.010246459998140
 21
-187.580970252165090
  0
LINE
  8
0
  6
CONTINUOUS
 62
3
 10
-475.030698540273530
 20
-193.366280958114170
 11
-472.420574022167780
 21
-191.859324864967420
  0
LINE
  8
0
  6
CONTINUOUS
 62
3
 10
-460.193783968272330
 20
-184.800184336025920
 11
-457.552548811216180
 21
-183.275266507106350
  0
LINE
  8
0
  6
CONTINUOUS
 62
3
 10
-452.653924973256840
 20
-180.447044715601550
 11
-449.910149398232530
 21
-178.862925148765470
  0
LINE
  8
0
  6
CONTINUOUS
 62
3
 10
-446.011620127843340
 20
-184.281981206140440
 11
-446.011620127843340
 21
-181.113742072468280
  0
LINE
  8
0
  6
CONTINUOUS
 62
3
 10
-446.011620127843340
 20
-192.988260446988960
 11
-446.011620127843340
 21
-189.938424789150050
  0
LINE
  8
0
  6
CONTINUOUS
 62
3
 10
-446.011620127843340
 20
-201.573618237894120
 11
-446.011620127843340
 21
-198.549832279267750
  0
ARC
  8
0
  6
CONTINUOUS
 62
3
 10
-452.910149398232530
 20
-173.666772726058950
 40
0.999999999999885
 50
300.000000000003810
 51
8.381727577845549
  0
ARC
  8
0
  6
CONTINUOUS
 62
3
 10
-443.511620127843340
 20
-172.281981206140440
 40
8.499999999999972
 50
171.618272422157790
 51
188.381727577842210
  0
LINE
  8
0
  6
CONTINUOUS
 62
3
 10
-455.153924973256840
 20
-176.116917696679340
 11
-452.410149398232530
 21
-174.532798129843260
  0
ARC
  8
0
  6
CONTINUOUS
 62
3
 10
-455.653924973256840
 20
-175.250892292895030
 40
0.999999999999879
 50
193.739795291686050
 51
300.000000000003810
  0
ARC
  8
0
  6
CONTINUOUS
 62
3
 10
-447.011620127843340
 20
-154.625537623130840
 40
0.999999999999982
 50
281.212271417643990
 51
0.000000000000000
  0
LINE
  8
0
  6
CONTINUOUS
 62
3
 10
-446.011620127843340
 20
-151.575701965291930
 11
-446.011620127843340
 21
-154.625537623130840
  0
ARC
  8
0
  6
CONTINUOUS
 62
3
 10
-447.011620127843340
 20
-151.575701965291930
 40
1.000000000000000
 50
0.000000000000000
 51
99.594068226875478
  0
ARC
  8
0
  6
CONTINUOUS
 62
3
 10
-447.011620127843340
 20
-146.014130133013140
 40
0.999999999999749
 50
277.589542391855960
 51
0.000000000013028
  0
LINE
  8
0
  6
CONTINUOUS
 62
3
 10
-446.011620127843340
 20
-142.990344174386760
 11
-446.011620127843340
 21
-146.014130133012910
  0
ARC
  8
0
  6
CONTINUOUS
 62
3
 10
-447.011620127843340
 20
-142.990344174386760
 40
1.000000000000000
 50
0.000000000000000
 51
96.813854344179688
  0
ARC
  8
0
  6
CONTINUOUS
 62
3
 10
-447.011620127843340
 20
-137.457420907408700
 40
0.999999999999973
 50
275.739170477261670
 51
0.000000000000000
  0
LINE
  8
0
  6
CONTINUOUS
 62
3
 10
-446.011620127843340
 20
-134.443508721115420
 11
-446.011620127843340
 21
-137.457420907408700
  0
ARC
  8
0
  6
CONTINUOUS
 62
3
 10
-447.011620127843340
 20
-134.443508721115420
 40
1.000000000000000
 50
0.000000000000000
 51
95.284732954535698
  0
ARC
  8
0
  6
CONTINUOUS
 62
3
 10
-467.128921915775210
 20
-154.605073777018080
 40
0.999999999999774
 50
143.186145655813330
 51
240.000000000002730
  0
LINE
  8
0
  6
CONTINUOUS
 62
3
 10
-467.628921915775210
 20
-155.471099180802610
 11
-465.010246459997690
 21
-156.982992160115800
  0
ARC
  8
0
  6
CONTINUOUS
 62
3
 10
-464.510246459997690
 20
-156.116966756331270
 40
1.000000000000082
 50
240.000000000002730
 51
322.410457608132330
  0
ARC
  8
0
  6
CONTINUOUS
 62
3
 10
-474.530698540273530
 20
-150.331656050382410
 40
0.999999999999908
 50
144.715267045455050
 51
239.999999999996220
  0
LINE
  8
0
  6
CONTINUOUS
 62
3
 10
-475.030698540273530
 20
-151.197681454166710
 11
-472.420574022167780
 21
-152.704637547313470
  0
ARC
  8
0
  6
CONTINUOUS
 62
3
 10
-471.920574022167780
 20
-151.838612143529160
 40
0.999999999999885
 50
239.999999999996220
 51
324.260829522725940
  0
ARC
  8
0
  6
CONTINUOUS
 62
3
 10
-449.410149398232530
 20
-164.835011859730880
 40
1.000000000000082
 50
240.000000000002730
 51
308.381727577840190
  0
LINE
  8
0
  6
CONTINUOUS
 62
3
 10
-452.653924973256840
 20
-164.116917696679340
 11
-449.910149398232530
 21
-165.701037263515420
  0
ARC
  8
0
  6
CONTINUOUS
 62
3
 10
-457.052548811216180
 20
-160.422670501390230
 40
0.999999999999885
 50
239.999999999996220
 51
318.787728582348790
  0
LINE
  8
0
  6
CONTINUOUS
 62
3
 10
-460.193783968272330
 20
-159.763778076254970
 11
-457.552548811216180
 21
-161.288695905174540
  0
ARC
  8
0
  6
CONTINUOUS
 62
3
 10
-459.693783968272330
 20
-158.897752672470430
 40
1.000000000000173
 50
140.405931773149600
 51
240.000000000002730
  0
ARC
  8
0
  6
CONTINUOUS
 62
3
 10
-447.011620127843340
 20
-163.450220339812600
 40
1.000000000000090
 50
291.618272422161970
 51
0.000000000000000
  0
ARC
  8
0
  6
CONTINUOUS
 62
3
 10
-443.511620127843340
 20
-172.281981206140440
 40
8.499999999999904
 50
111.618272422157710
 51
128.381727577841670
  0
ARC
  8
0
  6
CONTINUOUS
 62
3
 10
-452.153924973256840
 20
-163.250892292895030
 40
0.999999999999858
 50
133.739795291671300
 51
239.999999999996220
  0
LINE
  8
0
  6
CONTINUOUS
 62
3
 10
-446.011620127843340
 20
-160.281981206140440
 11
-446.011620127843340
 21
-163.450220339812600
  0
ARC
  8
0
  6
CONTINUOUS
 62
3
 10
-447.011620127843340
 20
-160.281981206140440
 40
1.000000000000000
 50
0.000000000000000
 51
106.260204708297360
  0
ARC
  8
0
  6
CONTINUOUS
 62
3
 10
-443.511620127843340
 20
-172.281981206140440
 40
13.499999999999963
 50
106.260204708310860
 51
133.739795291687870
  0
ARC
  8
0
  6
CONTINUOUS
 62
3
 10
-443.511620127843340
 20
-172.281981206140440
 40
17.000000000000046
 50
101.212271417650010
 51
138.787728582350240
  0
ARC
  8
0
  6
CONTINUOUS
 62
3
 10
-443.511620127843340
 20
-172.281981206140440
 40
22.000000000000131
 50
99.594068226861211
 51
140.405931773139200
  0
ARC
  8
0
  6
CONTINUOUS
 62
3
 10
-443.511620127843340
 20
-172.281981206140440
 40
30.500000000000135
 50
96.813854344181038
 51
143.186145655818930
  0
ARC
  8
0
  6
CONTINUOUS
 62
3
 10
-443.511620127843340
 20
-172.281981206140440
 40
25.500000000000160
 50
97.589542391858117
 51
142.410457608142050
  0
ARC
  8
0
  6
CONTINUOUS
 62
3
 10
-443.511620127843340
 20
-172.281981206140440
 40
34.000000000000071
 50
95.739170477266924
 51
144.260829522733360
  0
ARC
  8
0
  6
CONTINUOUS
 62
3
 10
-443.511620127843340
 20
-172.281981206140440
 40
38.999999999999986
 50
95.284732954534590
 51
144.715267045465200
  0
ARC
  8
0
  6
CONTINUOUS
 62
3
 10
-470.628921915775210
 20
-160.667251603509130
 40
1.000000000000082
 50
60.000000000002721
 51
156.813854344180160
  0
LINE
  8
0
  6
CONTINUOUS
 62
3
 10
-470.128921915775210
 20
-159.801226199724600
 11
-467.510246459997690
 21
-161.313119179037780
  0
ARC
  8
0
  6
CONTINUOUS
 62
3
 10
-468.010246459997690
 20
-162.179144582822320
 40
0.999999999999701
 50
337.589542391853970
 51
60.000000000002721
  0
ARC
  8
0
  6
CONTINUOUS
 62
3
 10
-478.030698540273530
 20
-156.393833876873460
 40
1.000000000000082
 50
60.000000000002721
 51
155.284732954544520
  0
LINE
  8
0
  6
CONTINUOUS
 62
3
 10
-477.530698540273530
 20
-155.527808473088920
 11
-474.920574022167780
 21
-157.034764566235680
  0
ARC
  8
0
  6
CONTINUOUS
 62
3
 10
-475.420574022167780
 20
-157.900789970019990
 40
0.999999999999863
 50
335.739170477254390
 51
59.999999999996206
  0
ARC
  8
0
  6
CONTINUOUS
 62
3
 10
-452.910149398232530
 20
-170.897189686222160
 40
1.000000000000026
 50
351.618272422167310
 51
60.000000000002721
  0
LINE
  8
0
  6
CONTINUOUS
 62
3
 10
-455.153924973256840
 20
-168.447044715601550
 11
-452.410149398232530
 21
-170.031164282437630
  0
ARC
  8
0
  6
CONTINUOUS
 62
3
 10
-460.552548811216180
 20
-166.484848327881280
 40
1.000000000000076
 50
341.212271417652970
 51
60.000000000002721
  0
LINE
  8
0
  6
CONTINUOUS
 62
3
 10
-462.693783968272780
 20
-164.093905095177400
 11
-460.052548811216180
 21
-165.618822924096750
  0
ARC
  8
0
  6
CONTINUOUS
 62
3
 10
-463.193783968272780
 20
-164.959930498961710
 40
0.999999999999885
 50
59.999999999996206
 51
159.594068226861310
  0
ARC
  8
0
  6
CONTINUOUS
 62
3
 10
-455.653924973256840
 20
-169.313070119385860
 40
0.999999999999885
 50
59.999999999996206
 51
166.260204708307780
  0
ARC
  8
0
  6
CONTINUOUS
 62
3
 10
-443.511620127843340
 20
-172.281981206140440
 40
13.499999999999687
 50
166.260204708311360
 51
193.739795291688180
  0
ARC
  8
0
  6
CONTINUOUS
 62
3
 10
-443.511620127843340
 20
-172.281981206140440
 40
16.999999999999716
 50
161.212271417649560
 51
198.787728582350440
  0
ARC
  8
0
  6
CONTINUOUS
 62
3
 10
-443.511620127843340
 20
-172.281981206140440
 40
22.000000000000206
 50
159.594068226860770
 51
200.405931773139230
  0
ARC
  8
0
  6
CONTINUOUS
 62
3
 10
-443.511620127843340
 20
-172.281981206140440
 40
30.499999999999947
 50
156.813854344181150
 51
203.186145655818850
  0
ARC
  8
0
  6
CONTINUOUS
 62
3
 10
-443.511620127843340
 20
-172.281981206140440
 40
25.500000000000000
 50
157.589542391857980
 51
202.410457608142480
  0
ARC
  8
0
  6
CONTINUOUS
 62
3
 10
-443.511620127843340
 20
-172.281981206140440
 40
34.000000000000007
 50
155.739170477266780
 51
204.260829522733220
  0
ARC
  8
0
  6
CONTINUOUS
 62
3
 10
-443.511620127843340
 20
-172.281981206140440
 40
39.000000000000220
 50
155.284732954534800
 51
204.715267045465200
  0
LINE
  8
0
  6
CONTINUOUS
 62
3
 10
-441.011620127843340
 20
-201.573618237894120
 11
-441.011620127843340
 21
-198.549832279267750
  0
LINE
  8
0
  6
CONTINUOUS
 62
3
 10
-441.011620127843340
 20
-192.988260446988960
 11
-441.011620127843340
 21
-189.938424789150050
  0
LINE
  8
0
  6
CONTINUOUS
 62
3
 10
-441.011620127843340
 20
-184.281981206140440
 11
-441.011620127843340
 21
-181.113742072468280
  0
LINE
  8
0
  6
CONTINUOUS
 62
3
 10
-434.369315282429850
 20
-180.447044715601550
 11
-437.113090857454150
 21
-178.862925148765470
  0
LINE
  8
0
  6
CONTINUOUS
 62
3
 10
-426.829456287414360
 20
-184.800184336025920
 11
-429.470691444470500
 21
-183.275266507106350
  0
LINE
  8
0
  6
CONTINUOUS
 62
3
 10
-411.992541715413150
 20
-193.366280958114170
 11
-414.602666233518900
 21
-191.859324864967420
  0
LINE
  8
0
  6
CONTINUOUS
 62
3
 10
-441.011620127843340
 20
-210.120453691165470
 11
-441.011620127843340
 21
-207.106541504872180
  0
LINE
  8
0
  6
CONTINUOUS
 62
3
 10
-419.394318339911480
 20
-189.092863231478280
 11
-422.012993795688540
 21
-187.580970252165090
  0
ARC
  8
0
  6
CONTINUOUS
 62
3
 10
-443.511620127843340
 20
-172.281981206140440
 40
8.499999999999904
 50
291.618272422157700
 51
308.381727577842640
  0
ARC
  8
0
  6
CONTINUOUS
 62
3
 10
-443.511620127843340
 20
-172.281981206140440
 40
13.499999999999963
 50
286.260204708310820
 51
313.739795291687870
  0
ARC
  8
0
  6
CONTINUOUS
 62
3
 10
-443.511620127843340
 20
-172.281981206140440
 40
17.000000000000046
 50
281.212271417650020
 51
318.787728582350210
  0
ARC
  8
0
  6
CONTINUOUS
 62
3
 10
-443.511620127843340
 20
-172.281981206140440
 40
22.000000000000131
 50
279.594068226861170
 51
320.405931773139170
  0
ARC
  8
0
  6
CONTINUOUS
 62
3
 10
-443.511620127843340
 20
-172.281981206140440
 40
25.499999999999932
 50
277.589542391858170
 51
322.410457608142050
  0
ARC
  8
0
  6
CONTINUOUS
 62
3
 10
-443.511620127843340
 20
-172.281981206140440
 40
34.000000000000071
 50
275.739170477266950
 51
324.260829522733050
  0
ARC
  8
0
  6
CONTINUOUS
 62
3
 10
-443.511620127843340
 20
-172.281981206140440
 40
30.500000000000135
 50
276.813854344181040
 51
323.186145655818900
  0
ARC
  8
0
  6
CONTINUOUS
 62
3
 10
-443.511620127843340
 20
-172.281981206140440
 40
38.999999999999986
 50
275.284732954534600
 51
324.715267045465230
  0
ARC
  8
0
  6
CONTINUOUS
 62
3
 10
-437.613090857454150
 20
-179.728950552549780
 40
0.999999999999885
 50
59.999999999996206
 51
128.381727577840220
  0
ARC
  8
0
  6
CONTINUOUS
 62
3
 10
-440.011620127843340
 20
-181.113742072468280
 40
1.000000000000090
 50
111.618272422161970
 51
180.000000000000000
  0
ARC
  8
0
  6
CONTINUOUS
 62
3
 10
-440.011620127843340
 20
-184.281981206140440
 40
1.000000000000000
 50
180.000000000000000
 51
286.260204708297350
  0
ARC
  8
0
  6
CONTINUOUS
 62
3
 10
-434.869315282429850
 20
-181.313070119385860
 40
0.999999999999858
 50
313.739795291671330
 51
59.999999999996206
  0
ARC
  8
0
  6
CONTINUOUS
 62
3
 10
-429.970691444470500
 20
-184.141291910890890
 40
1.000000000000082
 50
60.000000000002721
 51
138.787728582338990
  0
ARC
  8
0
  6
CONTINUOUS
 62
3
 10
-427.329456287414360
 20
-185.666209739810230
 40
1.000000000000318
 50
320.405931773139570
 51
59.999999999996206
  0
ARC
  8
0
  6
CONTINUOUS
 62
3
 10
-440.011620127843340
 20
-189.938424789150050
 40
0.999999999999982
 50
101.212271417644000
 51
180.000000000000000
  0
ARC
  8
0
  6
CONTINUOUS
 62
3
 10
-440.011620127843340
 20
-192.988260446988960
 40
1.000000000000000
 50
180.000000000000000
 51
279.594068226875490
  0
ARC
  8
0
  6
CONTINUOUS
 62
3
 10
-440.011620127843340
 20
-201.573618237894120
 40
1.000000000000000
 50
180.000000000000000
 51
276.813854344179670
  0
ARC
  8
0
  6
CONTINUOUS
 62
3
 10
-422.512993795688540
 20
-188.446995655949620
 40
1.000000000000082
 50
60.000000000002721
 51
142.410457608148220
  0
ARC
  8
0
  6
CONTINUOUS
 62
3
 10
-419.894318339911480
 20
-189.958888635262580
 40
0.999999999999911
 50
323.186145655802870
 51
59.999999999996206
  0
ARC
  8
0
  6
CONTINUOUS
 62
3
 10
-440.011620127843340
 20
-198.549832279267750
 40
0.999999999999975
 50
97.589542391854238
 51
180.000000000000000
  0
ARC
  8
0
  6
CONTINUOUS
 62
3
 10
-440.011620127843340
 20
-210.120453691165470
 40
1.000000000000000
 50
180.000000000000000
 51
275.284732954535740
  0
ARC
  8
0
  6
CONTINUOUS
 62
3
 10
-440.011620127843340
 20
-207.106541504872180
 40
0.999999999999973
 50
95.739170477261709
 51
180.000000000000000
  0
ARC
  8
0
  6
CONTINUOUS
 62
3
 10
-415.102666233518900
 20
-192.725350268751730
 40
0.999999999999885
 50
59.999999999996206
 51
144.260829522736490
  0
ARC
  8
0
  6
CONTINUOUS
 62
3
 10
-412.492541715413150
 20
-194.232306361898710
 40
0.999999999999776
 50
324.715267045465680
 51
60.000000000002721
  0
CIRCLE
  8
0
  6
CONTINUOUS
 62
3
 10
-443.511620127843340
 20
-172.281981206140440
 40
5.000000000000000
  0
ARC
  8
0
  6
CONTINUOUS
 62
3
 10
-408.992541715413150
 20
-188.170128535407430
 40
0.999999999999885
 50
239.999999999996220
 51
335.284732954544490
  0
LINE
  8
0
  6
CONTINUOUS
 62
3
 10
-409.492541715413150
 20
-189.036153939191730
 11
-412.102666233518900
 21
-187.529197846045210
  0
ARC
  8
0
  6
CONTINUOUS
 62
3
 10
-443.511620127843340
 20
-172.281981206140440
 40
39.000000000000220
 50
335.284732954534830
 51
24.715267045465190
  0
ARC
  8
0
  6
CONTINUOUS
 62
3
 10
-443.511620127843340
 20
-172.281981206140440
 40
34.000000000000007
 50
335.739170477266780
 51
24.260829522733218
  0
ARC
  8
0
  6
CONTINUOUS
 62
3
 10
-443.511620127843340
 20
-172.281981206140440
 40
25.500000000000085
 50
337.589542391857490
 51
22.410457608142021
  0
ARC
  8
0
  6
CONTINUOUS
 62
3
 10
-443.511620127843340
 20
-172.281981206140440
 40
30.499999999999947
 50
336.813854344181150
 51
23.186145655818844
  0
ARC
  8
0
  6
CONTINUOUS
 62
3
 10
-416.394318339911480
 20
-183.896710808771760
 40
1.000000000000082
 50
240.000000000002730
 51
336.813854344180130
  0
LINE
  8
0
  6
CONTINUOUS
 62
3
 10
-416.894318339911480
 20
-184.762736212556290
 11
-419.512993795689000
 21
-183.250843233243330
  0
ARC
  8
0
  6
CONTINUOUS
 62
3
 10
-443.511620127843340
 20
-172.281981206140440
 40
22.000000000000206
 50
339.594068226860770
 51
20.405931773139226
  0
ARC
  8
0
  6
CONTINUOUS
 62
3
 10
-411.602666233518900
 20
-186.663172442260670
 40
0.999999999999769
 50
155.739170477266270
 51
240.000000000002730
  0
ARC
  8
0
  6
CONTINUOUS
 62
3
 10
-419.012993795689000
 20
-182.384817829458800
 40
0.999999999999701
 50
157.589542391853940
 51
240.000000000002730
  0
ARC
  8
0
  6
CONTINUOUS
 62
3
 10
-423.829456287413900
 20
-179.604031913319180
 40
0.999999999999885
 50
239.999999999996220
 51
339.594068226861340
  0
ARC
  8
0
  6
CONTINUOUS
 62
3
 10
-443.511620127843340
 20
-172.281981206140440
 40
17.000000000000146
 50
341.212271417650070
 51
18.787728582350418
  0
LINE
  8
0
  6
CONTINUOUS
 62
3
 10
-424.329456287413900
 20
-180.470057317103480
 11
-426.970691444470500
 21
-178.945139488183910
  0
ARC
  8
0
  6
CONTINUOUS
 62
3
 10
-426.470691444470500
 20
-178.079114084399610
 40
0.999999999999646
 50
161.212271417644620
 51
239.999999999996220
  0
ARC
  8
0
  6
CONTINUOUS
 62
3
 10
-443.511620127843340
 20
-172.281981206140440
 40
13.500000000000130
 50
346.260204708311850
 51
13.739795291688171
  0
ARC
  8
0
  6
CONTINUOUS
 62
3
 10
-431.369315282429850
 20
-175.250892292895030
 40
0.999999999999885
 50
239.999999999996220
 51
346.260204708314010
  0
LINE
  8
0
  6
CONTINUOUS
 62
3
 10
-431.869315282429850
 20
-176.116917696679340
 11
-434.613090857454150
 21
-174.532798129843260
  0
ARC
  8
0
  6
CONTINUOUS
 62
3
 10
-431.369315282429850
 20
-169.313070119385860
 40
0.999999999999879
 50
13.739795291686027
 51
120.000000000003780
  0
ARC
  8
0
  6
CONTINUOUS
 62
3
 10
-443.511620127843340
 20
-172.281981206140440
 40
8.499999999999972
 50
351.618272422157820
 51
8.381727577842204
  0
ARC
  8
0
  6
CONTINUOUS
 62
3
 10
-434.113090857454150
 20
-173.666772726058950
 40
1.000000000000059
 50
171.618272422154460
 51
239.999999999996220
  0
ARC
  8
0
  6
CONTINUOUS
 62
3
 10
-423.829456287413900
 20
-164.959930498961710
 40
1.000000000000094
 50
20.405931773138686
 51
120.000000000003780
  0
LINE
  8
0
  6
CONTINUOUS
 62
3
 10
-424.329456287413900
 20
-164.093905095177400
 11
-426.970691444470500
 21
-165.618822924096750
  0
ARC
  8
0
  6
CONTINUOUS
 62
3
 10
-426.470691444470500
 20
-166.484848327881280
 40
1.000000000000082
 50
119.999999999997270
 51
198.787728582347000
  0
LINE
  8
0
  6
CONTINUOUS
 62
3
 10
-431.869315282429850
 20
-168.447044715601550
 11
-434.613090857454150
 21
-170.031164282437630
  0
ARC
  8
0
  6
CONTINUOUS
 62
3
 10
-434.113090857454150
 20
-170.897189686222160
 40
1.000000000000082
 50
119.999999999997270
 51
188.381727577832660
  0
ARC
  8
0
  6
CONTINUOUS
 62
3
 10
-411.602666233518900
 20
-157.900789970019990
 40
0.999999999999885
 50
120.000000000003780
 51
204.260829522745610
  0
LINE
  8
0
  6
CONTINUOUS
 62
3
 10
-409.492541715413150
 20
-155.527808473088920
 11
-412.102666233518900
 21
-157.034764566235680
  0
ARC
  8
0
  6
CONTINUOUS
 62
3
 10
-408.992541715413150
 20
-156.393833876873460
 40
1.000000000000248
 50
24.715267045455477
 51
119.999999999997270
  0
ARC
  8
0
  6
CONTINUOUS
 62
3
 10
-419.012993795689000
 20
-162.179144582822320
 40
1.000000000000082
 50
119.999999999997270
 51
202.410457608146060
  0
LINE
  8
0
  6
CONTINUOUS
 62
3
 10
-416.894318339911480
 20
-159.801226199724600
 11
-419.512993795689000
 21
-161.313119179037780
  0
ARC
  8
0
  6
CONTINUOUS
 62
3
 10
-416.394318339911480
 20
-160.667251603509130
 40
0.999999999999730
 50
23.186145655819850
 51
119.999999999997270
  0
ARC
  8
0
  6
CONTINUOUS
 62
3
 10
-443.511620127843340
 20
-172.281981206140440
 40
38.999999999999865
 50
35.284732954534789
 51
84.715267045465410
  0
ARC
  8
0
  6
CONTINUOUS
 62
3
 10
-443.511620127843340
 20
-172.281981206140440
 40
33.999999999999829
 50
35.739170477266640
 51
84.260829522733076
  0
ARC
  8
0
  6
CONTINUOUS
 62
3
 10
-443.511620127843340
 20
-172.281981206140440
 40
25.499999999999890
 50
37.589542391857961
 51
82.410457608141883
  0
ARC
  8
0
  6
CONTINUOUS
 62
3
 10
-443.511620127843340
 20
-172.281981206140440
 40
30.499999999999964
 50
36.813854344181067
 51
83.186145655818962
  0
ARC
  8
0
  6
CONTINUOUS
 62
3
 10
-443.511620127843340
 20
-172.281981206140440
 40
22.000000000000025
 50
39.594068226860820
 51
80.405931773138789
  0
ARC
  8
0
  6
CONTINUOUS
 62
3
 10
-443.511620127843340
 20
-172.281981206140440
 40
17.000000000000114
 50
41.212271417649760
 51
78.787728582349985
  0
ARC
  8
0
  6
CONTINUOUS
 62
3
 10
-443.511620127843340
 20
-172.281981206140440
 40
13.499999999999927
 50
46.260204708312145
 51
73.739795291689134
  0
ARC
  8
0
  6
CONTINUOUS
 62
3
 10
-440.011620127843340
 20
-160.281981206140440
 40
0.999999999999964
 50
73.739795291702634
 51
180.000000000000000
  0
LINE
  8
0
  6
CONTINUOUS
 62
3
 10
-441.011620127843340
 20
-160.281981206140440
 11
-441.011620127843340
 21
-163.450220339812600
  0
ARC
  8
0
  6
CONTINUOUS
 62
3
 10
-434.869315282429850
 20
-163.250892292895030
 40
0.999999999999885
 50
300.000000000003810
 51
46.260204708328693
  0
ARC
  8
0
  6
CONTINUOUS
 62
3
 10
-443.511620127843340
 20
-172.281981206140440
 40
8.500000000000128
 50
51.618272422158320
 51
68.381727577842284
  0
ARC
  8
0
  6
CONTINUOUS
 62
3
 10
-440.011620127843340
 20
-163.450220339812600
 40
1.000000000000000
 50
180.000000000000000
 51
248.381727577838030
  0
ARC
  8
0
  6
CONTINUOUS
 62
3
 10
-427.329456287414360
 20
-158.897752672470430
 40
1.000000000000082
 50
299.999999999997270
 51
39.594068226850403
  0
LINE
  8
0
  6
CONTINUOUS
 62
3
 10
-426.829456287414360
 20
-159.763778076254970
 11
-429.470691444470500
 21
-161.288695905174540
  0
ARC
  8
0
  6
CONTINUOUS
 62
3
 10
-429.970691444470500
 20
-160.422670501390230
 40
0.999999999999673
 50
221.212271417651210
 51
300.000000000003810
  0
LINE
  8
0
  6
CONTINUOUS
 62
3
 10
-434.369315282429850
 20
-164.116917696679340
 11
-437.113090857454150
 21
-165.701037263515420
  0
ARC
  8
0
  6
CONTINUOUS
 62
3
 10
-437.613090857454150
 20
-164.835011859730880
 40
0.999999999999961
 50
231.618272422159780
 51
299.999999999997270
  0
ARC
  8
0
  6
CONTINUOUS
 62
3
 10
-415.102666233518900
 20
-151.838612143529160
 40
0.999999999999940
 50
215.739170477274090
 51
300.000000000003810
  0
LINE
  8
0
  6
CONTINUOUS
 62
3
 10
-411.992541715413150
 20
-151.197681454166710
 11
-414.602666233518900
 21
-152.704637547313470
  0
ARC
  8
0
  6
CONTINUOUS
 62
3
 10
-412.492541715413150
 20
-150.331656050382410
 40
0.999999999999885
 50
300.000000000003810
 51
35.284732954544943
  0
ARC
  8
0
  6
CONTINUOUS
 62
3
 10
-422.512993795689000
 20
-156.116966756331270
 40
0.999999999999834
 50
217.589542391867670
 51
299.999999999997270
  0
LINE
  8
0
  6
CONTINUOUS
 62
3
 10
-419.394318339911480
 20
-155.471099180802610
 11
-422.012993795689000
 21
-156.982992160115800
  0
ARC
  8
0
  6
CONTINUOUS
 62
3
 10
-419.894318339911480
 20
-154.605073777018080
 40
1.000000000000082
 50
299.999999999997270
 51
36.813854344186687
  0
ARC
  8
0
  6
CONTINUOUS
 62
3
 10
-440.011620127843340
 20
-134.443508721115420
 40
1.000000000000042
 50
84.715267045464302
 51
180.000000000000000
  0
LINE
  8
0
  6
CONTINUOUS
 62
3
 10
-441.011620127843340
 20
-134.443508721115420
 11
-441.011620127843340
 21
-137.457420907408700
  0
ARC
  8
0
  6
CONTINUOUS
 62
3
 10
-440.011620127843340
 20
-137.457420907408700
 40
1.000000000000000
 50
180.000000000000000
 51
264.260829522738280
  0
ARC
  8
0
  6
CONTINUOUS
 62
3
 10
-440.011620127843340
 20
-142.990344174386760
 40
1.000000000000077
 50
83.186145655820312
 51
180.000000000000000
  0
LINE
  8
0
  6
CONTINUOUS
 62
3
 10
-441.011620127843340
 20
-142.990344174386760
 11
-441.011620127843340
 21
-146.014130133012910
  0
ARC
  8
0
  6
CONTINUOUS
 62
3
 10
-440.011620127843340
 20
-146.014130133013140
 40
1.000000000000000
 50
179.999999999986980
 51
262.410457608144040
  0
ARC
  8
0
  6
CONTINUOUS
 62
3
 10
-440.011620127843340
 20
-151.575701965291930
 40
1.000000000000268
 50
80.405931773124522
 51
180.000000000000000
  0
LINE
  8
0
  6
CONTINUOUS
 62
3
 10
-441.011620127843340
 20
-151.575701965291930
 11
-441.011620127843340
 21
-154.625537623130840
  0
ARC
  8
0
  6
CONTINUOUS
 62
3
 10
-440.011620127843340
 20
-154.625537623130840
 40
1.000000000000000
 50
180.000000000000000
 51
258.787728582356010
  0
LINE
  8
0
  6
CONTINUOUS
 62
3
 10
-495.068087058433320
 20
-129.651824882682580
 11
-487.609391883762330
 21
-122.193129708010900
  0
LINE
  8
0
  6
CONTINUOUS
 62
3
 10
-495.068087058433320
 20
-214.912137529598310
 11
-487.609391883762330
 21
-222.370832704269990
  0
LINE
  8
0
  6
CONTINUOUS
 62
3
 10
-391.955153197253370
 20
-214.912137529598310
 11
-399.413848371924360
 21
-222.370832704269990
  0
LINE
  8
0
  6
CONTINUOUS
 62
3
 10
-391.955153197253370
 20
-129.651824882682580
 11
-399.413848371924360
 21
-122.193129708010900
  0
LINE
  8
0
  6
CONTINUOUS
 62
3
 10
-386.011620127843340
 20
-203.781981206140440
 11
-386.011620127843340
 21
-202.269967060570680
  0
LINE
  8
0
  6
CONTINUOUS
 62
3
 10
-386.011620127843340
 20
-142.289482143878300
 11
-386.011620127843340
 21
-140.781981206140440
  0
LINE
  8
0
  6
CONTINUOUS
 62
3
 10
-386.210171067942160
 20
-140.781981206140440
 11
-386.011620127843340
 21
-140.781981206140440
  0
LINE
  8
0
  6
CONTINUOUS
 62
3
 10
-386.210171067942160
 20
-203.781981206140440
 11
-386.011620127843340
 21
-203.781981206140440
  0
ARC
  8
0
  6
CONTINUOUS
 62
3
 10
-480.501687365989710
 20
-144.218224575124820
 40
20.600000000000069
 50
135.000000000002670
 51
174.247717268463500
  0
ARC
  8
0
  6
CONTINUOUS
 62
3
 10
-480.501687365989710
 20
-200.345737837156070
 40
20.599999999999916
 50
185.752282731536500
 51
224.999999999997330
  0
ARC
  8
0
  6
CONTINUOUS
 62
3
 10
-406.521552889696980
 20
-200.345737837156070
 40
20.600000000000069
 50
315.000000000002670
 51
354.247717268463480
  0
ARC
  8
0
  6
CONTINUOUS
 62
3
 10
-406.521552889696980
 20
-144.218224575124820
 40
20.599999999999916
 50
5.752282731536487
 51
44.999999999997321
  0
ARC
  8
0
  6
CONTINUOUS
 62
4
 10
-406.521552889696980
 20
-144.218224575124820
 40
10.797000000000011
 50
5.752282731536912
 51
44.999999999998295
  0
ARC
  8
0
  6
CONTINUOUS
 62
3
 10
-488.342190189940310
 20
-127.451411144043300
 40
6.099999427795406
 50
84.601927898108471
 51
185.398089404735370
  0
POINT
  8
0
  6
CONTINUOUS
 62
3
 10
-490.604931754867270
 20
-125.188669579116290
  0
LINE
  8
0
  6
CONTINUOUS
 62
3
 10
-493.928333491574220
 20
-128.512071315823140
 11
-487.281530018160310
 21
-121.865267842409450
  0
LINE
  8
0
  6
CONTINUOUS
 62
3
 10
-494.241472100542750
 20
-128.259524364972800
 11
-487.564372798069830
 21
-121.582425062499880
  0
LINE
  8
0
  6
CONTINUOUS
 62
3
 10
-487.281530018160310
 20
-121.865267842409450
 11
-487.768333409866050
 21
-121.378464450703830
  0
LINE
  8
0
  6
CONTINUOUS
 62
3
 10
-493.928333491574220
 20
-128.512071315823140
 11
-494.415136883279730
 21
-128.025267924117510
  0
LINE
  8
0
  6
DASHDOT
 62
4
 10
-598.215052182845280
 20
-172.281981206140220
 11
-289.788426064672420
 21
-172.281981206140730
  0
LINE
  8
0
  6
DASHDOT
 62
4
 10
-443.511620127843340
 20
-321.616429250079700
 11
-443.511620127843340
 21
-6.874795453171686
  0
LINE
  8
0
  6
DASHDOT
 62
4
 10
-415.672295834477150
 20
-164.781981206141920
 11
-471.565364192739250
 21
-164.781981206141920
  0
ARC
  8
0
  6
DASHDOT
 62
4
 10
-443.511620127843800
 20
-164.781981206142380
 40
170.000000000000090
 50
309.197472993147980
 51
320.505602321965060
  0
LINE
  8
0
  6
DASHDOT
 62
4
 10
-335.586413726889300
 20
-272.707187607079280
 11
-309.474923966816280
 21
-298.818677367148330
  0
LINE
  8
0
  6
DASHDOT
 62
4
 10
-551.152891517631360
 20
-272.423252595946910
 11
-577.430837436285860
 21
-298.701198514605720
  0
ARC
  8
0
  6
DASHDOT
 62
4
 10
-443.511620127843800
 20
-164.781981206141920
 40
170.000000000000060
 50
219.214155039136780
 51
230.868862927009620
  0
LINE
  8
0
  6
DASHDOT
 62
4
 10
-551.697849921260740
 20
-56.595751412741180
 11
-577.548316288870410
 21
-30.745285045135546
  0
ARC
  8
0
  6
DASHDOT
 62
4
 10
-443.511620127843340
 20
-164.781981206141920
 40
169.999999999999890
 50
129.269696474314630
 51
140.661103668020810
  0
LINE
  8
0
  6
DASHDOT
 62
4
 10
-337.060314860235390
 20
-58.330675938550343
 11
-309.474923966816280
 21
-30.745285045135546
  0
ARC
  8
0
  6
DASHDOT
 62
4
 10
-443.511620127843340
 20
-164.781981206141920
 40
169.999999999999970
 50
39.533642170253117
 51
50.893481665567059
  0
ARC
  8
0
  6
CONTINUOUS
 62
3
 10
-341.511620127843340
 20
-149.781981206141690
 40
12.999999999999906
 50
213.054243505369730
 51
270.000000000000000
  0
ARC
  8
0
  6
CONTINUOUS
 62
3
 10
-652.011620127843340
 20
-172.281981206140440
 40
300.000000000000060
 50
353.967950853630210
 51
6.032049146369772
  0
ARC
  8
0
  6
CONTINUOUS
 62
3
 10
-358.644955354900960
 20
-141.281981206140670
 40
5.000000000000143
 50
6.032049146370342
 51
90.000000000000000
  0
ARC
  8
0
  6
CONTINUOUS
 62
3
 10
-358.644955354900960
 20
-203.281981206140440
 40
5.000000000000000
 50
270.000000000000000
 51
353.967950853629650
  0
LINE
  8
0
  6
CONTINUOUS
 62
3
 10
-351.511620127843340
 20
-174.781981206140440
 11
-352.022036975361060
 21
-174.781981206140440
  0
LINE
  8
0
  6
CONTINUOUS
 62
3
 10
-351.511620127843340
 20
-174.781981206140440
 11
-351.511620127843340
 21
-169.781981206140440
  0
LINE
  8
0
  6
CONTINUOUS
 62
3
 10
-351.511620127843340
 20
-169.781981206140220
 11
-352.022036975361060
 21
-169.781981206140220
  0
LINE
  8
0
  6
CONTINUOUS
 62
3
 10
-386.011620127843340
 20
-208.281981206140440
 11
-358.644955354900960
 21
-208.281981206140440
  0
LINE
  8
0
  6
CONTINUOUS
 62
3
 10
-386.011620127843340
 20
-136.281981206140670
 11
-358.644955354900960
 21
-136.281981206140670
  0
LINE
  8
0
  6
CONTINUOUS
 62
3
 10
-387.511659644645530
 20
-136.281981206140670
 11
-386.011620127843340
 21
-136.281981206140670
  0
LINE
  8
0
  6
CONTINUOUS
 62
3
 10
-386.011620127843340
 20
-208.281981206140440
 11
-386.011620127843340
 21
-202.274480268402810
  0
LINE
  8
0
  6
CONTINUOUS
 62
3
 10
-386.011620127843340
 20
-142.293995351710210
 11
-386.011620127843340
 21
-136.281981206140670
  0
LINE
  8
0
  6
CONTINUOUS
 62
3
 10
-387.511659644645530
 20
-208.281981206140220
 11
-386.011620127843340
 21
-208.281981206140220
  0
LINE
  8
0
  6
DASHDOT
 62
4
 10
-3.376479076410760
 20
-172.281981206140700
 11
-284.940862056737390
 21
-172.281981206140700
  0
ENDSEC
  0
EOF
