  0
SECTION
  2
HEADER
  9
$TEXTSIZE
 40
2.5
  9
$ACADVER
  1
AC1009
  9
$DIMASZ
 40
3.863703297614046
  9
$DIMEXE
 40
2.000000000000000
  9
$DIMEXO
 40
1.000000000000000
  9
$DIMLFAC
 40
1.000000000000000
  9
$DIMSCALE
 40
1.000000000000000
  9
$DIMTAD
 70
1
  9
$DIMTFAC
 40
0.625000000000000
  9
$DIMTXT
 40
3.200000047683716
  9
$LUPREC
 70
3
  9
$REGENMODE
 70
1
  9
$TEXTSTYLE
  7
STANDARD1
  0
ENDSEC
  0
SECTION
  2
TABLES
  0
TABLE
  2
LTYPE
 70
4
  0
LTYPE
  2
CONTINUOUS
 70
64
  3
Solid line
 72
65
 73
0
 40
0.0
  0
LTYPE
  2
DASHED
 70
64
  3
-- -- -- -- -- -- -- -- -- -- -- -- -- -- --
 72
65
 73
2
 40
0.75
 49
0.5
 49
-0.25
  0
LTYPE
  2
DASHDOT
 70
64
  3
__ . __ . __ . __ . __ . __ . __ . __ . __ . __
 72
65
 73
4
 40
1.0
 49
0.5
 49
-0.25
 49
0.0
 49
-0.25
  0
LTYPE
  2
DIVIDE
 70
64
  3
__ . . __ . . __ . . __ . . __ . . __ . . __
 72
65
 73
6
 40
1.25
 49
0.5
 49
-0.25
 49
0.0
 49
-0.25
 49
0.0
 49
-0.25
  0
ENDTAB
  0
TABLE
  2
LAYER
 70
1
  0
LAYER
  2
0
 70
64
 62
2
  6
CONTINUOUS
  0
ENDTAB
  0
TABLE
  2
STYLE
 70
4
  0
STYLE
  2
STANDARD1
 70
64
 40
0.0
 41
1.0
 50
0.0
 71
0
 42
3.200000047683716
  3
MONOTXT
  4
BIGFONT
  0
STYLE
  2
STANDARD2
 70
68
 40
0.0
 41
1.0
 50
0.0
 71
0
 42
3.200000047683716
  3
MONOTXT
  4
BIGFONT
  0
STYLE
  2
STANDARD3
 70
64
 40
0.0
 41
1.0
 50
0.0
 71
0
 42
3.200000047683716
  3
MONOTXT
  4

  0
STYLE
  2
STANDARD4
 70
68
 40
0.0
 41
1.0
 50
0.0
 71
0
 42
3.200000047683716
  3
MONOTXT
  4

  0
ENDTAB
  0
TABLE
  2
VIEW
 70
0
  0
ENDTAB
  0
ENDSEC
  0
SECTION
  2
BLOCKS
  0
BLOCK
  8
0
  2
ZU_SYM_1
 70
64
 10
0.000000000000000
 20
0.000000000000000
  0
ARC
  8
0
  6
CONTINUOUS
 62
256
 10
-0.979025304317474
 20
-2.200000762939453
 40
1.299999237060547
 50
196.601531107481040
 51
270.000000000000000
  0
ARC
  8
0
  6
CONTINUOUS
 62
256
 10
-0.979025304317474
 20
2.200000762939453
 40
1.299999237060547
 50
90.000000000000000
 51
163.398451589674950
  0
LINE
  8
0
  6
CONTINUOUS
 62
256
 10
0.000000000000000
 20
-3.500000000000000
 11
-0.979025304317474
 21
-3.500000000000000
  0
LINE
  8
0
  6
CONTINUOUS
 62
256
 10
0.000000000000000
 20
3.500000000000000
 11
-0.979025304317474
 21
3.500000000000000
  0
LINE
  8
0
  6
CONTINUOUS
 62
256
 10
0.000000000000000
 20
-3.500000000000000
 11
0.000000000000000
 21
3.500000000000000
  0
LINE
  8
0
  6
CONTINUOUS
 62
256
 10
0.000000000000000
 20
-3.500000000000000
 11
0.000000000000000
 21
3.500000000000000
  0
POINT
  8
0
  6
CONTINUOUS
 62
256
 10
0.000000000000000
 20
0.000000000000000
  0
ARC
  8
0
  6
CONTINUOUS
 62
256
 10
6.399999618530273
 20
0.000000000000000
 40
9.000000000000000
 50
163.398451589674950
 51
196.601531107481040
  0
ENDBLK
  8
0
  0
BLOCK
  8
0
  2
ZU_SYM_2
 70
64
 10
0.000000000000000
 20
0.000000000000000
  0
ARC
  8
0
  6
CONTINUOUS
 62
256
 10
-0.979025304317474
 20
-2.200000762939453
 40
1.299999237060547
 50
196.601531107481040
 51
270.000000000000000
  0
ARC
  8
0
  6
CONTINUOUS
 62
256
 10
-0.979025304317474
 20
2.200000762939453
 40
1.299999237060547
 50
90.000000000000000
 51
163.398451589674950
  0
LINE
  8
0
  6
CONTINUOUS
 62
256
 10
0.000000000000000
 20
-3.500000000000000
 11
-0.979025304317474
 21
-3.500000000000000
  0
LINE
  8
0
  6
CONTINUOUS
 62
256
 10
0.000000000000000
 20
3.500000000000000
 11
-0.979025304317474
 21
3.500000000000000
  0
LINE
  8
0
  6
CONTINUOUS
 62
256
 10
0.000000000000000
 20
-3.500000000000000
 11
0.000000000000000
 21
3.500000000000000
  0
LINE
  8
0
  6
CONTINUOUS
 62
256
 10
0.000000000000000
 20
-3.500000000000000
 11
0.000000000000000
 21
3.500000000000000
  0
POINT
  8
0
  6
CONTINUOUS
 62
256
 10
0.000000000000000
 20
0.000000000000000
  0
ARC
  8
0
  6
CONTINUOUS
 62
256
 10
6.399999618530273
 20
0.000000000000000
 40
9.000000000000000
 50
163.398451589674950
 51
196.601531107481040
  0
ENDBLK
  8
0
  0
ENDSEC
  0
SECTION
  2
ENTITIES
  0
ARC
  8
0
  6
CONTINUOUS
 62
256
 10
191.187016925318860
 20
-91.521477029566057
 40
0.399999999999636
 50
0.000000000000000
 51
90.000000000000000
  0
LINE
  8
0
  6
CONTINUOUS
 62
256
 10
191.187016925318860
 20
-91.121477029566435
 11
166.146824546454350
 21
-91.121477029566435
  0
LINE
  8
0
  6
CONTINUOUS
 62
256
 10
165.587016925318950
 20
-91.271477029566057
 11
163.987016925319040
 21
-91.271477029566057
  0
LINE
  8
0
  6
CONTINUOUS
 62
256
 10
166.146824546454350
 20
-91.121477029566435
 11
165.587016925318950
 21
-91.271477029566057
  0
ARC
  8
0
  6
CONTINUOUS
 62
256
 10
163.987016925319040
 20
-90.871477029566435
 40
0.399999999999636
 50
180.000000000000000
 51
270.000000000000000
  0
LINE
  8
0
  6
CONTINUOUS
 62
256
 10
191.587016925318950
 20
-100.621477029566440
 11
191.587016925318950
 21
-91.521477029566057
  0
ARC
  8
0
  6
CONTINUOUS
 62
256
 10
163.987016925319040
 20
123.442903063380070
 40
0.400000000000091
 50
180.000000000000000
 51
270.000000000000000
  0
LINE
  8
0
  6
CONTINUOUS
 62
256
 10
191.587016925318920
 20
113.692903063379600
 11
191.587016925318920
 21
101.692903063379620
  0
LINE
  8
0
  6
CONTINUOUS
 62
256
 10
191.587016925318920
 20
101.692903063379620
 11
166.587017939183600
 21
101.692903063379620
  0
LINE
  8
0
  6
CONTINUOUS
 62
256
 10
166.587016925318920
 20
104.192903063379620
 11
166.587016925318920
 21
101.692903063379620
  0
LINE
  8
0
  6
CONTINUOUS
 62
256
 10
166.146824546454330
 20
104.192903063379600
 11
165.587016925318920
 21
104.342903063379240
  0
LINE
  8
0
  6
CONTINUOUS
 62
256
 10
165.587016925318920
 20
104.342903063379240
 11
163.987016925319010
 21
104.342903063379240
  0
LINE
  8
0
  6
CONTINUOUS
 62
256
 10
191.187016925318830
 20
104.192903063379600
 11
166.146824546454330
 21
104.192903063379600
  0
ARC
  8
0
  6
CONTINUOUS
 62
256
 10
163.987016925319010
 20
103.942903063379150
 40
0.400000000000091
 50
90.000000000000000
 51
180.000000000000000
  0
ARC
  8
0
  6
CONTINUOUS
 62
256
 10
191.187016925318830
 20
104.592903063379240
 40
0.400000000000091
 50
270.000000000000000
 51
0.000000000000000
  0
LINE
  8
0
  6
CONTINUOUS
 62
256
 10
169.475062033907310
 20
-97.621232888941435
 11
191.587016925318950
 21
-97.621232888941435
  0
ARC
  8
0
  6
CONTINUOUS
 62
256
 10
169.475062033907310
 20
-100.509277997529320
 40
2.888045108587903
 50
90.000000000000000
 51
182.226471171998360
  0
LINE
  8
0
  6
CONTINUOUS
 62
256
 10
62.587000032610831
 20
-118.621477029566440
 11
62.587000032610831
 21
-60.121477029566449
  0
LINE
  8
0
  6
CONTINUOUS
 62
256
 10
62.587000032611741
 20
-118.621477029566440
 11
62.587000032611741
 21
-177.121477029566450
  0
LINE
  8
0
  6
CONTINUOUS
 62
256
 10
62.587000032610831
 20
-177.121477029566450
 11
62.587000032610831
 21
-118.621477029566440
  0
LINE
  8
0
  6
CONTINUOUS
 62
256
 10
62.587000032610831
 20
-60.121477029566449
 11
62.587000032610831
 21
-118.621477029566440
  0
ARC
  8
0
  6
CONTINUOUS
 62
256
 10
241.956024481696660
 20
-87.621477029566449
 40
5.000000000000000
 50
90.000000000000000
 51
173.967950853630950
  0
LINE
  8
0
  6
CONTINUOUS
 62
256
 10
260.322689254639040
 20
-82.621477029566449
 11
241.956024481696660
 21
-82.621477029566449
  0
LINE
  8
0
  6
CONTINUOUS
 62
256
 10
260.322689254639040
 20
-154.621477029566450
 11
241.956024481696660
 21
-154.621477029566450
  0
ARC
  8
0
  6
CONTINUOUS
 62
256
 10
241.956024481696660
 20
-149.621477029566450
 40
5.000000000000143
 50
186.032049146370330
 51
270.000000000000000
  0
CIRCLE
  8
0
  6
CONTINUOUS
 62
256
 10
332.822689254639040
 20
-100.621477029566440
 40
17.500000000000000
  0
CIRCLE
  8
0
  6
CONTINUOUS
 62
256
 10
332.822689254639040
 20
-100.621477029566440
 40
61.000000000000000
  0
CIRCLE
  8
0
  6
CONTINUOUS
 62
256
 10
332.822689254639040
 20
-100.621477029566440
 40
22.000000000000000
  0
ARC
  8
0
  6
CONTINUOUS
 62
256
 10
332.822689254639040
 20
-100.621477029566440
 40
68.000000000000369
 50
151.382669854100980
 51
174.260829522733080
  0
ARC
  8
0
  6
CONTINUOUS
 62
256
 10
332.822689254639040
 20
-100.621477029566440
 40
68.000000000000185
 50
241.382669854100440
 51
298.617330145899530
  0
ARC
  8
0
  6
CONTINUOUS
 62
256
 10
401.294064662035000
 20
-137.980154064754060
 40
9.999999999999638
 50
151.382669854100730
 51
225.000000000001960
  0
ARC
  8
0
  6
CONTINUOUS
 62
256
 10
370.181366289827110
 20
-169.092852436961950
 40
10.000000000000082
 50
45.000000000001847
 51
118.617330145899320
  0
ARC
  8
0
  6
CONTINUOUS
 62
256
 10
389.180553630908890
 20
-171.121477029566450
 40
2.000000000000338
 50
225.000000000000000
 51
270.000000000000000
  0
ARC
  8
0
  6
CONTINUOUS
 62
256
 10
403.322689254639040
 20
-156.979341405834930
 40
2.000000000000000
 50
0.000000000000000
 51
45.000000000009209
  0
ARC
  8
0
  6
CONTINUOUS
 62
256
 10
264.351313847243090
 20
-137.980154064754060
 40
10.000000000000082
 50
314.999999999998180
 51
28.617330145899331
  0
ARC
  8
0
  6
CONTINUOUS
 62
256
 10
295.464012219450980
 20
-169.092852436961950
 40
9.999999999999638
 50
61.382669854100726
 51
134.999999999999890
  0
ARC
  8
0
  6
CONTINUOUS
 62
256
 10
276.464824878369200
 20
-171.121477029566450
 40
2.000000000000000
 50
270.000000000000000
 51
315.000000000000000
  0
ARC
  8
0
  6
CONTINUOUS
 62
256
 10
389.180553630908890
 20
-30.121477029566449
 40
2.000000000000000
 50
90.000000000000000
 51
135.000000000000230
  0
ARC
  8
0
  6
CONTINUOUS
 62
256
 10
264.351313847243090
 20
-63.262799994378838
 40
9.999999999999638
 50
331.382669854100700
 51
45.000000000001961
  0
ARC
  8
0
  6
CONTINUOUS
 62
256
 10
295.464012219450980
 20
-32.150101622170951
 40
10.000000000000401
 50
225.000000000000000
 51
298.617330145899130
  0
ARC
  8
0
  6
CONTINUOUS
 62
256
 10
332.822689254639040
 20
-100.621477029566440
 40
68.000000000000369
 50
331.382669854100980
 51
354.260829522733050
  0
ARC
  8
0
  6
CONTINUOUS
 62
256
 10
276.464824878369200
 20
-30.121477029566449
 40
2.000000000000338
 50
45.000000000000000
 51
90.000000000000000
  0
ARC
  8
0
  6
CONTINUOUS
 62
256
 10
401.294064662035000
 20
-63.262799994378838
 40
10.000000000000082
 50
134.999999999998180
 51
208.617330145899250
  0
ARC
  8
0
  6
CONTINUOUS
 62
256
 10
370.181366289827110
 20
-32.150101622170951
 40
9.999999999999638
 50
241.382669854100750
 51
314.999999999998010
  0
ARC
  8
0
  6
CONTINUOUS
 62
256
 10
403.322689254639040
 20
-44.263612653297969
 40
2.000000000000016
 50
314.999999999990790
 51
0.000000000000000
  0
ARC
  8
0
  6
CONTINUOUS
 62
256
 10
378.322689254639040
 20
-176.121477029566450
 40
3.000000000000000
 50
90.000000000000000
 51
180.000000000000000
  0
ARC
  8
0
  6
CONTINUOUS
 62
256
 10
292.322689254639040
 20
-178.621477029566450
 40
2.000000000000000
 50
180.000000000000000
 51
270.000000000000000
  0
ARC
  8
0
  6
CONTINUOUS
 62
256
 10
373.322689254639040
 20
-178.621477029566450
 40
2.000000000000000
 50
270.000000000000000
 51
0.000000000000000
  0
ARC
  8
0
  6
CONTINUOUS
 62
256
 10
287.322689254639040
 20
-176.121477029566450
 40
3.000000000000000
 50
0.000000000000000
 51
90.000000000000000
  0
ARC
  8
0
  6
CONTINUOUS
 62
256
 10
332.822689254639040
 20
-100.621477029566440
 40
68.000000000000185
 50
61.382669854100463
 51
118.617330145899560
  0
ARC
  8
0
  6
CONTINUOUS
 62
256
 10
396.822689254639040
 20
-36.621477029566449
 40
8.500000000000000
 50
0.000000000000000
 51
90.000000000000000
  0
CIRCLE
  8
0
  6
CONTINUOUS
 62
256
 10
332.822689254639040
 20
-100.621477029566440
 40
26.956362337679252
  0
ARC
  8
0
  6
CONTINUOUS
 62
256
 10
396.822689254639040
 20
-164.621477029566450
 40
8.500000000000000
 50
270.000000000000000
 51
0.000000000000000
  0
ARC
  8
0
  6
DASHDOT
 62
256
 10
332.822689254639040
 20
-100.621477029566440
 40
89.999999999999986
 50
309.395386007718060
 51
320.093367670275710
  0
ARC
  8
0
  6
DASHDOT
 62
256
 10
332.822689254639040
 20
-100.621477029566440
 40
89.999999999999957
 50
219.512435825944780
 51
230.526202698982470
  0
ARC
  8
0
  6
DASHDOT
 62
256
 10
332.822689254639040
 20
-100.621477029566440
 40
90.000000000000014
 50
129.648066201101190
 51
140.556947806095480
  0
ARC
  8
0
  6
DASHDOT
 62
256
 10
332.822689254639040
 20
-100.621477029566440
 40
89.999999999999915
 50
38.749013948773133
 51
50.743328415495277
  0
ARC
  8
0
  6
CONTINUOUS
 62
256
 10
297.475844839260840
 20
-54.636690524951518
 40
3.000000000000072
 50
127.548180560597600
 51
287.911740528475380
  0
ARC
  8
0
  6
CONTINUOUS
 62
256
 10
368.169533670017240
 20
-54.636690524951518
 40
3.000000000000047
 50
252.088259471516470
 51
52.451819439402151
  0
ARC
  8
0
  6
CONTINUOUS
 62
256
 10
352.322689254639040
 20
-103.665113516180090
 40
48.525806533542294
 50
72.088259471517517
 51
86.806152787378920
  0
ARC
  8
0
  6
CONTINUOUS
 62
256
 10
313.322689254638590
 20
-103.665113516180090
 40
48.525806533542799
 50
93.193847212620526
 51
107.911740528482510
  0
ARC
  8
0
  6
CONTINUOUS
 62
256
 10
332.822689254639040
 20
-453.121477029566510
 40
398.525806533542950
 50
90.000000000000000
 51
93.193847212620952
  0
ARC
  8
0
  6
CONTINUOUS
 62
256
 10
332.822689254639040
 20
-453.121477029566510
 40
398.525806533542890
 50
86.806152787379048
 51
90.000000000000000
  0
CIRCLE
  8
0
  6
CONTINUOUS
 62
256
 10
396.462299561428610
 20
-36.981866722777340
 40
5.300000000000011
  0
CIRCLE
  8
0
  6
CONTINUOUS
 62
256
 10
269.183078947849480
 20
-36.981866722777340
 40
5.300000000000011
  0
CIRCLE
  8
0
  6
CONTINUOUS
 62
256
 10
269.183078947849480
 20
-164.261087336355560
 40
5.300000000000011
  0
CIRCLE
  8
0
  6
CONTINUOUS
 62
256
 10
396.462299561428610
 20
-164.261087336355560
 40
5.300000000000011
  0
ARC
  8
0
  6
CONTINUOUS
 62
256
 10
332.822689254639040
 20
-100.621477029566440
 40
68.000000000000142
 50
185.739170477266900
 51
208.617330145899020
  0
ARC
  8
0
  6
CONTINUOUS
 62
256
 10
332.822689254639040
 20
-100.621477029566440
 40
68.000000000000142
 50
5.739170477266929
 51
28.617330145899039
  0
ARC
  8
0
  6
CONTINUOUS
 62
256
 10
402.471809852102520
 20
-93.621477029566449
 40
1.999999999999945
 50
185.739170477261690
 51
270.000000000000000
  0
ARC
  8
0
  6
CONTINUOUS
 62
256
 10
403.322689254639040
 20
-97.621477029566449
 40
2.000000000000000
 50
0.000000000000000
 51
90.000000000000000
  0
ARC
  8
0
  6
CONTINUOUS
 62
256
 10
402.471809852102520
 20
-107.621477029566440
 40
2.000000000000000
 50
90.000000000000000
 51
174.260829522738450
  0
ARC
  8
0
  6
CONTINUOUS
 62
256
 10
403.322689254639040
 20
-103.621477029566440
 40
2.000000000000000
 50
270.000000000000000
 51
0.000000000000000
  0
LINE
  8
0
  6
CONTINUOUS
 62
256
 10
377.252434101692420
 20
-162.021784625096190
 11
387.766340068535560
 21
-172.535690591939780
  0
LINE
  8
0
  6
CONTINUOUS
 62
256
 10
394.222996850169690
 20
-145.051221876619820
 11
404.736902817011920
 21
-155.565127843461600
  0
LINE
  8
0
  6
CONTINUOUS
 62
256
 10
288.392944407585220
 20
-162.021784625096190
 11
277.879038440742530
 21
-172.535690591939780
  0
LINE
  8
0
  6
CONTINUOUS
 62
256
 10
288.392944407585220
 20
-39.221169434036710
 11
277.879038440742530
 21
-28.707263467193116
  0
LINE
  8
0
  6
DASHDOT
 62
256
 10
350.795637178678590
 20
-118.621477029566440
 11
315.350565799832110
 21
-118.621477029566440
  0
LINE
  8
0
  6
CONTINUOUS
 62
256
 10
378.322689254639040
 20
-173.121477029566450
 11
396.822689254639040
 21
-173.121477029566450
  0
LINE
  8
0
  6
CONTINUOUS
 62
256
 10
290.322689254639040
 20
-178.621477029566450
 11
290.322689254639040
 21
-176.121477029566450
  0
LINE
  8
0
  6
CONTINUOUS
 62
256
 10
332.822689254639040
 20
-180.621477029566450
 11
292.322689254639040
 21
-180.621477029566450
  0
LINE
  8
0
  6
CONTINUOUS
 62
256
 10
332.822689254639040
 20
-180.621477029566450
 11
373.322689254639040
 21
-180.621477029566450
  0
LINE
  8
0
  6
CONTINUOUS
 62
256
 10
375.322689254639040
 20
-178.621477029566450
 11
375.322689254639040
 21
-176.121477029566450
  0
LINE
  8
0
  6
CONTINUOUS
 62
256
 10
287.322689254639040
 20
-173.121477029566450
 11
268.822689254639040
 21
-173.121477029566450
  0
LINE
  8
0
  6
CONTINUOUS
 62
256
 10
405.322689254639040
 20
-164.621477029566450
 11
405.322689254639040
 21
-36.621477029566449
  0
LINE
  8
0
  6
CONTINUOUS
 62
256
 10
394.222996850169690
 20
-56.191732182513078
 11
404.736902817011920
 21
-45.677826215671303
  0
LINE
  8
0
  6
CONTINUOUS
 62
256
 10
377.252434101692420
 20
-39.221169434036710
 11
387.766340068535560
 21
-28.707263467193116
  0
LINE
  8
0
  6
CONTINUOUS
 62
256
 10
268.822689254639040
 20
-28.121477029566449
 11
396.822689254639040
 21
-28.121477029566449
  0
LINE
  8
0
  6
DASHDOT
 62
256
 10
390.340912950444140
 20
-158.139700725371090
 11
402.339538052926170
 21
-170.138325827853120
  0
LINE
  8
0
  6
DASHDOT
 62
256
 10
275.363537439867510
 20
-158.080628844337530
 11
263.258374471748770
 21
-170.185791812456270
  0
LINE
  8
0
  6
DASHDOT
 62
256
 10
275.265762059955020
 20
-43.064549834882882
 11
263.156148631697080
 21
-30.954936406624938
  0
LINE
  8
0
  6
DASHDOT
 62
256
 10
389.740373492379830
 20
-43.703792791826118
 11
402.442083057791710
 21
-31.002083226414243
  0
LINE
  8
0
  6
DASHDOT
 62
256
 10
221.744587579810290
 20
-100.621477029566440
 11
448.383942841842330
 21
-100.621477029566440
  0
LINE
  8
0
  6
CONTINUOUS
 62
256
 10
403.322689254639040
 20
-95.621477029566449
 11
402.471809852102520
 21
-95.621477029566449
  0
LINE
  8
0
  6
CONTINUOUS
 62
256
 10
403.322689254639040
 20
-105.621477029566440
 11
402.471809852102520
 21
-105.621477029566440
  0
CIRCLE
  8
0
  6
CONTINUOUS
 62
256
 10
332.822689254639040
 20
-100.621477029566440
 40
2.458500000000015
  0
CIRCLE
  8
0
  6
CONTINUOUS
 62
256
 10
332.822689254639040
 20
-100.621477029566440
 40
3.000000000000000
  0
ARC
  8
0
  6
CONTINUOUS
 62
256
 10
332.822689254639040
 20
-100.621477029566440
 40
9.500000000000016
 50
198.434948822922880
 51
161.591512067616610
  0
LINE
  8
0
  6
CONTINUOUS
 62
256
 10
326.822689254639040
 20
-103.621477029566440
 11
326.822689254639040
 21
-97.621477029566449
  0
LINE
  8
0
  6
CONTINUOUS
 62
256
 10
320.822689254639040
 20
-103.621477029566440
 11
320.822689254639040
 21
-97.621477029566449
  0
LINE
  8
0
  6
CONTINUOUS
 62
256
 10
326.822689254639040
 20
-103.621477029566440
 11
320.822689254639040
 21
-103.621477029566440
  0
LINE
  8
0
  6
CONTINUOUS
 62
256
 10
326.822689254639040
 20
-97.621477029566449
 11
320.822689254639040
 21
-97.621477029566449
  0
LINE
  8
0
  6
DASHDOT
 62
256
 10
332.822689254639040
 20
-190.442997384598130
 11
332.822689254639040
 21
-20.695347066839531
  0
ARC
  8
0
  6
CONTINUOUS
 62
256
 10
262.322689254639040
 20
-44.263612653297969
 40
2.000000000000000
 50
180.000000000000000
 51
225.000000000008920
  0
ARC
  8
0
  6
CONTINUOUS
 62
256
 10
268.822689254639040
 20
-36.621477029566449
 40
8.500000000000000
 50
90.000000000000000
 51
180.000000000000000
  0
LINE
  8
0
  6
CONTINUOUS
 62
256
 10
271.422381659108400
 20
-56.191732182513078
 11
260.908475692266170
 21
-45.677826215671303
  0
ARC
  8
0
  6
CONTINUOUS
 62
256
 10
268.822689254639040
 20
-164.621477029566450
 40
8.500000000000000
 50
180.000000000000000
 51
270.000000000000000
  0
ARC
  8
0
  6
CONTINUOUS
 62
256
 10
263.173568657175570
 20
-107.621477029566440
 40
1.999999999999945
 50
5.739170477261706
 51
90.000000000000000
  0
ARC
  8
0
  6
CONTINUOUS
 62
256
 10
263.173568657175570
 20
-93.621477029566449
 40
2.000000000000000
 50
270.000000000000000
 51
354.260829522738450
  0
LINE
  8
0
  6
CONTINUOUS
 62
256
 10
271.422381659108400
 20
-145.051221876619820
 11
260.908475692266170
 21
-155.565127843461600
  0
LINE
  8
0
  6
CONTINUOUS
 62
256
 10
262.322689254639040
 20
-95.621477029566449
 11
263.173568657175570
 21
-95.621477029566449
  0
LINE
  8
0
  6
CONTINUOUS
 62
256
 10
262.322689254639040
 20
-105.621477029566440
 11
263.173568657175570
 21
-105.621477029566440
  0
ARC
  8
0
  6
CONTINUOUS
 62
256
 10
262.322689254639040
 20
-97.621477029566449
 40
2.000000000000000
 50
90.000000000000000
 51
180.000000000000000
  0
ARC
  8
0
  6
CONTINUOUS
 62
256
 10
262.322689254639040
 20
-103.621477029566440
 40
2.000000000000000
 50
180.000000000000000
 51
270.000000000000000
  0
LINE
  8
0
  6
CONTINUOUS
 62
256
 10
260.322689254639040
 20
-164.621477029566450
 11
260.322689254639040
 21
-36.621477029566449
  0
LINE
  8
0
  6
CONTINUOUS
 62
256
 10
62.587000032609922
 20
-168.937011216341920
 11
88.087000032610774
 21
-168.937011216341940
  0
LINE
  8
0
  6
CONTINUOUS
 62
256
 10
62.587000032609922
 20
-176.121477029566450
 11
88.087000795550281
 21
-176.121477029566450
  0
LINE
  8
0
  6
CONTINUOUS
 62
256
 10
62.587000032609922
 20
-175.621477029566450
 11
88.087000795550281
 21
-175.621477029566450
  0
LINE
  8
0
  6
CONTINUOUS
 62
256
 10
62.587000032609922
 20
-174.621477029566450
 11
88.087000795550281
 21
-174.621477029566450
  0
LINE
  8
0
  6
CONTINUOUS
 62
256
 10
62.587000032609922
 20
-173.621477029566480
 11
88.087000795550281
 21
-173.621477029566480
  0
LINE
  8
0
  6
CONTINUOUS
 62
256
 10
62.587000032609922
 20
-163.987263748036180
 11
88.087000032609922
 21
-163.987263748036180
  0
LINE
  8
0
  6
CONTINUOUS
 62
256
 10
62.587000032609922
 20
-155.940662085302390
 11
88.087000032609922
 21
-155.940662085302390
  0
LINE
  8
0
  6
CONTINUOUS
 62
256
 10
62.587000032609922
 20
-154.336014169740340
 11
88.087000032609922
 21
-154.336014169740340
  0
LINE
  8
0
  6
CONTINUOUS
 62
256
 10
62.587000032609922
 20
-150.372268745940800
 11
88.087000032609922
 21
-150.372268745940800
  0
LINE
  8
0
  6
CONTINUOUS
 62
256
 10
62.587000032609922
 20
-148.903911356135720
 11
88.087000032609922
 21
-148.903911356135720
  0
LINE
  8
0
  6
CONTINUOUS
 62
256
 10
62.587000032609922
 20
-144.813410822046080
 11
88.087000032609922
 21
-144.813410822046080
  0
LINE
  8
0
  6
CONTINUOUS
 62
256
 10
62.587000032609922
 20
-143.451530486696840
 11
88.087000032609922
 21
-143.451530486696810
  0
LINE
  8
0
  6
CONTINUOUS
 62
256
 10
62.587000032609922
 20
-138.621477029566450
 11
88.087000032609922
 21
-138.621477029566450
  0
LINE
  8
0
  6
CONTINUOUS
 62
256
 10
62.587000032609012
 20
-61.121477029566449
 11
88.087000032609922
 21
-61.121477029566449
  0
LINE
  8
0
  6
CONTINUOUS
 62
256
 10
62.587000032609012
 20
-61.621477029566449
 11
88.087000032609922
 21
-61.621477029566449
  0
LINE
  8
0
  6
CONTINUOUS
 62
256
 10
62.587000032609012
 20
-62.621477029566449
 11
88.087000032609922
 21
-62.621477029566449
  0
LINE
  8
0
  6
CONTINUOUS
 62
256
 10
62.587000032609012
 20
-63.621477029566449
 11
88.087000032609922
 21
-63.621477029566449
  0
LINE
  8
0
  6
CONTINUOUS
 62
256
 10
62.587000032609012
 20
-68.305942842790955
 11
88.087000032609922
 21
-68.305942842790955
  0
LINE
  8
0
  6
CONTINUOUS
 62
256
 10
62.587000032609012
 20
-73.255690311096714
 11
88.087000032609922
 21
-73.255690311096714
  0
LINE
  8
0
  6
CONTINUOUS
 62
256
 10
62.587000032609012
 20
-81.302291973830506
 11
88.087000032609922
 21
-81.302291973830506
  0
LINE
  8
0
  6
CONTINUOUS
 62
256
 10
62.587000032609012
 20
-82.906939889392561
 11
88.087000032609922
 21
-82.906939889392561
  0
LINE
  8
0
  6
CONTINUOUS
 62
256
 10
62.587000032609012
 20
-86.870685313192098
 11
88.087000032609922
 21
-86.870685313192098
  0
LINE
  8
0
  6
CONTINUOUS
 62
256
 10
62.587000032609012
 20
-88.339042702997176
 11
88.087000032609922
 21
-88.339042702997176
  0
LINE
  8
0
  6
CONTINUOUS
 62
256
 10
62.587000032609012
 20
-92.429543237086818
 11
88.087000032609922
 21
-92.429543237086818
  0
LINE
  8
0
  6
CONTINUOUS
 62
256
 10
62.587000032609012
 20
-93.791423572436088
 11
88.087000032609922
 21
-93.791423572436088
  0
LINE
  8
0
  6
CONTINUOUS
 62
256
 10
62.587000032609012
 20
-98.621477029566449
 11
88.087000032609922
 21
-98.621477029566449
  0
LINE
  8
0
  6
DASHDOT
 62
256
 10
162.582999282974010
 20
-36.981866722777340
 11
136.751240965072610
 21
-36.981866722777340
  0
LINE
  8
0
  6
DASHDOT
 62
256
 10
162.582999282974010
 20
-164.261087336355560
 11
136.751240965072610
 21
-164.261087336355560
  0
ARC
  8
0
  6
CONTINUOUS
 62
256
 10
143.087000032610830
 20
-172.225877923352530
 40
1.000000000000000
 50
180.000000000000000
 51
268.499999999984200
  0
LINE
  8
0
  6
CONTINUOUS
 62
256
 10
143.060823084302680
 20
-173.225535248328010
 11
146.573911558456530
 21
-173.317528707577370
  0
ARC
  8
0
  6
CONTINUOUS
 62
256
 10
92.687000032611195
 20
-110.771477029566090
 40
0.399999999999636
 50
0.000000000000000
 51
90.000000000000000
  0
ARC
  8
0
  6
CONTINUOUS
 62
256
 10
92.687000032611195
 20
-120.471477029566810
 40
0.399999999999636
 50
270.000000000000000
 51
0.000000000000000
  0
LINE
  8
0
  6
CONTINUOUS
 62
256
 10
92.687000032611195
 20
-173.040239581330750
 11
89.087000032610831
 21
-173.040239581330750
  0
LINE
  8
0
  6
CONTINUOUS
 62
256
 10
93.087000032610831
 20
-173.440239581331300
 11
93.087000032610831
 21
-179.371476075892130
  0
LINE
  8
0
  6
CONTINUOUS
 62
256
 10
93.087000032610831
 20
-173.440239581331300
 11
93.087000032610831
 21
-179.121477029566450
  0
ARC
  8
0
  6
CONTINUOUS
 62
256
 10
92.687000032611195
 20
-173.440239581331300
 40
0.399999999999636
 50
0.000000000000000
 51
90.000000000000000
  0
LINE
  8
0
  6
CONTINUOUS
 62
256
 10
93.087000795550281
 20
-179.371476075892130
 11
88.087000795550281
 21
-179.371476075892130
  0
LINE
  8
0
  6
CONTINUOUS
 62
256
 10
88.087000795550281
 20
-179.371476075892130
 11
88.087000795550281
 21
-170.871477983240770
  0
ARC
  8
0
  6
CONTINUOUS
 62
256
 10
89.087000032610831
 20
-172.040239581330750
 40
1.000000000000000
 50
180.000000000000000
 51
270.000000000000000
  0
LINE
  8
0
  6
CONTINUOUS
 62
256
 10
93.087000032610831
 20
-110.771477029566090
 11
93.087000032610831
 21
-120.471477029566810
  0
ARC
  8
0
  6
CONTINUOUS
 62
256
 10
89.087000032610831
 20
-121.871477029566440
 40
1.000000000000000
 50
90.000000000000000
 51
180.000000000000000
  0
ARC
  8
0
  6
CONTINUOUS
 62
256
 10
92.687000032611195
 20
-120.471477029566810
 40
0.399999999999636
 50
270.000000000000000
 51
0.000000000000000
  0
LINE
  8
0
  6
CONTINUOUS
 62
256
 10
92.687000032611195
 20
-120.871477029566440
 11
89.087000032610831
 21
-120.871477029566440
  0
ARC
  8
0
  6
CONTINUOUS
 62
256
 10
89.087000032610831
 20
-109.371477029566440
 40
1.000000000000000
 50
180.000000000000000
 51
270.000000000000000
  0
ARC
  8
0
  6
CONTINUOUS
 62
256
 10
92.687000032611195
 20
-110.771477029566090
 40
0.399999999999636
 50
0.000000000000000
 51
90.000000000000000
  0
LINE
  8
0
  6
CONTINUOUS
 62
256
 10
92.687000032611195
 20
-110.371477029566440
 11
89.087000032610831
 21
-110.371477029566440
  0
ARC
  8
0
  6
CONTINUOUS
 62
256
 10
92.687000032610285
 20
-54.460341543298455
 40
0.400000000000546
 50
0.000000000000000
 51
90.000000000000000
  0
LINE
  8
0
  6
CONTINUOUS
 62
256
 10
93.087000032610831
 20
-54.460341543298455
 11
93.087000032610831
 21
-57.131542098923092
  0
ARC
  8
0
  6
CONTINUOUS
 62
256
 10
89.087000032610831
 20
-55.060341543298819
 40
1.000000000000000
 50
90.000000000000000
 51
180.000000000000000
  0
LINE
  8
0
  6
CONTINUOUS
 62
256
 10
92.687000032611195
 20
-54.060341543298819
 11
89.087000032610831
 21
-54.060341543298819
  0
ARC
  8
0
  6
CONTINUOUS
 62
256
 10
89.087000032610831
 20
-58.531542098922728
 40
1.000000000000000
 50
90.000000000000000
 51
180.000000000000000
  0
ARC
  8
0
  6
CONTINUOUS
 62
256
 10
92.687000032611195
 20
-57.131542098923092
 40
0.399999999999636
 50
270.000000000000000
 51
0.000000000000000
  0
LINE
  8
0
  6
CONTINUOUS
 62
256
 10
92.687000032611195
 20
-57.531542098922728
 11
89.087000032610831
 21
-57.531542098922728
  0
LINE
  8
0
  6
CONTINUOUS
 62
256
 10
88.087000032610831
 20
-111.371477983240770
 11
88.087000032610831
 21
-53.586566899710306
  0
LINE
  8
0
  6
CONTINUOUS
 62
256
 10
98.587000032610831
 20
-179.621477029566450
 11
98.587000032610831
 21
-118.621477029566440
  0
LINE
  8
0
  6
CONTINUOUS
 62
256
 10
98.587000032610831
 20
-118.621477029566440
 11
98.587000032610831
 21
-53.077839367246270
  0
ARC
  8
0
  6
CONTINUOUS
 62
256
 10
87.422506300772781
 20
-179.541323008147630
 40
2.000000000000183
 50
70.594768855185322
 51
88.999999999998309
  0
ARC
  8
0
  6
CONTINUOUS
 62
256
 10
88.587000032610831
 20
-179.121477029566450
 40
0.499999999999768
 50
209.999873810925780
 51
270.000000000000000
  0
ARC
  8
0
  6
CONTINUOUS
 62
256
 10
88.587000032610831
 20
-53.586566899710306
 40
0.500000000000000
 50
90.000000000000000
 51
180.000000000000000
  0
LINE
  8
0
  6
CONTINUOUS
 62
256
 10
98.087000032610831
 20
-179.621477029566450
 11
88.587000032610831
 21
-179.621477029566450
  0
LINE
  8
0
  6
CONTINUOUS
 62
256
 10
62.587000032610831
 20
-177.130204562030490
 11
87.457411113647410
 21
-177.541627617834820
  0
LINE
  8
0
  6
CONTINUOUS
 62
256
 10
62.587000032609922
 20
-60.112749497102413
 11
88.087000032610831
 21
-59.667645341432539
  0
LINE
  8
0
  6
CONTINUOUS
 62
256
 10
98.087000032610831
 20
-53.086566899710306
 11
88.587000032610831
 21
-53.086566899710306
  0
LINE
  8
0
  6
CONTINUOUS
 62
256
 10
88.087000032610831
 20
-172.040239581330750
 11
88.087000032610831
 21
-119.871476075892130
  0
LINE
  8
0
  6
CONTINUOUS
 62
256
 10
147.087000032610830
 20
-173.304778480550340
 11
147.087000032610830
 21
-180.111061481288740
  0
LINE
  8
0
  6
CONTINUOUS
 62
256
 10
142.087000032610830
 20
-172.225877923352530
 11
142.087000032610830
 21
-29.017076135780371
  0
LINE
  8
0
  6
CONTINUOUS
 62
256
 10
146.587000032607420
 20
-173.317871441335230
 11
154.087000032610830
 21
-173.121477029566450
  0
LINE
  8
0
  6
CONTINUOUS
 62
256
 10
157.087000032610830
 20
-100.621477029566440
 11
157.087000032610830
 21
-164.821477029566270
  0
LINE
  8
0
  6
CONTINUOUS
 62
256
 10
157.087000032610830
 20
-100.621477029566440
 11
157.087000032610830
 21
-36.421477029566631
  0
LINE
  8
0
  6
CONTINUOUS
 62
256
 10
154.087000032610830
 20
-100.621477029566440
 11
154.087000032610830
 21
-173.121477029566450
  0
LINE
  8
0
  6
CONTINUOUS
 62
256
 10
160.613772603348930
 20
-78.062208249530158
 11
157.087000032610830
 21
-73.894204302293474
  0
LINE
  8
0
  6
CONTINUOUS
 62
256
 10
160.613772603348930
 20
-123.180745809602740
 11
157.087000032610830
 21
-127.348749756839420
  0
LINE
  8
0
  6
CONTINUOUS
 62
256
 10
154.087000032610830
 20
-100.621477029566440
 11
154.087000032610830
 21
-28.121477029566449
  0
LINE
  8
0
  6
CONTINUOUS
 62
256
 10
98.087000032610831
 20
-179.611167751216270
 11
98.087000032610831
 21
-100.621477029566440
  0
LINE
  8
0
  6
CONTINUOUS
 62
256
 10
156.307674535873500
 20
-165.621477029566450
 11
154.087000032610830
 21
-165.621477029566450
  0
LINE
  8
0
  6
CONTINUOUS
 62
256
 10
156.307674535873500
 20
-35.621477029566449
 11
154.087000032610830
 21
-35.621477029566449
  0
LINE
  8
0
  6
CONTINUOUS
 62
256
 10
98.087000032610831
 20
-100.621477029566440
 11
98.087000032610831
 21
-53.130204562030485
  0
ARC
  8
0
  6
CONTINUOUS
 62
256
 10
129.120958180209980
 20
-49.588047823453053
 40
3.000000000000496
 50
271.000000000001590
 51
330.000000000002790
  0
ARC
  8
0
  6
CONTINUOUS
 62
256
 10
139.087000032610830
 20
-32.326356984736776
 40
3.000000000000247
 50
330.000000000002730
 51
0.000000000000000
  0
ARC
  8
0
  6
CONTINUOUS
 62
256
 10
159.087000032610830
 20
-121.888861326670830
 40
1.999999999999609
 50
319.763641690733830
 51
0.000000000000000
  0
ARC
  8
0
  6
CONTINUOUS
 62
256
 10
159.087000032610830
 20
-79.354092732462050
 40
2.000000000000000
 50
0.000000000000000
 51
40.236358309266507
  0
ARC
  8
0
  6
CONTINUOUS
 62
256
 10
143.087000032610830
 20
-29.017076135780371
 40
0.999999999999937
 50
91.500000000015845
 51
180.000000000000000
  0
ARC
  8
0
  6
CONTINUOUS
 62
256
 10
146.587000032610830
 20
-180.111061481288740
 40
0.500000000000239
 50
268.818811086687840
 51
0.000000000000000
  0
ARC
  8
0
  6
CONTINUOUS
 62
256
 10
150.087000032614920
 20
-64.883892202758034
 40
3.000000000000686
 50
91.499999999989342
 51
180.000000000000000
  0
LINE
  8
0
  6
CONTINUOUS
 62
256
 10
161.087000032610830
 20
-100.621477029566440
 11
161.087000032610830
 21
-121.888861326670830
  0
LINE
  8
0
  6
CONTINUOUS
 62
256
 10
157.087000032610830
 20
-164.821477029566270
 11
156.307674535873500
 21
-165.621477029566450
  0
LINE
  8
0
  6
CONTINUOUS
 62
256
 10
157.087000032610830
 20
-36.421477029566631
 11
156.307674535873500
 21
-35.621477029566449
  0
LINE
  8
0
  6
CONTINUOUS
 62
256
 10
161.087000032610830
 20
-100.621477029566440
 11
161.087000032610830
 21
-79.354092732462050
  0
LINE
  8
0
  6
CONTINUOUS
 62
256
 10
131.719034391563580
 20
-51.088047823453053
 11
141.685076243964430
 21
-33.826356984736776
  0
LINE
  8
0
  6
CONTINUOUS
 62
256
 10
143.060823084302680
 20
-28.017418810804884
 11
146.573911558456530
 21
-27.925425351555532
  0
LINE
  8
0
  6
CONTINUOUS
 62
256
 10
146.576692944927340
 20
-180.610955233943970
 11
98.587000032610831
 21
-179.621477029566450
  0
LINE
  8
0
  6
CONTINUOUS
 62
256
 10
146.587000032610830
 20
-27.925082617797671
 11
154.087000032610830
 21
-28.121477029566449
  0
LINE
  8
0
  6
CONTINUOUS
 62
256
 10
150.008469187691840
 20
-61.884920227830662
 11
154.087000032614920
 21
-61.778120139008024
  0
ARC
  8
0
  6
CONTINUOUS
 62
256
 10
150.087000032610830
 20
-48.197811841793737
 40
2.999999999999788
 50
91.499999999998479
 51
180.000000000000000
  0
LINE
  8
0
  6
CONTINUOUS
 62
256
 10
150.008469187687300
 20
-45.198839866867274
 11
154.087000032610830
 21
-45.092039778044636
  0
LINE
  8
0
  6
CONTINUOUS
 62
256
 10
147.087000032610830
 20
-48.197811841793737
 11
147.087000032610830
 21
-92.621477029566449
  0
LINE
  8
0
  6
CONTINUOUS
 62
256
 10
147.087000032610830
 20
-153.045142217339160
 11
147.087000032610830
 21
-108.621477029566440
  0
ARC
  8
0
  6
CONTINUOUS
 62
256
 10
150.087000032610830
 20
-153.045142217339160
 40
3.000000000000000
 50
180.000000000000000
 51
268.500000000001590
  0
LINE
  8
0
  6
CONTINUOUS
 62
256
 10
150.008469187687300
 20
-156.044114192265620
 11
154.087000032610830
 21
-156.150914281088260
  0
ARC
  8
0
  6
CONTINUOUS
 62
256
 10
150.087000032614920
 20
-136.359061856374860
 40
3.000000000000000
 50
180.000000000000000
 51
268.500000000010860
  0
LINE
  8
0
  6
CONTINUOUS
 62
256
 10
150.008469187691840
 20
-139.358033831302240
 11
154.087000032614920
 21
-139.464833920124870
  0
LINE
  8
0
  6
CONTINUOUS
 62
256
 10
150.087000032610830
 20
-95.621477029566449
 11
154.087000032610830
 21
-95.621477029566449
  0
LINE
  8
0
  6
CONTINUOUS
 62
256
 10
150.087000032610830
 20
-105.621477029566440
 11
154.087000032610830
 21
-105.621477029566440
  0
ARC
  8
0
  6
CONTINUOUS
 62
256
 10
150.087000032610830
 20
-92.621477029566449
 40
3.000000000000000
 50
180.000000000000000
 51
270.000000000000000
  0
ARC
  8
0
  6
CONTINUOUS
 62
256
 10
150.087000032610830
 20
-108.621477029566440
 40
3.000000000000000
 50
90.000000000000000
 51
180.000000000000000
  0
ARC
  8
0
  6
CONTINUOUS
 62
256
 10
139.087000032610830
 20
-45.859350922935846
 40
3.000000000000531
 50
318.942708126113530
 51
0.000000000000000
  0
LINE
  8
0
  6
CONTINUOUS
 62
256
 10
141.349159598773440
 20
-47.829790999980105
 11
131.767167017511840
 21
-58.830377332511489
  0
ARC
  8
0
  6
CONTINUOUS
 62
256
 10
129.505007451349230
 20
-56.859937255468139
 40
3.000000000000000
 50
270.000000000000000
 51
318.942708126126720
  0
ARC
  8
0
  6
CONTINUOUS
 62
256
 10
129.505007451349230
 20
-53.203083005973895
 40
3.000000000000000
 50
270.000000000000000
 51
318.942708126126720
  0
LINE
  8
0
  6
CONTINUOUS
 62
256
 10
141.349159598773440
 20
-44.172936750485860
 11
131.767167017511840
 21
-55.173523083017244
  0
ARC
  8
0
  6
CONTINUOUS
 62
256
 10
139.087000032610830
 20
-42.202496673441601
 40
3.000000000000531
 50
318.942708126113530
 51
0.000000000000000
  0
LINE
  8
0
  6
CONTINUOUS
 62
256
 10
140.877303713731640
 20
-59.859937255468139
 11
132.246582073351420
 21
-59.859937255468139
  0
LINE
  8
0
  6
CONTINUOUS
 62
256
 10
134.094448751498020
 20
-52.501692206744337
 11
98.587000032610831
 21
-53.121477029566449
  0
ARC
  8
0
  6
CONTINUOUS
 62
256
 10
169.475062033907310
 20
-100.733676061603550
 40
2.888045108587921
 50
177.773528828001640
 51
270.000000000000000
  0
LINE
  8
0
  6
CONTINUOUS
 62
256
 10
169.475062033907310
 20
-103.621721170191440
 11
191.587016925318950
 21
-103.621721170191440
  0
LINE
  8
0
  6
CONTINUOUS
 62
256
 10
191.587016925318950
 20
-100.621477029566440
 11
191.587016925318950
 21
-109.721477029566810
  0
LINE
  8
0
  6
CONTINUOUS
 62
256
 10
163.387016925319130
 20
-111.621477029566440
 11
161.087000032610830
 21
-111.621477029566440
  0
LINE
  8
0
  6
CONTINUOUS
 62
256
 10
163.387016925319130
 20
-89.549553509516045
 11
161.087000032610830
 21
-89.549553509516045
  0
ARC
  8
0
  6
CONTINUOUS
 62
256
 10
163.987016925319040
 20
-110.371477029566440
 40
0.399999999999636
 50
90.000000000000000
 51
180.000000000000000
  0
LINE
  8
0
  6
CONTINUOUS
 62
256
 10
163.587016925318950
 20
-100.621477029566440
 11
163.587016925318950
 21
-111.421477029566630
  0
LINE
  8
0
  6
CONTINUOUS
 62
256
 10
166.146824546454350
 20
-110.121477029566440
 11
165.587016925318950
 21
-109.971477029566810
  0
LINE
  8
0
  6
CONTINUOUS
 62
256
 10
165.587016925318950
 20
-109.971477029566810
 11
163.987016925319040
 21
-109.971477029566810
  0
LINE
  8
0
  6
CONTINUOUS
 62
256
 10
163.387016925319130
 20
-111.621477029566440
 11
163.587016925318950
 21
-111.421477029566630
  0
LINE
  8
0
  6
CONTINUOUS
 62
256
 10
191.187016925318860
 20
-110.121477029566440
 11
166.146824546454350
 21
-110.121477029566440
  0
LINE
  8
0
  6
CONTINUOUS
 62
256
 10
163.587016925318950
 20
-100.549553509516040
 11
163.587016925318950
 21
-89.749553509515863
  0
LINE
  8
0
  6
CONTINUOUS
 62
256
 10
163.387016925319130
 20
-89.549553509516045
 11
163.587016925318950
 21
-89.749553509515863
  0
ARC
  8
0
  6
CONTINUOUS
 62
256
 10
191.187016925318860
 20
-109.721477029566810
 40
0.399999999999636
 50
270.000000000000000
 51
0.000000000000000
  0
LINE
  8
0
  6
DASHDOT
 62
256
 10
208.047293270925370
 20
-100.621477029566440
 11
115.678834679658830
 21
-100.621477029566440
  0
LINE
  8
0
  6
CONTINUOUS
 62
256
 10
235.322691111836720
 20
-116.121477029566440
 11
234.822689254639100
 21
-116.121477029566440
  0
LINE
  8
0
  6
CONTINUOUS
 62
256
 10
234.822689254639100
 20
-121.121477029566440
 11
234.822689254639100
 21
-116.121477029566440
  0
ARC
  8
0
  6
CONTINUOUS
 62
256
 10
535.322689254639040
 20
-118.621477029566620
 40
300.000000000000060
 50
173.967950853630160
 51
186.032049146369760
  0
LINE
  8
0
  6
CONTINUOUS
 62
256
 10
235.333106102156930
 20
-121.121477029566440
 11
234.822689254639100
 21
-121.121477029566440
  0
LINE
  8
0
  6
CONTINUOUS
 62
256
 10
-4.513402457878669
 20
-154.336014169740340
 11
88.087000032612650
 21
-154.336014169740340
  0
LINE
  8
0
  6
CONTINUOUS
 62
256
 10
-4.513402457878442
 20
-82.906939889392561
 11
88.087000032612650
 21
-82.906939889392561
  0
LINE
  8
0
  6
CONTINUOUS
 62
256
 10
-4.212999967388328
 20
-86.870685313192098
 11
88.087000032612650
 21
-86.870685313192098
  0
LINE
  8
0
  6
CONTINUOUS
 62
256
 10
-5.212999967388328
 20
-154.621477029566450
 11
-93.212999967388328
 21
-154.621477029566450
  0
LINE
  8
0
  6
CONTINUOUS
 62
256
 10
-5.212999967388328
 20
-82.621477029566449
 11
-93.212999967388328
 21
-82.621477029566449
  0
LINE
  8
0
  6
CONTINUOUS
 62
256
 10
-94.212999967388328
 20
-83.621477029566449
 11
-94.212999967388328
 21
-153.621477029566450
  0
ARC
  8
0
  6
CONTINUOUS
 62
256
 10
-93.212999967388328
 20
-153.621477029566450
 40
1.000000000000000
 50
180.000000000000000
 51
270.000000000000000
  0
ARC
  8
0
  6
CONTINUOUS
 62
256
 10
-93.212999967388328
 20
-83.621477029566449
 40
1.000000000000000
 50
90.000000000000000
 51
180.000000000000000
  0
LINE
  8
0
  6
CONTINUOUS
 62
256
 10
-4.212999967388328
 20
-83.621477029566449
 11
-4.212999967388328
 21
-153.621477029566450
  0
ARC
  8
0
  6
CONTINUOUS
 62
256
 10
-5.212999967388328
 20
-83.621477029566449
 40
1.000000000000000
 50
0.000000000000000
 51
90.000000000000000
  0
ARC
  8
0
  6
CONTINUOUS
 62
256
 10
-5.212999967388328
 20
-153.621477029566450
 40
1.000000000000000
 50
270.000000000000000
 51
0.000000000000000
  0
LINE
  8
0
  6
CONTINUOUS
 62
256
 10
62.587000032611741
 20
-177.121477029566450
 11
-86.412999967388146
 21
-177.121477029566450
  0
LINE
  8
0
  6
DASHDOT
 62
256
 10
112.521504923492100
 20
-118.621477029566440
 11
-209.016329050084100
 21
-118.621477029566440
  0
LINE
  8
0
  6
CONTINUOUS
 62
256
 10
-97.412999967387577
 20
-64.881361929128843
 11
-99.412999967387577
 21
-66.534003568252274
  0
LINE
  8
0
  6
CONTINUOUS
 62
256
 10
-95.412999967387577
 20
-63.705576443506061
 11
-97.412999967387577
 21
-64.881361929128843
  0
LINE
  8
0
  6
CONTINUOUS
 62
256
 10
-97.412999967387577
 20
-64.881361929128843
 11
-95.412999967387577
 21
-66.534003568252274
  0
LINE
  8
0
  6
CONTINUOUS
 62
256
 10
-99.412999967387577
 20
-63.705576443506061
 11
-97.412999967387577
 21
-64.881361929128843
  0
LINE
  8
0
  6
CONTINUOUS
 62
256
 10
-92.803309149492407
 20
-67.400908963706740
 11
-92.712999967387589
 21
-66.697951997506379
  0
LINE
  8
0
  6
CONTINUOUS
 62
256
 10
-93.070766164584541
 20
-68.076851687918833
 11
-92.803309149492407
 21
-67.400908963706740
  0
LINE
  8
0
  6
CONTINUOUS
 62
256
 10
-93.505092789565623
 20
-68.699804070324234
 11
-93.070766164584541
 21
-68.076851687918833
  0
LINE
  8
0
  6
CONTINUOUS
 62
256
 10
-94.089598095810814
 20
-69.245826400222811
 11
-93.505092789565623
 21
-68.699804070324234
  0
LINE
  8
0
  6
CONTINUOUS
 62
256
 10
-94.801819872195452
 20
-69.693935345689425
 11
-94.089598095810814
 21
-69.245826400222811
  0
LINE
  8
0
  6
CONTINUOUS
 62
256
 10
-95.614387835271657
 20
-70.026910331252196
 11
-94.801819872195452
 21
-69.693935345689425
  0
LINE
  8
0
  6
CONTINUOUS
 62
256
 10
-96.496075453911772
 20
-70.231955314950440
 11
-95.614387835271657
 21
-70.026910331252196
  0
LINE
  8
0
  6
CONTINUOUS
 62
256
 10
-97.412999967387577
 20
-70.301190533051212
 11
-96.496075453911772
 21
-70.231955314950440
  0
LINE
  8
0
  6
CONTINUOUS
 62
256
 10
-98.329924480863383
 20
-70.231955314950440
 11
-97.412999967387577
 21
-70.301190533051212
  0
LINE
  8
0
  6
CONTINUOUS
 62
256
 10
-99.211612099503498
 20
-70.026910331252196
 11
-98.329924480863383
 21
-70.231955314950440
  0
LINE
  8
0
  6
CONTINUOUS
 62
256
 10
-100.024180062579700
 20
-69.693935345689425
 11
-99.211612099503498
 21
-70.026910331252196
  0
LINE
  8
0
  6
CONTINUOUS
 62
256
 10
-100.736401838964340
 20
-69.245826400222811
 11
-100.024180062579700
 21
-69.693935345689425
  0
LINE
  8
0
  6
CONTINUOUS
 62
256
 10
-101.320907145209530
 20
-68.699804070324234
 11
-100.736401838964340
 21
-69.245826400222811
  0
LINE
  8
0
  6
CONTINUOUS
 62
256
 10
-101.755233770190610
 20
-68.076851687918833
 11
-101.320907145209530
 21
-68.699804070324234
  0
LINE
  8
0
  6
CONTINUOUS
 62
256
 10
-102.022690785282730
 20
-67.400908963706740
 11
-101.755233770190610
 21
-68.076851687918833
  0
LINE
  8
0
  6
CONTINUOUS
 62
256
 10
-102.112999967387570
 20
-66.697951997506379
 11
-102.022690785282730
 21
-67.400908963706740
  0
LINE
  8
0
  6
CONTINUOUS
 62
256
 10
-102.022690785282730
 20
-65.994995031306019
 11
-102.112999967387570
 21
-66.697951997506379
  0
LINE
  8
0
  6
CONTINUOUS
 62
256
 10
-101.755233770190610
 20
-65.319052307093926
 11
-102.022690785282730
 21
-65.994995031306019
  0
LINE
  8
0
  6
CONTINUOUS
 62
256
 10
-101.320907145209530
 20
-64.696099924688525
 11
-101.755233770190610
 21
-65.319052307093926
  0
LINE
  8
0
  6
CONTINUOUS
 62
256
 10
-100.736401838964340
 20
-64.150077594789948
 11
-101.320907145209530
 21
-64.696099924688525
  0
LINE
  8
0
  6
CONTINUOUS
 62
256
 10
-100.024180062579700
 20
-63.701968649323327
 11
-100.736401838964340
 21
-64.150077594789948
  0
LINE
  8
0
  6
CONTINUOUS
 62
256
 10
-99.211612099503498
 20
-63.368993663760570
 11
-100.024180062579700
 21
-63.701968649323327
  0
LINE
  8
0
  6
CONTINUOUS
 62
256
 10
-98.329924480863383
 20
-63.163948680062319
 11
-99.211612099503498
 21
-63.368993663760570
  0
LINE
  8
0
  6
CONTINUOUS
 62
256
 10
-97.412999967387577
 20
-63.094713461961547
 11
-98.329924480863383
 21
-63.163948680062319
  0
LINE
  8
0
  6
CONTINUOUS
 62
256
 10
-96.496075453911772
 20
-63.163948680062319
 11
-97.412999967387577
 21
-63.094713461961547
  0
LINE
  8
0
  6
CONTINUOUS
 62
256
 10
-95.614387835271657
 20
-63.368993663760570
 11
-96.496075453911772
 21
-63.163948680062319
  0
LINE
  8
0
  6
CONTINUOUS
 62
256
 10
-94.801819872195452
 20
-63.701968649323327
 11
-95.614387835271657
 21
-63.368993663760570
  0
LINE
  8
0
  6
CONTINUOUS
 62
256
 10
-94.089598095810814
 20
-64.150077594789948
 11
-94.801819872195452
 21
-63.701968649323327
  0
LINE
  8
0
  6
CONTINUOUS
 62
256
 10
-93.505092789565623
 20
-64.696099924688525
 11
-94.089598095810814
 21
-64.150077594789948
  0
LINE
  8
0
  6
CONTINUOUS
 62
256
 10
-93.070766164584541
 20
-65.319052307093926
 11
-93.505092789565623
 21
-64.696099924688525
  0
LINE
  8
0
  6
CONTINUOUS
 62
256
 10
-92.803309149492407
 20
-65.994995031306019
 11
-93.070766164584541
 21
-65.319052307093926
  0
LINE
  8
0
  6
CONTINUOUS
 62
256
 10
-92.712999967387589
 20
-66.697951997506379
 11
-92.803309149492407
 21
-65.994995031306019
  0
LINE
  8
0
  6
CONTINUOUS
 62
256
 10
-86.412999967388146
 20
-173.621477029566450
 11
63.587000032612650
 21
-173.621477029566450
  0
LINE
  8
0
  6
CONTINUOUS
 62
256
 10
-86.412999967388146
 20
-174.621477029566450
 11
63.587000032612650
 21
-174.621477029566450
  0
LINE
  8
0
  6
CONTINUOUS
 62
256
 10
-86.412999967388146
 20
-175.621477029566450
 11
63.587000032612650
 21
-175.621477029566450
  0
LINE
  8
0
  6
CONTINUOUS
 62
256
 10
-86.412999967388146
 20
-176.121477029566450
 11
63.587000032612650
 21
-176.121477029566450
  0
ARC
  8
0
  6
CONTINUOUS
 62
256
 10
-186.812999967337870
 20
-71.178271972320999
 40
2.599999999999721
 50
125.000000000001380
 51
180.000000000000000
  0
LINE
  8
0
  6
CONTINUOUS
 62
256
 10
-178.578552916829490
 20
-62.238436143786657
 11
-188.304298701850480
 21
-69.048476657169886
  0
ARC
  8
0
  6
CONTINUOUS
 62
256
 10
-167.107024189808500
 20
-78.621477029566449
 40
20.000000000000000
 50
90.000000000000000
 51
125.000000000000240
  0
LINE
  8
0
  6
CONTINUOUS
 62
256
 10
-189.412999967338010
 20
-118.621477029566440
 11
-189.412999967338010
 21
-71.178271972320999
  0
LINE
  8
0
  6
CONTINUOUS
 62
256
 10
-86.412999967388146
 20
-58.621477029566449
 11
-167.107024189808500
 21
-58.621477029566449
  0
LINE
  8
0
  6
CONTINUOUS
 62
256
 10
62.587000032611741
 20
-60.121477029566449
 11
-86.412999967388146
 21
-60.121477029566449
  0
LINE
  8
0
  6
CONTINUOUS
 62
256
 10
-96.412999967388032
 20
-83.621477029566449
 11
-96.412999967388032
 21
-118.621477029566440
  0
ARC
  8
0
  6
CONTINUOUS
 62
256
 10
-89.412999967388146
 20
-77.621477029566449
 40
3.000000000000000
 50
270.000000000000000
 51
0.000000000000000
  0
LINE
  8
0
  6
CONTINUOUS
 62
256
 10
-89.412999967388146
 20
-80.621477029566449
 11
-93.412999967388032
 21
-80.621477029566449
  0
ARC
  8
0
  6
CONTINUOUS
 62
256
 10
-93.412999967388032
 20
-83.621477029566449
 40
3.000000000000000
 50
90.000000000000000
 51
180.000000000000000
  0
LINE
  8
0
  6
CONTINUOUS
 62
256
 10
-86.412999967388146
 20
-77.621477029566449
 11
-86.412999967388146
 21
-58.621477029566449
  0
LINE
  8
0
  6
CONTINUOUS
 62
256
 10
-96.412999967388032
 20
-86.870685313192098
 11
-94.212999967388328
 21
-86.870685313192098
  0
LINE
  8
0
  6
CONTINUOUS
 62
256
 10
-96.326663756384960
 20
-82.906939889392561
 11
-93.912597476897986
 21
-82.906939889392561
  0
LINE
  8
0
  6
CONTINUOUS
 62
256
 10
-95.315992525768252
 20
-81.302291973830506
 11
88.087000032612650
 21
-81.302291973830506
  0
LINE
  8
0
  6
CONTINUOUS
 62
256
 10
-86.412999967388146
 20
-73.255690311096714
 11
88.087000032612650
 21
-73.255690311096714
  0
LINE
  8
0
  6
CONTINUOUS
 62
256
 10
-86.412999967388146
 20
-68.305942842790955
 11
88.087000032612650
 21
-68.305942842790955
  0
LINE
  8
0
  6
CONTINUOUS
 62
256
 10
-86.412999967388146
 20
-63.621477029566449
 11
86.787000795553013
 21
-63.621477029566449
  0
LINE
  8
0
  6
CONTINUOUS
 62
256
 10
-86.412999967388146
 20
-62.621477029566449
 11
86.787000795553013
 21
-62.621477029566449
  0
LINE
  8
0
  6
CONTINUOUS
 62
256
 10
-86.412999967388146
 20
-61.121477029566449
 11
86.787000795553013
 21
-61.121477029566449
  0
LINE
  8
0
  6
CONTINUOUS
 62
256
 10
-86.412999967388146
 20
-61.621477029566449
 11
86.787000795553013
 21
-61.621477029566449
  0
LINE
  8
0
  6
CONTINUOUS
 62
256
 10
-96.412999967388032
 20
-98.621477029566449
 11
-94.212999967388328
 21
-98.621477029566449
  0
LINE
  8
0
  6
CONTINUOUS
 62
256
 10
-4.212999967388328
 20
-98.621477029566449
 11
88.087000032612650
 21
-98.621477029566449
  0
LINE
  8
0
  6
CONTINUOUS
 62
256
 10
-96.412999967388032
 20
-92.429543237086818
 11
-94.212999967388328
 21
-92.429543237086818
  0
LINE
  8
0
  6
CONTINUOUS
 62
256
 10
-4.212999967388328
 20
-92.429543237086818
 11
88.087000032612650
 21
-92.429543237086818
  0
LINE
  8
0
  6
CONTINUOUS
 62
256
 10
-4.212999967388328
 20
-144.813410822046080
 11
88.087000032612650
 21
-144.813410822046080
  0
LINE
  8
0
  6
CONTINUOUS
 62
256
 10
-96.412999967388032
 20
-93.791423572436088
 11
-94.212999967388328
 21
-93.791423572436088
  0
LINE
  8
0
  6
CONTINUOUS
 62
256
 10
-4.212999967388328
 20
-138.621477029566450
 11
88.087000032612650
 21
-138.621477029566450
  0
LINE
  8
0
  6
CONTINUOUS
 62
256
 10
-4.212999967388328
 20
-93.791423572436088
 11
88.087000032612650
 21
-93.791423572436088
  0
LINE
  8
0
  6
CONTINUOUS
 62
256
 10
-4.212999967388328
 20
-148.903911356135720
 11
88.087000032612650
 21
-148.903911356135720
  0
LINE
  8
0
  6
CONTINUOUS
 62
256
 10
-96.412999967388032
 20
-88.339042702997176
 11
-94.212999967388328
 21
-88.339042702997176
  0
LINE
  8
0
  6
CONTINUOUS
 62
256
 10
-4.212999967388328
 20
-143.451530486696810
 11
88.087000032612650
 21
-143.451530486696810
  0
LINE
  8
0
  6
CONTINUOUS
 62
256
 10
-4.212999967388328
 20
-88.339042702997176
 11
88.087000032612650
 21
-88.339042702997176
  0
LINE
  8
0
  6
CONTINUOUS
 62
256
 10
-96.412999967388032
 20
-138.621477029566450
 11
-94.212999967388328
 21
-138.621477029566450
  0
LINE
  8
0
  6
CONTINUOUS
 62
256
 10
-96.412999967388032
 20
-143.451530486696810
 11
-94.212999967388328
 21
-143.451530486696810
  0
LINE
  8
0
  6
CONTINUOUS
 62
256
 10
-96.412999967388032
 20
-144.813410822046080
 11
-94.212999967388328
 21
-144.813410822046080
  0
LINE
  8
0
  6
CONTINUOUS
 62
256
 10
-96.412999967388032
 20
-148.903911356135720
 11
-94.212999967388328
 21
-148.903911356135720
  0
LINE
  8
0
  6
CONTINUOUS
 62
256
 10
-4.212999967388328
 20
-150.372268745940800
 11
88.087000032612650
 21
-150.372268745940800
  0
LINE
  8
0
  6
CONTINUOUS
 62
256
 10
-96.326663756384960
 20
-154.336014169740340
 11
-93.912597476897986
 21
-154.336014169740340
  0
LINE
  8
0
  6
CONTINUOUS
 62
256
 10
-95.315992525768252
 20
-155.940662085302390
 11
88.087000032612650
 21
-155.940662085302390
  0
LINE
  8
0
  6
CONTINUOUS
 62
256
 10
-86.412999967388146
 20
-163.987263748036180
 11
88.087000032612650
 21
-163.987263748036180
  0
LINE
  8
0
  6
CONTINUOUS
 62
256
 10
-86.412999967388146
 20
-168.937011216341940
 11
63.587000032612650
 21
-168.937011216341940
  0
LINE
  8
0
  6
CONTINUOUS
 62
256
 10
-96.412999967388032
 20
-153.621477029566450
 11
-96.412999967388032
 21
-118.621477029566440
  0
ARC
  8
0
  6
CONTINUOUS
 62
256
 10
-89.412999967388146
 20
-159.621477029566450
 40
3.000000000000000
 50
0.000000000000000
 51
90.000000000000000
  0
LINE
  8
0
  6
CONTINUOUS
 62
256
 10
-89.412999967388146
 20
-156.621477029566450
 11
-93.412999967388032
 21
-156.621477029566450
  0
ARC
  8
0
  6
CONTINUOUS
 62
256
 10
-93.412999967388032
 20
-153.621477029566450
 40
3.000000000000000
 50
180.000000000000000
 51
270.000000000000000
  0
LINE
  8
0
  6
CONTINUOUS
 62
256
 10
-86.412999967388146
 20
-159.621477029566450
 11
-86.412999967388146
 21
-178.621477029566450
  0
ARC
  8
0
  6
CONTINUOUS
 62
256
 10
-186.812999967337870
 20
-166.064682086811900
 40
2.600000000000136
 50
180.000000000000000
 51
234.999999999998810
  0
LINE
  8
0
  6
CONTINUOUS
 62
256
 10
-178.578552916829490
 20
-175.004517915346240
 11
-188.304298701850480
 21
-168.194477401963010
  0
ARC
  8
0
  6
CONTINUOUS
 62
256
 10
-167.107024189808500
 20
-158.621477029566450
 40
20.000000000000007
 50
234.999999999999740
 51
270.000000000000000
  0
LINE
  8
0
  6
CONTINUOUS
 62
256
 10
-189.412999967338010
 20
-118.621477029566440
 11
-189.412999967338010
 21
-166.064682086811900
  0
LINE
  8
0
  6
CONTINUOUS
 62
256
 10
-86.412999967388146
 20
-178.621477029566450
 11
-167.107024189808500
 21
-178.621477029566450
  0
LINE
  8
0
  6
CONTINUOUS
 62
256
 10
-97.412999967387577
 20
-172.361592130004280
 11
-99.412999967387577
 21
-170.708950490880850
  0
LINE
  8
0
  6
CONTINUOUS
 62
256
 10
-95.412999967387577
 20
-173.537377615626610
 11
-97.412999967387577
 21
-172.361592130004280
  0
LINE
  8
0
  6
CONTINUOUS
 62
256
 10
-97.412999967387577
 20
-172.361592130004280
 11
-95.412999967387577
 21
-170.708950490880850
  0
LINE
  8
0
  6
CONTINUOUS
 62
256
 10
-99.412999967387577
 20
-173.537377615626610
 11
-97.412999967387577
 21
-172.361592130004280
  0
LINE
  8
0
  6
CONTINUOUS
 62
256
 10
-92.803309149492407
 20
-171.247959027826650
 11
-92.712999967387589
 21
-170.545002061626290
  0
LINE
  8
0
  6
CONTINUOUS
 62
256
 10
-93.070766164584541
 20
-171.923901752038740
 11
-92.803309149492407
 21
-171.247959027826650
  0
LINE
  8
0
  6
CONTINUOUS
 62
256
 10
-93.505092789565623
 20
-172.546854134444150
 11
-93.070766164584541
 21
-171.923901752038740
  0
LINE
  8
0
  6
CONTINUOUS
 62
256
 10
-94.089598095810814
 20
-173.092876464342740
 11
-93.505092789565623
 21
-172.546854134444150
  0
LINE
  8
0
  6
CONTINUOUS
 62
256
 10
-94.801819872195452
 20
-173.540985409809370
 11
-94.089598095810814
 21
-173.092876464342740
  0
LINE
  8
0
  6
CONTINUOUS
 62
256
 10
-95.614387835271657
 20
-173.873960395372110
 11
-94.801819872195452
 21
-173.540985409809370
  0
LINE
  8
0
  6
CONTINUOUS
 62
256
 10
-96.496075453911772
 20
-174.079005379070370
 11
-95.614387835271657
 21
-173.873960395372110
  0
LINE
  8
0
  6
CONTINUOUS
 62
256
 10
-97.412999967387577
 20
-174.148240597171140
 11
-96.496075453911772
 21
-174.079005379070370
  0
LINE
  8
0
  6
CONTINUOUS
 62
256
 10
-98.329924480863383
 20
-174.079005379070370
 11
-97.412999967387577
 21
-174.148240597171140
  0
LINE
  8
0
  6
CONTINUOUS
 62
256
 10
-99.211612099503498
 20
-173.873960395372110
 11
-98.329924480863383
 21
-174.079005379070370
  0
LINE
  8
0
  6
CONTINUOUS
 62
256
 10
-100.024180062579700
 20
-173.540985409809370
 11
-99.211612099503498
 21
-173.873960395372110
  0
LINE
  8
0
  6
CONTINUOUS
 62
256
 10
-100.736401838964340
 20
-173.092876464342740
 11
-100.024180062579700
 21
-173.540985409809370
  0
LINE
  8
0
  6
CONTINUOUS
 62
256
 10
-101.320907145209530
 20
-172.546854134444150
 11
-100.736401838964340
 21
-173.092876464342740
  0
LINE
  8
0
  6
CONTINUOUS
 62
256
 10
-101.755233770190610
 20
-171.923901752038740
 11
-101.320907145209530
 21
-172.546854134444150
  0
LINE
  8
0
  6
CONTINUOUS
 62
256
 10
-102.022690785282730
 20
-171.247959027826650
 11
-101.755233770190610
 21
-171.923901752038740
  0
LINE
  8
0
  6
CONTINUOUS
 62
256
 10
-102.112999967387570
 20
-170.545002061626290
 11
-102.022690785282730
 21
-171.247959027826650
  0
LINE
  8
0
  6
CONTINUOUS
 62
256
 10
-102.022690785282730
 20
-169.842045095425930
 11
-102.112999967387570
 21
-170.545002061626290
  0
LINE
  8
0
  6
CONTINUOUS
 62
256
 10
-101.755233770190610
 20
-169.166102371213840
 11
-102.022690785282730
 21
-169.842045095425930
  0
LINE
  8
0
  6
CONTINUOUS
 62
256
 10
-101.320907145209530
 20
-168.543149988808440
 11
-101.755233770190610
 21
-169.166102371213840
  0
LINE
  8
0
  6
CONTINUOUS
 62
256
 10
-100.736401838964340
 20
-167.997127658909850
 11
-101.320907145209530
 21
-168.543149988808440
  0
LINE
  8
0
  6
CONTINUOUS
 62
256
 10
-100.024180062579700
 20
-167.549018713443220
 11
-100.736401838964340
 21
-167.997127658909850
  0
LINE
  8
0
  6
CONTINUOUS
 62
256
 10
-99.211612099503498
 20
-167.216043727880470
 11
-100.024180062579700
 21
-167.549018713443220
  0
LINE
  8
0
  6
CONTINUOUS
 62
256
 10
-98.329924480863383
 20
-167.010998744182220
 11
-99.211612099503498
 21
-167.216043727880470
  0
LINE
  8
0
  6
CONTINUOUS
 62
256
 10
-97.412999967387577
 20
-166.941763526081440
 11
-98.329924480863383
 21
-167.010998744182220
  0
LINE
  8
0
  6
CONTINUOUS
 62
256
 10
-96.496075453911772
 20
-167.010998744182220
 11
-97.412999967387577
 21
-166.941763526081440
  0
LINE
  8
0
  6
CONTINUOUS
 62
256
 10
-95.614387835271657
 20
-167.216043727880470
 11
-96.496075453911772
 21
-167.010998744182220
  0
LINE
  8
0
  6
CONTINUOUS
 62
256
 10
-94.801819872195452
 20
-167.549018713443220
 11
-95.614387835271657
 21
-167.216043727880470
  0
LINE
  8
0
  6
CONTINUOUS
 62
256
 10
-94.089598095810814
 20
-167.997127658909850
 11
-94.801819872195452
 21
-167.549018713443220
  0
LINE
  8
0
  6
CONTINUOUS
 62
256
 10
-93.505092789565623
 20
-168.543149988808440
 11
-94.089598095810814
 21
-167.997127658909850
  0
LINE
  8
0
  6
CONTINUOUS
 62
256
 10
-93.070766164584541
 20
-169.166102371213840
 11
-93.505092789565623
 21
-168.543149988808440
  0
LINE
  8
0
  6
CONTINUOUS
 62
256
 10
-92.803309149492407
 20
-169.842045095425930
 11
-93.070766164584541
 21
-169.166102371213840
  0
LINE
  8
0
  6
CONTINUOUS
 62
256
 10
-92.712999967387589
 20
-170.545002061626290
 11
-92.803309149492407
 21
-169.842045095425930
  0
ARC
  8
0
  6
CONTINUOUS
 62
256
 10
416.122689254639000
 20
-92.663977029566468
 40
18.799999999999983
 50
100.598785266066060
 51
125.062390376430470
  0
ARC
  8
0
  6
CONTINUOUS
 62
256
 10
412.296934620552070
 20
-72.218840652428753
 40
1.999999999999958
 50
280.598785266065990
 51
2.862405226112642
  0
ARC
  8
0
  6
CONTINUOUS
 62
256
 10
417.889947718267880
 20
-71.939189997542940
 40
1.999999999999927
 50
182.862405226112710
 51
265.126025186159040
  0
LINE
  8
0
  6
CONTINUOUS
 62
256
 10
414.624560746322230
 20
-62.701406863231227
 11
419.718197674599200
 21
-164.574145428771320
  0
LINE
  8
0
  6
CONTINUOUS
 62
256
 10
438.818948606259940
 20
-130.589164061985510
 11
434.828923668603920
 21
-90.788665308868190
  0
ARC
  8
0
  6
CONTINUOUS
 62
256
 10
416.122689254639000
 20
-92.663977029566468
 40
18.799999999999933
 50
35.808626813495742
 51
85.126025186157236
  0
ARC
  8
0
  6
CONTINUOUS
 62
256
 10
416.122689254639000
 20
-92.663977029566468
 40
18.799999999999837
 50
5.724810452223617
 51
35.808626813495707
  0
LINE
  8
0
  6
CONTINUOUS
 62
256
 10
415.423562617424520
 20
-62.661456769676079
 11
413.825558875219940
 21
-62.741356956786262
  0
ARC
  8
0
  6
CONTINUOUS
 62
256
 10
409.281236114318970
 20
-67.974819193456369
 40
8.999999999999949
 50
346.260856815786500
 51
19.463936333592169
  0
POINT
  8
0
  6
CONTINUOUS
 62
256
 10
415.673250702143380
 20
-67.655218464065115
  0
LINE
  8
0
  6
CONTINUOUS
 62
256
 10
415.498469042839820
 20
-64.159585277992733
 11
415.848032361446940
 21
-71.150851650137611
  0
LINE
  8
0
  6
CONTINUOUS
 62
256
 10
415.498469042839820
 20
-64.159585277992733
 11
415.848032361446940
 21
-71.150851650137611
  0
LINE
  8
0
  6
CONTINUOUS
 62
256
 10
415.848032361446940
 20
-71.150851650137611
 11
416.825836173954710
 21
-71.101961459512268
  0
LINE
  8
0
  6
CONTINUOUS
 62
256
 10
415.498469042839820
 20
-64.159585277992733
 11
416.476272855347360
 21
-64.110695087367390
  0
ARC
  8
0
  6
CONTINUOUS
 62
256
 10
416.760917310027030
 20
-69.803584180958637
 40
1.299999237060550
 50
272.862387240019760
 51
346.260856815788600
  0
ARC
  8
0
  6
CONTINUOUS
 62
256
 10
416.541191719275050
 20
-65.409072365920906
 40
1.299999237060645
 50
19.463936333587128
 51
92.862405909347800
  0
LINE
  8
0
  6
CONTINUOUS
 62
256
 10
415.423562617424520
 20
-62.661456769676079
 11
420.517199545701490
 21
-164.534195335216050
  0
LINE
  8
0
  6
CONTINUOUS
 62
256
 10
413.825558875219940
 20
-62.741356956786262
 11
418.919195803496900
 21
-164.614095522327030
  0
ARC
  8
0
  6
CONTINUOUS
 62
256
 10
418.122689254639000
 20
-132.663977029566470
 40
20.799999999999915
 50
334.359929784105190
 51
5.724810452223257
  0
ARC
  8
0
  6
CONTINUOUS
 62
256
 10
418.122689254639000
 20
-132.663977029566470
 40
20.800000000000040
 50
279.916536608230560
 51
334.359929784105190
  0
ARC
  8
0
  6
CONTINUOUS
 62
256
 10
418.122689254639000
 20
-132.663977029566470
 40
20.799999999999915
 50
334.359929784105190
 51
5.724810452223257
  0
ARC
  8
0
  6
CONTINUOUS
 62
256
 10
416.456141988255470
 20
-155.402988006495780
 40
1.999999999999927
 50
2.862405226112724
 51
85.808273843998279
  0
ARC
  8
0
  6
CONTINUOUS
 62
256
 10
422.049155085971280
 20
-155.123337351609960
 40
1.999999999999995
 50
99.916536608232732
 51
182.862405226112630
  0
LINE
  8
0
  6
CONTINUOUS
 62
256
 10
418.919195803496900
 20
-164.614095522327030
 11
420.517199545701490
 21
-164.534195335216050
  0
INSERT
  8
0
  2
ZU_SYM_1
 10
420.267511460982400
 20
-159.540433640826900
 41
-1.000000000000000
 42
1.000000000000000
 43
1.000000000000000
 50
2.862405226113666
  0
ARC
  8
0
  6
CONTINUOUS
 62
256
 10
418.122689254639000
 20
-132.663977029566470
 40
20.800000000000033
 50
232.020127555148210
 51
265.808273843992540
  0
ARC
  8
0
  6
CONTINUOUS
 62
256
 10
262.322689254638590
 20
-156.979341405835900
 40
2.000000000000338
 50
135.000000000000000
 51
180.000000000000000
  0
CIRCLE
  8
0
  6
DASHED
 62
256
 10
-82.212999967390147
 20
30.192903063379561
 40
6.000000000000000
  0
ARC
  8
0
  6
DASHED
 62
256
 10
-82.212999967390147
 20
30.192903063379561
 40
7.000000000000000
 50
180.000000000000000
 51
0.000000000000000
  0
LINE
  8
0
  6
DASHED
 62
256
 10
-75.212999967390147
 20
50.192903063379561
 11
-75.212999967390147
 21
30.192903063379561
  0
LINE
  8
0
  6
DASHED
 62
256
 10
-89.212999967390147
 20
50.192903063379561
 11
-89.212999967390147
 21
30.192903063379561
  0
LINE
  8
0
  6
CONTINUOUS
 62
256
 10
-94.212999967390147
 20
51.965048605466961
 11
-94.212999967390147
 21
17.192903063379561
  0
LINE
  8
0
  6
DASHDOT
 62
256
 10
-82.212999967390147
 20
21.192903063379561
 11
-82.212999967390147
 21
48.194502385929297
  0
LINE
  8
0
  6
DASHDOT
 62
256
 10
-73.212999967390147
 20
30.192903063379561
 11
-91.212999967390147
 21
30.192903063379561
  0
LINE
  8
0
  6
CONTINUOUS
 62
256
 10
-4.212999967390147
 20
55.192903063379561
 11
-86.412999967411338
 21
55.192903063379561
  0
LINE
  8
0
  6
CONTINUOUS
 62
256
 10
-4.212999967390147
 20
55.192903063379561
 11
-4.212999967390147
 21
17.192903063379561
  0
ARC
  8
0
  6
CONTINUOUS
 62
256
 10
-5.212999967390147
 20
17.192903063379561
 40
1.000000000000000
 50
270.000000000000000
 51
0.000000000000000
  0
LINE
  8
0
  6
CONTINUOUS
 62
256
 10
-93.212999967390147
 20
16.192903063379561
 11
-5.212999967390147
 21
16.192903063379561
  0
ARC
  8
0
  6
CONTINUOUS
 62
256
 10
-93.212999967390147
 20
17.192903063379561
 40
1.000000000000000
 50
180.000000000000000
 51
270.000000000000000
  0
LINE
  8
0
  6
CONTINUOUS
 62
256
 10
-87.212999967390147
 20
15.692903063379561
 11
-79.212999967390147
 21
15.692903063379561
  0
LINE
  8
0
  6
CONTINUOUS
 62
256
 10
-19.212999967390147
 20
15.692903063379561
 11
-11.212999967390147
 21
15.692903063379561
  0
LINE
  8
0
  6
CONTINUOUS
 62
256
 10
-19.212999967390147
 20
16.192903063379561
 11
-19.212999967390147
 21
15.692903063379561
  0
LINE
  8
0
  6
CONTINUOUS
 62
256
 10
-11.212999967390147
 20
16.192903063379561
 11
-11.212999967390147
 21
15.692903063379561
  0
LINE
  8
0
  6
CONTINUOUS
 62
256
 10
-79.212999967390147
 20
16.192903063379561
 11
-79.212999967390147
 21
15.692903063379561
  0
LINE
  8
0
  6
CONTINUOUS
 62
256
 10
-87.212999967390147
 20
16.192903063379561
 11
-87.212999967390147
 21
15.692903063379561
  0
LINE
  8
0
  6
CONTINUOUS
 62
256
 10
-94.212999967390147
 20
50.192903063379561
 11
-4.212999967390147
 21
50.192903063379561
  0
LINE
  8
0
  6
CONTINUOUS
 62
256
 10
-86.412999967389965
 20
63.377368876603896
 11
88.087000032610831
 21
63.377368876603896
  0
LINE
  8
0
  6
CONTINUOUS
 62
256
 10
-96.412999967389851
 20
48.692903063379617
 11
-96.412999967389851
 21
49.073682146506826
  0
LINE
  8
0
  6
CONTINUOUS
 62
256
 10
-86.412999967389965
 20
173.192903063379390
 11
62.587000032609922
 21
173.192903063379390
  0
LINE
  8
0
  6
CONTINUOUS
 62
256
 10
-178.578552916831310
 20
52.309862177599825
 11
-188.304298701852300
 21
59.119902690983054
  0
ARC
  8
0
  6
CONTINUOUS
 62
256
 10
-186.812999967339690
 20
61.249698006134167
 40
2.600000000000136
 50
180.000000000000000
 51
234.999999999998810
  0
LINE
  8
0
  6
CONTINUOUS
 62
256
 10
-96.412999967389851
 20
48.692903063379617
 11
-167.107024189810320
 21
48.692903063379617
  0
LINE
  8
0
  6
CONTINUOUS
 62
256
 10
-92.803309149494225
 20
61.066421065119414
 11
-92.712999967389408
 21
61.769378031319775
  0
LINE
  8
0
  6
CONTINUOUS
 62
256
 10
-93.070766164586360
 20
60.390478340907322
 11
-92.803309149494225
 21
61.066421065119414
  0
LINE
  8
0
  6
CONTINUOUS
 62
256
 10
-93.505092789567442
 20
59.767525958501921
 11
-93.070766164586360
 21
60.390478340907322
  0
LINE
  8
0
  6
CONTINUOUS
 62
256
 10
-94.089598095812633
 20
59.221503628603344
 11
-93.505092789567442
 21
59.767525958501921
  0
LINE
  8
0
  6
CONTINUOUS
 62
256
 10
-94.801819872197271
 20
58.773394683136722
 11
-94.089598095812633
 21
59.221503628603344
  0
LINE
  8
0
  6
CONTINUOUS
 62
256
 10
-95.614387835273476
 20
58.440419697573965
 11
-94.801819872197271
 21
58.773394683136722
  0
LINE
  8
0
  6
CONTINUOUS
 62
256
 10
-96.496075453913591
 20
58.235374713875714
 11
-95.614387835273476
 21
58.440419697573965
  0
LINE
  8
0
  6
CONTINUOUS
 62
256
 10
-97.412999967389396
 20
58.166139495774942
 11
-96.496075453913591
 21
58.235374713875714
  0
LINE
  8
0
  6
CONTINUOUS
 62
256
 10
-98.329924480865202
 20
58.235374713875714
 11
-97.412999967389396
 21
58.166139495774942
  0
LINE
  8
0
  6
CONTINUOUS
 62
256
 10
-99.211612099505317
 20
58.440419697573965
 11
-98.329924480865202
 21
58.235374713875714
  0
LINE
  8
0
  6
CONTINUOUS
 62
256
 10
-100.024180062581520
 20
58.773394683136722
 11
-99.211612099505317
 21
58.440419697573965
  0
LINE
  8
0
  6
CONTINUOUS
 62
256
 10
-100.736401838966160
 20
59.221503628603344
 11
-100.024180062581520
 21
58.773394683136722
  0
LINE
  8
0
  6
CONTINUOUS
 62
256
 10
-101.320907145211350
 20
59.767525958501921
 11
-100.736401838966160
 21
59.221503628603344
  0
LINE
  8
0
  6
CONTINUOUS
 62
256
 10
-101.755233770192430
 20
60.390478340907322
 11
-101.320907145211350
 21
59.767525958501921
  0
LINE
  8
0
  6
CONTINUOUS
 62
256
 10
-102.022690785284570
 20
61.066421065119414
 11
-101.755233770192430
 21
60.390478340907322
  0
LINE
  8
0
  6
CONTINUOUS
 62
256
 10
-102.112999967389380
 20
61.769378031319775
 11
-102.022690785284570
 21
61.066421065119414
  0
LINE
  8
0
  6
CONTINUOUS
 62
256
 10
-102.022690785284570
 20
62.472334997520136
 11
-102.112999967389380
 21
61.769378031319775
  0
LINE
  8
0
  6
CONTINUOUS
 62
256
 10
-101.755233770192430
 20
63.148277721732228
 11
-102.022690785284570
 21
62.472334997520136
  0
LINE
  8
0
  6
CONTINUOUS
 62
256
 10
-101.320907145211350
 20
63.771230104137629
 11
-101.755233770192430
 21
63.148277721732228
  0
LINE
  8
0
  6
CONTINUOUS
 62
256
 10
-100.736401838966160
 20
64.317252434036206
 11
-101.320907145211350
 21
63.771230104137629
  0
LINE
  8
0
  6
CONTINUOUS
 62
256
 10
-100.024180062581520
 20
64.765361379502821
 11
-100.736401838966160
 21
64.317252434036206
  0
LINE
  8
0
  6
CONTINUOUS
 62
256
 10
-99.211612099505317
 20
65.098336365065592
 11
-100.024180062581520
 21
64.765361379502821
  0
LINE
  8
0
  6
CONTINUOUS
 62
256
 10
-98.329924480865202
 20
65.303381348763835
 11
-99.211612099505317
 21
65.098336365065592
  0
LINE
  8
0
  6
CONTINUOUS
 62
256
 10
-97.412999967389396
 20
65.372616566864608
 11
-98.329924480865202
 21
65.303381348763835
  0
LINE
  8
0
  6
CONTINUOUS
 62
256
 10
-96.496075453913591
 20
65.303381348763835
 11
-97.412999967389396
 21
65.372616566864608
  0
LINE
  8
0
  6
CONTINUOUS
 62
256
 10
-95.614387835273476
 20
65.098336365065592
 11
-96.496075453913591
 21
65.303381348763835
  0
LINE
  8
0
  6
CONTINUOUS
 62
256
 10
-94.801819872197271
 20
64.765361379502821
 11
-95.614387835273476
 21
65.098336365065592
  0
LINE
  8
0
  6
CONTINUOUS
 62
256
 10
-94.089598095812633
 20
64.317252434036206
 11
-94.801819872197271
 21
64.765361379502821
  0
LINE
  8
0
  6
CONTINUOUS
 62
256
 10
-93.505092789567442
 20
63.771230104137629
 11
-94.089598095812633
 21
64.317252434036206
  0
LINE
  8
0
  6
CONTINUOUS
 62
256
 10
-93.070766164586360
 20
63.148277721732228
 11
-93.505092789567442
 21
63.771230104137629
  0
LINE
  8
0
  6
CONTINUOUS
 62
256
 10
-92.803309149494225
 20
62.472334997520136
 11
-93.070766164586360
 21
63.148277721732228
  0
LINE
  8
0
  6
CONTINUOUS
 62
256
 10
-92.712999967389408
 20
61.769378031319775
 11
-92.803309149494225
 21
62.472334997520136
  0
LINE
  8
0
  6
CONTINUOUS
 62
256
 10
-99.412999967389396
 20
58.777002477319456
 11
-97.412999967389396
 21
59.952787962941784
  0
LINE
  8
0
  6
CONTINUOUS
 62
256
 10
-97.412999967389396
 20
59.952787962941784
 11
-95.412999967389396
 21
61.605429602065215
  0
ARC
  8
0
  6
CONTINUOUS
 62
256
 10
-167.107024189810320
 20
68.692903063379617
 40
20.000000000000000
 50
234.999999999999740
 51
270.000000000000000
  0
LINE
  8
0
  6
CONTINUOUS
 62
256
 10
-4.212999967390147
 20
54.192903063379617
 11
62.587000032609922
 21
54.192903063379617
  0
LINE
  8
0
  6
CONTINUOUS
 62
256
 10
-95.412999967389396
 20
58.777002477319456
 11
-97.412999967389396
 21
59.952787962941784
  0
LINE
  8
0
  6
CONTINUOUS
 62
256
 10
-97.412999967389396
 20
59.952787962941784
 11
-99.412999967389396
 21
61.605429602065215
  0
LINE
  8
0
  6
CONTINUOUS
 62
256
 10
-92.803309149494225
 20
164.913471129239330
 11
-92.712999967389408
 21
165.616428095439690
  0
LINE
  8
0
  6
CONTINUOUS
 62
256
 10
-93.070766164586360
 20
164.237528405027230
 11
-92.803309149494225
 21
164.913471129239330
  0
LINE
  8
0
  6
CONTINUOUS
 62
256
 10
-93.505092789567442
 20
163.614576022621830
 11
-93.070766164586360
 21
164.237528405027230
  0
LINE
  8
0
  6
CONTINUOUS
 62
256
 10
-94.089598095812633
 20
163.068553692723240
 11
-93.505092789567442
 21
163.614576022621830
  0
LINE
  8
0
  6
CONTINUOUS
 62
256
 10
-94.801819872197271
 20
162.620444747256610
 11
-94.089598095812633
 21
163.068553692723240
  0
LINE
  8
0
  6
CONTINUOUS
 62
256
 10
-95.614387835273476
 20
162.287469761693870
 11
-94.801819872197271
 21
162.620444747256610
  0
LINE
  8
0
  6
CONTINUOUS
 62
256
 10
-96.496075453913591
 20
162.082424777995610
 11
-95.614387835273476
 21
162.287469761693870
  0
LINE
  8
0
  6
CONTINUOUS
 62
256
 10
-97.412999967389396
 20
162.013189559894840
 11
-96.496075453913591
 21
162.082424777995610
  0
LINE
  8
0
  6
CONTINUOUS
 62
256
 10
-98.329924480865202
 20
162.082424777995610
 11
-97.412999967389396
 21
162.013189559894840
  0
LINE
  8
0
  6
CONTINUOUS
 62
256
 10
-99.211612099505317
 20
162.287469761693870
 11
-98.329924480865202
 21
162.082424777995610
  0
LINE
  8
0
  6
CONTINUOUS
 62
256
 10
-100.024180062581520
 20
162.620444747256610
 11
-99.211612099505317
 21
162.287469761693870
  0
LINE
  8
0
  6
CONTINUOUS
 62
256
 10
-100.736401838966160
 20
163.068553692723240
 11
-100.024180062581520
 21
162.620444747256610
  0
LINE
  8
0
  6
CONTINUOUS
 62
256
 10
-101.320907145211350
 20
163.614576022621830
 11
-100.736401838966160
 21
163.068553692723240
  0
LINE
  8
0
  6
CONTINUOUS
 62
256
 10
-101.755233770192430
 20
164.237528405027230
 11
-101.320907145211350
 21
163.614576022621830
  0
LINE
  8
0
  6
CONTINUOUS
 62
256
 10
-102.022690785284570
 20
164.913471129239330
 11
-101.755233770192430
 21
164.237528405027230
  0
LINE
  8
0
  6
CONTINUOUS
 62
256
 10
-102.112999967389380
 20
165.616428095439690
 11
-102.022690785284570
 21
164.913471129239330
  0
LINE
  8
0
  6
CONTINUOUS
 62
256
 10
-102.022690785284570
 20
166.319385061640050
 11
-102.112999967389380
 21
165.616428095439690
  0
LINE
  8
0
  6
CONTINUOUS
 62
256
 10
-101.755233770192430
 20
166.995327785852140
 11
-102.022690785284570
 21
166.319385061640050
  0
LINE
  8
0
  6
CONTINUOUS
 62
256
 10
-101.320907145211350
 20
167.618280168257540
 11
-101.755233770192430
 21
166.995327785852140
  0
LINE
  8
0
  6
CONTINUOUS
 62
256
 10
-100.736401838966160
 20
168.164302498156130
 11
-101.320907145211350
 21
167.618280168257540
  0
LINE
  8
0
  6
CONTINUOUS
 62
256
 10
-100.024180062581520
 20
168.612411443622760
 11
-100.736401838966160
 21
168.164302498156130
  0
LINE
  8
0
  6
CONTINUOUS
 62
256
 10
-99.211612099505317
 20
168.945386429185500
 11
-100.024180062581520
 21
168.612411443622760
  0
LINE
  8
0
  6
CONTINUOUS
 62
256
 10
-98.329924480865202
 20
169.150431412883760
 11
-99.211612099505317
 21
168.945386429185500
  0
LINE
  8
0
  6
CONTINUOUS
 62
256
 10
-97.412999967389396
 20
169.219666630984530
 11
-98.329924480865202
 21
169.150431412883760
  0
LINE
  8
0
  6
CONTINUOUS
 62
256
 10
-96.496075453913591
 20
169.150431412883760
 11
-97.412999967389396
 21
169.219666630984530
  0
LINE
  8
0
  6
CONTINUOUS
 62
256
 10
-95.614387835273476
 20
168.945386429185500
 11
-96.496075453913591
 21
169.150431412883760
  0
LINE
  8
0
  6
CONTINUOUS
 62
256
 10
-94.801819872197271
 20
168.612411443622760
 11
-95.614387835273476
 21
168.945386429185500
  0
LINE
  8
0
  6
CONTINUOUS
 62
256
 10
-94.089598095812633
 20
168.164302498156130
 11
-94.801819872197271
 21
168.612411443622760
  0
LINE
  8
0
  6
CONTINUOUS
 62
256
 10
-93.505092789567442
 20
167.618280168257540
 11
-94.089598095812633
 21
168.164302498156130
  0
LINE
  8
0
  6
CONTINUOUS
 62
256
 10
-93.070766164586360
 20
166.995327785852140
 11
-93.505092789567442
 21
167.618280168257540
  0
LINE
  8
0
  6
CONTINUOUS
 62
256
 10
-92.803309149494225
 20
166.319385061640050
 11
-93.070766164586360
 21
166.995327785852140
  0
LINE
  8
0
  6
CONTINUOUS
 62
256
 10
-92.712999967389408
 20
165.616428095439690
 11
-92.803309149494225
 21
166.319385061640050
  0
LINE
  8
0
  6
CONTINUOUS
 62
256
 10
-99.412999967389396
 20
168.608803649440010
 11
-97.412999967389396
 21
167.433018163817220
  0
LINE
  8
0
  6
CONTINUOUS
 62
256
 10
-97.412999967389396
 20
167.433018163817220
 11
-95.412999967389396
 21
165.780376524693790
  0
LINE
  8
0
  6
CONTINUOUS
 62
256
 10
-95.412999967389396
 20
168.608803649440010
 11
-97.412999967389396
 21
167.433018163817220
  0
LINE
  8
0
  6
CONTINUOUS
 62
256
 10
-97.412999967389396
 20
167.433018163817220
 11
-99.412999967389396
 21
165.780376524693790
  0
LINE
  8
0
  6
CONTINUOUS
 62
256
 10
-86.412999967389965
 20
56.692903063379617
 11
67.735353488365803
 21
56.692903063379617
  0
LINE
  8
0
  6
CONTINUOUS
 62
256
 10
-86.412999967389965
 20
57.692903063379617
 11
68.487657955825512
 21
57.692903063379617
  0
LINE
  8
0
  6
CONTINUOUS
 62
256
 10
-86.412999967389965
 20
58.692903063379617
 11
69.472621754949358
 21
58.692903063379617
  0
LINE
  8
0
  6
CONTINUOUS
 62
256
 10
-86.412999967389965
 20
68.327116344909655
 11
88.087000032610831
 21
68.327116344909655
  0
LINE
  8
0
  6
CONTINUOUS
 62
256
 10
-86.412999967389965
 20
76.373718007643674
 11
88.087000032610831
 21
76.373718007643674
  0
LINE
  8
0
  6
CONTINUOUS
 62
256
 10
-86.412999967389965
 20
77.978365923205729
 11
88.087000032610831
 21
77.978365923205729
  0
LINE
  8
0
  6
CONTINUOUS
 62
256
 10
-86.412999967389965
 20
81.942111347005266
 11
88.087000032610831
 21
81.942111347005266
  0
LINE
  8
0
  6
CONTINUOUS
 62
256
 10
-86.412999967389965
 20
83.410468736809889
 11
88.087000032610831
 21
83.410468736809889
  0
LINE
  8
0
  6
CONTINUOUS
 62
256
 10
-86.412999967389965
 20
87.500969270899759
 11
88.087000032610831
 21
87.500969270899759
  0
LINE
  8
0
  6
CONTINUOUS
 62
256
 10
-86.412999967389965
 20
88.862849606249029
 11
88.087000032610831
 21
88.862849606249029
  0
LINE
  8
0
  6
CONTINUOUS
 62
256
 10
-86.412999967389965
 20
93.053403337791224
 11
88.087000032610831
 21
93.053403337791224
  0
LINE
  8
0
  6
CONTINUOUS
 62
256
 10
-86.412999967389965
 20
94.319641253878444
 11
88.087000032610831
 21
94.319641253878444
  0
LINE
  8
0
  6
CONTINUOUS
 62
256
 10
-86.412999967389965
 20
98.692903063379617
 11
88.087000032610831
 21
98.692903063379617
  0
LINE
  8
0
  6
CONTINUOUS
 62
256
 10
-86.412999967389965
 20
151.012088119115560
 11
88.087000032610831
 21
151.012088119115560
  0
LINE
  8
0
  6
CONTINUOUS
 62
256
 10
-86.412999967389965
 20
149.407440203553510
 11
88.087000032610831
 21
149.407440203553510
  0
LINE
  8
0
  6
CONTINUOUS
 62
256
 10
-86.412999967389965
 20
145.443694779753970
 11
88.087000032610831
 21
145.443694779753970
  0
LINE
  8
0
  6
CONTINUOUS
 62
256
 10
-86.412999967389965
 20
143.975337389949350
 11
88.087000032610831
 21
143.975337389949350
  0
LINE
  8
0
  6
CONTINUOUS
 62
256
 10
-86.412999967389965
 20
139.884836855859480
 11
88.087000032610831
 21
139.884836855859480
  0
LINE
  8
0
  6
CONTINUOUS
 62
256
 10
-86.412999967389965
 20
138.522956520510210
 11
88.087000032610831
 21
138.522956520510210
  0
LINE
  8
0
  6
CONTINUOUS
 62
256
 10
-86.412999967389965
 20
134.332402788968010
 11
88.087000032610831
 21
134.332402788968010
  0
LINE
  8
0
  6
CONTINUOUS
 62
256
 10
-86.412999967389965
 20
133.066164872880790
 11
88.087000032610831
 21
133.066164872880790
  0
LINE
  8
0
  6
CONTINUOUS
 62
256
 10
-86.412999967389965
 20
128.692903063379620
 11
88.087000032610831
 21
128.692903063379620
  0
LINE
  8
0
  6
CONTINUOUS
 62
256
 10
-86.412999967389965
 20
159.058689781849580
 11
88.087000032610831
 21
159.058689781849580
  0
LINE
  8
0
  6
CONTINUOUS
 62
256
 10
-86.412999967389965
 20
164.008437250155340
 11
88.087000032610831
 21
164.008437250155340
  0
LINE
  8
0
  6
CONTINUOUS
 62
256
 10
-86.412999967389965
 20
113.692903063379600
 11
-86.412999967389965
 21
178.692903063379620
  0
LINE
  8
0
  6
CONTINUOUS
 62
256
 10
-86.412999967389965
 20
168.692903063379620
 11
69.472621754949358
 21
168.692903063379620
  0
LINE
  8
0
  6
CONTINUOUS
 62
256
 10
-86.412999967389965
 20
169.692903063379620
 11
68.487657955825512
 21
169.692903063379620
  0
LINE
  8
0
  6
CONTINUOUS
 62
256
 10
-86.412999967389965
 20
170.692903063379620
 11
67.735353488365803
 21
170.692903063379620
  0
LINE
  8
0
  6
CONTINUOUS
 62
256
 10
-19.412999967389965
 20
173.192903063379620
 11
62.587000032609922
 21
173.192903063379620
  0
LINE
  8
0
  6
CONTINUOUS
 62
256
 10
62.587000032609922
 20
173.192903063379390
 11
62.587000032609922
 21
113.692903063379600
  0
LINE
  8
0
  6
CONTINUOUS
 62
256
 10
-86.412999967389965
 20
178.692903063379620
 11
-167.107024189810320
 21
178.692903063379620
  0
LINE
  8
0
  6
CONTINUOUS
 62
256
 10
-189.412999967339830
 20
113.692903063379600
 11
-189.412999967339830
 21
166.136108120625070
  0
ARC
  8
0
  6
CONTINUOUS
 62
256
 10
-167.107024189810320
 20
158.692903063379620
 40
20.000000000000000
 50
90.000000000000000
 51
125.000000000000240
  0
LINE
  8
0
  6
CONTINUOUS
 62
256
 10
-178.578552916831310
 20
175.075943949159410
 11
-188.304298701852300
 21
168.265903435776180
  0
ARC
  8
0
  6
CONTINUOUS
 62
256
 10
-186.812999967339690
 20
166.136108120625070
 40
2.599999999999721
 50
125.000000000001380
 51
180.000000000000000
  0
ARC
  8
0
  6
CONTINUOUS
 62
256
 10
-89.412999967389965
 20
55.073682146506826
 40
3.000000000000000
 50
270.000000000000000
 51
0.000000000000000
  0
ARC
  8
0
  6
CONTINUOUS
 62
256
 10
-93.412999967389851
 20
49.073682146506826
 40
3.000000000000000
 50
90.000000000000000
 51
180.000000000000000
  0
LINE
  8
0
  6
CONTINUOUS
 62
256
 10
-86.412999967389965
 20
113.692903063379600
 11
-86.412999967389965
 21
55.073682146506826
  0
LINE
  8
0
  6
CONTINUOUS
 62
256
 10
62.587000032609922
 20
54.192903063379617
 11
62.587000032609922
 21
113.692903063379600
  0
LINE
  8
0
  6
CONTINUOUS
 62
256
 10
-189.412999967339830
 20
113.692903063379600
 11
-189.412999967339830
 21
61.249698006134167
  0
LINE
  8
0
  6
CONTINUOUS
 62
256
 10
-93.412999967389851
 20
52.073682146506826
 11
-89.412999967389965
 21
52.073682146506826
  0
ARC
  8
0
  6
CONTINUOUS
 62
256
 10
39.087000032609922
 20
196.695772683960290
 40
2.000000000000000
 50
270.000000000000000
 51
0.000000000000000
  0
ARC
  8
0
  6
CONTINUOUS
 62
256
 10
39.087000032609922
 20
197.494774555079180
 40
2.000000000000000
 50
270.000000000000000
 51
0.000000000000000
  0
ARC
  8
0
  6
CONTINUOUS
 62
256
 10
39.087000032609922
 20
198.293776426164410
 40
2.000000000000000
 50
270.000000000000000
 51
0.000000000000000
  0
ARC
  8
0
  6
CONTINUOUS
 62
256
 10
39.087000032609922
 20
199.387413354441610
 40
2.000000000000000
 50
0.000000000000000
 51
90.000000000000000
  0
LINE
  8
0
  6
CONTINUOUS
 62
256
 10
38.087000032609922
 20
201.387413354441610
 11
39.087000032609922
 21
201.387413354441610
  0
LINE
  8
0
  6
CONTINUOUS
 62
256
 10
39.087000032609922
 20
194.695772683960290
 11
-86.912999967390078
 21
194.695772683960290
  0
LINE
  8
0
  6
CONTINUOUS
 62
256
 10
39.087000032609922
 20
195.494774555062350
 11
-86.912999967390078
 21
195.494774555062350
  0
LINE
  8
0
  6
CONTINUOUS
 62
256
 10
41.087000032609922
 20
199.387413354441610
 11
41.087000032609922
 21
196.695772683960290
  0
LINE
  8
0
  6
CONTINUOUS
 62
256
 10
38.087000032609922
 20
183.192903063379390
 11
38.087000032609922
 21
194.494774555079180
  0
LINE
  8
0
  6
CONTINUOUS
 62
256
 10
-80.912999967390078
 20
219.792903063379300
 11
33.087000032609922
 21
219.792903063379300
  0
ARC
  8
0
  6
CONTINUOUS
 62
256
 10
33.087000032609922
 20
214.792903063379300
 40
5.000000000000000
 50
0.000000000000000
 51
90.000000000000000
  0
LINE
  8
0
  6
CONTINUOUS
 62
256
 10
-85.912999967390078
 20
183.192903063379390
 11
-85.912999967390078
 21
194.695772683960290
  0
ARC
  8
0
  6
CONTINUOUS
 62
256
 10
-86.912999967390078
 20
196.695772683960290
 40
2.000000000000000
 50
180.000000000000000
 51
270.000000000000000
  0
LINE
  8
0
  6
CONTINUOUS
 62
256
 10
-88.912999967390078
 20
199.387413354441610
 11
-88.912999967390078
 21
196.695772683960290
  0
ARC
  8
0
  6
CONTINUOUS
 62
256
 10
-86.912999967390078
 20
197.494774555079180
 40
2.000000000000000
 50
180.000000000000000
 51
270.000000000000000
  0
ARC
  8
0
  6
CONTINUOUS
 62
256
 10
-86.912999967390078
 20
198.293776426164410
 40
2.000000000000000
 50
180.000000000000000
 51
270.000000000000000
  0
ARC
  8
0
  6
CONTINUOUS
 62
256
 10
-86.912999967390078
 20
199.387413354441610
 40
2.000000000000000
 50
90.000000000000000
 51
180.000000000000000
  0
ARC
  8
0
  6
CONTINUOUS
 62
256
 10
-80.912999967390078
 20
214.792903063379300
 40
5.000000000000000
 50
90.000000000000000
 51
180.000000000000000
  0
LINE
  8
0
  6
CONTINUOUS
 62
256
 10
39.087000032609922
 20
196.293776426164410
 11
-86.912999967390078
 21
196.293776426164410
  0
LINE
  8
0
  6
CONTINUOUS
 62
256
 10
-85.912999967390078
 20
201.387413354441610
 11
-86.912999967390078
 21
201.387413354441610
  0
LINE
  8
0
  6
CONTINUOUS
 62
256
 10
-85.912999967390078
 20
201.853928123066230
 11
-85.912999967390078
 21
214.792903063379300
  0
LINE
  8
0
  6
CONTINUOUS
 62
256
 10
38.087000032609922
 20
201.853928123066230
 11
38.087000032609922
 21
214.792903063379300
  0
LINE
  8
0
  6
CONTINUOUS
 62
256
 10
-75.480251485978769
 20
196.509366300688190
 11
-75.412999967390078
 21
196.543464510884180
  0
LINE
  8
0
  6
CONTINUOUS
 62
256
 10
-75.679421603600574
 20
196.476578465587550
 11
-75.480251485978769
 21
196.509366300688190
  0
LINE
  8
0
  6
CONTINUOUS
 62
256
 10
-76.002856324331177
 20
196.446361023697530
 11
-75.679421603600574
 21
196.476578465587550
  0
LINE
  8
0
  6
CONTINUOUS
 62
256
 10
-76.438126233237170
 20
196.419875214363830
 11
-76.002856324331177
 21
196.446361023697530
  0
LINE
  8
0
  6
CONTINUOUS
 62
256
 10
-76.968504151821477
 20
196.398138872385740
 11
-76.438126233237170
 21
196.419875214363830
  0
LINE
  8
0
  6
CONTINUOUS
 62
256
 10
-77.573607954112262
 20
196.381987313195570
 11
-76.968504151821477
 21
196.398138872385740
  0
LINE
  8
0
  6
CONTINUOUS
 62
256
 10
-78.230183840333638
 20
196.372041232155110
 11
-77.573607954112262
 21
196.381987313195570
  0
LINE
  8
0
  6
CONTINUOUS
 62
256
 10
-78.912999967390078
 20
196.368682851580960
 11
-78.230183840333638
 21
196.372041232155110
  0
LINE
  8
0
  6
CONTINUOUS
 62
256
 10
-79.595816094446533
 20
196.372041232155110
 11
-78.912999967390078
 21
196.368682851580960
  0
LINE
  8
0
  6
CONTINUOUS
 62
256
 10
-80.252391980667895
 20
196.381987313195570
 11
-79.595816094446533
 21
196.372041232155110
  0
LINE
  8
0
  6
CONTINUOUS
 62
256
 10
-80.857495782958694
 20
196.398138872385740
 11
-80.252391980667895
 21
196.381987313195570
  0
LINE
  8
0
  6
CONTINUOUS
 62
256
 10
-81.387873701543000
 20
196.419875214363830
 11
-80.857495782958694
 21
196.398138872385740
  0
LINE
  8
0
  6
CONTINUOUS
 62
256
 10
-81.823143610448980
 20
196.446361023697530
 11
-81.387873701543000
 21
196.419875214363830
  0
LINE
  8
0
  6
CONTINUOUS
 62
256
 10
-82.146578331179583
 20
196.476578465587550
 11
-81.823143610448980
 21
196.446361023697530
  0
LINE
  8
0
  6
CONTINUOUS
 62
256
 10
-82.345748448801388
 20
196.509366300688190
 11
-82.146578331179583
 21
196.476578465587550
  0
LINE
  8
0
  6
CONTINUOUS
 62
256
 10
-82.412999967390078
 20
196.543464510884180
 11
-82.345748448801388
 21
196.509366300688190
  0
ARC
  8
0
  6
CONTINUOUS
 62
256
 10
-76.712999967390260
 20
197.530474248808560
 40
1.300000000000182
 50
0.000000000000000
 51
73.398450400977964
  0
ARC
  8
0
  6
CONTINUOUS
 62
256
 10
-78.912999967390078
 20
190.151449923059090
 40
9.000000000000123
 50
73.398450400980863
 51
106.601549599019150
  0
ARC
  8
0
  6
CONTINUOUS
 62
256
 10
-81.112999967389896
 20
197.530474248808560
 40
1.300000000000019
 50
106.601549599022380
 51
180.000000000000000
  0
LINE
  8
0
  6
CONTINUOUS
 62
256
 10
-75.412999967390078
 20
197.530474248808560
 11
-75.412999967390078
 21
196.543464510884180
  0
LINE
  8
0
  6
CONTINUOUS
 62
256
 10
-82.412999967390078
 20
197.530474248808560
 11
-82.412999967390078
 21
196.543464510884180
  0
ARC
  8
0
  6
CONTINUOUS
 62
256
 10
-80.912999967390078
 20
201.853928123066230
 40
5.000000000000000
 50
180.000000000000000
 51
252.542396876278100
  0
LINE
  8
0
  6
CONTINUOUS
 62
256
 10
27.587000032609922
 20
197.530474248808560
 11
27.587000032609922
 21
196.543464510884180
  0
LINE
  8
0
  6
CONTINUOUS
 62
256
 10
34.519748514021224
 20
196.509366300688190
 11
34.587000032609922
 21
196.543464510884180
  0
LINE
  8
0
  6
CONTINUOUS
 62
256
 10
34.320578396399426
 20
196.476578465587550
 11
34.519748514021224
 21
196.509366300688190
  0
LINE
  8
0
  6
CONTINUOUS
 62
256
 10
33.997143675668831
 20
196.446361023697530
 11
34.320578396399426
 21
196.476578465587550
  0
LINE
  8
0
  6
CONTINUOUS
 62
256
 10
33.561873766762837
 20
196.419875214363830
 11
33.997143675668831
 21
196.446361023697530
  0
LINE
  8
0
  6
CONTINUOUS
 62
256
 10
33.031495848178530
 20
196.398138872385740
 11
33.561873766762837
 21
196.419875214363830
  0
LINE
  8
0
  6
CONTINUOUS
 62
256
 10
32.426392045887738
 20
196.381987313195570
 11
33.031495848178530
 21
196.398138872385740
  0
LINE
  8
0
  6
CONTINUOUS
 62
256
 10
31.769816159666370
 20
196.372041232155110
 11
32.426392045887738
 21
196.381987313195570
  0
LINE
  8
0
  6
CONTINUOUS
 62
256
 10
31.087000032609922
 20
196.368682851580960
 11
31.769816159666370
 21
196.372041232155110
  0
LINE
  8
0
  6
CONTINUOUS
 62
256
 10
30.404183905553474
 20
196.372041232155110
 11
31.087000032609922
 21
196.368682851580960
  0
LINE
  8
0
  6
CONTINUOUS
 62
256
 10
29.747608019332105
 20
196.381987313195570
 11
30.404183905553474
 21
196.372041232155110
  0
LINE
  8
0
  6
CONTINUOUS
 62
256
 10
29.142504217041314
 20
196.398138872385740
 11
29.747608019332105
 21
196.381987313195570
  0
LINE
  8
0
  6
CONTINUOUS
 62
256
 10
28.612126298457007
 20
196.419875214363830
 11
29.142504217041314
 21
196.398138872385740
  0
LINE
  8
0
  6
CONTINUOUS
 62
256
 10
28.176856389551013
 20
196.446361023697530
 11
28.612126298457007
 21
196.419875214363830
  0
LINE
  8
0
  6
CONTINUOUS
 62
256
 10
27.853421668820417
 20
196.476578465587550
 11
28.176856389551013
 21
196.446361023697530
  0
LINE
  8
0
  6
CONTINUOUS
 62
256
 10
27.654251551198616
 20
196.509366300688190
 11
27.853421668820417
 21
196.476578465587550
  0
LINE
  8
0
  6
CONTINUOUS
 62
256
 10
27.587000032609922
 20
196.543464510884180
 11
27.654251551198616
 21
196.509366300688190
  0
LINE
  8
0
  6
CONTINUOUS
 62
256
 10
34.587000032609922
 20
197.530474248808560
 11
34.587000032609922
 21
196.543464510884180
  0
ARC
  8
0
  6
CONTINUOUS
 62
256
 10
28.887000032610104
 20
197.530474248808560
 40
1.300000000000019
 50
106.601549599022380
 51
180.000000000000000
  0
ARC
  8
0
  6
CONTINUOUS
 62
256
 10
31.087000032609922
 20
190.151449923059090
 40
9.000000000000123
 50
73.398450400980863
 51
106.601549599019120
  0
ARC
  8
0
  6
CONTINUOUS
 62
256
 10
33.287000032609740
 20
197.530474248808560
 40
1.300000000000182
 50
0.000000000000000
 51
73.398450400977680
  0
ARC
  8
0
  6
CONTINUOUS
 62
256
 10
33.087000032609922
 20
201.853928123066230
 40
5.000000000000074
 50
287.457603123721870
 51
0.000000000000000
  0
LINE
  8
0
  6
CONTINUOUS
 62
256
 10
27.587000032609922
 20
196.853928123066230
 11
-75.412999967390078
 21
196.853928123066230
  0
LINE
  8
0
  6
CONTINUOUS
 62
256
 10
-85.912999967390078
 20
178.192903063379390
 11
38.087000032609922
 21
178.192903063379390
  0
LINE
  8
0
  6
DASHDOT
 62
256
 10
38.087000032609922
 20
173.192903063379390
 11
38.087000032609922
 21
178.192903063379390
  0
ARC
  8
0
  6
CONTINUOUS
 62
256
 10
33.087000032609922
 20
183.192903063379390
 40
5.000000000000000
 50
270.000000000000000
 51
0.000000000000000
  0
LINE
  8
0
  6
DASHDOT
 62
256
 10
38.087000032609922
 20
173.192903063379390
 11
38.087000032609922
 21
178.192903063379390
  0
LINE
  8
0
  6
CONTINUOUS
 62
256
 10
-85.912999967390078
 20
173.192903063379390
 11
-85.912999967390078
 21
178.192903063379390
  0
ARC
  8
0
  6
CONTINUOUS
 62
256
 10
-80.912999967390078
 20
183.192903063379390
 40
5.000000000000000
 50
180.000000000000000
 51
270.000000000000000
  0
LINE
  8
0
  6
DASHDOT
 62
256
 10
200.339301400060320
 20
113.692903063379600
 11
-214.470279953369300
 21
113.692903063379600
  0
LINE
  8
0
  6
CONTINUOUS
 62
256
 10
76.087000032610831
 20
166.192903063379620
 11
86.087000032610831
 21
166.192903063379620
  0
ARC
  8
0
  6
CONTINUOUS
 62
256
 10
88.587000032610831
 20
182.692903063379620
 40
0.500000000000000
 50
90.000000000000000
 51
180.000000000000000
  0
ARC
  8
0
  6
CONTINUOUS
 62
256
 10
76.087000032610831
 20
176.192903063379620
 40
10.000000000000343
 50
199.082118423697580
 51
270.000000000000000
  0
ARC
  8
0
  6
CONTINUOUS
 62
256
 10
86.087000032610831
 20
168.192903063379620
 40
2.000000000000000
 50
270.000000000000000
 51
0.000000000000000
  0
ARC
  8
0
  6
CONTINUOUS
 62
256
 10
66.163964654939718
 20
172.760211860620530
 40
0.500000000000234
 50
19.082118423705538
 51
91.499999999990578
  0
LINE
  8
0
  6
CONTINUOUS
 62
256
 10
88.587000032610831
 20
183.192903063379620
 11
98.087000032610831
 21
183.192903063379620
  0
LINE
  8
0
  6
CONTINUOUS
 62
256
 10
66.150876180785872
 20
173.260040523108270
 11
62.587000032609922
 21
173.166717141810750
  0
LINE
  8
0
  6
CONTINUOUS
 62
256
 10
62.587000032609922
 20
113.692903063379600
 11
62.587000032609922
 21
173.166717141810750
  0
LINE
  8
0
  6
CONTINUOUS
 62
256
 10
92.687000032611195
 20
141.442903063379620
 11
89.087000032610831
 21
141.442903063379620
  0
ARC
  8
0
  6
CONTINUOUS
 62
256
 10
92.687000032611195
 20
141.842903063379250
 40
0.399999999999636
 50
270.000000000000000
 51
0.000000000000000
  0
ARC
  8
0
  6
CONTINUOUS
 62
256
 10
89.087000032610831
 20
140.442903063379620
 40
1.000000000000000
 50
90.000000000000000
 51
180.000000000000000
  0
LINE
  8
0
  6
CONTINUOUS
 62
256
 10
92.687000032611195
 20
151.942903063379620
 11
89.087000032610831
 21
151.942903063379620
  0
ARC
  8
0
  6
CONTINUOUS
 62
256
 10
92.687000032611195
 20
151.542903063379980
 40
0.399999999999636
 50
0.000000000000000
 51
90.000000000000000
  0
ARC
  8
0
  6
CONTINUOUS
 62
256
 10
89.087000032610831
 20
152.942903063379620
 40
1.000000000000000
 50
180.000000000000000
 51
270.000000000000000
  0
LINE
  8
0
  6
CONTINUOUS
 62
256
 10
93.087000032610831
 20
141.842903063379250
 11
93.087000032610831
 21
151.542903063379980
  0
ARC
  8
0
  6
CONTINUOUS
 62
256
 10
92.687000032611195
 20
151.542903063379980
 40
0.399999999999636
 50
0.000000000000000
 51
90.000000000000000
  0
ARC
  8
0
  6
CONTINUOUS
 62
256
 10
92.687000032611195
 20
141.842903063379250
 40
0.399999999999636
 50
270.000000000000000
 51
0.000000000000000
  0
LINE
  8
0
  6
CONTINUOUS
 62
256
 10
88.087000032610831
 20
113.692903063379600
 11
88.087000032610831
 21
142.442904017053930
  0
LINE
  8
0
  6
CONTINUOUS
 62
256
 10
88.087000032610831
 20
150.942902109705300
 11
88.087000032610831
 21
182.692903063379620
  0
LINE
  8
0
  6
CONTINUOUS
 62
256
 10
76.087000032610831
 20
61.192903063379617
 11
86.087000032610831
 21
61.192903063379617
  0
ARC
  8
0
  6
CONTINUOUS
 62
256
 10
88.587000032610831
 20
44.692903063379617
 40
0.500000000000000
 50
180.000000000000000
 51
270.000000000000000
  0
ARC
  8
0
  6
CONTINUOUS
 62
256
 10
76.087000032610831
 20
51.192903063379617
 40
10.000000000000000
 50
90.000000000000000
 51
160.917881576302420
  0
ARC
  8
0
  6
CONTINUOUS
 62
256
 10
86.087000032610831
 20
59.192903063379617
 40
2.000000000000000
 50
0.000000000000000
 51
90.000000000000000
  0
ARC
  8
0
  6
CONTINUOUS
 62
256
 10
66.163964654939718
 20
54.625594266137796
 40
0.499999999999963
 50
268.500000000010170
 51
340.917881576393260
  0
LINE
  8
0
  6
CONTINUOUS
 62
256
 10
88.587000032610831
 20
44.192903063379617
 11
98.087000032610831
 21
44.192903063379617
  0
LINE
  8
0
  6
CONTINUOUS
 62
256
 10
66.150876180785872
 20
54.125765603650052
 11
62.587000032609922
 21
54.219088984948485
  0
LINE
  8
0
  6
CONTINUOUS
 62
256
 10
62.587000032609922
 20
113.692903063379600
 11
62.587000032609922
 21
54.219088984948485
  0
LINE
  8
0
  6
CONTINUOUS
 62
256
 10
92.687000032611195
 20
85.942903063379617
 11
89.087000032610831
 21
85.942903063379617
  0
ARC
  8
0
  6
CONTINUOUS
 62
256
 10
92.687000032611195
 20
85.542903063379981
 40
0.399999999999636
 50
0.000000000000000
 51
90.000000000000000
  0
ARC
  8
0
  6
CONTINUOUS
 62
256
 10
89.087000032610831
 20
86.942903063379617
 40
1.000000000000000
 50
180.000000000000000
 51
270.000000000000000
  0
LINE
  8
0
  6
CONTINUOUS
 62
256
 10
92.687000032611195
 20
75.442903063379617
 11
89.087000032610831
 21
75.442903063379617
  0
ARC
  8
0
  6
CONTINUOUS
 62
256
 10
92.687000032611195
 20
75.842903063379254
 40
0.399999999999636
 50
270.000000000000000
 51
0.000000000000000
  0
ARC
  8
0
  6
CONTINUOUS
 62
256
 10
89.087000032610831
 20
74.442903063379617
 40
1.000000000000000
 50
90.000000000000000
 51
180.000000000000000
  0
LINE
  8
0
  6
CONTINUOUS
 62
256
 10
93.087000032610831
 20
85.542903063379981
 11
93.087000032610831
 21
75.842903063379254
  0
ARC
  8
0
  6
CONTINUOUS
 62
256
 10
92.687000032611195
 20
75.842903063379254
 40
0.399999999999636
 50
270.000000000000000
 51
0.000000000000000
  0
ARC
  8
0
  6
CONTINUOUS
 62
256
 10
92.687000032611195
 20
85.542903063379981
 40
0.399999999999636
 50
0.000000000000000
 51
90.000000000000000
  0
LINE
  8
0
  6
CONTINUOUS
 62
256
 10
88.087000032610831
 20
113.692903063379600
 11
88.087000032610831
 21
84.942902109705301
  0
LINE
  8
0
  6
CONTINUOUS
 62
256
 10
88.087000032610831
 20
76.442904017053934
 11
88.087000032610831
 21
44.692903063379617
  0
LINE
  8
0
  6
CONTINUOUS
 62
256
 10
98.087000032610831
 20
44.192903063379617
 11
98.587000032610831
 21
44.192903063379617
  0
LINE
  8
0
  6
CONTINUOUS
 62
256
 10
98.087000032610831
 20
183.192903063379620
 11
98.587000032610831
 21
183.192903063379620
  0
LINE
  8
0
  6
CONTINUOUS
 62
256
 10
147.087000032610830
 20
61.269237875606905
 11
147.087000032610830
 21
113.692903063379600
  0
LINE
  8
0
  6
CONTINUOUS
 62
256
 10
147.087000032610830
 20
166.116568251153240
 11
147.087000032610830
 21
113.692903063379600
  0
ARC
  8
0
  6
CONTINUOUS
 62
256
 10
150.087000032610830
 20
61.269237875606905
 40
3.000000000000000
 50
180.000000000000000
 51
268.500000000001590
  0
LINE
  8
0
  6
CONTINUOUS
 62
256
 10
150.008469187687300
 20
58.270265900680442
 11
154.087000032610830
 21
58.163465811857805
  0
ARC
  8
0
  6
CONTINUOUS
 62
256
 10
150.087000032614920
 20
77.955318236571202
 40
3.000000000000000
 50
180.000000000000000
 51
268.500000000010350
  0
LINE
  8
0
  6
CONTINUOUS
 62
256
 10
150.008469187691840
 20
74.956346261644740
 11
154.087000032614920
 21
74.849546172822102
  0
ARC
  8
0
  6
CONTINUOUS
 62
256
 10
150.087000032610830
 20
166.116568251153240
 40
2.999999999999788
 50
91.499999999998479
 51
180.000000000000000
  0
LINE
  8
0
  6
CONTINUOUS
 62
256
 10
150.008469187687300
 20
169.115540226079700
 11
154.087000032610830
 21
169.222340314902340
  0
ARC
  8
0
  6
CONTINUOUS
 62
256
 10
150.087000032614920
 20
149.430487890188940
 40
2.999999999999777
 50
91.499999999989811
 51
180.000000000000000
  0
LINE
  8
0
  6
CONTINUOUS
 62
256
 10
150.008469187691840
 20
152.429459865115400
 11
154.087000032614920
 21
152.536259953938040
  0
ARC
  8
0
  6
CONTINUOUS
 62
256
 10
143.087000032610830
 20
41.905200718609649
 40
1.000000000000000
 50
180.000000000000000
 51
271.500000000015750
  0
LINE
  8
0
  6
CONTINUOUS
 62
256
 10
142.087000032610830
 20
41.905200718609649
 11
142.087000032610830
 21
185.297303957165700
  0
LINE
  8
0
  6
CONTINUOUS
 62
256
 10
143.113176980918980
 20
40.905543393634161
 11
154.087000032610830
 21
41.192903063379617
  0
LINE
  8
0
  6
CONTINUOUS
 62
256
 10
157.087000032610830
 20
113.692903063379600
 11
157.087000032610830
 21
49.492903063379799
  0
LINE
  8
0
  6
CONTINUOUS
 62
256
 10
157.087000032610830
 20
113.692903063379600
 11
157.087000032610830
 21
177.892903063379440
  0
LINE
  8
0
  6
CONTINUOUS
 62
256
 10
154.087000032610830
 20
113.692903063379600
 11
154.087000032610830
 21
41.192903063379617
  0
LINE
  8
0
  6
CONTINUOUS
 62
256
 10
160.613772603348930
 20
136.252171843416820
 11
157.087000032610830
 21
140.420175790652590
  0
LINE
  8
0
  6
CONTINUOUS
 62
256
 10
160.613772603348930
 20
91.133634283343326
 11
157.087000032610830
 21
86.965630336106642
  0
LINE
  8
0
  6
CONTINUOUS
 62
256
 10
154.087000032610830
 20
113.692903063379600
 11
154.087000032610830
 21
186.192903063379620
  0
LINE
  8
0
  6
CONTINUOUS
 62
256
 10
156.307674535873500
 20
48.692903063379617
 11
154.087000032610830
 21
48.692903063379617
  0
LINE
  8
0
  6
CONTINUOUS
 62
256
 10
156.307674535873500
 20
178.692903063379620
 11
154.087000032610830
 21
178.692903063379620
  0
ARC
  8
0
  6
CONTINUOUS
 62
256
 10
159.087000032610830
 20
92.425518766275218
 40
1.999999999999609
 50
319.763641690733830
 51
0.000000000000000
  0
ARC
  8
0
  6
CONTINUOUS
 62
256
 10
159.087000032610830
 20
134.960287360484020
 40
2.000000000000000
 50
0.000000000000000
 51
40.236358309286203
  0
ARC
  8
0
  6
CONTINUOUS
 62
256
 10
143.087000032610830
 20
185.297303957165700
 40
0.999999999999937
 50
91.500000000015845
 51
180.000000000000000
  0
LINE
  8
0
  6
CONTINUOUS
 62
256
 10
161.087000032610830
 20
113.692903063379600
 11
161.087000032610830
 21
92.425518766275218
  0
LINE
  8
0
  6
CONTINUOUS
 62
256
 10
157.087000032610830
 20
49.492903063379799
 11
156.307674535873500
 21
48.692903063379617
  0
LINE
  8
0
  6
CONTINUOUS
 62
256
 10
157.087000032610830
 20
177.892903063379440
 11
156.307674535873500
 21
178.692903063379620
  0
LINE
  8
0
  6
CONTINUOUS
 62
256
 10
161.087000032610830
 20
113.692903063379600
 11
161.087000032610830
 21
134.960287360484020
  0
LINE
  8
0
  6
CONTINUOUS
 62
256
 10
143.060823084302680
 20
186.296961282141180
 11
146.573911558456530
 21
186.388954741391440
  0
LINE
  8
0
  6
CONTINUOUS
 62
256
 10
146.587000032610830
 20
186.389297475149310
 11
154.087000032610830
 21
186.192903063379620
  0
LINE
  8
0
  6
CONTINUOUS
 62
256
 10
139.477186402219560
 20
183.906643921387970
 11
98.587000032610831
 21
183.192903063379620
  0
LINE
  8
0
  6
CONTINUOUS
 62
256
 10
98.587000032610831
 20
44.192903063379617
 11
98.587000032610831
 21
183.192903063379620
  0
ARC
  8
0
  6
CONTINUOUS
 62
256
 10
139.424829182907620
 20
186.906187006857640
 40
3.000000000000496
 50
271.000000000001590
 51
336.282917336303740
  0
ARC
  8
0
  6
CONTINUOUS
 62
256
 10
139.424829182907620
 20
40.479619119902509
 40
3.000000000000397
 50
23.717082663696431
 51
88.999999999998352
  0
LINE
  8
0
  6
CONTINUOUS
 62
256
 10
139.477186402219560
 20
43.479162205372177
 11
98.587000032610831
 21
44.192903063379617
  0
LINE
  8
0
  6
CONTINUOUS
 62
256
 10
140.087000032610830
 20
115.692903063379600
 11
132.870375224281820
 21
115.692903063379600
  0
LINE
  8
0
  6
CONTINUOUS
 62
256
 10
140.087000032610830
 20
111.692903063379600
 11
132.870375224281820
 21
111.692903063379600
  0
ARC
  8
0
  6
CONTINUOUS
 62
256
 10
132.870375224281820
 20
117.692903063379600
 40
2.000000000000000
 50
180.000000000000000
 51
270.000000000000000
  0
ARC
  8
0
  6
CONTINUOUS
 62
256
 10
132.870375224281820
 20
109.692903063379600
 40
2.000000000000000
 50
90.000000000000000
 51
180.000000000000000
  0
ARC
  8
0
  6
CONTINUOUS
 62
256
 10
140.087000032610830
 20
109.692903063379600
 40
2.000000000000000
 50
0.000000000000000
 51
90.000000000000000
  0
ARC
  8
0
  6
CONTINUOUS
 62
256
 10
140.087000032610830
 20
117.692903063379600
 40
2.000000000000000
 50
270.000000000000000
 51
0.000000000000000
  0
LINE
  8
0
  6
CONTINUOUS
 62
256
 10
131.470690552774160
 20
154.259171029546910
 11
141.640286985590140
 21
166.797104299860170
  0
ARC
  8
0
  6
CONTINUOUS
 62
256
 10
129.917403599795760
 20
155.519051834109180
 40
2.000000000000000
 50
270.000000000000000
 51
320.954274338513870
  0
ARC
  8
0
  6
CONTINUOUS
 62
256
 10
140.087000032610830
 20
168.056985104423350
 40
2.000000000000627
 50
320.954274338509610
 51
0.000000000000000
  0
ARC
  8
0
  6
CONTINUOUS
 62
256
 10
140.087000032610830
 20
171.713839353914860
 40
2.000000000000627
 50
320.954274338509610
 51
0.000000000000000
  0
LINE
  8
0
  6
CONTINUOUS
 62
256
 10
131.470690552774160
 20
157.916025279038420
 11
141.640286985590140
 21
170.453958549351680
  0
ARC
  8
0
  6
CONTINUOUS
 62
256
 10
129.917403599795760
 20
159.175906083600690
 40
2.000000000000000
 50
270.000000000000000
 51
320.954274338513870
  0
LINE
  8
0
  6
CONTINUOUS
 62
256
 10
132.760624312325490
 20
153.519051834110090
 11
140.563168989748190
 21
153.519051834110090
  0
LINE
  8
0
  6
CONTINUOUS
 62
256
 10
132.760624312325490
 20
73.866754292649148
 11
140.563168989748190
 21
73.866754292649148
  0
ARC
  8
0
  6
CONTINUOUS
 62
256
 10
140.087000032610830
 20
55.671966772844371
 40
2.000000000000000
 50
0.000000000000000
 51
39.045725661490216
  0
LINE
  8
0
  6
CONTINUOUS
 62
256
 10
131.470690552774160
 20
69.469780847720813
 11
141.640286985590140
 21
56.931847577407552
  0
ARC
  8
0
  6
CONTINUOUS
 62
256
 10
129.917403599795760
 20
68.209900043158541
 40
1.999999999999347
 50
39.045725661486529
 51
90.000000000000000
  0
ARC
  8
0
  6
CONTINUOUS
 62
256
 10
140.087000032610830
 20
59.328821022335887
 40
2.000000000000000
 50
0.000000000000000
 51
39.045725661490216
  0
LINE
  8
0
  6
CONTINUOUS
 62
256
 10
131.470690552774160
 20
73.126635097212329
 11
141.640286985590140
 21
60.588701826899069
  0
ARC
  8
0
  6
CONTINUOUS
 62
256
 10
129.917403599795760
 20
71.866754292650057
 40
1.999999999999347
 50
39.045725661486529
 51
90.000000000000000
  0
LINE
  8
0
  6
CONTINUOUS
 62
256
 10
163.387016925319130
 20
124.764826583430020
 11
163.587016925318950
 21
124.564826583430200
  0
LINE
  8
0
  6
CONTINUOUS
 62
256
 10
163.587016925318950
 20
113.692903063379600
 11
163.587016925318950
 21
124.564826583430200
  0
LINE
  8
0
  6
CONTINUOUS
 62
256
 10
163.387016925319130
 20
102.692903063379600
 11
163.587016925318950
 21
102.892903063379440
  0
LINE
  8
0
  6
CONTINUOUS
 62
256
 10
163.587016925318950
 20
113.692903063379600
 11
163.587016925318950
 21
102.892903063379440
  0
LINE
  8
0
  6
CONTINUOUS
 62
256
 10
163.387016925319130
 20
124.764826583430020
 11
161.087000032610830
 21
124.764826583430020
  0
LINE
  8
0
  6
CONTINUOUS
 62
256
 10
163.387016925319130
 20
102.692903063379600
 11
161.087000032610830
 21
102.692903063379600
  0
LINE
  8
0
  6
CONTINUOUS
 62
256
 10
191.587016925318950
 20
113.692903063379600
 11
191.587016925318950
 21
122.792903063379980
  0
ARC
  8
0
  6
CONTINUOUS
 62
256
 10
191.187016925318860
 20
122.792903063379980
 40
0.400000000000091
 50
0.000000000000000
 51
90.000000000000000
  0
LINE
  8
0
  6
CONTINUOUS
 62
256
 10
191.187016925318860
 20
123.192903063379600
 11
166.146824546454350
 21
123.192903063379600
  0
LINE
  8
0
  6
CONTINUOUS
 62
256
 10
165.587016925318950
 20
123.042903063379980
 11
163.987016925319040
 21
123.042903063379980
  0
LINE
  8
0
  6
CONTINUOUS
 62
256
 10
166.146824546454350
 20
123.192903063379600
 11
165.587016925318950
 21
123.042903063379980
  0
LINE
  8
0
  6
DASHDOT
 62
256
 10
162.582999282974010
 20
50.053292756590508
 11
136.751240965072610
 21
50.053292756590508
  0
LINE
  8
0
  6
DASHDOT
 62
256
 10
162.582999282974010
 20
177.332513370168730
 11
136.751240965072610
 21
177.332513370168730
  0
LINE
  8
0
  6
CONTINUOUS
 62
256
 10
98.087000032610831
 20
183.192903063379620
 11
98.087000032610831
 21
113.692903063379600
  0
LINE
  8
0
  6
CONTINUOUS
 62
256
 10
98.087000032610831
 20
44.192903063379617
 11
98.087000032610831
 21
113.692903063379600
  0
ARC
  8
0
  6
CONTINUOUS
 62
256
 10
-269.977132339950910
 20
-164.261087336355440
 40
5.000000000000005
 50
153.064707333055200
 51
142.855631763995460
  0
LINE
  8
0
  6
CONTINUOUS
 62
256
 10
-303.015722132306790
 20
-179.621477029566450
 11
-294.116742646740480
 21
-179.621477029566450
  0
LINE
  8
0
  6
CONTINUOUS
 62
256
 10
-280.802904411788630
 20
-173.121477029566450
 11
-269.616742646740480
 21
-173.121477029566450
  0
ARC
  8
0
  6
CONTINUOUS
 62
256
 10
-284.189978506930970
 20
-168.048241169376180
 40
6.099999427795394
 50
264.601927898109520
 51
5.398089404734843
  0
POINT
  8
0
  6
CONTINUOUS
 62
256
 10
-281.927236942003900
 20
-170.310982734303250
  0
LINE
  8
0
  6
CONTINUOUS
 62
256
 10
-278.603835205297060
 20
-166.987580997596350
 11
-285.250638678710740
 21
-173.634384471010090
  0
LINE
  8
0
  6
CONTINUOUS
 62
256
 10
-278.290696596328300
 20
-167.240127948446740
 11
-284.967795898801230
 21
-173.917227250919670
  0
LINE
  8
0
  6
CONTINUOUS
 62
256
 10
-285.250638678710740
 20
-173.634384471010090
 11
-284.763835287005120
 21
-174.121187862715710
  0
LINE
  8
0
  6
CONTINUOUS
 62
256
 10
-278.603835205297060
 20
-166.987580997596350
 11
-278.117031813591440
 21
-167.474384389301970
  0
LINE
  8
0
  6
CONTINUOUS
 62
256
 10
-292.116742646740480
 20
-177.621477029566450
 11
-292.116742646740480
 21
-175.743007994325410
  0
ARC
  8
0
  6
CONTINUOUS
 62
256
 10
-289.116742646740480
 20
-176.121477029566450
 40
2.999999999999601
 50
172.686947180819430
 51
180.000000000000000
  0
LINE
  8
0
  6
CONTINUOUS
 62
256
 10
-303.366742646740480
 20
-177.621477029566560
 11
-303.366742646740480
 21
-177.095543942764270
  0
ARC
  8
0
  6
CONTINUOUS
 62
256
 10
-298.116742646740480
 20
-175.121477029566560
 40
4.249999046325421
 50
205.471502597284800
 51
348.156246525909750
  0
LINE
  8
0
  6
CONTINUOUS
 62
256
 10
-298.116744948932140
 20
-177.430874230413450
 11
-299.432189268911490
 21
-176.671399698832030
  0
LINE
  8
0
  6
CONTINUOUS
 62
256
 10
-296.116744078466240
 20
-176.273233281527780
 11
-296.116744077250810
 21
-176.276176482894810
  0
LINE
  8
0
  6
CONTINUOUS
 62
256
 10
-364.217763161174160
 20
-179.621477029566450
 11
-373.116742646740480
 21
-179.621477029566450
  0
ARC
  8
0
  6
CONTINUOUS
 62
256
 10
-378.116742646740480
 20
-176.121477029566450
 40
3.000000000000000
 50
0.000000000000000
 51
7.313052819180692
  0
LINE
  8
0
  6
CONTINUOUS
 62
256
 10
-375.116742646740480
 20
-177.621477029566450
 11
-375.116742646740480
 21
-176.121477029566450
  0
LINE
  8
0
  6
CONTINUOUS
 62
256
 10
-363.866742646740480
 20
-177.621477029566450
 11
-363.866742646740480
 21
-177.095543942764270
  0
ARC
  8
0
  6
CONTINUOUS
 62
256
 10
-369.116742646740930
 20
-175.121477029566560
 40
4.249999046325729
 50
191.843753474087780
 51
334.528497402717560
  0
LINE
  8
0
  6
CONTINUOUS
 62
256
 10
-369.116740344549270
 20
-177.430874230413450
 11
-367.801296024569870
 21
-176.671399698831980
  0
LINE
  8
0
  6
CONTINUOUS
 62
256
 10
-371.116741215015170
 20
-176.273233281527720
 11
-371.116741216230590
 21
-176.276176482894810
  0
LINE
  8
0
  6
CONTINUOUS
 62
256
 10
-375.116742646740480
 20
-177.621477029566450
 11
-375.116742646740480
 21
-175.743007994325410
  0
LINE
  8
0
  6
CONTINUOUS
 62
256
 10
-386.430580881692320
 20
-173.121477029566450
 11
-397.616742646740480
 21
-173.121477029566450
  0
ARC
  8
0
  6
CONTINUOUS
 62
256
 10
-397.256352953530040
 20
-164.261087336355440
 40
5.000000000000097
 50
37.144368235973531
 51
26.935292666975684
  0
LINE
  8
0
  6
CONTINUOUS
 62
256
 10
-397.672429964569350
 20
-142.429649115628540
 11
-399.306833772338000
 21
-139.598778680488980
  0
LINE
  8
0
  6
CONTINUOUS
 62
256
 10
-406.116742646740480
 20
-164.621477029566450
 11
-406.116742646740480
 21
-149.059098255101900
  0
LINE
  8
0
  6
CONTINUOUS
 62
256
 10
-406.116742646740480
 20
-77.275669780229293
 11
-406.116742646740480
 21
-36.621477029566449
  0
ARC
  8
0
  6
CONTINUOUS
 62
256
 10
-353.116742646740480
 20
-103.375019885553040
 40
49.999999999999979
 50
136.062984333787990
 51
158.633168118782780
  0
ARC
  8
0
  6
CONTINUOUS
 62
256
 10
-353.116742646740480
 20
-103.375019885553040
 40
49.999999999999957
 50
91.489858156854154
 51
126.344924670902630
  0
ARC
  8
0
  6
CONTINUOUS
 62
256
 10
-380.470348912431290
 20
-59.440909461595197
 40
2.000000000000068
 50
330.116185885977760
 51
44.999999999998998
  0
ARC
  8
0
  6
CONTINUOUS
 62
256
 10
-372.986497867434540
 20
-55.611052007607213
 40
2.000000000000056
 50
225.000000000001140
 51
263.145054641825200
  0
LINE
  8
0
  6
CONTINUOUS
 62
256
 10
-366.433079671199950
 20
-60.418116900706423
 11
-366.616745082296120
 21
-60.312077807104686
  0
LINE
  8
0
  6
CONTINUOUS
 62
256
 10
-366.887445387974250
 20
-60.468367691597280
 11
-366.616745071760530
 21
-60.312078094578567
  0
LINE
  8
0
  6
CONTINUOUS
 62
256
 10
-371.866742646740480
 20
-58.531542098922785
 11
-371.866742646740480
 21
-61.064978693541434
  0
LINE
  8
0
  6
CONTINUOUS
 62
256
 10
-361.366742646740480
 20
-54.914339948102736
 11
-361.366742646740480
 21
-59.905093415170711
  0
ARC
  8
0
  6
CONTINUOUS
 62
256
 10
-366.616742646740930
 20
-62.621477029566449
 40
4.249999046325410
 50
36.699034319074983
 51
155.998310623039910
  0
LINE
  8
0
  6
CONTINUOUS
 62
256
 10
-305.866742646740480
 20
-54.914339948102736
 11
-305.866742646740480
 21
-59.905093415170711
  0
LINE
  8
0
  6
CONTINUOUS
 62
256
 10
-295.366742646740480
 20
-58.531542098922785
 11
-295.366742646740480
 21
-61.064978693541434
  0
LINE
  8
0
  6
CONTINUOUS
 62
256
 10
-300.800405622281460
 20
-60.418116900706423
 11
-300.616740211185230
 21
-60.312077807104686
  0
LINE
  8
0
  6
CONTINUOUS
 62
256
 10
-300.346039905507270
 20
-60.468367691597166
 11
-300.616740221720870
 21
-60.312078094578567
  0
ARC
  8
0
  6
CONTINUOUS
 62
256
 10
-300.616742646740480
 20
-62.621477029566449
 40
4.249999046325821
 50
24.001689376959561
 51
143.300965680925710
  0
ARC
  8
0
  6
CONTINUOUS
 62
256
 10
-294.246987426046420
 20
-55.611052007607213
 40
2.000000000000003
 50
276.854945358174970
 51
314.999999999998410
  0
ARC
  8
0
  6
CONTINUOUS
 62
256
 10
-286.763136381049660
 20
-59.440909461595197
 40
1.999999999999976
 50
135.000000000001140
 51
209.883814114023350
  0
ARC
  8
0
  6
CONTINUOUS
 62
256
 10
-314.116742646740480
 20
-103.375019885553040
 40
50.000000000000021
 50
53.655075329097365
 51
88.510141843145860
  0
ARC
  8
0
  6
CONTINUOUS
 62
256
 10
-314.116742646740480
 20
-103.375019885553040
 40
49.999999999999957
 50
24.523778772326885
 51
43.937015666211977
  0
LINE
  8
0
  6
CONTINUOUS
 62
256
 10
-271.112222989786120
 20
-82.621477029566449
 11
-242.750077873798090
 21
-82.621477029566449
  0
LINE
  8
0
  6
CONTINUOUS
 62
256
 10
-261.116742646740480
 20
-164.621477029566450
 11
-261.116742646740480
 21
-154.621477029566450
  0
LINE
  8
0
  6
CONTINUOUS
 62
256
 10
-261.116742646740480
 20
-82.621477029566449
 11
-261.116742646740480
 21
-36.621477029566449
  0
LINE
  8
0
  6
DASHDOT
 62
256
 10
-224.792533884341760
 20
-118.621477029566440
 11
-451.428470612973340
 21
-118.621477029566440
  0
LINE
  8
0
  6
CONTINUOUS
 62
256
 10
-296.116743836518880
 20
-176.276176340303720
 11
-298.116744590631870
 21
-177.430874554774560
  0
LINE
  8
0
  6
CONTINUOUS
 62
256
 10
-371.116741456962470
 20
-176.276176340303720
 11
-369.116740702849480
 21
-177.430874554774560
  0
ARC
  8
0
  6
CONTINUOUS
 62
256
 10
-536.116742646740480
 20
-118.621477029566560
 40
300.000000000000060
 50
353.967950853630270
 51
6.032049146369817
  0
LINE
  8
0
  6
CONTINUOUS
 62
256
 10
-236.127159494258190
 20
-121.121477029566440
 11
-235.616742646740480
 21
-121.121477029566440
  0
LINE
  8
0
  6
CONTINUOUS
 62
256
 10
-236.116744503938210
 20
-116.121477029566440
 11
-235.616742646740480
 21
-116.121477029566440
  0
LINE
  8
0
  6
CONTINUOUS
 62
256
 10
-235.616742646740480
 20
-121.121477029566440
 11
-235.616742646740480
 21
-116.121477029566440
  0
ARC
  8
0
  6
CONTINUOUS
 62
256
 10
-242.750077873798090
 20
-149.621477029566450
 40
5.000000000000000
 50
270.000000000000000
 51
353.967950853629470
  0
LINE
  8
0
  6
CONTINUOUS
 62
256
 10
-271.310439137819910
 20
-154.621477029566450
 11
-242.750077873798090
 21
-154.621477029566450
  0
ARC
  8
0
  6
CONTINUOUS
 62
256
 10
-242.750077873798090
 20
-87.621477029566449
 40
5.000000000000132
 50
6.032049146369047
 51
90.000000000000000
  0
LINE
  8
0
  6
CONTINUOUS
 62
256
 10
-270.116742646740480
 20
-148.613976091833250
 11
-270.116742646740480
 21
-154.621477029566450
  0
LINE
  8
0
  6
CONTINUOUS
 62
256
 10
-270.116742646740480
 20
-88.628977967299647
 11
-270.116742646740480
 21
-82.621477029566449
  0
ARC
  8
0
  6
CONTINUOUS
 62
256
 10
-98.016742646740340
 20
-118.621477029566440
 40
289.397000000000160
 50
180.000000000000000
 51
186.051985358668470
  0
ARC
  8
0
  6
CONTINUOUS
 62
256
 10
-370.489643571950860
 20
-147.509506754704720
 40
15.397000000000052
 50
186.051985358668840
 51
225.000000000000000
  0
LINE
  8
0
  6
CONTINUOUS
 62
256
 10
-376.800901289241660
 20
-162.972895257272740
 11
-381.376966681880280
 21
-158.396829864634130
  0
ARC
  8
0
  6
CONTINUOUS
 62
256
 10
-372.558260602122570
 20
-158.730254570153190
 40
6.000000000000049
 50
225.000000000003040
 51
262.102011327574530
  0
ARC
  8
0
  6
CONTINUOUS
 62
256
 10
-333.616742646740250
 20
121.978522970433460
 40
289.396999999999820
 50
262.102011327572200
 51
270.000000000000000
  0
ARC
  8
0
  6
CONTINUOUS
 62
256
 10
-569.216742646740390
 20
-118.621477029566440
 40
289.397000000000160
 50
353.948014641331550
 51
0.000000000000000
  0
ARC
  8
0
  6
CONTINUOUS
 62
256
 10
-296.743841721529800
 20
-147.509506754704720
 40
15.396999999999835
 50
314.999999999999830
 51
353.948014641331040
  0
LINE
  8
0
  6
CONTINUOUS
 62
256
 10
-290.432584004239000
 20
-162.972895257272740
 11
-285.856518611600450
 21
-158.396829864634130
  0
ARC
  8
0
  6
CONTINUOUS
 62
256
 10
-294.675224691358100
 20
-158.730254570153190
 40
5.999999999999923
 50
277.897988672425640
 51
314.999999999996760
  0
ARC
  8
0
  6
CONTINUOUS
 62
256
 10
-333.616742646740480
 20
121.978522970433460
 40
289.396999999999930
 50
270.000000000000000
 51
277.897988672427800
  0
ARC
  8
0
  6
CONTINUOUS
 62
256
 10
-569.216742646740390
 20
-118.621477029566440
 40
289.397000000000160
 50
0.000000000000000
 51
6.051985358668508
  0
ARC
  8
0
  6
CONTINUOUS
 62
256
 10
-296.743841721529800
 20
-89.733447304428182
 40
15.396999999999995
 50
6.051985358668872
 51
45.000000000000149
  0
LINE
  8
0
  6
CONTINUOUS
 62
256
 10
-290.432584004239000
 20
-74.270058801860159
 11
-285.856518611600450
 21
-78.846124194498771
  0
ARC
  8
0
  6
CONTINUOUS
 62
256
 10
-294.675224691358100
 20
-78.512699488979706
 40
6.000000000000049
 50
45.000000000003070
 51
82.102011327574544
  0
ARC
  8
0
  6
CONTINUOUS
 62
256
 10
-333.616742646740480
 20
-359.221477029566300
 40
289.396999999999760
 50
82.102011327572200
 51
90.000000000000000
  0
ARC
  8
0
  6
CONTINUOUS
 62
256
 10
-98.016742646740568
 20
-118.621477029566440
 40
289.396999999999930
 50
173.948014641331470
 51
180.000000000000000
  0
LINE
  8
0
  6
CONTINUOUS
 62
256
 10
-376.800901289241660
 20
-74.270058801860159
 11
-381.376966681880280
 21
-78.846124194498771
  0
ARC
  8
0
  6
CONTINUOUS
 62
256
 10
-370.489643571950860
 20
-89.733447304428182
 40
15.396999999999876
 50
135.000000000000000
 51
173.948014641331180
  0
ARC
  8
0
  6
CONTINUOUS
 62
256
 10
-296.743841721529800
 20
-147.509506754704720
 40
26.599999999999916
 50
315.000000000000970
 51
353.948014641331380
  0
LINE
  8
0
  6
CONTINUOUS
 62
256
 10
-285.001250460626810
 20
-173.384996252926160
 11
-277.934801341967390
 21
-166.318547134266510
  0
ARC
  8
0
  6
CONTINUOUS
 62
256
 10
-569.216742646740390
 20
-118.621477029566440
 40
300.600000000000080
 50
353.948014641331550
 51
6.051985358668500
  0
ARC
  8
0
  6
CONTINUOUS
 62
256
 10
-370.489643571950860
 20
-147.509506754704720
 40
26.599999999999969
 50
186.051985358668590
 51
224.999999999998950
  0
ARC
  8
0
  6
CONTINUOUS
 62
256
 10
-98.016742646740340
 20
-118.621477029566440
 40
300.600000000000080
 50
173.948014641331500
 51
186.051985358668470
  0
LINE
  8
0
  6
CONTINUOUS
 62
256
 10
-382.232234832854150
 20
-173.384996252926160
 11
-389.298683951513340
 21
-166.318547134266510
  0
ARC
  8
0
  6
CONTINUOUS
 62
256
 10
-370.489643571950860
 20
-89.733447304428182
 40
26.600000000000119
 50
135.000000000000000
 51
173.948014641331440
  0
LINE
  8
0
  6
CONTINUOUS
 62
256
 10
-382.232234832854150
 20
-63.857957806206969
 11
-389.298683951513110
 21
-70.924406924865934
  0
ARC
  8
0
  6
CONTINUOUS
 62
256
 10
-296.743841721530030
 20
-89.733447304428182
 40
26.600000000000136
 50
6.051985358668564
 51
45.000000000000064
  0
LINE
  8
0
  6
CONTINUOUS
 62
256
 10
-285.001250460626810
 20
-63.857957806206969
 11
-277.934801341967840
 21
-70.924406924865934
  0
ARC
  8
0
  6
CONTINUOUS
 62
256
 10
-377.565330077022960
 20
-168.718091497094970
 40
6.599999999999957
 50
225.000000000000000
 51
261.402917762750860
  0
ARC
  8
0
  6
CONTINUOUS
 62
256
 10
-333.616742646740480
 20
121.978522970433690
 40
300.599999999999970
 50
261.402917762750920
 51
270.000000000000000
  0
ARC
  8
0
  6
CONTINUOUS
 62
256
 10
-289.668155216457930
 20
-168.718091497094970
 40
6.599999999999747
 50
278.597082237248910
 51
314.999999999999660
  0
ARC
  8
0
  6
CONTINUOUS
 62
256
 10
-333.616742646740480
 20
-359.221477029566300
 40
300.599999999999740
 50
81.402917762750931
 51
90.000000000000000
  0
ARC
  8
0
  6
CONTINUOUS
 62
256
 10
-289.668155216457930
 20
-68.524862562038152
 40
6.600000000000078
 50
45.000000000001748
 51
81.402917762751528
  0
ARC
  8
0
  6
CONTINUOUS
 62
256
 10
-333.616742646740480
 20
121.978522970433690
 40
300.600000000000140
 50
270.000000000000000
 51
278.597082237249140
  0
ARC
  8
0
  6
CONTINUOUS
 62
256
 10
-333.616742646740480
 20
-359.221477029566300
 40
300.599999999999850
 50
90.000000000000000
 51
98.597082237249069
  0
ARC
  8
0
  6
CONTINUOUS
 62
256
 10
-329.616742646740480
 20
-77.314697924920893
 40
1.500000000000203
 50
84.468928475159146
 51
180.000000000000000
  0
ARC
  8
0
  6
CONTINUOUS
 62
256
 10
-337.616742646740480
 20
-77.314697924920665
 40
1.500000000000000
 50
0.000000000000000
 51
95.531071524841607
  0
ARC
  8
0
  6
CONTINUOUS
 62
256
 10
-333.616742646740250
 20
-118.621477029565990
 40
17.999999999999964
 50
41.837004155893204
 51
78.162995844107371
  0
ARC
  8
0
  6
CONTINUOUS
 62
256
 10
-333.616742646740700
 20
-118.621477029565990
 40
27.499999999999815
 50
97.928141766201691
 51
142.071858233797880
  0
LINE
  8
0
  6
CONTINUOUS
 62
256
 10
-331.116742646740480
 20
-77.314697924920893
 11
-331.116742646740480
 21
-80.329833032474880
  0
LINE
  8
0
  6
CONTINUOUS
 62
256
 10
-301.705206192589630
 20
-97.310591521559672
 11
-299.094022593605530
 21
-95.803023967782565
  0
LINE
  8
0
  6
CONTINUOUS
 62
256
 10
-331.116742646740480
 20
-86.872461296791471
 11
-331.116742646740480
 21
-89.898663796876008
  0
ARC
  8
0
  6
CONTINUOUS
 62
256
 10
-329.616742646740480
 20
-86.872461296791471
 40
1.499999999999998
 50
82.819244218541712
 51
180.000000000000000
  0
ARC
  8
0
  6
CONTINUOUS
 62
256
 10
-329.616742646740480
 20
-80.329833032474880
 40
1.500000000000000
 50
180.000000000000000
 51
264.036429881682010
  0
ARC
  8
0
  6
CONTINUOUS
 62
256
 10
-299.844022593605530
 20
-94.503985862105765
 40
1.500000000000123
 50
299.999999999997270
 51
35.531071524839312
  0
ARC
  8
0
  6
CONTINUOUS
 62
256
 10
-333.616742646740930
 20
-118.621477029566440
 40
42.999999999999957
 50
35.531071524839192
 51
84.468928475160212
  0
ARC
  8
0
  6
CONTINUOUS
 62
256
 10
-295.844022593605080
 20
-101.432189092381800
 40
1.500000000000034
 50
24.468928475159586
 51
119.999999999996760
  0
LINE
  8
0
  6
CONTINUOUS
 62
256
 10
-299.205206192589400
 20
-101.640718540482110
 11
-296.594022593605080
 21
-100.133150986705000
  0
ARC
  8
0
  6
CONTINUOUS
 62
256
 10
-298.455206192589400
 20
-102.939756646158910
 40
1.500000000000123
 50
119.999999999997300
 51
204.036429881681070
  0
ARC
  8
0
  6
CONTINUOUS
 62
256
 10
-333.616742646740700
 20
-118.621477029566900
 40
37.000000000000021
 50
335.963570118321800
 51
24.036429881678838
  0
ARC
  8
0
  6
CONTINUOUS
 62
256
 10
-333.616742646740700
 20
-118.621477029566900
 40
43.000000000000000
 50
335.531071524839770
 51
24.468928475160741
  0
ARC
  8
0
  6
CONTINUOUS
 62
256
 10
-295.844022593605080
 20
-135.810764966751320
 40
1.500000000000320
 50
240.000000000007050
 51
335.531071524832270
  0
LINE
  8
0
  6
CONTINUOUS
 62
256
 10
-296.594022593605080
 20
-137.109803072428350
 11
-299.205206192589170
 21
-135.602235518651010
  0
ARC
  8
0
  6
CONTINUOUS
 62
256
 10
-298.455206192589170
 20
-134.303197412974440
 40
1.500000000000063
 50
155.963570118322880
 51
239.999999999998660
  0
ARC
  8
0
  6
CONTINUOUS
 62
256
 10
-299.844022593605080
 20
-142.738968197027130
 40
1.499999999999844
 50
324.468928475167900
 51
59.999999999998622
  0
LINE
  8
0
  6
CONTINUOUS
 62
256
 10
-299.094022593605080
 20
-141.439930091350560
 11
-301.705206192589170
 21
-139.932362537573230
  0
LINE
  8
0
  6
CONTINUOUS
 62
256
 10
-336.116742646740480
 20
-77.314697924920665
 11
-336.116742646740480
 21
-80.329833032474880
  0
ARC
  8
0
  6
CONTINUOUS
 62
256
 10
-337.616742646740480
 20
-80.329833032474880
 40
1.499999999999933
 50
275.963570118318330
 51
0.000000000000000
  0
LINE
  8
0
  6
CONTINUOUS
 62
256
 10
-336.116742646740480
 20
-86.872461296791471
 11
-336.116742646740480
 21
-89.898663796876008
  0
ARC
  8
0
  6
CONTINUOUS
 62
256
 10
-337.616742646740480
 20
-86.872461296791471
 40
1.500000000000000
 50
0.000000000000000
 51
97.180755781458302
  0
ARC
  8
0
  6
CONTINUOUS
 62
256
 10
-333.616742646740930
 20
-118.621477029565990
 40
23.999999999999901
 50
100.240348321185680
 51
139.759651678813530
  0
ARC
  8
0
  6
CONTINUOUS
 62
256
 10
-350.791921915785450
 20
-104.086580501686040
 40
1.499999999999802
 50
139.759651678811450
 51
239.999999999998100
  0
LINE
  8
0
  6
CONTINUOUS
 62
256
 10
-348.895127322806270
 20
-106.913746178108790
 11
-351.541921915785450
 21
-105.385618607362630
  0
ARC
  8
0
  6
CONTINUOUS
 62
256
 10
-348.145127322806270
 20
-105.614708072432220
 40
1.499999999999926
 50
239.999999999998410
 51
318.162995844106090
  0
ARC
  8
0
  6
CONTINUOUS
 62
256
 10
-333.616742646740930
 20
-118.621477029565990
 40
17.999999999999829
 50
101.837004155891990
 51
138.162995844106180
  0
ARC
  8
0
  6
CONTINUOUS
 62
256
 10
-337.616742646740480
 20
-99.536142345573808
 40
1.499999999999954
 50
281.837004155896690
 51
0.000000000000000
  0
LINE
  8
0
  6
CONTINUOUS
 62
256
 10
-336.116742646740480
 20
-96.479887204081479
 11
-336.116742646740480
 21
-99.536142345573808
  0
ARC
  8
0
  6
CONTINUOUS
 62
256
 10
-337.616742646740480
 20
-96.479887204081479
 40
1.500000000000000
 50
0.000000000000000
 51
100.240348321194420
  0
ARC
  8
0
  6
CONTINUOUS
 62
256
 10
-333.616742646740930
 20
-118.621477029565990
 40
14.499999999999980
 50
107.920213139390850
 51
132.079786860607500
  0
ARC
  8
0
  6
CONTINUOUS
 62
256
 10
-342.328885289555050
 20
-108.972716976001720
 40
1.499999999999792
 50
132.079786860611680
 51
239.999999999998100
  0
LINE
  8
0
  6
CONTINUOUS
 62
256
 10
-340.303996579934390
 20
-111.873837825149170
 11
-343.078885289555050
 21
-110.271755081678290
  0
ARC
  8
0
  6
CONTINUOUS
 62
256
 10
-339.553996579934390
 20
-110.574799719472590
 40
1.499999999999926
 50
239.999999999998410
 51
306.421821521797880
  0
ARC
  8
0
  6
CONTINUOUS
 62
256
 10
-333.616742646740930
 20
-118.621477029565990
 40
8.499999999999879
 50
113.578178478199520
 51
126.421821521797430
  0
ARC
  8
0
  6
CONTINUOUS
 62
256
 10
-337.616742646740480
 20
-109.456325639654100
 40
1.500000000000139
 50
293.578178478195700
 51
0.000000000000000
  0
LINE
  8
0
  6
CONTINUOUS
 62
256
 10
-336.116742646740480
 20
-106.252160152713030
 11
-336.116742646740480
 21
-109.456325639654100
  0
ARC
  8
0
  6
CONTINUOUS
 62
256
 10
-337.616742646740480
 20
-106.252160152713030
 40
1.500000000000000
 50
0.000000000000000
 51
107.920213139394220
  0
ARC
  8
0
  6
CONTINUOUS
 62
256
 10
-333.616742646740480
 20
-118.621477029566440
 40
23.999999999999730
 50
280.240348321186270
 51
319.759651678814750
  0
ARC
  8
0
  6
CONTINUOUS
 62
256
 10
-329.616742646740480
 20
-140.763066855050970
 40
1.500000000000000
 50
180.000000000000000
 51
280.240348321187920
  0
LINE
  8
0
  6
CONTINUOUS
 62
256
 10
-331.116742646740480
 20
-137.706811713558640
 11
-331.116742646740480
 21
-140.763066855050970
  0
ARC
  8
0
  6
CONTINUOUS
 62
256
 10
-329.616742646740480
 20
-137.706811713558640
 40
1.499999999999731
 50
101.837004155898460
 51
180.000000000000000
  0
ARC
  8
0
  6
CONTINUOUS
 62
256
 10
-333.616742646740480
 20
-118.621477029566440
 40
18.000000000000160
 50
281.837004155893230
 51
318.162995844107850
  0
ARC
  8
0
  6
CONTINUOUS
 62
256
 10
-319.088357970674620
 20
-131.628245986700220
 40
1.499999999999926
 50
59.999999999998380
 51
138.162995844099160
  0
LINE
  8
0
  6
CONTINUOUS
 62
256
 10
-315.691563377695670
 20
-131.857335451769810
 11
-318.338357970674620
 21
-130.329207881023650
  0
ARC
  8
0
  6
CONTINUOUS
 62
256
 10
-316.441563377695670
 20
-133.156373557446390
 40
1.499999999999828
 50
319.759651678823670
 51
59.999999999998622
  0
ARC
  8
0
  6
CONTINUOUS
 62
256
 10
-333.616742646740480
 20
-118.621477029566440
 40
14.500000000000135
 50
287.920213139392560
 51
312.079786860608810
  0
ARC
  8
0
  6
CONTINUOUS
 62
256
 10
-329.616742646740480
 20
-130.990793906419190
 40
1.500000000000000
 50
180.000000000000000
 51
287.920213139391990
  0
LINE
  8
0
  6
CONTINUOUS
 62
256
 10
-331.116742646740480
 20
-127.786628419477890
 11
-331.116742646740480
 21
-130.990793906419190
  0
ARC
  8
0
  6
CONTINUOUS
 62
256
 10
-329.616742646740480
 20
-127.786628419478330
 40
1.500000000000139
 50
113.578178478195710
 51
179.999999999982630
  0
ARC
  8
0
  6
CONTINUOUS
 62
256
 10
-333.616742646740480
 20
-118.621477029566440
 40
8.500000000000060
 50
293.578178478202350
 51
306.421821521799070
  0
ARC
  8
0
  6
CONTINUOUS
 62
256
 10
-327.679488713546560
 20
-126.668154339659850
 40
1.499999999999926
 50
59.999999999998380
 51
126.421821521800880
  0
LINE
  8
0
  6
CONTINUOUS
 62
256
 10
-324.154600003926130
 20
-126.971198977453700
 11
-326.929488713546560
 21
-125.369116233983260
  0
ARC
  8
0
  6
CONTINUOUS
 62
256
 10
-324.904600003926130
 20
-128.270237083130720
 40
1.499999999999944
 50
312.079786860618130
 51
60.000000000006459
  0
ARC
  8
0
  6
CONTINUOUS
 62
256
 10
-333.616742646740480
 20
-118.621477029566440
 40
23.999999999999854
 50
220.240348321185340
 51
259.759651678813730
  0
ARC
  8
0
  6
CONTINUOUS
 62
256
 10
-337.616742646740480
 20
-140.763066855050970
 40
1.499999999999728
 50
259.759651678812470
 51
0.000000000000000
  0
LINE
  8
0
  6
CONTINUOUS
 62
256
 10
-336.116742646740480
 20
-137.706811713558640
 11
-336.116742646740480
 21
-140.763066855050970
  0
ARC
  8
0
  6
CONTINUOUS
 62
256
 10
-337.616742646740480
 20
-137.706811713558640
 40
1.500000000000000
 50
0.000000000000000
 51
78.162995844101417
  0
ARC
  8
0
  6
CONTINUOUS
 62
256
 10
-333.616742646740480
 20
-118.621477029566440
 40
17.999999999999950
 50
221.837004155892320
 51
258.162995844106770
  0
ARC
  8
0
  6
CONTINUOUS
 62
256
 10
-348.145127322806270
 20
-131.628245986700220
 40
1.500000000000118
 50
41.837004155899741
 51
120.000000000002130
  0
LINE
  8
0
  6
CONTINUOUS
 62
256
 10
-351.541921915785220
 20
-131.857335451769810
 11
-348.895127322806270
 21
-130.329207881023650
  0
ARC
  8
0
  6
CONTINUOUS
 62
256
 10
-350.791921915785220
 20
-133.156373557446390
 40
1.499999999999926
 50
120.000000000001620
 51
220.240348321176580
  0
ARC
  8
0
  6
CONTINUOUS
 62
256
 10
-333.616742646740480
 20
-118.621477029566440
 40
14.500000000000000
 50
227.920213139391050
 51
252.079786860607530
  0
ARC
  8
0
  6
CONTINUOUS
 62
256
 10
-337.616742646740480
 20
-130.990793906419190
 40
1.500000000000355
 50
252.079786860607900
 51
0.000000000000000
  0
LINE
  8
0
  6
CONTINUOUS
 62
256
 10
-336.116742646740480
 20
-127.786628419477890
 11
-336.116742646740480
 21
-130.990793906419190
  0
ARC
  8
0
  6
CONTINUOUS
 62
256
 10
-337.616742646740480
 20
-127.786628419478330
 40
1.500000000000000
 50
0.000000000017370
 51
66.421821521804318
  0
ARC
  8
0
  6
CONTINUOUS
 62
256
 10
-333.616742646740480
 20
-118.621477029566440
 40
8.499999999999870
 50
233.578178478199590
 51
246.421821521797570
  0
ARC
  8
0
  6
CONTINUOUS
 62
256
 10
-339.553996579934390
 20
-126.668154339659850
 40
1.500000000000059
 50
53.578178478205700
 51
120.000000000001340
  0
LINE
  8
0
  6
CONTINUOUS
 62
256
 10
-343.078885289554820
 20
-126.971198977453700
 11
-340.303996579934390
 21
-125.369116233983260
  0
ARC
  8
0
  6
CONTINUOUS
 62
256
 10
-342.328885289554820
 20
-128.270237083130720
 40
1.500000000000320
 50
119.999999999992940
 51
227.920213139382700
  0
ARC
  8
0
  6
CONTINUOUS
 62
256
 10
-333.616742646740930
 20
-118.621477029565990
 40
23.999999999999925
 50
160.240348321185910
 51
199.759651678814090
  0
ARC
  8
0
  6
CONTINUOUS
 62
256
 10
-354.791921915785450
 20
-111.014783731961420
 40
1.499999999999926
 50
59.999999999998380
 51
160.240348321185310
  0
LINE
  8
0
  6
CONTINUOUS
 62
256
 10
-351.395127322806270
 20
-111.243873197030990
 11
-354.041921915785450
 21
-109.715745626284840
  0
ARC
  8
0
  6
CONTINUOUS
 62
256
 10
-352.145127322806270
 20
-112.542911302707580
 40
1.500000000000038
 50
341.837004155895390
 51
59.999999999998394
  0
ARC
  8
0
  6
CONTINUOUS
 62
256
 10
-333.616742646740930
 20
-118.621477029565990
 40
17.999999999999726
 50
161.837004155893140
 51
198.162995844106860
  0
ARC
  8
0
  6
CONTINUOUS
 62
256
 10
-352.145127322806270
 20
-124.700042756424390
 40
1.500000000000320
 50
299.999999999992950
 51
18.162995844104298
  0
LINE
  8
0
  6
CONTINUOUS
 62
256
 10
-354.041921915785220
 20
-127.527208432847150
 11
-351.395127322806270
 21
-125.999080862101440
  0
ARC
  8
0
  6
CONTINUOUS
 62
256
 10
-354.791921915785220
 20
-126.228170327170570
 40
1.500000000000246
 50
199.759651678811790
 51
300.000000000001880
  0
ARC
  8
0
  6
CONTINUOUS
 62
256
 10
-333.616742646740930
 20
-118.621477029565990
 40
14.499999999999851
 50
167.920213139392840
 51
192.079786860608890
  0
ARC
  8
0
  6
CONTINUOUS
 62
256
 10
-346.328885289555050
 20
-115.900920206277060
 40
1.499999999999926
 50
59.999999999998380
 51
167.920213139405660
  0
LINE
  8
0
  6
CONTINUOUS
 62
256
 10
-342.803996579934390
 20
-116.203964844071360
 11
-345.578885289555050
 21
-114.601882100600510
  0
ARC
  8
0
  6
CONTINUOUS
 62
256
 10
-343.553996579934390
 20
-117.503002949747950
 40
1.499999999999873
 50
353.578178478198030
 51
59.999999999997563
  0
ARC
  8
0
  6
CONTINUOUS
 62
256
 10
-333.616742646740930
 20
-118.621477029565990
 40
8.499999999999814
 50
173.578178478202570
 51
186.421821521800520
  0
ARC
  8
0
  6
CONTINUOUS
 62
256
 10
-343.553996579934390
 20
-119.739951109384490
 40
1.499999999999926
 50
300.000000000001590
 51
6.421821521801724
  0
LINE
  8
0
  6
CONTINUOUS
 62
256
 10
-345.578885289554820
 20
-122.641071958531480
 11
-342.803996579934390
 21
-121.038989215061060
  0
ARC
  8
0
  6
CONTINUOUS
 62
256
 10
-346.328885289554820
 20
-121.342033852854910
 40
1.500000000000287
 50
192.079786860609570
 51
300.000000000001310
  0
ARC
  8
0
  6
CONTINUOUS
 62
256
 10
-333.616742646740250
 20
-118.621477029565990
 40
24.000000000000199
 50
340.240348321186100
 51
19.759651678813874
  0
ARC
  8
0
  6
CONTINUOUS
 62
256
 10
-312.441563377695670
 20
-111.014783731961420
 40
1.500000000000246
 50
19.759651678811821
 51
120.000000000001850
  0
LINE
  8
0
  6
CONTINUOUS
 62
256
 10
-315.838357970674620
 20
-111.243873197030990
 11
-313.191563377695670
 21
-109.715745626284840
  0
ARC
  8
0
  6
CONTINUOUS
 62
256
 10
-315.088357970674620
 20
-112.542911302707580
 40
1.499999999999926
 50
120.000000000001620
 51
198.162995844104900
  0
ARC
  8
0
  6
CONTINUOUS
 62
256
 10
-333.616742646740250
 20
-118.621477029565990
 40
17.999999999999996
 50
341.837004155893400
 51
18.162995844106586
  0
ARC
  8
0
  6
CONTINUOUS
 62
256
 10
-315.088357970674620
 20
-124.700042756424390
 40
1.500000000000038
 50
161.837004155895410
 51
240.000000000006200
  0
LINE
  8
0
  6
CONTINUOUS
 62
256
 10
-313.191563377695670
 20
-127.527208432847150
 11
-315.838357970674620
 21
-125.999080862101440
  0
ARC
  8
0
  6
CONTINUOUS
 62
256
 10
-312.441563377695670
 20
-126.228170327170570
 40
1.499999999999926
 50
239.999999999998410
 51
340.240348321188610
  0
ARC
  8
0
  6
CONTINUOUS
 62
256
 10
-333.616742646740250
 20
-118.621477029565990
 40
14.500000000000224
 50
347.920213139391310
 51
12.079786860606895
  0
ARC
  8
0
  6
CONTINUOUS
 62
256
 10
-320.904600003926080
 20
-115.900920206277060
 40
1.500000000000192
 50
12.079786860592611
 51
120.000000000001070
  0
LINE
  8
0
  6
CONTINUOUS
 62
256
 10
-324.429488713546560
 20
-116.203964844071360
 11
-321.654600003926080
 21
-114.601882100600510
  0
ARC
  8
0
  6
CONTINUOUS
 62
256
 10
-323.679488713546560
 20
-117.503002949747950
 40
1.499999999999926
 50
120.000000000001620
 51
186.421821521801180
  0
ARC
  8
0
  6
CONTINUOUS
 62
256
 10
-333.616742646740250
 20
-118.621477029565990
 40
8.499999999999865
 50
353.578178478199500
 51
6.421821521797406
  0
ARC
  8
0
  6
CONTINUOUS
 62
256
 10
-323.679488713546560
 20
-119.739951109384490
 40
1.500000000000099
 50
173.578178478198990
 51
239.999999999997580
  0
LINE
  8
0
  6
CONTINUOUS
 62
256
 10
-321.654600003926080
 20
-122.641071958531480
 11
-324.429488713546560
 21
-121.038989215061060
  0
ARC
  8
0
  6
CONTINUOUS
 62
256
 10
-320.904600003926080
 20
-121.342033852854910
 40
1.499999999999926
 50
239.999999999998410
 51
347.920213139390340
  0
ARC
  8
0
  6
CONTINUOUS
 62
256
 10
-333.616742646740250
 20
-118.621477029565990
 40
8.500000000000101
 50
53.578178478202645
 51
66.421821521799075
  0
ARC
  8
0
  6
CONTINUOUS
 62
256
 10
-333.616742646740250
 20
-118.621477029565990
 40
23.999999999999861
 50
40.240348321185998
 51
79.759651678814308
  0
LINE
  8
0
  6
CONTINUOUS
 62
256
 10
-326.929488713546560
 20
-111.873837825149170
 11
-324.154600003926130
 21
-110.271755081678290
  0
LINE
  8
0
  6
CONTINUOUS
 62
256
 10
-331.116742646740480
 20
-96.479887204081479
 11
-331.116742646740480
 21
-99.536142345573808
  0
LINE
  8
0
  6
CONTINUOUS
 62
256
 10
-331.116742646740480
 20
-106.252160152713030
 11
-331.116742646740480
 21
-109.456325639654100
  0
ARC
  8
0
  6
CONTINUOUS
 62
256
 10
-333.616742646740250
 20
-118.621477029565990
 40
14.499999999999860
 50
47.920213139391755
 51
72.079786860608280
  0
LINE
  8
0
  6
CONTINUOUS
 62
256
 10
-318.338357970674620
 20
-106.913746178108790
 11
-315.691563377695670
 21
-105.385618607362630
  0
ARC
  8
0
  6
CONTINUOUS
 62
256
 10
-324.904600003926130
 20
-108.972716976001720
 40
1.499999999999926
 50
300.000000000001590
 51
47.920213139381502
  0
ARC
  8
0
  6
CONTINUOUS
 62
256
 10
-329.616742646740480
 20
-96.479887204081479
 40
1.499999999999952
 50
79.759651678814038
 51
180.000000000000000
  0
ARC
  8
0
  6
CONTINUOUS
 62
256
 10
-319.088357970674620
 20
-105.614708072432220
 40
1.499999999999967
 50
221.837004155893250
 51
300.000000000000800
  0
ARC
  8
0
  6
CONTINUOUS
 62
256
 10
-329.616742646740480
 20
-99.536142345573808
 40
1.500000000000000
 50
180.000000000000000
 51
258.162995844103650
  0
ARC
  8
0
  6
CONTINUOUS
 62
256
 10
-329.616742646740480
 20
-106.252160152713030
 40
1.500000000000138
 50
72.079786860605211
 51
180.000000000000000
  0
ARC
  8
0
  6
CONTINUOUS
 62
256
 10
-316.441563377695670
 20
-104.086580501686040
 40
1.499999999999926
 50
300.000000000001590
 51
40.240348321183539
  0
ARC
  8
0
  6
CONTINUOUS
 62
256
 10
-329.616742646740480
 20
-109.456325639654100
 40
1.500000000000000
 50
180.000000000000000
 51
246.421821521804330
  0
ARC
  8
0
  6
CONTINUOUS
 62
256
 10
-327.679488713546560
 20
-110.574799719472590
 40
1.499999999999693
 50
233.578178478195380
 51
300.000000000001650
  0
CIRCLE
  8
0
  6
CONTINUOUS
 62
256
 10
-333.616742646740480
 20
-118.621477029565990
 40
5.000000000000000
  0
ARC
  8
0
  6
CONTINUOUS
 62
256
 10
-310.742056719074700
 20
-100.795968798083320
 40
1.499999999999843
 50
217.928141766204960
 51
300.000000000001080
  0
LINE
  8
0
  6
CONTINUOUS
 62
256
 10
-309.992056719074700
 20
-102.095006903759900
 11
-307.371288477005860
 21
-100.581905653717740
  0
ARC
  8
0
  6
CONTINUOUS
 62
256
 10
-329.616742646740480
 20
-89.898663796876008
 40
1.500000000000000
 50
180.000000000000000
 51
262.071858233795980
  0
ARC
  8
0
  6
CONTINUOUS
 62
256
 10
-333.616742646740250
 20
-118.621477029565990
 40
27.500000000000107
 50
37.928141766201740
 51
82.071858233798281
  0
ARC
  8
0
  6
CONTINUOUS
 62
256
 10
-308.121288477005860
 20
-99.282867548041168
 40
1.499999999999926
 50
300.000000000001590
 51
37.180755781456647
  0
ARC
  8
0
  6
CONTINUOUS
 62
256
 10
-302.455206192589630
 20
-96.011553415882872
 40
1.500000000000102
 50
215.963570118316280
 51
299.999999999997500
  0
ARC
  8
0
  6
CONTINUOUS
 62
256
 10
-333.616742646740930
 20
-118.621477029566440
 40
36.999999999999986
 50
35.963570118321137
 51
84.036429881678188
  0
ARC
  8
0
  6
CONTINUOUS
 62
256
 10
-333.616742646740930
 20
-118.621477029566440
 40
33.500000000000114
 50
37.180755781458195
 51
82.819244218540959
  0
LINE
  8
0
  6
CONTINUOUS
 62
256
 10
-307.492056719074470
 20
-106.425133922682560
 11
-304.871288477005630
 21
-104.912032672640390
  0
ARC
  8
0
  6
CONTINUOUS
 62
256
 10
-304.121288477005630
 20
-106.211070778317190
 40
1.499999999999948
 50
22.819244218550036
 51
119.999999999996500
  0
ARC
  8
0
  6
CONTINUOUS
 62
256
 10
-306.742056719074470
 20
-107.724172028359130
 40
1.499999999999926
 50
120.000000000001620
 51
202.071858233797310
  0
ARC
  8
0
  6
CONTINUOUS
 62
256
 10
-333.616742646740020
 20
-118.621477029566440
 40
27.499999999999932
 50
337.928141766202320
 51
22.071858233797762
  0
ARC
  8
0
  6
CONTINUOUS
 62
256
 10
-333.616742646740700
 20
-118.621477029566900
 40
33.500000000000178
 50
337.180755781459080
 51
22.819244218541932
  0
ARC
  8
0
  6
CONTINUOUS
 62
256
 10
-306.742056719074700
 20
-129.518782030773760
 40
1.499999999999899
 50
157.928141766199360
 51
240.000000000007500
  0
LINE
  8
0
  6
CONTINUOUS
 62
256
 10
-304.871288477005410
 20
-132.330921386492720
 11
-307.492056719074700
 21
-130.817820136450790
  0
ARC
  8
0
  6
CONTINUOUS
 62
256
 10
-304.121288477005410
 20
-131.031883280816150
 40
1.499999999999926
 50
239.999999999998410
 51
337.180755781453000
  0
ARC
  8
0
  6
CONTINUOUS
 62
256
 10
-329.616742646740250
 20
-159.928256134211550
 40
1.500000000000000
 50
180.000000000000000
 51
275.531071524830680
  0
LINE
  8
0
  6
CONTINUOUS
 62
256
 10
-331.116742646740250
 20
-156.913121026657340
 11
-331.116742646740250
 21
-159.928256134211550
  0
LINE
  8
0
  6
CONTINUOUS
 62
256
 10
-331.116742646740250
 20
-147.344290262256890
 11
-331.116742646740250
 21
-150.370492762341200
  0
ARC
  8
0
  6
CONTINUOUS
 62
256
 10
-329.616742646740250
 20
-156.913121026657790
 40
1.500000000000182
 50
95.963570118326047
 51
179.999999999982630
  0
ARC
  8
0
  6
CONTINUOUS
 62
256
 10
-329.616742646740250
 20
-150.370492762341200
 40
1.500000000000000
 50
180.000000000000000
 51
277.180755781458290
  0
ARC
  8
0
  6
CONTINUOUS
 62
256
 10
-329.616742646740250
 20
-147.344290262256890
 40
1.499999999999967
 50
97.928141766195438
 51
180.000000000000000
  0
ARC
  8
0
  6
CONTINUOUS
 62
256
 10
-333.616742646740250
 20
-118.621477029566900
 40
27.499999999999879
 50
277.928141766202600
 51
322.071858233798990
  0
ARC
  8
0
  6
CONTINUOUS
 62
256
 10
-333.616742646740250
 20
-118.621477029565990
 40
37.000000000000028
 50
275.963570118320770
 51
324.036429881678030
  0
ARC
  8
0
  6
CONTINUOUS
 62
256
 10
-333.616742646740250
 20
-118.621477029565990
 40
43.000000000000199
 50
275.531071524838860
 51
324.468928475160400
  0
ARC
  8
0
  6
CONTINUOUS
 62
256
 10
-333.616742646740250
 20
-118.621477029565990
 40
33.500000000000114
 50
277.180755781458230
 51
322.819244218540860
  0
ARC
  8
0
  6
CONTINUOUS
 62
256
 10
-310.742056719074700
 20
-136.446985261049580
 40
1.500000000000320
 50
60.000000000007056
 51
142.071858233781910
  0
ARC
  8
0
  6
CONTINUOUS
 62
256
 10
-302.455206192589170
 20
-141.231400643249800
 40
1.499999999999926
 50
59.999999999998380
 51
144.036429881690370
  0
LINE
  8
0
  6
CONTINUOUS
 62
256
 10
-307.371288477005410
 20
-136.661048405414930
 11
-309.992056719074700
 21
-135.147947155372550
  0
ARC
  8
0
  6
CONTINUOUS
 62
256
 10
-308.121288477005410
 20
-137.960086511091500
 40
1.500000000000240
 50
322.819244218535570
 51
59.999999999998167
  0
ARC
  8
0
  6
CONTINUOUS
 62
256
 10
-337.616742646740700
 20
-159.928256134211550
 40
1.500000000000430
 50
264.468928475160000
 51
0.000000000000000
  0
LINE
  8
0
  6
CONTINUOUS
 62
256
 10
-336.116742646740700
 20
-156.913121026657340
 11
-336.116742646740700
 21
-159.928256134211550
  0
LINE
  8
0
  6
CONTINUOUS
 62
256
 10
-336.116742646740700
 20
-147.344290262256890
 11
-336.116742646740700
 21
-150.370492762341200
  0
ARC
  8
0
  6
CONTINUOUS
 62
256
 10
-337.616742646740700
 20
-156.913121026657790
 40
1.500000000000000
 50
0.000000000017370
 51
84.036429881681926
  0
ARC
  8
0
  6
CONTINUOUS
 62
256
 10
-337.616742646740700
 20
-150.370492762341200
 40
1.499999999999998
 50
262.819244218541710
 51
0.000000000000000
  0
ARC
  8
0
  6
CONTINUOUS
 62
256
 10
-337.616742646740700
 20
-147.344290262256890
 40
1.500000000000000
 50
0.000000000000000
 51
82.071858233804718
  0
ARC
  8
0
  6
CONTINUOUS
 62
256
 10
-333.616742646740700
 20
-118.621477029566900
 40
27.499999999999780
 50
217.928141766201070
 51
262.071858233797340
  0
ARC
  8
0
  6
CONTINUOUS
 62
256
 10
-333.616742646740700
 20
-118.621477029565990
 40
37.000000000000021
 50
215.963570118321940
 51
264.036429881678880
  0
ARC
  8
0
  6
CONTINUOUS
 62
256
 10
-333.616742646740700
 20
-118.621477029565990
 40
42.999999999999872
 50
215.531071524839690
 51
264.468928475160790
  0
ARC
  8
0
  6
CONTINUOUS
 62
256
 10
-333.616742646740700
 20
-118.621477029565990
 40
33.500000000000163
 50
217.180755781459080
 51
262.819244218541770
  0
ARC
  8
0
  6
CONTINUOUS
 62
256
 10
-356.491428574406200
 20
-136.446985261049580
 40
1.500000000000122
 50
37.928141766218694
 51
119.999999999992440
  0
ARC
  8
0
  6
CONTINUOUS
 62
256
 10
-367.389462699875820
 20
-142.738968197027130
 40
1.499999999999926
 50
120.000000000001620
 51
215.531071524832610
  0
LINE
  8
0
  6
CONTINUOUS
 62
256
 10
-368.139462699875820
 20
-141.439930091350560
 11
-365.528279100891720
 21
-139.932362537573230
  0
ARC
  8
0
  6
CONTINUOUS
 62
256
 10
-364.778279100891720
 20
-141.231400643249800
 40
1.499999999999968
 50
35.963570118309242
 51
120.000000000001080
  0
LINE
  8
0
  6
CONTINUOUS
 62
256
 10
-359.862196816475490
 20
-136.661048405414930
 11
-357.241428574406200
 21
-135.147947155372550
  0
ARC
  8
0
  6
CONTINUOUS
 62
256
 10
-359.112196816475490
 20
-137.960086511091500
 40
1.499999999999926
 50
120.000000000001620
 51
217.180755781463600
  0
ARC
  8
0
  6
CONTINUOUS
 62
256
 10
-371.389462699875820
 20
-101.432189092381800
 40
1.499999999999926
 50
59.999999999998380
 51
155.531071524840120
  0
LINE
  8
0
  6
CONTINUOUS
 62
256
 10
-368.028279100891270
 20
-101.640718540482330
 11
-370.639462699875820
 21
-100.133150986705230
  0
LINE
  8
0
  6
CONTINUOUS
 62
256
 10
-359.741428574406430
 20
-106.425133922682560
 11
-362.362196816475260
 21
-104.912032672640390
  0
ARC
  8
0
  6
CONTINUOUS
 62
256
 10
-368.778279100891500
 20
-102.939756646158910
 40
1.499999999999855
 50
335.963570118319300
 51
59.999999999991623
  0
ARC
  8
0
  6
CONTINUOUS
 62
256
 10
-363.112196816475260
 20
-106.211070778317190
 40
1.500000000000123
 50
60.000000000002721
 51
157.180755781457830
  0
ARC
  8
0
  6
CONTINUOUS
 62
256
 10
-360.491428574406430
 20
-107.724172028359130
 40
1.500000000000110
 50
337.928141766202660
 51
59.999999999997605
  0
ARC
  8
0
  6
CONTINUOUS
 62
256
 10
-333.616742646740930
 20
-118.621477029566440
 40
27.499999999999883
 50
157.928141766202200
 51
202.071858233798680
  0
ARC
  8
0
  6
CONTINUOUS
 62
256
 10
-333.616742646740250
 20
-118.621477029566900
 40
37.000000000000156
 50
155.963570118321120
 51
204.036429881678230
  0
ARC
  8
0
  6
CONTINUOUS
 62
256
 10
-333.616742646740250
 20
-118.621477029566900
 40
43.000000000000121
 50
155.531071524839230
 51
204.468928475160170
  0
ARC
  8
0
  6
CONTINUOUS
 62
256
 10
-333.616742646740250
 20
-118.621477029566900
 40
33.499999999999794
 50
157.180755781458400
 51
202.819244218540890
  0
ARC
  8
0
  6
CONTINUOUS
 62
256
 10
-360.491428574406200
 20
-129.518782030773760
 40
1.500000000000320
 50
299.999999999992950
 51
22.071858233784432
  0
ARC
  8
0
  6
CONTINUOUS
 62
256
 10
-371.389462699875820
 20
-135.810764966751320
 40
1.500000000000128
 50
204.468928475167470
 51
299.999999999992440
  0
LINE
  8
0
  6
CONTINUOUS
 62
256
 10
-370.639462699875820
 20
-137.109803072428350
 11
-368.028279100891720
 21
-135.602235518651010
  0
ARC
  8
0
  6
CONTINUOUS
 62
256
 10
-368.778279100891720
 20
-134.303197412974440
 40
1.499999999999926
 50
300.000000000001590
 51
24.036429881676909
  0
LINE
  8
0
  6
CONTINUOUS
 62
256
 10
-362.362196816475490
 20
-132.330921386492720
 11
-359.741428574406200
 21
-130.817820136450790
  0
ARC
  8
0
  6
CONTINUOUS
 62
256
 10
-363.112196816475490
 20
-131.031883280816150
 40
1.500000000000157
 50
202.819244218546660
 51
300.000000000001590
  0
ARC
  8
0
  6
CONTINUOUS
 62
256
 10
-367.389462699875370
 20
-94.503985862105765
 40
1.499999999999976
 50
144.468928475160820
 51
240.000000000002160
  0
LINE
  8
0
  6
CONTINUOUS
 62
256
 10
-365.528279100891270
 20
-97.310591521559672
 11
-368.139462699875370
 21
-95.803023967782565
  0
LINE
  8
0
  6
CONTINUOUS
 62
256
 10
-357.241428574406200
 20
-102.095006903759900
 11
-359.862196816475030
 21
-100.581905653717740
  0
ARC
  8
0
  6
CONTINUOUS
 62
256
 10
-364.778279100891270
 20
-96.011553415882872
 40
1.500000000000123
 50
240.000000000002670
 51
324.036429881683320
  0
ARC
  8
0
  6
CONTINUOUS
 62
256
 10
-359.112196816475030
 20
-99.282867548041168
 40
1.500000000000103
 50
142.819244218542540
 51
239.999999999997580
  0
ARC
  8
0
  6
CONTINUOUS
 62
256
 10
-356.491428574406200
 20
-100.795968798083320
 40
1.499999999999926
 50
239.999999999998410
 51
322.071858233800750
  0
ARC
  8
0
  6
CONTINUOUS
 62
256
 10
-333.616742646740020
 20
-118.621477029566440
 40
37.000000000000099
 50
95.963570118321798
 51
144.036429881678830
  0
ARC
  8
0
  6
CONTINUOUS
 62
256
 10
-333.616742646740020
 20
-118.621477029566440
 40
43.000000000000043
 50
95.531071524839788
 51
144.468928475160770
  0
ARC
  8
0
  6
CONTINUOUS
 62
256
 10
-333.616742646740020
 20
-118.621477029566440
 40
33.499999999999950
 50
97.180755781459084
 51
142.819244218541710
  0
ARC
  8
0
  6
CONTINUOUS
 62
256
 10
-337.616742646740480
 20
-89.898663796876008
 40
1.499999999999998
 50
277.928141766204020
 51
0.000000000000000
  0
ARC
  8
0
  6
CONTINUOUS
 62
256
 10
-377.565330077022960
 20
-68.524862562038152
 40
6.599999999999971
 50
98.597082237248614
 51
134.999999999998520
  0
ARC
  8
0
  6
CONTINUOUS
 62
256
 10
-372.558260602122570
 20
-78.512699488979706
 40
5.999999999999923
 50
97.897988672425626
 51
134.999999999996730
  0
ARC
  8
0
  6
CONTINUOUS
 62
256
 10
-333.616742646740480
 20
-359.221477029566300
 40
289.396999999999880
 50
90.000000000000000
 51
97.897988672427743
  0
ARC
  8
0
  6
CONTINUOUS
 62
256
 10
-416.916742646740430
 20
-92.663977029566468
 40
18.799999999999955
 50
0.000000000000000
 51
79.401214733933926
  0
ARC
  8
0
  6
CONTINUOUS
 62
256
 10
-413.090988012653500
 20
-72.218840652428753
 40
1.999999999999927
 50
177.137594773887290
 51
259.401214733933840
  0
ARC
  8
0
  6
CONTINUOUS
 62
256
 10
-418.684001110369310
 20
-71.939189997542940
 40
1.999999999999928
 50
274.873974813840960
 51
357.137594773887320
  0
LINE
  8
0
  6
CONTINUOUS
 62
256
 10
-415.418614138423660
 20
-62.701406863231227
 11
-420.512251066700630
 21
-164.574145428771320
  0
LINE
  8
0
  6
CONTINUOUS
 62
256
 10
-439.613001998361370
 20
-130.589164061985460
 11
-435.622977060705350
 21
-90.788665308868190
  0
ARC
  8
0
  6
CONTINUOUS
 62
256
 10
-416.916742646740430
 20
-92.663977029566468
 40
18.800000000000036
 50
94.873974813842736
 51
144.191373186504220
  0
ARC
  8
0
  6
CONTINUOUS
 62
256
 10
-416.916742646740430
 20
-92.663977029566468
 40
18.799999999999933
 50
144.191373186504250
 51
174.275189547776420
  0
LINE
  8
0
  6
CONTINUOUS
 62
256
 10
-416.217616009525950
 20
-62.661456769676079
 11
-414.619612267321370
 21
-62.741356956786262
  0
ARC
  8
0
  6
CONTINUOUS
 62
256
 10
-410.075289506420400
 20
-67.974819193456369
 40
9.000000000000060
 50
160.536063666407810
 51
193.739143184213500
  0
POINT
  8
0
  6
CONTINUOUS
 62
256
 10
-416.467304094244810
 20
-67.655218464065115
  0
LINE
  8
0
  6
CONTINUOUS
 62
256
 10
-416.292522434941250
 20
-64.159585277992733
 11
-416.642085753548370
 21
-71.150851650137611
  0
LINE
  8
0
  6
CONTINUOUS
 62
256
 10
-416.292522434941250
 20
-64.159585277992733
 11
-416.642085753548370
 21
-71.150851650137611
  0
LINE
  8
0
  6
CONTINUOUS
 62
256
 10
-416.642085753548370
 20
-71.150851650137611
 11
-417.619889566056140
 21
-71.101961459512268
  0
LINE
  8
0
  6
CONTINUOUS
 62
256
 10
-416.292522434941250
 20
-64.159585277992733
 11
-417.270326247448790
 21
-64.110695087367390
  0
ARC
  8
0
  6
CONTINUOUS
 62
256
 10
-417.554970702128460
 20
-69.803584180958637
 40
1.299999237060493
 50
193.739143184211430
 51
267.137612759980130
  0
ARC
  8
0
  6
CONTINUOUS
 62
256
 10
-417.335245111376480
 20
-65.409072365920906
 40
1.299999237060475
 50
87.137594090651845
 51
160.536063666412730
  0
LINE
  8
0
  6
CONTINUOUS
 62
256
 10
-416.217616009525950
 20
-62.661456769676079
 11
-421.311252937802920
 21
-164.534195335216050
  0
LINE
  8
0
  6
CONTINUOUS
 62
256
 10
-414.619612267321370
 20
-62.741356956786262
 11
-419.713249195598340
 21
-164.614095522327030
  0
ARC
  8
0
  6
CONTINUOUS
 62
256
 10
-418.916742646740430
 20
-132.663977029566470
 40
20.800000000000082
 50
274.191726156007410
 51
354.952683218987600
  0
ARC
  8
0
  6
CONTINUOUS
 62
256
 10
-418.916742646740430
 20
-132.663977029566470
 40
20.799999999999986
 50
174.275189547776620
 51
205.640070215894870
  0
ARC
  8
0
  6
CONTINUOUS
 62
256
 10
-418.916742646740430
 20
-132.663977029566470
 40
20.799999999999926
 50
205.640070215894870
 51
260.083463391769380
  0
ARC
  8
0
  6
CONTINUOUS
 62
256
 10
-418.916742646740430
 20
-132.663977029566470
 40
20.799999999999986
 50
174.275189547776620
 51
205.640070215894870
  0
ARC
  8
0
  6
CONTINUOUS
 62
256
 10
-417.250195380356900
 20
-155.402988006495780
 40
1.999999999999962
 50
94.191726156001650
 51
177.137594773887370
  0
ARC
  8
0
  6
CONTINUOUS
 62
256
 10
-422.843208478072710
 20
-155.123337351609960
 40
2.000000000000154
 50
357.137594773887600
 51
80.083463391768120
  0
LINE
  8
0
  6
CONTINUOUS
 62
256
 10
-419.713249195598340
 20
-164.614095522327030
 11
-421.311252937802920
 21
-164.534195335216050
  0
LINE
  8
0
  6
CONTINUOUS
 62
256
 10
-398.116742646740480
 20
-101.290868269341050
 11
-398.116742646740480
 21
-92.663977029566468
  0
INSERT
  8
0
  2
ZU_SYM_2
 10
-421.061564853083840
 20
-159.540433640826900
 50
357.137594773886350
  0
LINE
  8
0
  6
DASHDOT
 62
256
 10
-311.302010633833560
 20
-100.621477029566440
 11
-357.271167368719490
 21
-100.621477029566440
  0
LINE
  8
0
  6
DASHDOT
 62
256
 10
-333.616742646740480
 20
-188.565376827804580
 11
-333.616742646740480
 21
-20.934347090884557
  0
ARC
  8
0
  6
CONTINUOUS
 62
256
 10
-304.366742646740480
 20
-177.621477029566560
 40
1.000000000000000
 50
270.000000000000000
 51
0.000000000000000
  0
ARC
  8
0
  6
CONTINUOUS
 62
256
 10
-362.866742646740480
 20
-177.621477029566450
 40
1.000000000000000
 50
180.000000000000000
 51
270.000000000000000
  0
ARC
  8
0
  6
CONTINUOUS
 62
256
 10
-333.616742646740930
 20
-853.121477029566450
 40
799.999999999999890
 50
88.510141843146016
 51
90.000000000000000
  0
ARC
  8
0
  6
CONTINUOUS
 62
256
 10
-306.866742646740480
 20
-54.914339948102736
 40
1.000000000000000
 50
0.000000000000000
 51
81.491323261740561
  0
ARC
  8
0
  6
CONTINUOUS
 62
256
 10
-294.366742646740480
 20
-58.531542098922785
 40
0.999999999999960
 50
66.230309577346389
 51
180.000000000000000
  0
ARC
  8
0
  6
CONTINUOUS
 62
256
 10
-360.366742646740480
 20
-54.914339948102736
 40
1.000000000000038
 50
98.508676738285459
 51
180.000000000000000
  0
ARC
  8
0
  6
CONTINUOUS
 62
256
 10
-372.866742646740480
 20
-58.531542098922785
 40
1.000000000000000
 50
0.000000000000000
 51
113.769690422677430
  0
ARC
  8
0
  6
CONTINUOUS
 62
256
 10
-294.116742646740480
 20
-177.621477029566450
 40
2.000000000000000
 50
270.000000000000000
 51
0.000000000000000
  0
ARC
  8
0
  6
CONTINUOUS
 62
256
 10
-373.116742646740480
 20
-177.621477029566450
 40
2.000000000000000
 50
180.000000000000000
 51
270.000000000000000
  0
ARC
  8
0
  6
CONTINUOUS
 62
256
 10
-333.616742646740480
 20
-853.121477029566450
 40
800.000000000000000
 50
90.000000000000000
 51
91.489858156853941
  0
ARC
  8
0
  6
CONTINUOUS
 62
256
 10
-369.116742646740480
 20
-174.621477029566450
 40
6.999999999999813
 50
314.415308597191370
 51
325.150095420952540
  0
ARC
  8
0
  6
CONTINUOUS
 62
256
 10
-298.116742646740480
 20
-174.621477029566450
 40
7.000000000000198
 50
214.849904579045360
 51
225.584691402805900
  0
LINE
  8
0
  6
CONTINUOUS
 62
256
 10
-333.616742646740480
 20
-178.621477029566450
 11
-363.372180000202660
 21
-178.621477029566450
  0
LINE
  8
0
  6
CONTINUOUS
 62
256
 10
-333.616742646740480
 20
-178.621477029566450
 11
-303.861305293278750
 21
-178.621477029566450
  0
ARC
  8
0
  6
CONTINUOUS
 62
256
 10
-390.928543524777520
 20
-48.982714849249021
 40
2.000000000000016
 50
45.000000000000000
 51
135.000000000000600
  0
ARC
  8
0
  6
CONTINUOUS
 62
256
 10
-385.271689275285100
 20
-43.325860599756652
 40
2.000000000000016
 50
135.000000000000000
 51
225.000000000000000
  0
ARC
  8
0
  6
CONTINUOUS
 62
256
 10
-276.304941768703430
 20
-48.982714849249078
 40
2.000000000000016
 50
45.000000000000000
 51
135.000000000000000
  0
ARC
  8
0
  6
CONTINUOUS
 62
256
 10
-281.961796018195860
 20
-43.325860599756652
 40
2.000000000000016
 50
315.000000000000000
 51
45.000000000000000
  0
ARC
  8
0
  6
CONTINUOUS
 62
256
 10
-337.616742646740480
 20
-35.130204562030542
 40
2.000000000000000
 50
0.000000000000000
 51
90.000000000000000
  0
ARC
  8
0
  6
CONTINUOUS
 62
256
 10
-329.616742646740480
 20
-35.130204562030542
 40
2.000000000000000
 50
90.000000000000000
 51
180.000000000000000
  0
ARC
  8
0
  6
CONTINUOUS
 62
256
 10
-329.616742646740480
 20
-51.141378019677632
 40
2.000000000000000
 50
180.000000000000000
 51
269.429883333265310
  0
ARC
  8
0
  6
CONTINUOUS
 62
256
 10
-337.616742646740480
 20
-51.141378019677632
 40
2.000000000000030
 50
270.570116666734690
 51
0.000000000000000
  0
ARC
  8
0
  6
CONTINUOUS
 62
256
 10
-373.116742646740480
 20
-177.621477029566450
 40
2.000000000000000
 50
180.000000000000000
 51
270.000000000000000
  0
ARC
  8
0
  6
CONTINUOUS
 62
256
 10
-373.116742646740480
 20
-177.621477029566450
 40
2.000000000000000
 50
180.000000000000000
 51
270.000000000000000
  0
ARC
  8
0
  6
DASHDOT
 62
256
 10
-333.616742646740480
 20
-100.621477029566440
 40
89.999999999999943
 50
219.906632329724260
 51
230.093367670273150
  0
ARC
  8
0
  6
CONTINUOUS
 62
256
 10
-397.616742646740480
 20
-164.621477029566450
 40
8.500000000000000
 50
180.000000000000000
 51
270.000000000000000
  0
ARC
  8
0
  6
CONTINUOUS
 62
256
 10
-294.116742646740480
 20
-177.621477029566450
 40
2.000000000000000
 50
270.000000000000000
 51
0.000000000000000
  0
ARC
  8
0
  6
CONTINUOUS
 62
256
 10
-294.116742646740480
 20
-177.621477029566450
 40
2.000000000000000
 50
270.000000000000000
 51
0.000000000000000
  0
ARC
  8
0
  6
CONTINUOUS
 62
256
 10
-298.116742646740480
 20
-174.621477029566450
 40
7.000000000000012
 50
214.849904579046410
 51
225.584691402807100
  0
ARC
  8
0
  6
DASHDOT
 62
256
 10
-333.616742646740480
 20
-100.621477029566440
 40
89.999999999999986
 50
309.906632329726850
 51
320.093367670275710
  0
ARC
  8
0
  6
CONTINUOUS
 62
256
 10
-269.616742646740480
 20
-164.621477029566450
 40
8.500000000000000
 50
270.000000000000000
 51
0.000000000000000
  0
CIRCLE
  8
0
  6
CONTINUOUS
 62
256
 10
-397.256352953530040
 20
-36.981866722777454
 40
5.000000000000000
  0
ARC
  8
0
  6
DASHDOT
 62
256
 10
-333.616742646740480
 20
-100.621477029566440
 40
90.000000000000000
 50
129.906632329726850
 51
140.093367670275740
  0
ARC
  8
0
  6
DASHDOT
 62
256
 10
-333.616742646740480
 20
-100.621477029566440
 40
89.999999999999943
 50
39.906632329724253
 51
50.093367670273118
  0
CIRCLE
  8
0
  6
CONTINUOUS
 62
256
 10
-269.977132339950910
 20
-36.981866722777454
 40
5.000000000000000
  0
ARC
  8
0
  6
CONTINUOUS
 62
256
 10
-397.616742646740480
 20
-36.621477029566449
 40
8.500000000000000
 50
90.000000000000000
 51
180.000000000000000
  0
ARC
  8
0
  6
CONTINUOUS
 62
256
 10
-269.616742646740480
 20
-36.621477029566449
 40
8.500000000000000
 50
0.000000000000000
 51
90.000000000000000
  0
ARC
  8
0
  6
CONTINUOUS
 62
256
 10
-369.116742646740480
 20
-174.621477029566450
 40
6.999999999999971
 50
314.415308597192730
 51
325.150095420953510
  0
LINE
  8
0
  6
CONTINUOUS
 62
256
 10
-379.056135350058180
 20
-58.026695899222148
 11
-389.514329962404420
 21
-47.568501286875915
  0
LINE
  8
0
  6
CONTINUOUS
 62
256
 10
-374.400711429807640
 20
-57.025265569980377
 11
-386.685902837658200
 21
-44.740074162129758
  0
LINE
  8
0
  6
CONTINUOUS
 62
256
 10
-288.177349943422770
 20
-58.026695899222148
 11
-277.719155331076540
 21
-47.568501286875971
  0
LINE
  8
0
  6
CONTINUOUS
 62
256
 10
-292.832773863673310
 20
-57.025265569980377
 11
-280.547582455822750
 21
-44.740074162129758
  0
LINE
  8
0
  6
DASHDOT
 62
256
 10
-391.599498704037610
 20
-158.604233086863020
 11
-402.913207203022470
 21
-169.917941585847760
  0
LINE
  8
0
  6
CONTINUOUS
 62
256
 10
-292.116742646740480
 20
-177.621477029566450
 11
-292.116742646740480
 21
-176.121477029566450
  0
LINE
  8
0
  6
DASHDOT
 62
256
 10
-275.633986589443340
 20
-158.604233086863020
 11
-264.320278090458490
 21
-169.917941585847760
  0
LINE
  8
0
  6
CONTINUOUS
 62
256
 10
-364.217763161174160
 20
-179.621477029566450
 11
-303.015722132306790
 21
-179.621477029566450
  0
LINE
  8
0
  6
CONTINUOUS
 62
256
 10
-333.616742646740480
 20
-178.621477029566450
 11
-303.861305293278520
 21
-178.621477029566450
  0
LINE
  8
0
  6
DASHDOT
 62
256
 10
-391.599498704037610
 20
-42.638720972269880
 11
-402.913207203022470
 21
-31.325012473285142
  0
LINE
  8
0
  6
DASHDOT
 62
256
 10
-275.633986589443340
 20
-42.638720972269880
 11
-264.320278090458490
 21
-31.325012473285142
  0
LINE
  8
0
  6
CONTINUOUS
 62
256
 10
-269.616742646740480
 20
-28.121477029566449
 11
-397.616742646740480
 21
-28.121477029566449
  0
LINE
  8
0
  6
CONTINUOUS
 62
256
 10
-335.616742646740480
 20
-51.141378019677632
 11
-335.616742646740480
 21
-35.130204562030542
  0
LINE
  8
0
  6
CONTINUOUS
 62
256
 10
-331.616742646740480
 20
-51.141378019677632
 11
-331.616742646740480
 21
-35.130204562030542
  0
LINE
  8
0
  6
CONTINUOUS
 62
256
 10
-333.616742646740480
 20
-178.621477029566450
 11
-363.372180000202430
 21
-178.621477029566450
  0
LINE
  8
0
  6
CONTINUOUS
 62
256
 10
88.087000795550281
 20
150.942902109705300
 11
88.087000795550281
 21
142.442904017053930
  0
LINE
  8
0
  6
CONTINUOUS
 62
256
 10
93.087000795550281
 20
142.442904017053930
 11
88.087000795550281
 21
142.442904017053930
  0
LINE
  8
0
  6
CONTINUOUS
 62
256
 10
93.087000795550281
 20
150.942902109705300
 11
88.087000795550281
 21
150.942902109705300
  0
LINE
  8
0
  6
CONTINUOUS
 62
256
 10
88.087000795550281
 20
76.442904017053934
 11
88.087000795550281
 21
84.942902109705301
  0
LINE
  8
0
  6
CONTINUOUS
 62
256
 10
93.087000795550281
 20
84.942902109705301
 11
88.087000795550281
 21
84.942902109705301
  0
LINE
  8
0
  6
CONTINUOUS
 62
256
 10
93.087000795550281
 20
76.442904017053934
 11
88.087000795550281
 21
76.442904017053934
  0
LINE
  8
0
  6
CONTINUOUS
 62
256
 10
93.087000795550281
 20
-119.871476075892130
 11
88.087000795550281
 21
-119.871476075892130
  0
LINE
  8
0
  6
CONTINUOUS
 62
256
 10
93.087000795550281
 20
-111.371477983240770
 11
88.087000795550281
 21
-111.371477983240770
  0
LINE
  8
0
  6
CONTINUOUS
 62
256
 10
88.087000795550281
 20
-119.871476075892130
 11
88.087000795550281
 21
-111.371477983240770
  0
TEXT
  8
0
  6
CONTINUOUS
 62
256
 10
-381.217010498046870
 20
55.928684234619141
 40
10.295999526977539
  1
ＳＣＡＬＥ１／１
 50
0.000002504478167
 41
0.984848625190477
  7
STANDARD1
  0
TEXT
  8
0
  6
CONTINUOUS
 62
256
 10
-381.217010498046870
 20
72.464683532714844
 40
10.295999526977539
  1
１／３～１／３０
 50
0.000002504478167
 41
0.984848625190477
  7
STANDARD1
  0
TEXT
  8
0
  6
CONTINUOUS
 62
256
 10
-381.217010498046870
 20
89.000686645507813
 40
10.295999526977539
  1
０．４ｋＷ
 50
0.000002504478167
 41
0.984848625190477
  7
STANDARD1
  0
TEXT
  8
0
  6
CONTINUOUS
 62
256
 10
-381.217010498046870
 20
105.536682128906250
 40
10.295999526977539
  1
ＧＭ－ＳＦＳＢ
 50
0.000002504478167
 41
0.984848625190477
  7
STANDARD1
  0
TEXT
  8
0
  6
CONTINUOUS
 62
256
 10
-381.217010498046870
 20
122.072685241699220
 40
10.295999526977539
  1
三菱ギヤードモートル
 50
0.000002504478167
 41
0.984848625190477
  7
STANDARD1
  0
TEXT
  8
0
  6
CONTINUOUS
 62
256
 10
-381.217010498046870
 20
138.608688354492190
 40
10.295999526977539
  1
Ｓ２０２
 50
0.000002504478167
 41
0.984848625190477
  7
STANDARD1
  0
ARC
  8
0
  6
CONTINUOUS
 62
256
 10
-284.189978506930910
 20
-69.194712889756914
 40
6.099999427795398
 50
354.601910595264880
 51
95.398072101891529
  0
POINT
  8
0
  6
CONTINUOUS
 62
256
 10
-281.927236942003900
 20
-66.931971324829874
  0
LINE
  8
0
  6
CONTINUOUS
 62
256
 10
-278.603835205297060
 20
-70.255373061536730
 11
-285.250638678710740
 21
-63.608569588123018
  0
LINE
  8
0
  6
CONTINUOUS
 62
256
 10
-278.290696596328250
 20
-70.002826110686357
 11
-284.967795898801170
 21
-63.325726808213439
  0
LINE
  8
0
  6
CONTINUOUS
 62
256
 10
-285.250638678710740
 20
-63.608569588123018
 11
-284.763835287005120
 21
-63.121766196417397
  0
LINE
  8
0
  6
CONTINUOUS
 62
256
 10
-278.603835205297060
 20
-70.255373061536730
 11
-278.117031813591440
 21
-69.768569669831109
  0
ARC
  8
0
  6
CONTINUOUS
 62
256
 10
-383.043506786550040
 20
-69.194712889756914
 40
6.099999427795413
 50
84.601927898108485
 51
185.398089404735090
  0
POINT
  8
0
  6
CONTINUOUS
 62
256
 10
-385.306248351477050
 20
-66.931971324829874
  0
LINE
  8
0
  6
CONTINUOUS
 62
256
 10
-388.629650088183890
 20
-70.255373061536730
 11
-381.982846614770210
 21
-63.608569588123018
  0
LINE
  8
0
  6
CONTINUOUS
 62
256
 10
-388.942788697152710
 20
-70.002826110686357
 11
-382.265689394679780
 21
-63.325726808213439
  0
LINE
  8
0
  6
CONTINUOUS
 62
256
 10
-381.982846614770210
 20
-63.608569588123018
 11
-382.469650006475830
 21
-63.121766196417397
  0
LINE
  8
0
  6
CONTINUOUS
 62
256
 10
-388.629650088183890
 20
-70.255373061536730
 11
-389.116453479889510
 21
-69.768569669831109
  0
ARC
  8
0
  6
CONTINUOUS
 62
256
 10
-383.043506786550040
 20
-168.048241169376210
 40
6.099999427795398
 50
174.601910595264910
 51
275.398072101891500
  0
POINT
  8
0
  6
CONTINUOUS
 62
256
 10
-385.306248351477050
 20
-170.310982734303250
  0
LINE
  8
0
  6
CONTINUOUS
 62
256
 10
-388.629650088183890
 20
-166.987580997596380
 11
-381.982846614770210
 21
-173.634384471010120
  0
LINE
  8
0
  6
CONTINUOUS
 62
256
 10
-388.942788697152710
 20
-167.240127948446770
 11
-382.265689394679780
 21
-173.917227250919690
  0
LINE
  8
0
  6
CONTINUOUS
 62
256
 10
-381.982846614770210
 20
-173.634384471010120
 11
-382.469650006475830
 21
-174.121187862715710
  0
LINE
  8
0
  6
CONTINUOUS
 62
256
 10
-388.629650088183890
 20
-166.987580997596380
 11
-389.116453479889510
 21
-167.474384389302000
  0
CIRCLE
  8
0
  6
CONTINUOUS
 62
256
 10
332.822689254639040
 20
-100.621477029566440
 40
65.000000000000000
  0
ENDSEC
  0
EOF
