  0
SECTION
  2
HEADER
  9
$FILLMODE
 70
1
  9
$TEXTSTYLE
  7
STANDARD1
  9
$ACADVER
  1
AC1009
  9
$DIMASZ
 40
1.931851648807023
  9
$DIMEXE
 40
2.000000000000000
  9
$DIMEXO
 40
1.000000000000000
  9
$DIMLFAC
 40
1.000000000000000
  9
$DIMSCALE
 40
1.000000000000000
  9
$DIMTAD
 70
1
  9
$DIMTFAC
 40
0.714285731315613
  9
$DIMTXT
 40
3.200000047683716
  9
$LUPREC
 70
3
  9
$TEXTSIZE
 40
2.799999952316284
  9
$REGENMODE
 70
1
  0
ENDSEC
  0
SECTION
  2
TABLES
  0
TABLE
  2
LTYPE
 70
4
  0
LTYPE
  2
CONTINUOUS
 70
64
  3
Solid line
 72
65
 73
0
 40
0.0
  0
LTYPE
  2
DASHED
 70
64
  3
-- -- -- -- -- -- -- -- -- -- -- -- -- -- --
 72
65
 73
2
 40
0.75
 49
0.5
 49
-0.25
  0
LTYPE
  2
DASHDOT
 70
64
  3
__ . __ . __ . __ . __ . __ . __ . __ . __ . __
 72
65
 73
4
 40
1.0
 49
0.5
 49
-0.25
 49
0.0
 49
-0.25
  0
LTYPE
  2
DIVIDE
 70
64
  3
__ . . __ . . __ . . __ . . __ . . __ . . __
 72
65
 73
6
 40
1.25
 49
0.5
 49
-0.25
 49
0.0
 49
-0.25
 49
0.0
 49
-0.25
  0
ENDTAB
  0
TABLE
  2
LAYER
 70
1
  0
LAYER
  2
0
 70
64
 62
2
  6
CONTINUOUS
  0
ENDTAB
  0
TABLE
  2
STYLE
 70
4
  0
STYLE
  2
STANDARD1
 70
64
 40
0.0
 41
1.0
 50
0.0
 71
0
 42
2.799999952316284
  3
MONOTXT
  4
BIGFONT
  0
STYLE
  2
STANDARD2
 70
68
 40
0.0
 41
1.0
 50
0.0
 71
0
 42
2.799999952316284
  3
MONOTXT
  4
BIGFONT
  0
STYLE
  2
STANDARD3
 70
64
 40
0.0
 41
1.0
 50
0.0
 71
0
 42
2.799999952316284
  3
MONOTXT
  4

  0
STYLE
  2
STANDARD4
 70
68
 40
0.0
 41
1.0
 50
0.0
 71
0
 42
2.799999952316284
  3
MONOTXT
  4

  0
ENDTAB
  0
TABLE
  2
VIEW
 70
0
  0
ENDTAB
  0
ENDSEC
  0
SECTION
  2
BLOCKS
  0
BLOCK
  8
0
  2
SYM1
 70
64
 10
0.000000000000000
 20
0.000000000000000
  0
ARC
  8
0
  6
CONTINUOUS
 62
3
 10
-0.979025304317474
 20
-2.200000762939453
 40
1.299999237060547
 50
196.601531107481040
 51
270.000000000000000
  0
ARC
  8
0
  6
CONTINUOUS
 62
3
 10
-0.979025304317474
 20
2.200000762939453
 40
1.299999237060547
 50
90.000000000000000
 51
163.398451589674950
  0
LINE
  8
0
  6
CONTINUOUS
 62
3
 10
-0.000000000000000
 20
-3.500000000000000
 11
-0.979025304317474
 21
-3.500000000000000
  0
LINE
  8
0
  6
CONTINUOUS
 62
3
 10
0.000000000000000
 20
3.500000000000000
 11
-0.979025304317474
 21
3.500000000000000
  0
LINE
  8
0
  6
CONTINUOUS
 62
3
 10
0.000000000000000
 20
-3.500000000000000
 11
-0.000000000000000
 21
3.500000000000000
  0
LINE
  8
0
  6
CONTINUOUS
 62
3
 10
0.000000000000000
 20
-3.500000000000000
 11
-0.000000000000000
 21
3.500000000000000
  0
POINT
  8
0
  6
CONTINUOUS
 62
3
 10
0.000000000000000
 20
0.000000000000000
  0
ARC
  8
0
  6
CONTINUOUS
 62
3
 10
6.399999618530273
 20
0.000000000000000
 40
9.000000000000000
 50
163.398451589674950
 51
196.601531107481040
  0
ENDBLK
  8
0
  0
ENDSEC
  0
SECTION
  2
ENTITIES
  0
LINE
  8
0
  6
CONTINUOUS
 62
3
 10
305.885955288261700
 20
-232.557558807393430
 11
404.369382848347530
 21
-232.557558807393430
  0
CIRCLE
  8
0
  6
CONTINUOUS
 62
3
 10
355.127669068304390
 20
-128.057558807393430
 40
85.000000000000000
  0
TEXT
  8
0
  6
CONTINUOUS
 62
3
 10
-390.519042968750000
 20
139.535140991210940
 40
10.295999526977539
  1
Ｓ２０４
 50
0.000002504478167
 41
0.984848625190477
  7
STANDARD1
  0
TEXT
  8
0
  6
CONTINUOUS
 62
3
 10
-390.519042968750000
 20
122.999145507812500
 40
10.295999526977539
  1
三菱ギヤードモートル
 50
0.000002504478167
 41
0.984848625190477
  7
STANDARD1
  0
TEXT
  8
0
  6
CONTINUOUS
 62
3
 10
-390.519042968750000
 20
106.463142395019530
 40
10.295999526977539
  1
ＧＭ－ＳＦＳＢ
 50
0.000002504478167
 41
0.984848625190477
  7
STANDARD1
  0
TEXT
  8
0
  6
CONTINUOUS
 62
3
 10
-390.519042968750000
 20
89.927139282226562
 40
10.295999526977539
  1
０．４ｋＷ
 50
0.000002504478167
 41
0.984848625190477
  7
STANDARD1
  0
TEXT
  8
0
  6
CONTINUOUS
 62
3
 10
-390.519042968750000
 20
73.391143798828125
 40
10.295999526977539
  1
１／６０～１／１００
 50
0.000002504478167
 41
0.984848625190477
  7
STANDARD1
  0
TEXT
  8
0
  6
CONTINUOUS
 62
3
 10
-390.519042968750000
 20
56.855140686035156
 40
10.295999526977539
  1
ＳＣＡＬＥ１／１
 50
0.000002504478167
 41
0.984848625190477
  7
STANDARD1
  0
LINE
  8
0
  6
CONTINUOUS
 62
3
 10
52.268450105971397
 20
103.291594209503270
 11
73.768450105955026
 21
103.291594209503270
  0
LINE
  8
0
  6
CONTINUOUS
 62
3
 10
52.268450105971397
 20
133.291594209503270
 11
73.768450105955026
 21
133.291594209503270
  0
ARC
  8
0
  6
CONTINUOUS
 62
3
 10
-341.624728687484320
 20
-154.057558807393430
 40
82.999999999999972
 50
203.257104416820250
 51
230.428105065559010
  0
ARC
  8
0
  6
CONTINUOUS
 62
3
 10
-341.624728687484320
 20
-154.057558807393430
 40
83.000000000000014
 50
309.571894934440990
 51
334.295176584100890
  0
ARC
  8
0
  6
CONTINUOUS
 62
3
 10
-341.624728687484090
 20
-523.057558807617400
 40
450.000000000000000
 50
90.000000000000000
 51
92.158403465040564
  0
ARC
  8
0
  6
CONTINUOUS
 62
3
 10
-356.124728687484320
 20
-138.330707652151430
 40
64.999999999999730
 50
92.158403465040337
 51
155.951883362997990
  0
ARC
  8
0
  6
CONTINUOUS
 62
3
 10
-327.124728687484090
 20
-138.330707652151430
 40
64.999999999999986
 50
18.173444894457759
 51
87.841596534959464
  0
ARC
  8
0
  6
CONTINUOUS
 62
3
 10
-341.624728687484320
 20
-523.057558807617400
 40
449.999999999999830
 50
87.841596534959393
 51
90.000000000000000
  0
LINE
  8
0
  6
CONTINUOUS
 62
3
 10
72.768450105966622
 20
-159.057558807393430
 11
72.768450105966622
 21
-149.057558807393430
  0
LINE
  8
0
  6
CONTINUOUS
 62
3
 10
78.768450105966622
 20
-149.057558807393430
 11
72.768450105966622
 21
-149.057558807393430
  0
LINE
  8
0
  6
CONTINUOUS
 62
3
 10
78.768450105966622
 20
-159.057558807393430
 11
72.768450105966622
 21
-159.057558807393430
  0
LINE
  8
0
  6
CONTINUOUS
 62
3
 10
78.768450105956845
 20
81.291594209503273
 11
72.768450105956845
 21
81.291594209503273
  0
LINE
  8
0
  6
CONTINUOUS
 62
3
 10
78.768450105956845
 20
71.291594209503273
 11
72.768450105956845
 21
71.291594209503273
  0
LINE
  8
0
  6
CONTINUOUS
 62
3
 10
72.768450105956845
 20
81.291594209503273
 11
72.768450105956845
 21
71.291594209503273
  0
LINE
  8
0
  6
CONTINUOUS
 62
3
 10
78.768450105956845
 20
155.291594209505090
 11
72.768450105956845
 21
155.291594209505090
  0
LINE
  8
0
  6
CONTINUOUS
 62
3
 10
78.768450105956845
 20
165.291594209505090
 11
72.768450105956845
 21
165.291594209505090
  0
LINE
  8
0
  6
CONTINUOUS
 62
3
 10
72.768450105956845
 20
155.291594209505090
 11
72.768450105956845
 21
165.291594209505090
  0
ARC
  8
0
  6
CONTINUOUS
 62
3
 10
220.368450105960160
 20
-141.657558807393800
 40
0.399999999999636
 50
270.000000000000000
 51
0.000000000000000
  0
INSERT
  8
0
  2
SYM1
 10
-429.069550893827680
 20
-194.976515418653890
 41
1.000000000000000
 42
1.000000000000000
 43
1.000000000000000
 50
357.137594773886350
  0
LINE
  8
0
  6
DASHDOT
 62
4
 10
-361.350748306982720
 20
-128.057558807393430
 11
-322.320829510113980
 21
-128.057558807393430
  0
ARC
  8
0
  6
CONTINUOUS
 62
3
 10
-281.874205677220740
 20
-101.378103608995840
 40
2.999999999999944
 50
44.999999999998472
 51
135.000000000001530
  0
ARC
  8
0
  6
CONTINUOUS
 62
3
 10
-288.945273489086280
 20
-94.307035797130538
 40
2.999999999999944
 50
315.000000000001530
 51
45.000000000000000
  0
ARC
  8
0
  6
CONTINUOUS
 62
3
 10
-401.375251697747900
 20
-101.378103608995840
 40
2.999999999999944
 50
44.999999999998472
 51
135.000000000001530
  0
ARC
  8
0
  6
CONTINUOUS
 62
3
 10
-394.304183885882370
 20
-94.307035797130538
 40
3.000000000000185
 50
135.000000000000000
 51
224.999999999998470
  0
ARC
  8
0
  6
CONTINUOUS
 62
3
 10
-401.375251697747900
 20
-206.737014005790800
 40
3.000000000000105
 50
225.000000000001530
 51
314.999999999998470
  0
ARC
  8
0
  6
CONTINUOUS
 62
3
 10
-394.304183885882370
 20
-213.808081817656330
 40
2.999999999999944
 50
135.000000000001530
 51
224.999999999996960
  0
ARC
  8
0
  6
CONTINUOUS
 62
3
 10
-281.874205677220740
 20
-206.737014005790800
 40
3.000000000000105
 50
225.000000000001530
 51
314.999999999998470
  0
ARC
  8
0
  6
CONTINUOUS
 62
3
 10
-288.945273489086280
 20
-213.808081817656330
 40
3.000000000000024
 50
315.000000000003070
 51
44.999999999998472
  0
ARC
  8
0
  6
CONTINUOUS
 62
3
 10
-398.321818802756300
 20
-222.661057059747240
 40
5.999999999999958
 50
348.059665094244110
 51
50.428105065558938
  0
ARC
  8
0
  6
CONTINUOUS
 62
3
 10
-384.624728687484320
 20
-225.557558807393430
 40
7.999999999999997
 50
168.059665094243630
 51
223.432536557789920
  0
ARC
  8
0
  6
CONTINUOUS
 62
3
 10
-298.624728687484320
 20
-225.557558807393430
 40
7.999999999999977
 50
316.567463442210060
 51
11.940334905756542
  0
ARC
  8
0
  6
CONTINUOUS
 62
3
 10
-284.927638572212350
 20
-222.661057059747240
 40
5.999999999999855
 50
129.571894934441050
 51
191.940334905755690
  0
ARC
  8
0
  6
CONTINUOUS
 62
3
 10
-371.624728687484320
 20
-80.367357162380813
 40
4.999999999999904
 50
104.971190995949040
 51
180.000000000000000
  0
LINE
  8
0
  6
CONTINUOUS
 62
3
 10
-376.624728687484320
 20
-80.367357162380813
 11
-376.624728687484320
 21
-88.057558807393434
  0
ARC
  8
0
  6
CONTINUOUS
 62
3
 10
-383.624728687484320
 20
-88.057558807393434
 40
7.000000000000041
 50
201.479465819260380
 51
0.000000000000000
  0
ARC
  8
0
  6
CONTINUOUS
 62
3
 10
-394.791314986577850
 20
-92.451571827958560
 40
4.999999999999919
 50
21.479465819263282
 51
130.123934227061850
  0
ARC
  8
0
  6
CONTINUOUS
 62
3
 10
-390.394029998586690
 20
-215.035431532849090
 40
4.999999999999835
 50
223.887028754552180
 51
298.736037863438240
  0
ARC
  8
0
  6
CONTINUOUS
 62
3
 10
-311.624728687484320
 20
-80.367357162380813
 40
5.000000000000000
 50
0.000000000000000
 51
75.028809004050956
  0
LINE
  8
0
  6
CONTINUOUS
 62
3
 10
-306.624728687484320
 20
-80.367357162380813
 11
-306.624728687484320
 21
-88.057558807393434
  0
ARC
  8
0
  6
CONTINUOUS
 62
3
 10
-299.624728687484320
 20
-88.057558807393434
 40
7.000000000000000
 50
180.000000000000000
 51
338.520534180739620
  0
ARC
  8
0
  6
CONTINUOUS
 62
3
 10
-288.458142388390800
 20
-92.451571827958560
 40
5.000000000000052
 50
49.876065772938119
 51
158.520534180736720
  0
ARC
  8
0
  6
CONTINUOUS
 62
3
 10
-292.855427376381950
 20
-215.035431532849090
 40
4.999999999999977
 50
241.263962136561760
 51
316.112971245447850
  0
LINE
  8
0
  6
CONTINUOUS
 62
3
 10
-426.624728687484430
 20
-33.057558807393434
 11
-256.624728687484320
 21
-33.057558807393661
  0
LINE
  8
0
  6
CONTINUOUS
 62
3
 10
-290.914523101256920
 20
-223.057558807393660
 11
-256.624728687484320
 21
-223.057558807393660
  0
LINE
  8
0
  6
CONTINUOUS
 62
3
 10
-426.624728687484430
 20
-223.057558807393430
 11
-392.334934273711950
 21
-223.057558807393430
  0
LINE
  8
0
  6
CONTINUOUS
 62
3
 10
-344.124728687484320
 20
-38.557558807393548
 11
-344.124728687484320
 21
-70.090948559135541
  0
LINE
  8
0
  6
CONTINUOUS
 62
3
 10
-392.832369558782370
 20
-80.385451842028260
 11
-406.678552556646650
 21
-66.539268844163871
  0
LINE
  8
0
  6
CONTINUOUS
 62
3
 10
-296.034149512432460
 20
-78.931445726408697
 11
-280.106438724254760
 21
-63.003734938231105
  0
ARC
  8
0
  6
CONTINUOUS
 62
3
 10
-398.321818802756410
 20
-222.661057059747240
 40
6.000000000000070
 50
348.059665094244340
 51
50.428105065558100
  0
ARC
  8
0
  6
CONTINUOUS
 62
3
 10
-284.927638572212230
 20
-222.661057059747240
 40
5.999999999999928
 50
129.571894934441900
 51
191.940334905755690
  0
ARC
  8
0
  6
CONTINUOUS
 62
3
 10
-384.624728687484320
 20
-225.557558807393430
 40
7.999999999999997
 50
168.059665094243630
 51
223.432536557789920
  0
ARC
  8
0
  6
CONTINUOUS
 62
3
 10
-298.624728687484320
 20
-225.557558807393430
 40
8.000000000000142
 50
316.567463442211190
 51
11.940334905756371
  0
ARC
  8
0
  6
CONTINUOUS
 62
3
 10
-385.093987518976520
 20
-76.810125382849264
 40
3.000000000000024
 50
225.000000000000000
 51
295.215148958216560
  0
ARC
  8
0
  6
CONTINUOUS
 62
3
 10
-394.953689902342030
 20
-82.506772185587920
 40
2.999999999999977
 50
304.820974823218140
 51
45.000000000000000
  0
ARC
  8
0
  6
CONTINUOUS
 62
3
 10
-298.155469855992120
 20
-76.810125382849037
 40
3.000000000000029
 50
244.784851041784350
 51
315.000000000000000
  0
ARC
  8
0
  6
CONTINUOUS
 62
3
 10
-288.295767472626720
 20
-82.506772185587693
 40
2.999999999999864
 50
135.000000000000000
 51
235.179025176783090
  0
ARC
  8
0
  6
CONTINUOUS
 62
3
 10
-426.624728687484430
 20
-43.057558807393434
 40
10.000000000000000
 50
90.000000000000000
 51
180.000000000000000
  0
CIRCLE
  8
0
  6
CONTINUOUS
 62
3
 10
-424.709775476903700
 20
-44.972512017974168
 40
6.000000000000000
  0
ARC
  8
0
  6
CONTINUOUS
 62
3
 10
-256.624728687484320
 20
-43.057558807393661
 40
10.000000000000000
 50
0.000000000000000
 51
90.000000000000000
  0
CIRCLE
  8
0
  6
CONTINUOUS
 62
3
 10
-258.539681898065060
 20
-44.972512017974168
 40
6.000000000000000
  0
ARC
  8
0
  6
CONTINUOUS
 62
3
 10
-256.624728687484320
 20
-213.057558807393660
 40
10.000000000000000
 50
270.000000000000000
 51
0.000000000000000
  0
ARC
  8
0
  6
CONTINUOUS
 62
3
 10
-426.624728687484430
 20
-213.057558807393430
 40
10.000000000000000
 50
180.000000000000000
 51
270.000000000000000
  0
CIRCLE
  8
0
  6
CONTINUOUS
 62
3
 10
-258.539681898065510
 20
-211.142605596812930
 40
6.000000000000000
  0
CIRCLE
  8
0
  6
CONTINUOUS
 62
3
 10
-424.709775476903250
 20
-211.142605596812930
 40
6.000000000000000
  0
ARC
  8
0
  6
CONTINUOUS
 62
3
 10
-347.124728687484320
 20
-70.090948559135541
 40
3.000000000000050
 50
270.695661214153010
 51
0.000000000000000
  0
ARC
  8
0
  6
CONTINUOUS
 62
3
 10
-336.124728687484320
 20
-70.090948559135541
 40
3.000000000000000
 50
180.000000000000000
 51
269.304338785844830
  0
ARC
  8
0
  6
CONTINUOUS
 62
3
 10
-282.227759067814420
 20
-60.882414594671559
 40
3.000000000000024
 50
315.000000000000000
 51
45.000000000000000
  0
ARC
  8
0
  6
CONTINUOUS
 62
3
 10
-274.449584474762330
 20
-68.660589187723531
 40
3.000000000000024
 50
45.000000000000000
 51
135.000000000000000
  0
LINE
  8
0
  6
CONTINUOUS
 62
3
 10
-290.417087816186270
 20
-80.385451842028147
 11
-276.570904818322110
 21
-66.539268844163871
  0
ARC
  8
0
  6
CONTINUOUS
 62
3
 10
-336.124728687484320
 20
-38.557558807393548
 40
3.000000000000000
 50
90.000000000000000
 51
180.000000000000000
  0
LINE
  8
0
  6
CONTINUOUS
 62
3
 10
-339.124728687484320
 20
-38.557558807393548
 11
-339.124728687484320
 21
-70.090948559135541
  0
ARC
  8
0
  6
CONTINUOUS
 62
3
 10
-347.124728687484320
 20
-38.557558807393548
 40
3.000000000000000
 50
0.000000000000000
 51
90.000000000000000
  0
ARC
  8
0
  6
CONTINUOUS
 62
3
 10
-401.021698307154220
 20
-60.882414594671559
 40
3.000000000000024
 50
135.000000000000000
 51
225.000000000000000
  0
ARC
  8
0
  6
CONTINUOUS
 62
3
 10
-408.799872900206310
 20
-68.660589187723531
 40
3.000000000000024
 50
45.000000000000000
 51
135.000000000000000
  0
LINE
  8
0
  6
CONTINUOUS
 62
3
 10
-387.215307862536180
 20
-78.931445726408924
 11
-403.143018650713880
 21
-63.003734938231219
  0
ARC
  8
0
  6
CONTINUOUS
 62
3
 10
-544.124728687484320
 20
-154.057558807393550
 40
300.000000000000060
 50
353.967950853630210
 51
6.032049146369816
  0
LINE
  8
0
  6
CONTINUOUS
 62
3
 10
-244.135145535002040
 20
-156.557558807393430
 11
-243.624728687484320
 21
-156.557558807393430
  0
LINE
  8
0
  6
CONTINUOUS
 62
3
 10
-244.124730544682050
 20
-151.557558807393430
 11
-243.624728687484320
 21
-151.557558807393430
  0
LINE
  8
0
  6
CONTINUOUS
 62
3
 10
-243.624728687484320
 20
-156.557558807393430
 11
-243.624728687484320
 21
-151.557558807393430
  0
ARC
  8
0
  6
CONTINUOUS
 62
3
 10
-250.758063914541940
 20
-185.057558807393430
 40
5.000000000000000
 50
270.000000000000000
 51
353.967950853629650
  0
LINE
  8
0
  6
CONTINUOUS
 62
3
 10
-279.318425178563760
 20
-190.057558807393430
 11
-250.758063914541940
 21
-190.057558807393430
  0
LINE
  8
0
  6
CONTINUOUS
 62
3
 10
-279.318425178563760
 20
-118.057558807393430
 11
-250.758063914541940
 21
-118.057558807393430
  0
ARC
  8
0
  6
CONTINUOUS
 62
3
 10
-250.758063914541940
 20
-123.057558807393430
 40
5.000000000000131
 50
6.032049146369048
 51
90.000000000000000
  0
LINE
  8
0
  6
CONTINUOUS
 62
3
 10
-278.124728687484320
 20
-184.050057869660240
 11
-278.124728687484320
 21
-190.057558807393430
  0
LINE
  8
0
  6
CONTINUOUS
 62
3
 10
-278.124728687484320
 20
-124.065059745126630
 11
-278.124728687484320
 21
-118.057558807393430
  0
ARC
  8
0
  6
CONTINUOUS
 62
4
 10
-106.024728687484180
 20
-154.057558807393430
 40
289.397000000000160
 50
180.000000000000000
 51
186.051985358668500
  0
ARC
  8
0
  6
CONTINUOUS
 62
4
 10
-378.497629612694710
 20
-182.945588532531700
 40
15.397000000000052
 50
186.051985358668840
 51
225.000000000000000
  0
LINE
  8
0
  6
CONTINUOUS
 62
4
 10
-384.808887329985510
 20
-198.408977035099720
 11
-389.384952722624120
 21
-193.832911642461110
  0
ARC
  8
0
  6
CONTINUOUS
 62
4
 10
-380.566246642866420
 20
-194.166336347980180
 40
6.000000000000049
 50
225.000000000003070
 51
262.102011327574360
  0
ARC
  8
0
  6
CONTINUOUS
 62
4
 10
-341.624728687484090
 20
86.542441192606475
 40
289.396999999999820
 50
262.102011327572200
 51
270.000000000000000
  0
ARC
  8
0
  6
CONTINUOUS
 62
4
 10
-577.224728687484230
 20
-154.057558807393430
 40
289.397000000000160
 50
353.948014641331500
 51
0.000000000000000
  0
ARC
  8
0
  6
CONTINUOUS
 62
4
 10
-304.751827762273710
 20
-182.945588532531700
 40
15.396999999999876
 50
315.000000000000000
 51
353.948014641331160
  0
LINE
  8
0
  6
CONTINUOUS
 62
4
 10
-298.440570044982910
 20
-198.408977035099720
 11
-293.864504652344290
 21
-193.832911642461110
  0
ARC
  8
0
  6
CONTINUOUS
 62
4
 10
-302.683210732102000
 20
-194.166336347980180
 40
5.999999999999923
 50
277.897988672425640
 51
314.999999999996870
  0
ARC
  8
0
  6
CONTINUOUS
 62
4
 10
-341.624728687484320
 20
86.542441192606475
 40
289.396999999999930
 50
270.000000000000000
 51
277.897988672427800
  0
ARC
  8
0
  6
CONTINUOUS
 62
4
 10
-577.224728687484230
 20
-154.057558807393430
 40
289.397000000000160
 50
0.000000000000000
 51
6.051985358668508
  0
ARC
  8
0
  6
CONTINUOUS
 62
4
 10
-304.751827762273710
 20
-125.169529082255160
 40
15.397000000000052
 50
6.051985358668849
 51
45.000000000000000
  0
LINE
  8
0
  6
CONTINUOUS
 62
4
 10
-298.440570044982910
 20
-109.706140579687140
 11
-293.864504652344290
 21
-114.282205972325750
  0
ARC
  8
0
  6
CONTINUOUS
 62
4
 10
-302.683210732102000
 20
-113.948781266806690
 40
6.000000000000049
 50
45.000000000003077
 51
82.102011327574374
  0
ARC
  8
0
  6
CONTINUOUS
 62
4
 10
-341.624728687484320
 20
-394.657558807393340
 40
289.396999999999820
 50
82.102011327572214
 51
90.000000000000000
  0
ARC
  8
0
  6
CONTINUOUS
 62
4
 10
-106.024728687484410
 20
-154.057558807393430
 40
289.396999999999930
 50
173.948014641331470
 51
180.000000000000000
  0
LINE
  8
0
  6
CONTINUOUS
 62
4
 10
-384.808887329985510
 20
-109.706140579687140
 11
-389.384952722624120
 21
-114.282205972325750
  0
ARC
  8
0
  6
CONTINUOUS
 62
4
 10
-378.497629612694710
 20
-125.169529082255160
 40
15.396999999999876
 50
135.000000000000000
 51
173.948014641331160
  0
ARC
  8
0
  6
CONTINUOUS
 62
3
 10
-304.751827762273710
 20
-182.945588532531700
 40
26.599999999999955
 50
315.000000000001020
 51
353.948014641331380
  0
LINE
  8
0
  6
CONTINUOUS
 62
3
 10
-293.009236501370650
 20
-208.821078030753140
 11
-285.942787382711230
 21
-201.754628912093490
  0
ARC
  8
0
  6
CONTINUOUS
 62
3
 10
-577.224728687484230
 20
-154.057558807393430
 40
300.600000000000080
 50
353.948014641331500
 51
6.051985358668499
  0
ARC
  8
0
  6
CONTINUOUS
 62
3
 10
-378.497629612694710
 20
-182.945588532531700
 40
26.599999999999969
 50
186.051985358668590
 51
224.999999999998980
  0
ARC
  8
0
  6
CONTINUOUS
 62
3
 10
-106.024728687484180
 20
-154.057558807393430
 40
300.600000000000080
 50
173.948014641331500
 51
186.051985358668500
  0
LINE
  8
0
  6
CONTINUOUS
 62
3
 10
-390.240220873597990
 20
-208.821078030753140
 11
-397.306669992257180
 21
-201.754628912093490
  0
ARC
  8
0
  6
CONTINUOUS
 62
3
 10
-378.497629612694710
 20
-125.169529082255160
 40
26.600000000000119
 50
135.000000000000000
 51
173.948014641331410
  0
LINE
  8
0
  6
CONTINUOUS
 62
3
 10
-390.240220873597990
 20
-99.294039584033953
 11
-397.306669992256960
 21
-106.360488702692910
  0
ARC
  8
0
  6
CONTINUOUS
 62
3
 10
-304.751827762273930
 20
-125.169529082255160
 40
26.600000000000193
 50
6.051985358668552
 51
45.000000000000000
  0
LINE
  8
0
  6
CONTINUOUS
 62
3
 10
-293.009236501370650
 20
-99.294039584033953
 11
-285.942787382711690
 21
-106.360488702692910
  0
ARC
  8
0
  6
CONTINUOUS
 62
3
 10
-385.573316117766810
 20
-204.154173274921960
 40
6.599999999999957
 50
225.000000000000000
 51
261.402917762751090
  0
ARC
  8
0
  6
CONTINUOUS
 62
3
 10
-341.624728687484320
 20
86.542441192606702
 40
300.600000000000020
 50
261.402917762750920
 51
270.000000000000000
  0
ARC
  8
0
  6
CONTINUOUS
 62
3
 10
-297.676141257201830
 20
-204.154173274921960
 40
6.599999999999747
 50
278.597082237248910
 51
315.000000000000000
  0
ARC
  8
0
  6
CONTINUOUS
 62
3
 10
-341.624728687484320
 20
-394.657558807393340
 40
300.599999999999800
 50
81.402917762750931
 51
90.000000000000000
  0
ARC
  8
0
  6
CONTINUOUS
 62
3
 10
-297.676141257201830
 20
-103.960944339865130
 40
6.600000000000118
 50
45.000000000001400
 51
81.402917762751386
  0
ARC
  8
0
  6
CONTINUOUS
 62
3
 10
-341.624728687484320
 20
86.542441192606702
 40
300.600000000000140
 50
270.000000000000000
 51
278.597082237249080
  0
ARC
  8
0
  6
CONTINUOUS
 62
3
 10
-341.624728687484320
 20
-394.657558807393340
 40
300.599999999999910
 50
90.000000000000000
 51
98.597082237249069
  0
ARC
  8
0
  6
CONTINUOUS
 62
3
 10
-337.624728687484320
 20
-112.750779702747870
 40
1.500000000000203
 50
84.468928475159132
 51
180.000000000000000
  0
ARC
  8
0
  6
CONTINUOUS
 62
3
 10
-345.624728687484320
 20
-112.750779702747650
 40
1.500000000000000
 50
0.000000000000000
 51
95.531071524841693
  0
ARC
  8
0
  6
CONTINUOUS
 62
3
 10
-341.624728687484090
 20
-154.057558807392980
 40
17.999999999999922
 50
41.837004155893325
 51
78.162995844107314
  0
ARC
  8
0
  6
CONTINUOUS
 62
3
 10
-341.624728687484550
 20
-154.057558807392980
 40
27.499999999999815
 50
97.928141766201691
 51
142.071858233797880
  0
LINE
  8
0
  6
CONTINUOUS
 62
3
 10
-339.124728687484320
 20
-112.750779702747870
 11
-339.124728687484320
 21
-115.765914810301860
  0
LINE
  8
0
  6
CONTINUOUS
 62
3
 10
-309.713192233333530
 20
-132.746673299386660
 11
-307.102008634349430
 21
-131.239105745609550
  0
LINE
  8
0
  6
CONTINUOUS
 62
3
 10
-339.124728687484320
 20
-122.308543074618450
 11
-339.124728687484320
 21
-125.334745574702990
  0
ARC
  8
0
  6
CONTINUOUS
 62
3
 10
-337.624728687484320
 20
-122.308543074618450
 40
1.499999999999998
 50
82.819244218541712
 51
180.000000000000000
  0
ARC
  8
0
  6
CONTINUOUS
 62
3
 10
-337.624728687484320
 20
-115.765914810301860
 40
1.500000000000000
 50
180.000000000000000
 51
264.036429881682580
  0
ARC
  8
0
  6
CONTINUOUS
 62
3
 10
-307.852008634349430
 20
-129.940067639932750
 40
1.500000000000123
 50
299.999999999997270
 51
35.531071524839192
  0
ARC
  8
0
  6
CONTINUOUS
 62
3
 10
-341.624728687484780
 20
-154.057558807393430
 40
42.999999999999908
 50
35.531071524839248
 51
84.468928475160212
  0
ARC
  8
0
  6
CONTINUOUS
 62
3
 10
-303.852008634348980
 20
-136.868270870208790
 40
1.500000000000034
 50
24.468928475159590
 51
119.999999999997270
  0
LINE
  8
0
  6
CONTINUOUS
 62
3
 10
-307.213192233333300
 20
-137.076800318309100
 11
-304.602008634348980
 21
-135.569232764531990
  0
ARC
  8
0
  6
CONTINUOUS
 62
3
 10
-306.463192233333300
 20
-138.375838423985900
 40
1.500000000000123
 50
119.999999999997270
 51
204.036429881680680
  0
ARC
  8
0
  6
CONTINUOUS
 62
3
 10
-341.624728687484550
 20
-154.057558807393890
 40
36.999999999999972
 50
335.963570118321740
 51
24.036429881678870
  0
ARC
  8
0
  6
CONTINUOUS
 62
3
 10
-341.624728687484550
 20
-154.057558807393890
 40
42.999999999999936
 50
335.531071524839770
 51
24.468928475160769
  0
ARC
  8
0
  6
CONTINUOUS
 62
3
 10
-303.852008634348980
 20
-171.246846744578310
 40
1.500000000000320
 50
240.000000000007050
 51
335.531071524832500
  0
LINE
  8
0
  6
CONTINUOUS
 62
3
 10
-304.602008634348980
 20
-172.545884850255330
 11
-307.213192233333070
 21
-171.038317296478000
  0
ARC
  8
0
  6
CONTINUOUS
 62
3
 10
-306.463192233333070
 20
-169.739279190801430
 40
1.500000000000063
 50
155.963570118322880
 51
239.999999999998410
  0
ARC
  8
0
  6
CONTINUOUS
 62
3
 10
-307.852008634348980
 20
-178.175049974854120
 40
1.499999999999844
 50
324.468928475167900
 51
59.999999999998380
  0
LINE
  8
0
  6
CONTINUOUS
 62
3
 10
-307.102008634348980
 20
-176.876011869177550
 11
-309.713192233333070
 21
-175.368444315400210
  0
LINE
  8
0
  6
CONTINUOUS
 62
3
 10
-344.124728687484320
 20
-112.750779702747650
 11
-344.124728687484320
 21
-115.765914810301860
  0
ARC
  8
0
  6
CONTINUOUS
 62
3
 10
-345.624728687484320
 20
-115.765914810301860
 40
1.499999999999933
 50
275.963570118318330
 51
0.000000000000000
  0
LINE
  8
0
  6
CONTINUOUS
 62
3
 10
-344.124728687484320
 20
-122.308543074618450
 11
-344.124728687484320
 21
-125.334745574702990
  0
ARC
  8
0
  6
CONTINUOUS
 62
3
 10
-345.624728687484320
 20
-122.308543074618450
 40
1.500000000000000
 50
0.000000000000000
 51
97.180755781458288
  0
ARC
  8
0
  6
CONTINUOUS
 62
3
 10
-341.624728687484780
 20
-154.057558807392980
 40
23.999999999999901
 50
100.240348321185670
 51
139.759651678813550
  0
ARC
  8
0
  6
CONTINUOUS
 62
3
 10
-358.799907956529300
 20
-139.522662279513040
 40
1.499999999999802
 50
139.759651678811420
 51
239.999999999998410
  0
LINE
  8
0
  6
CONTINUOUS
 62
3
 10
-356.903113363550120
 20
-142.349827955935780
 11
-359.549907956529300
 21
-140.821700385189620
  0
ARC
  8
0
  6
CONTINUOUS
 62
3
 10
-356.153113363550120
 20
-141.050789850259210
 40
1.499999999999926
 50
239.999999999998410
 51
318.162995844106720
  0
ARC
  8
0
  6
CONTINUOUS
 62
3
 10
-341.624728687484780
 20
-154.057558807392980
 40
17.999999999999829
 50
101.837004155891980
 51
138.162995844106210
  0
ARC
  8
0
  6
CONTINUOUS
 62
3
 10
-345.624728687484320
 20
-134.972224123400790
 40
1.499999999999954
 50
281.837004155896690
 51
0.000000000000000
  0
LINE
  8
0
  6
CONTINUOUS
 62
3
 10
-344.124728687484320
 20
-131.915968981908460
 11
-344.124728687484320
 21
-134.972224123400790
  0
ARC
  8
0
  6
CONTINUOUS
 62
3
 10
-345.624728687484320
 20
-131.915968981908460
 40
1.500000000000000
 50
0.000000000000000
 51
100.240348321194510
  0
ARC
  8
0
  6
CONTINUOUS
 62
3
 10
-341.624728687484780
 20
-154.057558807392980
 40
14.499999999999980
 50
107.920213139390830
 51
132.079786860607560
  0
ARC
  8
0
  6
CONTINUOUS
 62
3
 10
-350.336871330298890
 20
-144.408798753828710
 40
1.499999999999792
 50
132.079786860611680
 51
239.999999999998410
  0
LINE
  8
0
  6
CONTINUOUS
 62
3
 10
-348.311982620678240
 20
-147.309919602976150
 11
-351.086871330298890
 21
-145.707836859505280
  0
ARC
  8
0
  6
CONTINUOUS
 62
3
 10
-347.561982620678240
 20
-146.010881497299580
 40
1.499999999999926
 50
239.999999999998410
 51
306.421821521797600
  0
ARC
  8
0
  6
CONTINUOUS
 62
3
 10
-341.624728687484780
 20
-154.057558807392980
 40
8.499999999999879
 50
113.578178478199500
 51
126.421821521797340
  0
ARC
  8
0
  6
CONTINUOUS
 62
3
 10
-345.624728687484320
 20
-144.892407417481080
 40
1.500000000000139
 50
293.578178478195700
 51
0.000000000000000
  0
LINE
  8
0
  6
CONTINUOUS
 62
3
 10
-344.124728687484320
 20
-141.688241930540020
 11
-344.124728687484320
 21
-144.892407417481080
  0
ARC
  8
0
  6
CONTINUOUS
 62
3
 10
-345.624728687484320
 20
-141.688241930540020
 40
1.500000000000000
 50
0.000000000000000
 51
107.920213139394770
  0
ARC
  8
0
  6
CONTINUOUS
 62
3
 10
-341.624728687484320
 20
-154.057558807393430
 40
23.999999999999716
 50
280.240348321186270
 51
319.759651678814690
  0
ARC
  8
0
  6
CONTINUOUS
 62
3
 10
-337.624728687484320
 20
-176.199148632877950
 40
1.500000000000000
 50
180.000000000000000
 51
280.240348321187530
  0
LINE
  8
0
  6
CONTINUOUS
 62
3
 10
-339.124728687484320
 20
-173.142893491385620
 11
-339.124728687484320
 21
-176.199148632877950
  0
ARC
  8
0
  6
CONTINUOUS
 62
3
 10
-337.624728687484320
 20
-173.142893491385620
 40
1.499999999999731
 50
101.837004155898450
 51
180.000000000000000
  0
ARC
  8
0
  6
CONTINUOUS
 62
3
 10
-341.624728687484320
 20
-154.057558807393430
 40
18.000000000000146
 50
281.837004155893230
 51
318.162995844107680
  0
ARC
  8
0
  6
CONTINUOUS
 62
3
 10
-327.096344011418520
 20
-167.064327764527210
 40
1.499999999999926
 50
59.999999999998380
 51
138.162995844100240
  0
LINE
  8
0
  6
CONTINUOUS
 62
3
 10
-323.699549418439570
 20
-167.293417229596800
 11
-326.346344011418520
 21
-165.765289658850630
  0
ARC
  8
0
  6
CONTINUOUS
 62
3
 10
-324.449549418439570
 20
-168.592455335273370
 40
1.499999999999828
 50
319.759651678823670
 51
59.999999999998380
  0
ARC
  8
0
  6
CONTINUOUS
 62
3
 10
-341.624728687484320
 20
-154.057558807393430
 40
14.500000000000121
 50
287.920213139392560
 51
312.079786860608860
  0
ARC
  8
0
  6
CONTINUOUS
 62
3
 10
-337.624728687484320
 20
-166.426875684246170
 40
1.500000000000000
 50
180.000000000000000
 51
287.920213139392100
  0
LINE
  8
0
  6
CONTINUOUS
 62
3
 10
-339.124728687484320
 20
-163.222710197304880
 11
-339.124728687484320
 21
-166.426875684246170
  0
ARC
  8
0
  6
CONTINUOUS
 62
3
 10
-337.624728687484320
 20
-163.222710197305330
 40
1.500000000000139
 50
113.578178478195690
 51
179.999999999982630
  0
ARC
  8
0
  6
CONTINUOUS
 62
3
 10
-341.624728687484320
 20
-154.057558807393430
 40
8.500000000000060
 50
293.578178478202350
 51
306.421821521799190
  0
ARC
  8
0
  6
CONTINUOUS
 62
3
 10
-335.687474754290410
 20
-162.104236117486830
 40
1.499999999999926
 50
59.999999999998380
 51
126.421821521801260
  0
LINE
  8
0
  6
CONTINUOUS
 62
3
 10
-332.162586044669980
 20
-162.407280755280680
 11
-334.937474754290410
 21
-160.805198011810260
  0
ARC
  8
0
  6
CONTINUOUS
 62
3
 10
-332.912586044669980
 20
-163.706318860957710
 40
1.499999999999944
 50
312.079786860618130
 51
60.000000000007070
  0
ARC
  8
0
  6
CONTINUOUS
 62
3
 10
-341.624728687484320
 20
-154.057558807393430
 40
23.999999999999844
 50
220.240348321185340
 51
259.759651678813730
  0
ARC
  8
0
  6
CONTINUOUS
 62
3
 10
-345.624728687484320
 20
-176.199148632877950
 40
1.499999999999728
 50
259.759651678812470
 51
0.000000000000000
  0
LINE
  8
0
  6
CONTINUOUS
 62
3
 10
-344.124728687484320
 20
-173.142893491385620
 11
-344.124728687484320
 21
-176.199148632877950
  0
ARC
  8
0
  6
CONTINUOUS
 62
3
 10
-345.624728687484320
 20
-173.142893491385620
 40
1.500000000000000
 50
0.000000000000000
 51
78.162995844101530
  0
ARC
  8
0
  6
CONTINUOUS
 62
3
 10
-341.624728687484320
 20
-154.057558807393430
 40
17.999999999999940
 50
221.837004155892320
 51
258.162995844106770
  0
ARC
  8
0
  6
CONTINUOUS
 62
3
 10
-356.153113363550120
 20
-167.064327764527210
 40
1.500000000000118
 50
41.837004155899741
 51
120.000000000001620
  0
LINE
  8
0
  6
CONTINUOUS
 62
3
 10
-359.549907956529070
 20
-167.293417229596800
 11
-356.903113363550120
 21
-165.765289658850630
  0
ARC
  8
0
  6
CONTINUOUS
 62
3
 10
-358.799907956529070
 20
-168.592455335273370
 40
1.499999999999926
 50
120.000000000001620
 51
220.240348321176330
  0
ARC
  8
0
  6
CONTINUOUS
 62
3
 10
-341.624728687484320
 20
-154.057558807393430
 40
14.500000000000011
 50
227.920213139391080
 51
252.079786860607410
  0
ARC
  8
0
  6
CONTINUOUS
 62
3
 10
-345.624728687484320
 20
-166.426875684246170
 40
1.500000000000355
 50
252.079786860607900
 51
0.000000000000000
  0
LINE
  8
0
  6
CONTINUOUS
 62
3
 10
-344.124728687484320
 20
-163.222710197304880
 11
-344.124728687484320
 21
-166.426875684246170
  0
ARC
  8
0
  6
CONTINUOUS
 62
3
 10
-345.624728687484320
 20
-163.222710197305330
 40
1.500000000000000
 50
0.000000000017370
 51
66.421821521804304
  0
ARC
  8
0
  6
CONTINUOUS
 62
3
 10
-341.624728687484320
 20
-154.057558807393430
 40
8.499999999999870
 50
233.578178478199590
 51
246.421821521797680
  0
ARC
  8
0
  6
CONTINUOUS
 62
3
 10
-347.561982620678240
 20
-162.104236117486830
 40
1.500000000000059
 50
53.578178478205707
 51
120.000000000001620
  0
LINE
  8
0
  6
CONTINUOUS
 62
3
 10
-351.086871330298660
 20
-162.407280755280680
 11
-348.311982620678240
 21
-160.805198011810260
  0
ARC
  8
0
  6
CONTINUOUS
 62
3
 10
-350.336871330298660
 20
-163.706318860957710
 40
1.500000000000320
 50
119.999999999992930
 51
227.920213139381870
  0
ARC
  8
0
  6
CONTINUOUS
 62
3
 10
-341.624728687484780
 20
-154.057558807392980
 40
23.999999999999925
 50
160.240348321185910
 51
199.759651678814090
  0
ARC
  8
0
  6
CONTINUOUS
 62
3
 10
-362.799907956529300
 20
-146.450865509788400
 40
1.499999999999926
 50
59.999999999998380
 51
160.240348321185250
  0
LINE
  8
0
  6
CONTINUOUS
 62
3
 10
-359.403113363550120
 20
-146.679954974857990
 11
-362.049907956529300
 21
-145.151827404111830
  0
ARC
  8
0
  6
CONTINUOUS
 62
3
 10
-360.153113363550120
 20
-147.978993080534560
 40
1.500000000000038
 50
341.837004155895390
 51
59.999999999998380
  0
ARC
  8
0
  6
CONTINUOUS
 62
3
 10
-341.624728687484780
 20
-154.057558807392980
 40
17.999999999999726
 50
161.837004155893140
 51
198.162995844106860
  0
ARC
  8
0
  6
CONTINUOUS
 62
3
 10
-360.153113363550120
 20
-160.136124534251390
 40
1.500000000000320
 50
299.999999999992950
 51
18.162995844104589
  0
LINE
  8
0
  6
CONTINUOUS
 62
3
 10
-362.049907956529070
 20
-162.963290210674130
 11
-359.403113363550120
 21
-161.435162639928420
  0
ARC
  8
0
  6
CONTINUOUS
 62
3
 10
-362.799907956529070
 20
-161.664252104997560
 40
1.500000000000246
 50
199.759651678811820
 51
300.000000000001590
  0
ARC
  8
0
  6
CONTINUOUS
 62
3
 10
-341.624728687484780
 20
-154.057558807392980
 40
14.499999999999851
 50
167.920213139392840
 51
192.079786860608920
  0
ARC
  8
0
  6
CONTINUOUS
 62
3
 10
-354.336871330298890
 20
-151.337001984104060
 40
1.499999999999926
 50
59.999999999998380
 51
167.920213139405550
  0
LINE
  8
0
  6
CONTINUOUS
 62
3
 10
-350.811982620678240
 20
-151.640046621898360
 11
-353.586871330298890
 21
-150.037963878427490
  0
ARC
  8
0
  6
CONTINUOUS
 62
3
 10
-351.561982620678240
 20
-152.939084727574940
 40
1.499999999999873
 50
353.578178478198030
 51
59.999999999998380
  0
ARC
  8
0
  6
CONTINUOUS
 62
3
 10
-341.624728687484780
 20
-154.057558807392980
 40
8.499999999999813
 50
173.578178478202550
 51
186.421821521800500
  0
ARC
  8
0
  6
CONTINUOUS
 62
3
 10
-351.561982620678240
 20
-155.176032887211480
 40
1.499999999999926
 50
300.000000000001590
 51
6.421821521801967
  0
LINE
  8
0
  6
CONTINUOUS
 62
3
 10
-353.586871330298660
 20
-158.077153736358470
 11
-350.811982620678240
 21
-156.475070992888050
  0
ARC
  8
0
  6
CONTINUOUS
 62
3
 10
-354.336871330298660
 20
-156.778115630681900
 40
1.500000000000287
 50
192.079786860609600
 51
300.000000000001590
  0
ARC
  8
0
  6
CONTINUOUS
 62
3
 10
-341.624728687484090
 20
-154.057558807392980
 40
24.000000000000139
 50
340.240348321186050
 51
19.759651678813924
  0
ARC
  8
0
  6
CONTINUOUS
 62
3
 10
-320.449549418439570
 20
-146.450865509788400
 40
1.500000000000246
 50
19.759651678811824
 51
120.000000000001620
  0
LINE
  8
0
  6
CONTINUOUS
 62
3
 10
-323.846344011418520
 20
-146.679954974857990
 11
-321.199549418439570
 21
-145.151827404111830
  0
ARC
  8
0
  6
CONTINUOUS
 62
3
 10
-323.096344011418520
 20
-147.978993080534560
 40
1.499999999999926
 50
120.000000000001620
 51
198.162995844104590
  0
ARC
  8
0
  6
CONTINUOUS
 62
3
 10
-341.624728687484090
 20
-154.057558807392980
 40
17.999999999999943
 50
341.837004155893340
 51
18.162995844106646
  0
ARC
  8
0
  6
CONTINUOUS
 62
3
 10
-323.096344011418520
 20
-160.136124534251390
 40
1.500000000000038
 50
161.837004155895410
 51
240.000000000007050
  0
LINE
  8
0
  6
CONTINUOUS
 62
3
 10
-321.199549418439570
 20
-162.963290210674130
 11
-323.846344011418520
 21
-161.435162639928420
  0
ARC
  8
0
  6
CONTINUOUS
 62
3
 10
-320.449549418439570
 20
-161.664252104997560
 40
1.499999999999926
 50
239.999999999998410
 51
340.240348321188210
  0
ARC
  8
0
  6
CONTINUOUS
 62
3
 10
-341.624728687484090
 20
-154.057558807392980
 40
14.500000000000169
 50
347.920213139391310
 51
12.079786860606980
  0
ARC
  8
0
  6
CONTINUOUS
 62
3
 10
-328.912586044669980
 20
-151.337001984104060
 40
1.500000000000192
 50
12.079786860592611
 51
120.000000000001620
  0
LINE
  8
0
  6
CONTINUOUS
 62
3
 10
-332.437474754290410
 20
-151.640046621898360
 11
-329.662586044669980
 21
-150.037963878427490
  0
ARC
  8
0
  6
CONTINUOUS
 62
3
 10
-331.687474754290410
 20
-152.939084727574940
 40
1.499999999999926
 50
120.000000000001620
 51
186.421821521801010
  0
ARC
  8
0
  6
CONTINUOUS
 62
3
 10
-341.624728687484090
 20
-154.057558807392980
 40
8.499999999999865
 50
353.578178478199500
 51
6.421821521797448
  0
ARC
  8
0
  6
CONTINUOUS
 62
3
 10
-331.687474754290410
 20
-155.176032887211480
 40
1.500000000000099
 50
173.578178478198990
 51
239.999999999998410
  0
LINE
  8
0
  6
CONTINUOUS
 62
3
 10
-329.662586044669980
 20
-158.077153736358470
 11
-332.437474754290410
 21
-156.475070992888050
  0
ARC
  8
0
  6
CONTINUOUS
 62
3
 10
-328.912586044669980
 20
-156.778115630681900
 40
1.499999999999926
 50
239.999999999998410
 51
347.920213139390400
  0
ARC
  8
0
  6
CONTINUOUS
 62
3
 10
-341.624728687484090
 20
-154.057558807392980
 40
8.500000000000101
 50
53.578178478202659
 51
66.421821521799089
  0
ARC
  8
0
  6
CONTINUOUS
 62
3
 10
-341.624728687484090
 20
-154.057558807392980
 40
23.999999999999819
 50
40.240348321186090
 51
79.759651678814322
  0
LINE
  8
0
  6
CONTINUOUS
 62
3
 10
-334.937474754290410
 20
-147.309919602976150
 11
-332.162586044669980
 21
-145.707836859505280
  0
LINE
  8
0
  6
CONTINUOUS
 62
3
 10
-339.124728687484320
 20
-131.915968981908460
 11
-339.124728687484320
 21
-134.972224123400790
  0
LINE
  8
0
  6
CONTINUOUS
 62
3
 10
-339.124728687484320
 20
-141.688241930540020
 11
-339.124728687484320
 21
-144.892407417481080
  0
ARC
  8
0
  6
CONTINUOUS
 62
3
 10
-341.624728687484090
 20
-154.057558807392980
 40
14.499999999999860
 50
47.920213139391755
 51
72.079786860608309
  0
LINE
  8
0
  6
CONTINUOUS
 62
3
 10
-326.346344011418520
 20
-142.349827955935780
 11
-323.699549418439570
 21
-140.821700385189620
  0
ARC
  8
0
  6
CONTINUOUS
 62
3
 10
-332.912586044669980
 20
-144.408798753828710
 40
1.499999999999926
 50
300.000000000001590
 51
47.920213139381872
  0
ARC
  8
0
  6
CONTINUOUS
 62
3
 10
-337.624728687484320
 20
-131.915968981908460
 40
1.499999999999952
 50
79.759651678814024
 51
180.000000000000000
  0
ARC
  8
0
  6
CONTINUOUS
 62
3
 10
-327.096344011418520
 20
-141.050789850259210
 40
1.499999999999967
 50
221.837004155893280
 51
300.000000000001590
  0
ARC
  8
0
  6
CONTINUOUS
 62
3
 10
-337.624728687484320
 20
-134.972224123400790
 40
1.500000000000000
 50
180.000000000000000
 51
258.162995844103310
  0
ARC
  8
0
  6
CONTINUOUS
 62
3
 10
-337.624728687484320
 20
-141.688241930540020
 40
1.500000000000138
 50
72.079786860605225
 51
180.000000000000000
  0
ARC
  8
0
  6
CONTINUOUS
 62
3
 10
-324.449549418439570
 20
-139.522662279513040
 40
1.499999999999926
 50
300.000000000001590
 51
40.240348321182964
  0
ARC
  8
0
  6
CONTINUOUS
 62
3
 10
-337.624728687484320
 20
-144.892407417481080
 40
1.500000000000000
 50
180.000000000000000
 51
246.421821521804280
  0
ARC
  8
0
  6
CONTINUOUS
 62
3
 10
-335.687474754290410
 20
-146.010881497299580
 40
1.499999999999693
 50
233.578178478195410
 51
300.000000000001590
  0
CIRCLE
  8
0
  6
CONTINUOUS
 62
3
 10
-341.624728687484320
 20
-154.057558807392980
 40
5.000000000000000
  0
ARC
  8
0
  6
CONTINUOUS
 62
3
 10
-318.750042759818600
 20
-136.232050575910310
 40
1.499999999999843
 50
217.928141766204990
 51
300.000000000001590
  0
LINE
  8
0
  6
CONTINUOUS
 62
3
 10
-318.000042759818600
 20
-137.531088681586880
 11
-315.379274517749760
 21
-136.017987431544730
  0
ARC
  8
0
  6
CONTINUOUS
 62
3
 10
-337.624728687484320
 20
-125.334745574702990
 40
1.500000000000000
 50
180.000000000000000
 51
262.071858233795980
  0
ARC
  8
0
  6
CONTINUOUS
 62
3
 10
-341.624728687484090
 20
-154.057558807392980
 40
27.500000000000060
 50
37.928141766201819
 51
82.071858233798309
  0
ARC
  8
0
  6
CONTINUOUS
 62
3
 10
-316.129274517749760
 20
-134.718949325868150
 40
1.499999999999926
 50
300.000000000001590
 51
37.180755781457485
  0
ARC
  8
0
  6
CONTINUOUS
 62
3
 10
-310.463192233333530
 20
-131.447635193709860
 40
1.500000000000102
 50
215.963570118316280
 51
299.999999999997270
  0
ARC
  8
0
  6
CONTINUOUS
 62
3
 10
-341.624728687484780
 20
-154.057558807393430
 40
36.999999999999943
 50
35.963570118321194
 51
84.036429881678174
  0
ARC
  8
0
  6
CONTINUOUS
 62
3
 10
-341.624728687484780
 20
-154.057558807393430
 40
33.500000000000071
 50
37.180755781458259
 51
82.819244218540931
  0
LINE
  8
0
  6
CONTINUOUS
 62
3
 10
-315.500042759818370
 20
-141.861215700509550
 11
-312.879274517749540
 21
-140.348114450467390
  0
ARC
  8
0
  6
CONTINUOUS
 62
3
 10
-312.129274517749540
 20
-141.647152556144190
 40
1.499999999999948
 50
22.819244218550043
 51
119.999999999997270
  0
ARC
  8
0
  6
CONTINUOUS
 62
3
 10
-314.750042759818370
 20
-143.160253806186120
 40
1.499999999999926
 50
120.000000000001620
 51
202.071858233797370
  0
ARC
  8
0
  6
CONTINUOUS
 62
3
 10
-341.624728687483870
 20
-154.057558807393430
 40
27.499999999999886
 50
337.928141766202200
 51
22.071858233797812
  0
ARC
  8
0
  6
CONTINUOUS
 62
3
 10
-341.624728687484550
 20
-154.057558807393890
 40
33.500000000000128
 50
337.180755781459030
 51
22.819244218541968
  0
ARC
  8
0
  6
CONTINUOUS
 62
3
 10
-314.750042759818600
 20
-164.954863808600750
 40
1.499999999999899
 50
157.928141766199360
 51
240.000000000007050
  0
LINE
  8
0
  6
CONTINUOUS
 62
3
 10
-312.879274517749310
 20
-167.767003164319700
 11
-315.500042759818600
 21
-166.253901914277780
  0
ARC
  8
0
  6
CONTINUOUS
 62
3
 10
-312.129274517749310
 20
-166.467965058643130
 40
1.499999999999926
 50
239.999999999998410
 51
337.180755781453340
  0
ARC
  8
0
  6
CONTINUOUS
 62
3
 10
-337.624728687484090
 20
-195.364337912038540
 40
1.500000000000000
 50
180.000000000000000
 51
275.531071524831360
  0
LINE
  8
0
  6
CONTINUOUS
 62
3
 10
-339.124728687484090
 20
-192.349202804484320
 11
-339.124728687484090
 21
-195.364337912038540
  0
LINE
  8
0
  6
CONTINUOUS
 62
3
 10
-339.124728687484090
 20
-182.780372040083880
 11
-339.124728687484090
 21
-185.806574540168190
  0
ARC
  8
0
  6
CONTINUOUS
 62
3
 10
-337.624728687484090
 20
-192.349202804484780
 40
1.500000000000182
 50
95.963570118326047
 51
179.999999999982630
  0
ARC
  8
0
  6
CONTINUOUS
 62
3
 10
-337.624728687484090
 20
-185.806574540168190
 40
1.500000000000000
 50
180.000000000000000
 51
277.180755781458290
  0
ARC
  8
0
  6
CONTINUOUS
 62
3
 10
-337.624728687484090
 20
-182.780372040083880
 40
1.499999999999967
 50
97.928141766195438
 51
180.000000000000000
  0
ARC
  8
0
  6
CONTINUOUS
 62
3
 10
-341.624728687484090
 20
-154.057558807393890
 40
27.499999999999879
 50
277.928141766202600
 51
322.071858233798930
  0
ARC
  8
0
  6
CONTINUOUS
 62
3
 10
-341.624728687484090
 20
-154.057558807392980
 40
37.000000000000028
 50
275.963570118320770
 51
324.036429881678030
  0
ARC
  8
0
  6
CONTINUOUS
 62
3
 10
-341.624728687484090
 20
-154.057558807392980
 40
43.000000000000199
 50
275.531071524838860
 51
324.468928475160340
  0
ARC
  8
0
  6
CONTINUOUS
 62
3
 10
-341.624728687484090
 20
-154.057558807392980
 40
33.500000000000114
 50
277.180755781458230
 51
322.819244218540860
  0
ARC
  8
0
  6
CONTINUOUS
 62
3
 10
-318.750042759818600
 20
-171.883067038876560
 40
1.500000000000320
 50
60.000000000007070
 51
142.071858233781280
  0
ARC
  8
0
  6
CONTINUOUS
 62
3
 10
-310.463192233333070
 20
-176.667482421076780
 40
1.499999999999926
 50
59.999999999998380
 51
144.036429881690740
  0
LINE
  8
0
  6
CONTINUOUS
 62
3
 10
-315.379274517749310
 20
-172.097130183241920
 11
-318.000042759818600
 21
-170.584028933199530
  0
ARC
  8
0
  6
CONTINUOUS
 62
3
 10
-316.129274517749310
 20
-173.396168288918490
 40
1.500000000000240
 50
322.819244218535570
 51
59.999999999998380
  0
ARC
  8
0
  6
CONTINUOUS
 62
3
 10
-345.624728687484550
 20
-195.364337912038540
 40
1.500000000000430
 50
264.468928475160000
 51
0.000000000000000
  0
LINE
  8
0
  6
CONTINUOUS
 62
3
 10
-344.124728687484550
 20
-192.349202804484320
 11
-344.124728687484550
 21
-195.364337912038540
  0
LINE
  8
0
  6
CONTINUOUS
 62
3
 10
-344.124728687484550
 20
-182.780372040083880
 11
-344.124728687484550
 21
-185.806574540168190
  0
ARC
  8
0
  6
CONTINUOUS
 62
3
 10
-345.624728687484550
 20
-192.349202804484780
 40
1.500000000000000
 50
0.000000000017370
 51
84.036429881682594
  0
ARC
  8
0
  6
CONTINUOUS
 62
3
 10
-345.624728687484550
 20
-185.806574540168190
 40
1.499999999999998
 50
262.819244218541710
 51
0.000000000000000
  0
ARC
  8
0
  6
CONTINUOUS
 62
3
 10
-345.624728687484550
 20
-182.780372040083880
 40
1.500000000000000
 50
0.000000000000000
 51
82.071858233804562
  0
ARC
  8
0
  6
CONTINUOUS
 62
3
 10
-341.624728687484550
 20
-154.057558807393890
 40
27.499999999999780
 50
217.928141766201070
 51
262.071858233797400
  0
ARC
  8
0
  6
CONTINUOUS
 62
3
 10
-341.624728687484550
 20
-154.057558807392980
 40
37.000000000000021
 50
215.963570118321970
 51
264.036429881678940
  0
ARC
  8
0
  6
CONTINUOUS
 62
3
 10
-341.624728687484550
 20
-154.057558807392980
 40
42.999999999999858
 50
215.531071524839690
 51
264.468928475160850
  0
ARC
  8
0
  6
CONTINUOUS
 62
3
 10
-341.624728687484550
 20
-154.057558807392980
 40
33.500000000000163
 50
217.180755781459110
 51
262.819244218541770
  0
ARC
  8
0
  6
CONTINUOUS
 62
3
 10
-364.499414615150040
 20
-171.883067038876560
 40
1.500000000000122
 50
37.928141766218701
 51
119.999999999992930
  0
ARC
  8
0
  6
CONTINUOUS
 62
3
 10
-375.397448740619670
 20
-178.175049974854120
 40
1.499999999999926
 50
120.000000000001620
 51
215.531071524832130
  0
LINE
  8
0
  6
CONTINUOUS
 62
3
 10
-376.147448740619670
 20
-176.876011869177550
 11
-373.536265141635570
 21
-175.368444315400210
  0
ARC
  8
0
  6
CONTINUOUS
 62
3
 10
-372.786265141635570
 20
-176.667482421076780
 40
1.499999999999968
 50
35.963570118309242
 51
120.000000000001620
  0
LINE
  8
0
  6
CONTINUOUS
 62
3
 10
-367.870182857219330
 20
-172.097130183241920
 11
-365.249414615150040
 21
-170.584028933199530
  0
ARC
  8
0
  6
CONTINUOUS
 62
3
 10
-367.120182857219330
 20
-173.396168288918490
 40
1.499999999999926
 50
120.000000000001620
 51
217.180755781464400
  0
ARC
  8
0
  6
CONTINUOUS
 62
3
 10
-379.397448740619670
 20
-136.868270870208790
 40
1.499999999999926
 50
59.999999999998380
 51
155.531071524840400
  0
LINE
  8
0
  6
CONTINUOUS
 62
3
 10
-376.036265141635110
 20
-137.076800318309320
 11
-378.647448740619670
 21
-135.569232764532220
  0
LINE
  8
0
  6
CONTINUOUS
 62
3
 10
-367.749414615150270
 20
-141.861215700509550
 11
-370.370182857219110
 21
-140.348114450467390
  0
ARC
  8
0
  6
CONTINUOUS
 62
3
 10
-376.786265141635340
 20
-138.375838423985900
 40
1.499999999999855
 50
335.963570118319300
 51
59.999999999990862
  0
ARC
  8
0
  6
CONTINUOUS
 62
3
 10
-371.120182857219110
 20
-141.647152556144190
 40
1.500000000000123
 50
60.000000000002721
 51
157.180755781457980
  0
ARC
  8
0
  6
CONTINUOUS
 62
3
 10
-368.499414615150270
 20
-143.160253806186120
 40
1.500000000000110
 50
337.928141766202600
 51
59.999999999998380
  0
ARC
  8
0
  6
CONTINUOUS
 62
3
 10
-341.624728687484780
 20
-154.057558807393430
 40
27.499999999999886
 50
157.928141766202200
 51
202.071858233798680
  0
ARC
  8
0
  6
CONTINUOUS
 62
3
 10
-341.624728687484090
 20
-154.057558807393890
 40
37.000000000000156
 50
155.963570118321120
 51
204.036429881678230
  0
ARC
  8
0
  6
CONTINUOUS
 62
3
 10
-341.624728687484090
 20
-154.057558807393890
 40
43.000000000000121
 50
155.531071524839230
 51
204.468928475160200
  0
ARC
  8
0
  6
CONTINUOUS
 62
3
 10
-341.624728687484090
 20
-154.057558807393890
 40
33.499999999999794
 50
157.180755781458400
 51
202.819244218540940
  0
ARC
  8
0
  6
CONTINUOUS
 62
3
 10
-368.499414615150040
 20
-164.954863808600750
 40
1.500000000000320
 50
299.999999999992950
 51
22.071858233784546
  0
ARC
  8
0
  6
CONTINUOUS
 62
3
 10
-379.397448740619670
 20
-171.246846744578310
 40
1.500000000000128
 50
204.468928475167470
 51
299.999999999992950
  0
LINE
  8
0
  6
CONTINUOUS
 62
3
 10
-378.647448740619670
 20
-172.545884850255330
 11
-376.036265141635570
 21
-171.038317296478000
  0
ARC
  8
0
  6
CONTINUOUS
 62
3
 10
-376.786265141635570
 20
-169.739279190801430
 40
1.499999999999926
 50
300.000000000001590
 51
24.036429881677126
  0
LINE
  8
0
  6
CONTINUOUS
 62
3
 10
-370.370182857219330
 20
-167.767003164319700
 11
-367.749414615150040
 21
-166.253901914277780
  0
ARC
  8
0
  6
CONTINUOUS
 62
3
 10
-371.120182857219330
 20
-166.467965058643130
 40
1.500000000000157
 50
202.819244218546660
 51
300.000000000001590
  0
ARC
  8
0
  6
CONTINUOUS
 62
3
 10
-375.397448740619210
 20
-129.940067639932750
 40
1.499999999999976
 50
144.468928475160790
 51
240.000000000002730
  0
LINE
  8
0
  6
CONTINUOUS
 62
3
 10
-373.536265141635110
 20
-132.746673299386660
 11
-376.147448740619210
 21
-131.239105745609550
  0
LINE
  8
0
  6
CONTINUOUS
 62
3
 10
-365.249414615150040
 20
-137.531088681586880
 11
-367.870182857218880
 21
-136.017987431544730
  0
ARC
  8
0
  6
CONTINUOUS
 62
3
 10
-372.786265141635110
 20
-131.447635193709860
 40
1.500000000000123
 50
240.000000000002730
 51
324.036429881683720
  0
ARC
  8
0
  6
CONTINUOUS
 62
3
 10
-367.120182857218880
 20
-134.718949325868150
 40
1.500000000000103
 50
142.819244218542510
 51
239.999999999998410
  0
ARC
  8
0
  6
CONTINUOUS
 62
3
 10
-364.499414615150040
 20
-136.232050575910310
 40
1.499999999999926
 50
239.999999999998410
 51
322.071858233800300
  0
ARC
  8
0
  6
CONTINUOUS
 62
3
 10
-341.624728687483870
 20
-154.057558807393430
 40
37.000000000000099
 50
95.963570118321798
 51
144.036429881678830
  0
ARC
  8
0
  6
CONTINUOUS
 62
3
 10
-341.624728687483870
 20
-154.057558807393430
 40
43.000000000000043
 50
95.531071524839788
 51
144.468928475160770
  0
ARC
  8
0
  6
CONTINUOUS
 62
3
 10
-341.624728687483870
 20
-154.057558807393430
 40
33.499999999999950
 50
97.180755781459069
 51
142.819244218541740
  0
ARC
  8
0
  6
CONTINUOUS
 62
3
 10
-345.624728687484320
 20
-125.334745574702990
 40
1.499999999999998
 50
277.928141766204020
 51
0.000000000000000
  0
ARC
  8
0
  6
CONTINUOUS
 62
3
 10
-385.573316117766810
 20
-103.960944339865130
 40
6.599999999999971
 50
98.597082237248614
 51
134.999999999998610
  0
ARC
  8
0
  6
CONTINUOUS
 62
4
 10
-380.566246642866420
 20
-113.948781266806690
 40
5.999999999999923
 50
97.897988672425626
 51
134.999999999996930
  0
ARC
  8
0
  6
CONTINUOUS
 62
4
 10
-341.624728687484320
 20
-394.657558807393340
 40
289.396999999999930
 50
90.000000000000000
 51
97.897988672427743
  0
ARC
  8
0
  6
CONTINUOUS
 62
3
 10
-424.924728687484280
 20
-128.100058807393450
 40
18.799999999999955
 50
0.000000000000000
 51
79.401214733933941
  0
ARC
  8
0
  6
CONTINUOUS
 62
3
 10
-421.098974053397340
 20
-107.654922430255730
 40
1.999999999999927
 50
177.137594773887290
 51
259.401214733934010
  0
ARC
  8
0
  6
CONTINUOUS
 62
3
 10
-426.691987151113150
 20
-107.375271775369920
 40
1.999999999999928
 50
274.873974813840960
 51
357.137594773887320
  0
LINE
  8
0
  6
CONTINUOUS
 62
3
 10
-423.426600179167510
 20
-98.137488641058212
 11
-428.520237107444470
 21
-200.010227206598300
  0
LINE
  8
0
  6
CONTINUOUS
 62
3
 10
-447.620988039105210
 20
-166.025245839812440
 11
-443.630963101449200
 21
-126.224747086695170
  0
ARC
  8
0
  6
CONTINUOUS
 62
3
 10
-424.924728687484280
 20
-128.100058807393450
 40
18.800000000000036
 50
94.873974813842736
 51
144.191373186504250
  0
ARC
  8
0
  6
CONTINUOUS
 62
3
 10
-424.924728687484280
 20
-128.100058807393450
 40
18.799999999999933
 50
144.191373186504250
 51
174.275189547776390
  0
LINE
  8
0
  6
CONTINUOUS
 62
3
 10
-424.225602050269800
 20
-98.097538547503063
 11
-422.627598308065220
 21
-98.177438734613247
  0
ARC
  8
0
  6
CONTINUOUS
 62
3
 10
-418.083275547164250
 20
-103.410900971283350
 40
9.000000000000060
 50
160.536063666407810
 51
193.739143184213500
  0
POINT
  8
0
  6
CONTINUOUS
 62
3
 10
-424.475290134988650
 20
-103.091300241892100
  0
LINE
  8
0
  6
CONTINUOUS
 62
3
 10
-424.300508475685090
 20
-99.595667055819717
 11
-424.650071794292220
 21
-106.586933427964590
  0
LINE
  8
0
  6
CONTINUOUS
 62
3
 10
-424.300508475685090
 20
-99.595667055819717
 11
-424.650071794292220
 21
-106.586933427964590
  0
LINE
  8
0
  6
CONTINUOUS
 62
3
 10
-424.650071794292220
 20
-106.586933427964590
 11
-425.627875606799990
 21
-106.538043237339250
  0
LINE
  8
0
  6
CONTINUOUS
 62
3
 10
-424.300508475685090
 20
-99.595667055819717
 11
-425.278312288192640
 21
-99.546776865194374
  0
ARC
  8
0
  6
CONTINUOUS
 62
3
 10
-425.562956742872300
 20
-105.239665958785620
 40
1.299999237060493
 50
193.739143184211430
 51
267.137612759980240
  0
ARC
  8
0
  6
CONTINUOUS
 62
3
 10
-425.343231152120320
 20
-100.845154143747890
 40
1.299999237060474
 50
87.137594090651831
 51
160.536063666412870
  0
LINE
  8
0
  6
CONTINUOUS
 62
3
 10
-424.225602050269800
 20
-98.097538547503063
 11
-429.319238978546760
 21
-199.970277113043040
  0
LINE
  8
0
  6
CONTINUOUS
 62
3
 10
-422.627598308065220
 20
-98.177438734613247
 11
-427.721235236342180
 21
-200.050177300154020
  0
ARC
  8
0
  6
CONTINUOUS
 62
3
 10
-426.924728687484280
 20
-168.100058807393450
 40
20.800000000000082
 50
274.191726156007460
 51
354.952683218987540
  0
ARC
  8
0
  6
CONTINUOUS
 62
3
 10
-426.924728687484280
 20
-168.100058807393450
 40
20.799999999999986
 50
174.275189547776620
 51
205.640070215894870
  0
ARC
  8
0
  6
CONTINUOUS
 62
3
 10
-426.924728687484280
 20
-168.100058807393450
 40
20.799999999999926
 50
205.640070215894870
 51
260.083463391769440
  0
ARC
  8
0
  6
CONTINUOUS
 62
3
 10
-426.924728687484280
 20
-168.100058807393450
 40
20.799999999999986
 50
174.275189547776620
 51
205.640070215894870
  0
ARC
  8
0
  6
CONTINUOUS
 62
3
 10
-425.258181421100740
 20
-190.839069784322760
 40
1.999999999999962
 50
94.191726156001650
 51
177.137594773887290
  0
ARC
  8
0
  6
CONTINUOUS
 62
3
 10
-430.851194518816560
 20
-190.559419129436950
 40
2.000000000000154
 50
357.137594773887600
 51
80.083463391767268
  0
LINE
  8
0
  6
CONTINUOUS
 62
3
 10
-427.721235236342180
 20
-200.050177300154020
 11
-429.319238978546760
 21
-199.970277113043040
  0
LINE
  8
0
  6
CONTINUOUS
 62
3
 10
-406.124728687484320
 20
-136.726950047168030
 11
-406.124728687484320
 21
-128.100058807393450
  0
CIRCLE
  8
0
  6
CONTINUOUS
 62
3
 10
-258.356678871595020
 20
-211.142605596813150
 40
6.000000000000000
  0
ARC
  8
0
  6
DASHDOT
 62
4
 10
-341.441725661014290
 20
-128.057558807393430
 40
117.499999999999500
 50
309.635821825515960
 51
320.364178174483360
  0
ARC
  8
0
  6
DASHDOT
 62
4
 10
-341.441725661014290
 20
-128.057558807393430
 40
117.499999999999870
 50
219.132561753867150
 51
230.364178174484010
  0
LINE
  8
0
  6
DASHDOT
 62
4
 10
-415.958035823855430
 20
-202.573868970235030
 11
-432.304947043485070
 21
-218.920780189864670
  0
ARC
  8
0
  6
DASHDOT
 62
4
 10
-341.441725661014290
 20
-128.057558807393430
 40
117.499999999999780
 50
129.635821825516160
 51
140.364178174483360
  0
LINE
  8
0
  6
DASHDOT
 62
4
 10
-416.148744978395370
 20
-53.350539490011954
 11
-432.504734240496870
 21
-36.994550227910395
  0
LINE
  8
0
  6
DASHDOT
 62
4
 10
-267.261876581337900
 20
-53.877709727716990
 11
-250.578504278543050
 21
-37.194337424922196
  0
ARC
  8
0
  6
DASHDOT
 62
4
 10
-341.441725661014290
 20
-128.057558807393430
 40
117.499999999999840
 50
39.722139981755809
 51
50.364178174483833
  0
LINE
  8
0
  6
DASHDOT
 62
4
 10
-266.532289559959960
 20
-203.149997934918760
 11
-250.843109337627540
 21
-218.839178157251520
  0
LINE
  8
0
  6
DASHDOT
 62
4
 10
-231.381810106724740
 20
-154.057558807393430
 11
-461.025527562966320
 21
-154.057558807393430
  0
LINE
  8
0
  6
DASHDOT
 62
4
 10
-341.624728687484320
 20
-16.248754695907564
 11
-341.624728687484320
 21
-243.944160882054580
  0
LINE
  8
0
  6
CONTINUOUS
 62
3
 10
-246.624728687484320
 20
-43.057558807393661
 11
-246.624728687484320
 21
-120.244101876718100
  0
LINE
  8
0
  6
CONTINUOUS
 62
3
 10
-246.624728687484320
 20
-187.871015738068680
 11
-246.624728687484320
 21
-213.057558807393660
  0
LINE
  8
0
  6
CONTINUOUS
 62
3
 10
-286.611821246040900
 20
-105.691454839363700
 11
-286.125017854335280
 21
-105.204651447658080
  0
LINE
  8
0
  6
CONTINUOUS
 62
3
 10
-293.258624719454590
 20
-99.044651365950017
 11
-292.771821327748970
 21
-98.557847974244396
  0
LINE
  8
0
  6
CONTINUOUS
 62
3
 10
-286.298682637072150
 20
-105.438907888513310
 11
-292.975781939545070
 21
-98.761808586040445
  0
LINE
  8
0
  6
CONTINUOUS
 62
3
 10
-286.611821246040900
 20
-105.691454839363700
 11
-293.258624719454590
 21
-99.044651365950017
  0
POINT
  8
0
  6
CONTINUOUS
 62
3
 10
-289.935222982747750
 20
-102.368053102656850
  0
ARC
  8
0
  6
CONTINUOUS
 62
3
 10
-292.197964547674810
 20
-104.630794667583920
 40
6.099999427795395
 50
354.601910595265110
 51
95.398072101890406
  0
LINE
  8
0
  6
CONTINUOUS
 62
3
 10
-396.637636128927740
 20
-105.691454839363700
 11
-397.124439520633360
 21
-105.204651447658080
  0
LINE
  8
0
  6
CONTINUOUS
 62
3
 10
-389.990832655514050
 20
-99.044651365950017
 11
-390.477636047219680
 21
-98.557847974244396
  0
LINE
  8
0
  6
CONTINUOUS
 62
3
 10
-396.950774737896610
 20
-105.438907888513310
 11
-390.273675435423680
 21
-98.761808586040445
  0
LINE
  8
0
  6
CONTINUOUS
 62
3
 10
-396.637636128927740
 20
-105.691454839363700
 11
-389.990832655514050
 21
-99.044651365950017
  0
POINT
  8
0
  6
CONTINUOUS
 62
3
 10
-393.314234392220900
 20
-102.368053102656850
  0
ARC
  8
0
  6
CONTINUOUS
 62
3
 10
-391.051492827293940
 20
-104.630794667583920
 40
6.099999427795462
 50
84.601927898108528
 51
185.398089404734830
  0
LINE
  8
0
  6
CONTINUOUS
 62
3
 10
-396.637636128927740
 20
-202.423662775423370
 11
-397.124439520633360
 21
-202.910466167128990
  0
LINE
  8
0
  6
CONTINUOUS
 62
3
 10
-389.990832655514050
 20
-209.070466248837110
 11
-390.477636047219680
 21
-209.557269640542700
  0
LINE
  8
0
  6
CONTINUOUS
 62
3
 10
-396.950774737896610
 20
-202.676209726273750
 11
-390.273675435423680
 21
-209.353309028746680
  0
LINE
  8
0
  6
CONTINUOUS
 62
3
 10
-396.637636128927740
 20
-202.423662775423370
 11
-389.990832655514050
 21
-209.070466248837110
  0
POINT
  8
0
  6
CONTINUOUS
 62
3
 10
-393.314234392220900
 20
-205.747064512130240
  0
ARC
  8
0
  6
CONTINUOUS
 62
3
 10
-391.051492827293940
 20
-203.484322947203200
 40
6.099999427795398
 50
174.601910595264880
 51
275.398072101891500
  0
LINE
  8
0
  6
CONTINUOUS
 62
3
 10
-286.611821246040900
 20
-202.423662775423370
 11
-286.125017854335280
 21
-202.910466167128990
  0
LINE
  8
0
  6
CONTINUOUS
 62
3
 10
-293.258624719454590
 20
-209.070466248837110
 11
-292.771821327748970
 21
-209.557269640542700
  0
LINE
  8
0
  6
CONTINUOUS
 62
3
 10
-286.298682637072150
 20
-202.676209726273750
 11
-292.975781939545070
 21
-209.353309028746680
  0
POINT
  8
0
  6
CONTINUOUS
 62
3
 10
-289.935222982747750
 20
-205.747064512130240
  0
ARC
  8
0
  6
CONTINUOUS
 62
3
 10
-292.197964547674810
 20
-203.484322947203200
 40
6.099999427795394
 50
264.601927898109520
 51
5.398089404735109
  0
LINE
  8
0
  6
CONTINUOUS
 62
3
 10
-286.708828101423590
 20
-101.970085346079420
 11
-283.995526020780400
 21
-99.256783265436297
  0
LINE
  8
0
  6
CONTINUOUS
 62
3
 10
-289.537255226169580
 20
-99.141658221333046
 11
-286.823953145526620
 21
-96.428356140690084
  0
LINE
  8
0
  6
CONTINUOUS
 62
3
 10
-297.124729335540220
 20
-89.500932782069412
 11
-299.624733685046750
 21
-90.944306358765289
  0
LINE
  8
0
  6
CONTINUOUS
 62
3
 10
-299.624723905047630
 20
-85.170810547180054
 11
-302.124728633094490
 21
-86.614181582273204
  0
LINE
  8
0
  6
CONTINUOUS
 62
3
 10
-299.624734199609750
 20
-90.944305745115514
 11
-302.124726504653380
 21
-89.500930398371395
  0
LINE
  8
0
  6
CONTINUOUS
 62
3
 10
-299.624723966277090
 20
-85.170810067037337
 11
-297.124730181485800
 21
-86.614186711584807
  0
LINE
  8
0
  6
CONTINUOUS
 62
3
 10
-297.124731071669430
 20
-86.614187162394387
 11
-297.124730117995110
 21
-89.500932615275246
  0
LINE
  8
0
  6
CONTINUOUS
 62
3
 10
-302.124726303299780
 20
-89.500930452391344
 11
-302.124727256974100
 21
-86.614181184813219
  0
CIRCLE
  8
0
  6
CONTINUOUS
 62
3
 10
-299.624728687484320
 20
-88.057558807393434
 40
5.000000000000000
  0
LINE
  8
0
  6
CONTINUOUS
 62
3
 10
-386.124728039428420
 20
-89.500932782069412
 11
-383.624723689921890
 21
-90.944306358765289
  0
LINE
  8
0
  6
CONTINUOUS
 62
3
 10
-383.624733469921010
 20
-85.170810547180054
 11
-381.124728741874150
 21
-86.614181582273204
  0
LINE
  8
0
  6
CONTINUOUS
 62
3
 10
-383.624723175358890
 20
-90.944305745115514
 11
-381.124730870315260
 21
-89.500930398371395
  0
LINE
  8
0
  6
CONTINUOUS
 62
3
 10
-383.624733408691550
 20
-85.170810067037337
 11
-386.124727193482840
 21
-86.614186711584807
  0
LINE
  8
0
  6
CONTINUOUS
 62
3
 10
-386.124726303299210
 20
-86.614187162394387
 11
-386.124727256973530
 21
-89.500932615275246
  0
LINE
  8
0
  6
CONTINUOUS
 62
3
 10
-381.124731071668750
 20
-89.500930452391344
 11
-381.124730117994550
 21
-86.614181184813219
  0
CIRCLE
  8
0
  6
CONTINUOUS
 62
3
 10
-383.624728687484320
 20
-88.057558807393434
 40
5.000000000000000
  0
LINE
  8
0
  6
CONTINUOUS
 62
3
 10
-387.124728039428420
 20
-227.000932782069410
 11
-384.624723689921890
 21
-228.444306358765290
  0
LINE
  8
0
  6
CONTINUOUS
 62
3
 10
-384.624733469921010
 20
-222.670810547180050
 11
-382.124728741874150
 21
-224.114181582273200
  0
LINE
  8
0
  6
CONTINUOUS
 62
3
 10
-384.624723175358890
 20
-228.444305745115510
 11
-382.124730870315260
 21
-227.000930398371390
  0
LINE
  8
0
  6
CONTINUOUS
 62
3
 10
-384.624733408691550
 20
-222.670810067037340
 11
-387.124727193482840
 21
-224.114186711584810
  0
LINE
  8
0
  6
CONTINUOUS
 62
3
 10
-387.124726303299210
 20
-224.114187162394390
 11
-387.124727256973530
 21
-227.000932615275250
  0
LINE
  8
0
  6
CONTINUOUS
 62
3
 10
-382.124731071668750
 20
-227.000930452391340
 11
-382.124730117994550
 21
-224.114181184813220
  0
CIRCLE
  8
0
  6
CONTINUOUS
 62
3
 10
-384.624728687484320
 20
-225.557558807393430
 40
5.000000000000000
  0
LINE
  8
0
  6
CONTINUOUS
 62
3
 10
-296.124729335540220
 20
-227.000932782069410
 11
-298.624733685046750
 21
-228.444306358765290
  0
LINE
  8
0
  6
CONTINUOUS
 62
3
 10
-298.624723905047630
 20
-222.670810547180050
 11
-301.124728633094490
 21
-224.114181582273200
  0
LINE
  8
0
  6
CONTINUOUS
 62
3
 10
-298.624734199609750
 20
-228.444305745115510
 11
-301.124726504653380
 21
-227.000930398371390
  0
LINE
  8
0
  6
CONTINUOUS
 62
3
 10
-298.624723966277090
 20
-222.670810067037340
 11
-296.124730181485800
 21
-224.114186711584810
  0
LINE
  8
0
  6
CONTINUOUS
 62
3
 10
-296.124731071669430
 20
-224.114187162394390
 11
-296.124730117995110
 21
-227.000932615275250
  0
LINE
  8
0
  6
CONTINUOUS
 62
3
 10
-301.124726303299780
 20
-227.000930452391340
 11
-301.124727256974100
 21
-224.114181184813220
  0
CIRCLE
  8
0
  6
CONTINUOUS
 62
3
 10
-298.624728687484320
 20
-225.557558807393430
 40
5.000000000000000
  0
LINE
  8
0
  6
CONTINUOUS
 62
3
 10
-393.712202148799070
 20
-99.141658221333046
 11
-396.425504229442030
 21
-96.428356140690084
  0
LINE
  8
0
  6
CONTINUOUS
 62
3
 10
-396.540629273545160
 20
-101.970085346079370
 11
-399.253931354188240
 21
-99.256783265436297
  0
ARC
  8
0
  6
CONTINUOUS
 62
3
 10
-411.624728687484320
 20
-135.057558807393430
 40
8.000000000000187
 50
41.576902883207040
 51
46.567463442210077
  0
LINE
  8
0
  6
CONTINUOUS
 62
3
 10
-396.540629273545160
 20
-206.145032268707550
 11
-399.253931354188240
 21
-208.858334349350570
  0
LINE
  8
0
  6
CONTINUOUS
 62
3
 10
-393.712202148799290
 20
-208.973459393453960
 11
-396.425504229442030
 21
-211.686761474096780
  0
ARC
  8
0
  6
CONTINUOUS
 62
3
 10
-372.624728687484320
 20
-226.057558807393430
 40
4.999999999999968
 50
176.435775671096420
 51
270.000000000000000
  0
ARC
  8
0
  6
CONTINUOUS
 62
3
 10
-384.624728687484320
 20
-225.557558807393430
 40
7.000000000000038
 50
358.216091176241090
 51
118.736037863439060
  0
LINE
  8
0
  6
CONTINUOUS
 62
3
 10
-390.434203706795470
 20
-231.057558807393430
 11
-341.624728687484320
 21
-231.057558807393430
  0
LINE
  8
0
  6
CONTINUOUS
 62
3
 10
-289.537255226169350
 20
-208.973459393453960
 11
-286.823953145526620
 21
-211.686761474096780
  0
LINE
  8
0
  6
CONTINUOUS
 62
3
 10
-286.708828101423480
 20
-206.145032268707500
 11
-283.995526020780400
 21
-208.858334349350570
  0
LINE
  8
0
  6
CONTINUOUS
 62
3
 10
-286.611821246040900
 20
-202.423662775423370
 11
-293.258624719454590
 21
-209.070466248837110
  0
ARC
  8
0
  6
CONTINUOUS
 62
3
 10
-310.624728687484320
 20
-226.057558807393430
 40
5.000000000000000
 50
270.000000000000000
 51
2.872856256157267
  0
ARC
  8
0
  6
CONTINUOUS
 62
3
 10
-298.624728687484320
 20
-225.557558807393430
 40
6.999999999999920
 50
61.263962136560927
 51
182.344160887330280
  0
LINE
  8
0
  6
CONTINUOUS
 62
3
 10
-292.815253668173170
 20
-231.057558807393430
 11
-341.624728687484320
 21
-231.057558807393430
  0
LINE
  8
0
  6
CONTINUOUS
 62
3
 10
-436.624728687484430
 20
-43.057558807393434
 11
-436.624728687484430
 21
-113.384420866753650
  0
LINE
  8
0
  6
CONTINUOUS
 62
3
 10
-436.624728687484430
 20
-186.499787066256320
 11
-436.624728687484430
 21
-213.057558807393430
  0
LINE
  8
0
  6
CONTINUOUS
 62
3
 10
157.748257380551190
 20
74.217745361262132
 11
142.670563345499660
 21
74.217745361262132
  0
ARC
  8
0
  6
CONTINUOUS
 62
3
 10
157.268450105960480
 20
49.772783176917983
 40
3.000000000000000
 50
0.000000000000000
 51
48.254159514985268
  0
LINE
  8
0
  6
CONTINUOUS
 62
3
 10
140.589645718432390
 20
68.677887910993377
 11
159.265932613599030
 21
52.011100319702564
  0
ARC
  8
0
  6
CONTINUOUS
 62
3
 10
138.592163210794070
 20
66.439570768209705
 40
3.000000000000058
 50
48.254159514976941
 51
90.000000000000000
  0
ARC
  8
0
  6
CONTINUOUS
 62
3
 10
157.268450105960480
 20
54.550957769970410
 40
3.000000000000000
 50
0.000000000000000
 51
48.254159514985268
  0
LINE
  8
0
  6
CONTINUOUS
 62
3
 10
140.589645718432390
 20
73.456062504045804
 11
159.265932613599030
 21
56.789274912754991
  0
ARC
  8
0
  6
CONTINUOUS
 62
3
 10
138.592163210794070
 20
71.217745361262132
 40
3.000000000000058
 50
48.254159514976941
 51
90.000000000000000
  0
LINE
  8
0
  6
CONTINUOUS
 62
3
 10
157.748257380551190
 20
162.365443057744410
 11
142.670563345499660
 21
162.365443057744410
  0
ARC
  8
0
  6
CONTINUOUS
 62
3
 10
157.268450105960480
 20
186.810405242088560
 40
3.000000000000888
 50
311.745840485014750
 51
0.000000000000000
  0
LINE
  8
0
  6
CONTINUOUS
 62
3
 10
140.589645718432390
 20
167.905300508013170
 11
159.265932613599030
 21
184.572088099303980
  0
ARC
  8
0
  6
CONTINUOUS
 62
3
 10
138.592163210794070
 20
170.143617650796840
 40
3.000000000000000
 50
270.000000000000000
 51
311.745840485023050
  0
ARC
  8
0
  6
CONTINUOUS
 62
3
 10
157.268450105960480
 20
182.032230649036140
 40
3.000000000000888
 50
311.745840485014750
 51
0.000000000000000
  0
LINE
  8
0
  6
CONTINUOUS
 62
3
 10
140.589645718432390
 20
163.127125914960740
 11
159.265932613599030
 21
179.793913506251560
  0
ARC
  8
0
  6
CONTINUOUS
 62
3
 10
138.592163210794070
 20
165.365443057744410
 40
3.000000000000000
 50
270.000000000000000
 51
311.745840485023050
  0
ARC
  8
0
  6
CONTINUOUS
 62
3
 10
142.736127457245170
 20
112.791594209504180
 40
3.000000000000000
 50
90.000000000000000
 51
180.000000000000000
  0
LINE
  8
0
  6
CONTINUOUS
 62
3
 10
142.736127457245170
 20
115.791594209504180
 11
157.268450105960480
 21
115.791594209504180
  0
ARC
  8
0
  6
CONTINUOUS
 62
3
 10
157.268450105960480
 20
112.791594209504180
 40
3.000000000000000
 50
0.000000000000000
 51
90.000000000000000
  0
ARC
  8
0
  6
CONTINUOUS
 62
3
 10
142.736127457245170
 20
123.791594209504180
 40
3.000000000000000
 50
180.000000000000000
 51
270.000000000000000
  0
LINE
  8
0
  6
CONTINUOUS
 62
3
 10
142.736127457245170
 20
120.791594209504180
 11
157.268450105960480
 21
120.791594209504180
  0
ARC
  8
0
  6
CONTINUOUS
 62
3
 10
157.268450105960480
 20
123.791594209504180
 40
3.000000000000000
 50
270.000000000000000
 51
0.000000000000000
  0
LINE
  8
0
  6
CONTINUOUS
 62
3
 10
165.268450105960480
 20
45.090584082726309
 11
165.268450105960480
 21
118.291594209503270
  0
LINE
  8
0
  6
CONTINUOUS
 62
3
 10
165.268450105960480
 20
191.492604336280240
 11
165.268450105960480
 21
118.291594209503270
  0
LINE
  8
0
  6
CONTINUOUS
 62
3
 10
85.268450105960483
 20
38.791594209502364
 11
85.268450105960483
 21
197.791594209503270
  0
ARC
  8
0
  6
CONTINUOUS
 62
3
 10
157.268450105960480
 20
33.275470173200119
 40
3.000000000000000
 50
0.000000000000000
 51
88.000000000000995
  0
LINE
  8
0
  6
CONTINUOUS
 62
3
 10
85.268450105960483
 20
38.791594209503273
 11
157.373148596067950
 21
36.273642654257856
  0
ARC
  8
0
  6
CONTINUOUS
 62
3
 10
157.268450105960480
 20
203.307718245806430
 40
3.000000000000447
 50
271.999999999999030
 51
0.000000000000000
  0
LINE
  8
0
  6
CONTINUOUS
 62
3
 10
85.268450105960483
 20
197.791594209503270
 11
157.373148596067950
 21
200.309545764748690
  0
LINE
  8
0
  6
CONTINUOUS
 62
3
 10
172.268450105960480
 20
66.758198932484447
 11
167.268450105960480
 21
66.758198932484447
  0
LINE
  8
0
  6
CONTINUOUS
 62
3
 10
172.268450105960480
 20
43.090584082726309
 11
167.268450105960480
 21
43.090584082726309
  0
ARC
  8
0
  6
CONTINUOUS
 62
3
 10
167.268450105960480
 20
45.090584082726309
 40
2.000000000000000
 50
180.000000000000000
 51
270.000000000000000
  0
ARC
  8
0
  6
CONTINUOUS
 62
3
 10
167.268450105960480
 20
68.758198932484447
 40
2.000000000000000
 50
180.000000000000000
 51
270.000000000000000
  0
LINE
  8
0
  6
CONTINUOUS
 62
3
 10
172.268450105960480
 20
169.824989486522100
 11
167.268450105960480
 21
169.824989486522100
  0
LINE
  8
0
  6
CONTINUOUS
 62
3
 10
172.268450105960480
 20
193.492604336280240
 11
167.268450105960480
 21
193.492604336280240
  0
ARC
  8
0
  6
CONTINUOUS
 62
3
 10
167.268450105960480
 20
191.492604336280240
 40
2.000000000000000
 50
90.000000000000000
 51
180.000000000000000
  0
ARC
  8
0
  6
CONTINUOUS
 62
3
 10
167.268450105960480
 20
167.824989486522100
 40
2.000000000000000
 50
90.000000000000000
 51
180.000000000000000
  0
LINE
  8
0
  6
DASHDOT
 62
4
 10
182.886902516574540
 20
35.206547420083552
 11
150.411441816210980
 21
35.206547420083552
  0
LINE
  8
0
  6
DASHDOT
 62
4
 10
182.886902516574540
 20
201.376640998922990
 11
150.411441816210980
 21
201.376640998922990
  0
LINE
  8
0
  6
CONTINUOUS
 62
3
 10
172.268450105960480
 20
23.779740307648353
 11
172.268450105960480
 21
118.291594209503270
  0
LINE
  8
0
  6
CONTINUOUS
 62
3
 10
172.268450105960480
 20
212.803448111357280
 11
172.268450105960480
 21
118.291594209503270
  0
ARC
  8
0
  6
CONTINUOUS
 62
3
 10
162.268450105960480
 20
211.875816645477240
 40
1.999999999999651
 50
87.000000000000398
 51
180.000000000000000
  0
ARC
  8
0
  6
CONTINUOUS
 62
3
 10
162.268450105960480
 20
24.707371773529303
 40
2.000000000000000
 50
180.000000000000000
 51
272.999999999999600
  0
LINE
  8
0
  6
CONTINUOUS
 62
3
 10
160.268450105960480
 20
211.875816645477240
 11
160.268450105960480
 21
24.707371773529303
  0
LINE
  8
0
  6
CONTINUOUS
 62
3
 10
171.718169847585610
 20
23.199865908038191
 11
162.373122018446340
 21
22.710112704019593
  0
LINE
  8
0
  6
CONTINUOUS
 62
3
 10
175.268450105960480
 20
33.291594209503273
 11
175.268450105960480
 21
118.291594209503270
  0
LINE
  8
0
  6
CONTINUOUS
 62
3
 10
175.268450105960480
 20
203.291594209503270
 11
175.268450105960480
 21
118.291594209503270
  0
ARC
  8
0
  6
CONTINUOUS
 62
3
 10
175.768450105960710
 20
89.737814084222009
 40
0.999999999999832
 50
93.000000000006111
 51
120.000000000021580
  0
ARC
  8
0
  6
CONTINUOUS
 62
3
 10
175.768450105960710
 20
146.845374334783630
 40
0.999999999999802
 50
239.999999999978400
 51
266.999999999993860
  0
LINE
  8
0
  6
CONTINUOUS
 62
3
 10
175.268450105960480
 20
33.291594209503273
 11
172.268450105960480
 21
33.291594209503273
  0
LINE
  8
0
  6
CONTINUOUS
 62
3
 10
175.268450105960480
 20
203.291594209503270
 11
172.268450105960480
 21
203.291594209503270
  0
ARC
  8
0
  6
CONTINUOUS
 62
3
 10
162.268450105960480
 20
211.875816645477240
 40
2.000000000000025
 50
177.837310087963030
 51
180.000000000000000
  0
LINE
  8
0
  6
CONTINUOUS
 62
3
 10
176.768450105960710
 20
118.291594209503270
 11
176.768450105960710
 21
144.791594209503270
  0
LINE
  8
0
  6
CONTINUOUS
 62
3
 10
176.768450105960710
 20
118.291594209503270
 11
176.768450105960710
 21
91.791594209503273
  0
LINE
  8
0
  6
CONTINUOUS
 62
3
 10
171.718169847585610
 20
213.383322510967450
 11
162.373122018446340
 21
213.873075714986040
  0
LINE
  8
0
  6
CONTINUOUS
 62
3
 10
171.718169847585610
 20
213.383322510967450
 11
172.268450105960480
 21
212.803448111357280
  0
LINE
  8
0
  6
CONTINUOUS
 62
3
 10
171.718169847585610
 20
23.199865908038191
 11
172.268450105960480
 21
23.779740307648353
  0
LINE
  8
0
  6
CONTINUOUS
 62
3
 10
175.768450105960710
 20
145.791594209503270
 11
175.716114149717670
 21
145.846744800029230
  0
LINE
  8
0
  6
CONTINUOUS
 62
3
 10
175.768450105960710
 20
90.791594209503273
 11
175.716114149717670
 21
90.736443618976409
  0
ARC
  8
0
  6
CONTINUOUS
 62
3
 10
175.768450105960710
 20
144.791594209503270
 40
1.000000000000000
 50
0.000000000000000
 51
90.000000000000000
  0
ARC
  8
0
  6
CONTINUOUS
 62
3
 10
175.768450105960710
 20
91.791594209503273
 40
1.000000000000000
 50
270.000000000000000
 51
0.000000000000000
  0
LINE
  8
0
  6
CONTINUOUS
 62
3
 10
70.768450105956845
 20
182.558368739097200
 11
70.768450105956845
 21
195.791594209504180
  0
ARC
  8
0
  6
CONTINUOUS
 62
3
 10
75.768450105957754
 20
195.791594209504180
 40
2.000000000000000
 50
90.000000000000000
 51
180.000000000000000
  0
LINE
  8
0
  6
CONTINUOUS
 62
3
 10
85.268450105960483
 20
197.791594209504180
 11
72.768450105956845
 21
197.791594209504180
  0
ARC
  8
0
  6
CONTINUOUS
 62
3
 10
72.768450105956845
 20
195.791594209504180
 40
2.000000000000000
 50
90.000000000000000
 51
180.000000000000000
  0
LINE
  8
0
  6
CONTINUOUS
 62
3
 10
73.768450105956845
 20
165.291594209505090
 11
73.768450105957754
 21
195.791594209504180
  0
LINE
  8
0
  6
CONTINUOUS
 62
3
 10
69.030129887170233
 20
177.722444403174450
 11
52.268450105971397
 21
176.844001988787570
  0
ARC
  8
0
  6
CONTINUOUS
 62
3
 10
65.768450105956845
 20
182.558368739097200
 40
4.999999999999158
 50
273.000000000006140
 51
0.000000000000000
  0
LINE
  8
0
  6
CONTINUOUS
 62
3
 10
73.768450105955026
 20
118.291594209504180
 11
73.768450105955026
 21
155.291594209505090
  0
ARC
  8
0
  6
CONTINUOUS
 62
3
 10
77.768450105956845
 20
166.291594209504180
 40
1.000000000000000
 50
0.000000000000000
 51
90.000000000000000
  0
LINE
  8
0
  6
CONTINUOUS
 62
3
 10
78.768450105956845
 20
154.291594209506000
 11
78.768450105956845
 21
166.291594209504180
  0
LINE
  8
0
  6
CONTINUOUS
 62
3
 10
74.768450105956845
 20
167.291594209504180
 11
77.768450105956845
 21
167.291594209504180
  0
ARC
  8
0
  6
CONTINUOUS
 62
3
 10
77.768450105956845
 20
154.291594209506000
 40
1.000000000000000
 50
270.000000000000000
 51
0.000000000000000
  0
LINE
  8
0
  6
CONTINUOUS
 62
3
 10
74.768450105956845
 20
153.291594209506000
 11
77.768450105956845
 21
153.291594209506000
  0
ARC
  8
0
  6
CONTINUOUS
 62
3
 10
74.768450105956845
 20
152.291594209506000
 40
1.000000000000000
 50
90.000000000000000
 51
180.000000000000000
  0
LINE
  8
0
  6
CONTINUOUS
 62
3
 10
74.768437162340206
 20
155.291594209504180
 11
74.768435705489765
 21
155.291594209504180
  0
ARC
  8
0
  6
CONTINUOUS
 62
3
 10
74.768450105956845
 20
168.291594209504180
 40
1.000000000000000
 50
180.000000000000000
 51
270.000000000000000
  0
ARC
  8
0
  6
CONTINUOUS
 62
3
 10
68.768450105955935
 20
182.715592076946450
 40
4.999999999999158
 50
273.000000000006140
 51
0.000000000000000
  0
LINE
  8
0
  6
CONTINUOUS
 62
3
 10
74.768437162339296
 20
155.291594209503270
 11
74.768435705488855
 21
155.291594209503270
  0
LINE
  8
0
  6
CONTINUOUS
 62
3
 10
69.030129887170233
 20
58.860744015833916
 11
52.268450105971397
 21
59.739186430220798
  0
ARC
  8
0
  6
CONTINUOUS
 62
3
 10
65.768450105956845
 20
54.024819679911161
 40
5.000000000000000
 50
0.000000000000000
 51
86.999999999993889
  0
LINE
  8
0
  6
CONTINUOUS
 62
3
 10
70.768450105956845
 20
54.024819679911161
 11
70.768450105956845
 21
40.791594209504183
  0
ARC
  8
0
  6
CONTINUOUS
 62
3
 10
75.768450105957754
 20
40.791594209504183
 40
2.000000000000000
 50
180.000000000000000
 51
270.000000000000000
  0
ARC
  8
0
  6
CONTINUOUS
 62
3
 10
72.768450105956845
 20
40.791594209504183
 40
2.000000000000000
 50
180.000000000000000
 51
270.000000000000000
  0
LINE
  8
0
  6
CONTINUOUS
 62
3
 10
73.768450105956845
 20
71.291594209503273
 11
73.768450105957754
 21
40.791594209504183
  0
LINE
  8
0
  6
CONTINUOUS
 62
3
 10
73.768450105955026
 20
118.291594209504180
 11
73.768450105955026
 21
81.291594209503273
  0
ARC
  8
0
  6
CONTINUOUS
 62
3
 10
77.768450105956845
 20
70.291594209504183
 40
1.000000000000000
 50
270.000000000000000
 51
0.000000000000000
  0
LINE
  8
0
  6
CONTINUOUS
 62
3
 10
78.768450105956845
 20
82.291594209502364
 11
78.768450105956845
 21
70.291594209504183
  0
LINE
  8
0
  6
CONTINUOUS
 62
3
 10
74.768450105956845
 20
69.291594209504183
 11
77.768450105956845
 21
69.291594209504183
  0
ARC
  8
0
  6
CONTINUOUS
 62
3
 10
77.768450105956845
 20
82.291594209502364
 40
1.000000000000000
 50
0.000000000000000
 51
90.000000000000000
  0
LINE
  8
0
  6
CONTINUOUS
 62
3
 10
74.768450105956845
 20
83.291594209502364
 11
77.768450105956845
 21
83.291594209502364
  0
ARC
  8
0
  6
CONTINUOUS
 62
3
 10
74.768450105956845
 20
84.291594209502364
 40
1.000000000000000
 50
180.000000000000000
 51
270.000000000000000
  0
LINE
  8
0
  6
CONTINUOUS
 62
3
 10
74.768437162340206
 20
81.291594209504183
 11
74.768435705489765
 21
81.291594209504183
  0
ARC
  8
0
  6
CONTINUOUS
 62
3
 10
74.768450105956845
 20
68.291594209504183
 40
1.000000000000000
 50
90.000000000000000
 51
180.000000000000000
  0
ARC
  8
0
  6
CONTINUOUS
 62
3
 10
68.768450105955935
 20
53.867596342061915
 40
5.000000000000000
 50
0.000000000000000
 51
86.999999999993889
  0
LINE
  8
0
  6
CONTINUOUS
 62
3
 10
74.768437162339296
 20
81.291594209505092
 11
74.768435705488855
 21
81.291594209505092
  0
LINE
  8
0
  6
CONTINUOUS
 62
3
 10
52.268450105971397
 20
59.739186430220798
 11
52.268450105971397
 21
118.291594209504180
  0
LINE
  8
0
  6
CONTINUOUS
 62
3
 10
52.268450105971397
 20
176.844001988787570
 11
52.268450105971397
 21
118.291594209504180
  0
LINE
  8
0
  6
CONTINUOUS
 62
3
 10
84.768450105960483
 20
197.791594209504180
 11
84.768450105960483
 21
118.291594209505090
  0
LINE
  8
0
  6
CONTINUOUS
 62
3
 10
85.268450105960483
 20
38.791594209504183
 11
72.768450105956845
 21
38.791594209504183
  0
LINE
  8
0
  6
CONTINUOUS
 62
3
 10
84.768450105960483
 20
38.791594209504183
 11
84.768450105960483
 21
118.291594209503270
  0
LINE
  8
0
  6
CONTINUOUS
 62
3
 10
178.568450105959980
 20
103.791594209503270
 11
176.768450105960710
 21
103.791594209503270
  0
LINE
  8
0
  6
CONTINUOUS
 62
3
 10
178.768450105960710
 20
118.291594209503270
 11
178.768450105960710
 21
103.991594209503090
  0
LINE
  8
0
  6
CONTINUOUS
 62
3
 10
178.768450105960710
 20
103.991594209503090
 11
178.568450105959980
 21
103.791594209503270
  0
ARC
  8
0
  6
CONTINUOUS
 62
3
 10
179.168450105960350
 20
104.041594209503270
 40
0.399999999999636
 50
90.000000000000000
 51
180.000000000000000
  0
LINE
  8
0
  6
CONTINUOUS
 62
3
 10
181.328257727095210
 20
104.291594209503270
 11
180.768450105960710
 21
104.441594209502910
  0
LINE
  8
0
  6
CONTINUOUS
 62
3
 10
180.768450105960710
 20
104.441594209502910
 11
179.168450105960350
 21
104.441594209502910
  0
LINE
  8
0
  6
CONTINUOUS
 62
3
 10
178.568450105959980
 20
132.791594209503270
 11
176.768450105960710
 21
132.791594209503270
  0
LINE
  8
0
  6
CONTINUOUS
 62
3
 10
178.768450105960710
 20
118.291594209503270
 11
178.768450105960710
 21
132.591594209503460
  0
LINE
  8
0
  6
CONTINUOUS
 62
3
 10
178.768450105960710
 20
132.591594209503460
 11
178.568450105959980
 21
132.791594209503270
  0
ARC
  8
0
  6
CONTINUOUS
 62
3
 10
179.168450105960350
 20
132.541594209503270
 40
0.399999999999636
 50
180.000000000000000
 51
270.000000000000000
  0
LINE
  8
0
  6
CONTINUOUS
 62
3
 10
181.328257727095210
 20
132.291594209503270
 11
180.768450105960710
 21
132.141594209503640
  0
LINE
  8
0
  6
CONTINUOUS
 62
3
 10
180.768450105960710
 20
132.141594209503640
 11
179.168450105960350
 21
132.141594209503640
  0
LINE
  8
0
  6
CONTINUOUS
 62
3
 10
184.768450105960710
 20
101.291594209503270
 11
184.768450105960710
 21
104.291594209503270
  0
LINE
  8
0
  6
CONTINUOUS
 62
3
 10
220.368450105960160
 20
132.291594209503270
 11
181.328257727095210
 21
132.291594209503270
  0
LINE
  8
0
  6
CONTINUOUS
 62
3
 10
220.768450105960710
 20
101.291594209503270
 11
184.768450105960710
 21
101.291594209503270
  0
LINE
  8
0
  6
CONTINUOUS
 62
3
 10
220.368450105960160
 20
104.291594209503270
 11
181.328257727095210
 21
104.291594209503270
  0
LINE
  8
0
  6
CONTINUOUS
 62
3
 10
-14.531549894028785
 20
59.791594209503273
 11
-96.731549894049977
 21
59.791594209503273
  0
LINE
  8
0
  6
CONTINUOUS
 62
3
 10
-14.531549894028785
 20
59.791594209503273
 11
-14.531549894028785
 21
21.791594209503273
  0
ARC
  8
0
  6
CONTINUOUS
 62
3
 10
-15.531549894028785
 20
21.791594209503273
 40
1.000000000000000
 50
270.000000000000000
 51
0.000000000000000
  0
LINE
  8
0
  6
CONTINUOUS
 62
3
 10
-103.531549894028780
 20
20.791594209503273
 11
-15.531549894028785
 21
20.791594209503273
  0
ARC
  8
0
  6
CONTINUOUS
 62
3
 10
-103.531549894028780
 20
21.791594209503273
 40
1.000000000000000
 50
180.000000000000000
 51
270.000000000000000
  0
LINE
  8
0
  6
CONTINUOUS
 62
3
 10
-97.531549894028785
 20
20.291594209503273
 11
-89.531549894028785
 21
20.291594209503273
  0
LINE
  8
0
  6
CONTINUOUS
 62
3
 10
-29.531549894028785
 20
20.291594209503273
 11
-21.531549894028785
 21
20.291594209503273
  0
LINE
  8
0
  6
CONTINUOUS
 62
3
 10
-29.531549894028785
 20
20.791594209503273
 11
-29.531549894028785
 21
20.291594209503273
  0
LINE
  8
0
  6
CONTINUOUS
 62
3
 10
-21.531549894028785
 20
20.791594209503273
 11
-21.531549894028785
 21
20.291594209503273
  0
LINE
  8
0
  6
CONTINUOUS
 62
3
 10
-89.531549894028785
 20
20.791594209503273
 11
-89.531549894028785
 21
20.291594209503273
  0
LINE
  8
0
  6
CONTINUOUS
 62
3
 10
-97.531549894028785
 20
20.791594209503273
 11
-97.531549894028785
 21
20.291594209503273
  0
LINE
  8
0
  6
CONTINUOUS
 62
3
 10
-104.531549894028780
 20
57.843264307660320
 11
-104.531549894028780
 21
21.791594209503273
  0
LINE
  8
0
  6
CONTINUOUS
 62
3
 10
-104.531549894028780
 20
54.791594209503273
 11
-14.531549894028785
 21
54.791594209503273
  0
LINE
  8
0
  6
CONTINUOUS
 62
4
 10
-96.731549894028603
 20
67.976060022727552
 11
52.268450105971397
 21
67.976060022727552
  0
LINE
  8
0
  6
CONTINUOUS
 62
3
 10
-106.731549894028370
 20
53.291594209503273
 11
-106.731549894028370
 21
53.672373292630482
  0
LINE
  8
0
  6
CONTINUOUS
 62
3
 10
-96.731549894028603
 20
177.791594209503050
 11
52.268450105971397
 21
177.791594209503050
  0
LINE
  8
0
  6
CONTINUOUS
 62
3
 10
-188.897102843469840
 20
56.908553323723481
 11
-198.622848628490830
 21
63.718593837106710
  0
ARC
  8
0
  6
CONTINUOUS
 62
3
 10
-197.131549893978220
 20
65.848389152257823
 40
2.600000000000136
 50
180.000000000000000
 51
234.999999999998610
  0
LINE
  8
0
  6
CONTINUOUS
 62
3
 10
-106.731549894028370
 20
53.291594209503273
 11
-177.425574116448840
 21
53.291594209503273
  0
POLYLINE
  8
0
  6
CONTINUOUS
 62
3
 66
1
 70
1
  0
VERTEX
  8
0
  6
CONTINUOUS
 62
3
 10
-103.031549894027930
 20
66.368069177443431
  0
VERTEX
  8
0
  6
CONTINUOUS
 62
3
 10
-103.121859076132750
 20
67.071026143643792
  0
VERTEX
  8
0
  6
CONTINUOUS
 62
3
 10
-103.389316091224880
 20
67.746968867855884
  0
VERTEX
  8
0
  6
CONTINUOUS
 62
3
 10
-103.823642716205960
 20
68.369921250261285
  0
VERTEX
  8
0
  6
CONTINUOUS
 62
3
 10
-104.408148022451150
 20
68.915943580159862
  0
VERTEX
  8
0
  6
CONTINUOUS
 62
3
 10
-105.120369798835790
 20
69.364052525626477
  0
VERTEX
  8
0
  6
CONTINUOUS
 62
3
 10
-105.932937761912000
 20
69.697027511189248
  0
VERTEX
  8
0
  6
CONTINUOUS
 62
3
 10
-106.814625380552110
 20
69.902072494887491
  0
VERTEX
  8
0
  6
CONTINUOUS
 62
3
 10
-107.731549894027920
 20
69.971307712988263
  0
VERTEX
  8
0
  6
CONTINUOUS
 62
3
 10
-108.648474407503720
 20
69.902072494887491
  0
VERTEX
  8
0
  6
CONTINUOUS
 62
3
 10
-109.530162026143840
 20
69.697027511189248
  0
VERTEX
  8
0
  6
CONTINUOUS
 62
3
 10
-110.342729989220040
 20
69.364052525626477
  0
VERTEX
  8
0
  6
CONTINUOUS
 62
3
 10
-111.054951765604680
 20
68.915943580159862
  0
VERTEX
  8
0
  6
CONTINUOUS
 62
3
 10
-111.639457071849870
 20
68.369921250261285
  0
VERTEX
  8
0
  6
CONTINUOUS
 62
3
 10
-112.073783696830950
 20
67.746968867855884
  0
VERTEX
  8
0
  6
CONTINUOUS
 62
3
 10
-112.341240711923090
 20
67.071026143643792
  0
VERTEX
  8
0
  6
CONTINUOUS
 62
3
 10
-112.431549894027910
 20
66.368069177443431
  0
VERTEX
  8
0
  6
CONTINUOUS
 62
3
 10
-112.341240711923090
 20
65.665112211243070
  0
VERTEX
  8
0
  6
CONTINUOUS
 62
3
 10
-112.073783696830950
 20
64.989169487030978
  0
VERTEX
  8
0
  6
CONTINUOUS
 62
3
 10
-111.639457071849870
 20
64.366217104625576
  0
VERTEX
  8
0
  6
CONTINUOUS
 62
3
 10
-111.054951765604680
 20
63.820194774727000
  0
VERTEX
  8
0
  6
CONTINUOUS
 62
3
 10
-110.342729989220040
 20
63.372085829260378
  0
VERTEX
  8
0
  6
CONTINUOUS
 62
3
 10
-109.530162026143840
 20
63.039110843697621
  0
VERTEX
  8
0
  6
CONTINUOUS
 62
3
 10
-108.648474407503720
 20
62.834065859999370
  0
VERTEX
  8
0
  6
CONTINUOUS
 62
3
 10
-107.731549894027920
 20
62.764830641898598
  0
VERTEX
  8
0
  6
CONTINUOUS
 62
3
 10
-106.814625380552110
 20
62.834065859999370
  0
VERTEX
  8
0
  6
CONTINUOUS
 62
3
 10
-105.932937761912000
 20
63.039110843697621
  0
VERTEX
  8
0
  6
CONTINUOUS
 62
3
 10
-105.120369798835790
 20
63.372085829260378
  0
VERTEX
  8
0
  6
CONTINUOUS
 62
3
 10
-104.408148022451150
 20
63.820194774727000
  0
VERTEX
  8
0
  6
CONTINUOUS
 62
3
 10
-103.823642716205960
 20
64.366217104625576
  0
VERTEX
  8
0
  6
CONTINUOUS
 62
3
 10
-103.389316091224880
 20
64.989169487030978
  0
VERTEX
  8
0
  6
CONTINUOUS
 62
3
 10
-103.121859076132750
 20
65.665112211243070
  0
SEQEND
  8
0
  6
CONTINUOUS
 62
3
  0
LINE
  8
0
  6
CONTINUOUS
 62
3
 10
-109.731549894027920
 20
63.375693623443112
 11
-107.731549894027920
 21
64.551479109065440
  0
LINE
  8
0
  6
CONTINUOUS
 62
3
 10
-107.731549894027920
 20
64.551479109065440
 11
-105.731549894027920
 21
66.204120748188870
  0
ARC
  8
0
  6
CONTINUOUS
 62
3
 10
-177.425574116448840
 20
73.291594209503273
 40
20.000000000000007
 50
234.999999999999740
 51
270.000000000000000
  0
LINE
  8
0
  6
CONTINUOUS
 62
3
 10
-14.531549894028785
 20
58.791594209503273
 11
52.268450105971397
 21
58.791594209503273
  0
LINE
  8
0
  6
CONTINUOUS
 62
3
 10
-105.731549894027920
 20
63.375693623443112
 11
-107.731549894027920
 21
64.551479109065440
  0
LINE
  8
0
  6
CONTINUOUS
 62
3
 10
-107.731549894027920
 20
64.551479109065440
 11
-109.731549894027920
 21
66.204120748188870
  0
POLYLINE
  8
0
  6
CONTINUOUS
 62
3
 66
1
 70
1
  0
VERTEX
  8
0
  6
CONTINUOUS
 62
3
 10
-103.031549894027930
 20
170.215119241563340
  0
VERTEX
  8
0
  6
CONTINUOUS
 62
3
 10
-103.121859076132750
 20
170.918076207763700
  0
VERTEX
  8
0
  6
CONTINUOUS
 62
3
 10
-103.389316091224880
 20
171.594018931975800
  0
VERTEX
  8
0
  6
CONTINUOUS
 62
3
 10
-103.823642716205960
 20
172.216971314381200
  0
VERTEX
  8
0
  6
CONTINUOUS
 62
3
 10
-104.408148022451150
 20
172.762993644279790
  0
VERTEX
  8
0
  6
CONTINUOUS
 62
3
 10
-105.120369798835790
 20
173.211102589746420
  0
VERTEX
  8
0
  6
CONTINUOUS
 62
3
 10
-105.932937761912000
 20
173.544077575309160
  0
VERTEX
  8
0
  6
CONTINUOUS
 62
3
 10
-106.814625380552110
 20
173.749122559007420
  0
VERTEX
  8
0
  6
CONTINUOUS
 62
3
 10
-107.731549894027920
 20
173.818357777108190
  0
VERTEX
  8
0
  6
CONTINUOUS
 62
3
 10
-108.648474407503720
 20
173.749122559007420
  0
VERTEX
  8
0
  6
CONTINUOUS
 62
3
 10
-109.530162026143840
 20
173.544077575309160
  0
VERTEX
  8
0
  6
CONTINUOUS
 62
3
 10
-110.342729989220040
 20
173.211102589746420
  0
VERTEX
  8
0
  6
CONTINUOUS
 62
3
 10
-111.054951765604680
 20
172.762993644279790
  0
VERTEX
  8
0
  6
CONTINUOUS
 62
3
 10
-111.639457071849870
 20
172.216971314381200
  0
VERTEX
  8
0
  6
CONTINUOUS
 62
3
 10
-112.073783696830950
 20
171.594018931975800
  0
VERTEX
  8
0
  6
CONTINUOUS
 62
3
 10
-112.341240711923090
 20
170.918076207763700
  0
VERTEX
  8
0
  6
CONTINUOUS
 62
3
 10
-112.431549894027910
 20
170.215119241563340
  0
VERTEX
  8
0
  6
CONTINUOUS
 62
3
 10
-112.341240711923090
 20
169.512162275362980
  0
VERTEX
  8
0
  6
CONTINUOUS
 62
3
 10
-112.073783696830950
 20
168.836219551150890
  0
VERTEX
  8
0
  6
CONTINUOUS
 62
3
 10
-111.639457071849870
 20
168.213267168745490
  0
VERTEX
  8
0
  6
CONTINUOUS
 62
3
 10
-111.054951765604680
 20
167.667244838846900
  0
VERTEX
  8
0
  6
CONTINUOUS
 62
3
 10
-110.342729989220040
 20
167.219135893380270
  0
VERTEX
  8
0
  6
CONTINUOUS
 62
3
 10
-109.530162026143840
 20
166.886160907817530
  0
VERTEX
  8
0
  6
CONTINUOUS
 62
3
 10
-108.648474407503720
 20
166.681115924119270
  0
VERTEX
  8
0
  6
CONTINUOUS
 62
3
 10
-107.731549894027920
 20
166.611880706018500
  0
VERTEX
  8
0
  6
CONTINUOUS
 62
3
 10
-106.814625380552110
 20
166.681115924119270
  0
VERTEX
  8
0
  6
CONTINUOUS
 62
3
 10
-105.932937761912000
 20
166.886160907817530
  0
VERTEX
  8
0
  6
CONTINUOUS
 62
3
 10
-105.120369798835790
 20
167.219135893380270
  0
VERTEX
  8
0
  6
CONTINUOUS
 62
3
 10
-104.408148022451150
 20
167.667244838846900
  0
VERTEX
  8
0
  6
CONTINUOUS
 62
3
 10
-103.823642716205960
 20
168.213267168745490
  0
VERTEX
  8
0
  6
CONTINUOUS
 62
3
 10
-103.389316091224880
 20
168.836219551150890
  0
VERTEX
  8
0
  6
CONTINUOUS
 62
3
 10
-103.121859076132750
 20
169.512162275362980
  0
SEQEND
  8
0
  6
CONTINUOUS
 62
3
  0
LINE
  8
0
  6
CONTINUOUS
 62
3
 10
-109.731549894027920
 20
173.207494795563660
 11
-107.731549894027920
 21
172.031709309940880
  0
LINE
  8
0
  6
CONTINUOUS
 62
3
 10
-107.731549894027920
 20
172.031709309940880
 11
-105.731549894027920
 21
170.379067670817450
  0
LINE
  8
0
  6
CONTINUOUS
 62
3
 10
-105.731549894027920
 20
173.207494795563660
 11
-107.731549894027920
 21
172.031709309940880
  0
LINE
  8
0
  6
CONTINUOUS
 62
3
 10
-107.731549894027920
 20
172.031709309940880
 11
-109.731549894027920
 21
170.379067670817450
  0
LINE
  8
0
  6
CONTINUOUS
 62
4
 10
-96.731549894028603
 20
61.291594209503273
 11
52.268450105971397
 21
61.291594209503273
  0
LINE
  8
0
  6
CONTINUOUS
 62
4
 10
-96.731549894028603
 20
62.291594209503273
 11
52.268450105971397
 21
62.291594209503273
  0
LINE
  8
0
  6
CONTINUOUS
 62
4
 10
-96.731549894028603
 20
63.291594209503273
 11
52.268450105971397
 21
63.291594209503273
  0
LINE
  8
0
  6
CONTINUOUS
 62
4
 10
-96.731549894028603
 20
72.925807491033311
 11
52.268450105971397
 21
72.925807491033311
  0
LINE
  8
0
  6
CONTINUOUS
 62
4
 10
-96.731549894028603
 20
80.972409153767330
 11
52.268450105971397
 21
80.972409153767330
  0
LINE
  8
0
  6
CONTINUOUS
 62
4
 10
-96.731549894028603
 20
82.577057069329385
 11
52.268450105971397
 21
82.577057069329385
  0
LINE
  8
0
  6
CONTINUOUS
 62
4
 10
-96.731549894028603
 20
86.540802493128922
 11
52.268450105971397
 21
86.540802493128922
  0
LINE
  8
0
  6
CONTINUOUS
 62
4
 10
-96.731549894028603
 20
88.009159882933545
 11
52.268450105971397
 21
88.009159882933545
  0
LINE
  8
0
  6
CONTINUOUS
 62
4
 10
-96.731549894028603
 20
92.099660417023415
 11
52.268450105971397
 21
92.099660417023415
  0
LINE
  8
0
  6
CONTINUOUS
 62
4
 10
-96.731549894028603
 20
93.461540752372684
 11
52.268450105971397
 21
93.461540752372684
  0
LINE
  8
0
  6
CONTINUOUS
 62
4
 10
-96.731549894028603
 20
97.652094483914880
 11
52.268450105971397
 21
97.652094483914880
  0
LINE
  8
0
  6
CONTINUOUS
 62
4
 10
-96.731549894028603
 20
98.918332400002100
 11
52.268450105971397
 21
98.918332400002100
  0
LINE
  8
0
  6
CONTINUOUS
 62
4
 10
-96.731549894028603
 20
103.291594209503270
 11
52.268450105971397
 21
103.291594209503270
  0
LINE
  8
0
  6
CONTINUOUS
 62
4
 10
-96.731549894028603
 20
155.610779265239220
 11
52.268450105971397
 21
155.610779265239220
  0
LINE
  8
0
  6
CONTINUOUS
 62
4
 10
-96.731549894028603
 20
154.006131349677160
 11
52.268450105971397
 21
154.006131349677160
  0
LINE
  8
0
  6
CONTINUOUS
 62
4
 10
-96.731549894028603
 20
150.042385925877620
 11
52.268450105971397
 21
150.042385925877620
  0
LINE
  8
0
  6
CONTINUOUS
 62
4
 10
-96.731549894028603
 20
148.574028536073000
 11
52.268450105971397
 21
148.574028536073000
  0
LINE
  8
0
  6
CONTINUOUS
 62
4
 10
-96.731549894028603
 20
144.483528001983130
 11
52.268450105971397
 21
144.483528001983130
  0
LINE
  8
0
  6
CONTINUOUS
 62
4
 10
-96.731549894028603
 20
143.121647666633860
 11
52.268450105971397
 21
143.121647666633860
  0
LINE
  8
0
  6
CONTINUOUS
 62
4
 10
-96.731549894028603
 20
138.931093935091670
 11
52.268450105971397
 21
138.931093935091670
  0
LINE
  8
0
  6
CONTINUOUS
 62
4
 10
-96.731549894028603
 20
137.664856019004450
 11
52.268450105971397
 21
137.664856019004450
  0
LINE
  8
0
  6
CONTINUOUS
 62
4
 10
-96.731549894028603
 20
133.291594209503270
 11
52.268450105971397
 21
133.291594209503270
  0
LINE
  8
0
  6
CONTINUOUS
 62
4
 10
-96.731549894028603
 20
163.657380927973240
 11
52.268450105971397
 21
163.657380927973240
  0
LINE
  8
0
  6
CONTINUOUS
 62
4
 10
-96.731549894028603
 20
168.607128396278990
 11
52.268450105971397
 21
168.607128396278990
  0
LINE
  8
0
  6
CONTINUOUS
 62
3
 10
-96.731549894028603
 20
118.291594209503270
 11
-96.731549894028603
 21
183.291594209503270
  0
LINE
  8
0
  6
CONTINUOUS
 62
4
 10
-96.731549894028603
 20
173.291594209503270
 11
52.268450105971397
 21
173.291594209503270
  0
LINE
  8
0
  6
CONTINUOUS
 62
4
 10
-96.731549894028603
 20
174.291594209503270
 11
52.268450105971397
 21
174.291594209503270
  0
LINE
  8
0
  6
CONTINUOUS
 62
4
 10
-96.731549894028603
 20
175.291594209503270
 11
52.268450105971397
 21
175.291594209503270
  0
LINE
  8
0
  6
CONTINUOUS
 62
3
 10
-29.731549894028603
 20
177.791594209503270
 11
52.268450105971397
 21
177.791594209503270
  0
LINE
  8
0
  6
CONTINUOUS
 62
3
 10
52.268450105971397
 20
177.791594209503050
 11
52.268450105971397
 21
118.291594209503270
  0
LINE
  8
0
  6
CONTINUOUS
 62
3
 10
-96.731549894028603
 20
183.291594209503270
 11
-177.425574116448840
 21
183.291594209503270
  0
LINE
  8
0
  6
CONTINUOUS
 62
3
 10
-199.731549893978350
 20
118.291594209503270
 11
-199.731549893978350
 21
170.734799266748720
  0
ARC
  8
0
  6
CONTINUOUS
 62
3
 10
-177.425574116448840
 20
163.291594209503270
 40
20.000000000000000
 50
90.000000000000000
 51
125.000000000000240
  0
LINE
  8
0
  6
CONTINUOUS
 62
3
 10
-188.897102843469840
 20
179.674635095283070
 11
-198.622848628490830
 21
172.864594581899840
  0
ARC
  8
0
  6
CONTINUOUS
 62
3
 10
-197.131549893978220
 20
170.734799266748720
 40
2.599999999999721
 50
125.000000000001370
 51
180.000000000000000
  0
ARC
  8
0
  6
CONTINUOUS
 62
3
 10
-99.731549894028603
 20
59.672373292630482
 40
3.000000000000000
 50
270.000000000000000
 51
0.000000000000000
  0
ARC
  8
0
  6
CONTINUOUS
 62
3
 10
-103.731549894028370
 20
53.672373292630482
 40
3.000000000000000
 50
90.000000000000000
 51
180.000000000000000
  0
LINE
  8
0
  6
CONTINUOUS
 62
3
 10
-96.731549894028603
 20
118.291594209503270
 11
-96.731549894028603
 21
59.672373292630482
  0
LINE
  8
0
  6
CONTINUOUS
 62
3
 10
52.268450105971397
 20
58.791594209503273
 11
52.268450105971397
 21
118.291594209503270
  0
LINE
  8
0
  6
CONTINUOUS
 62
3
 10
-199.731549893978350
 20
118.291594209503270
 11
-199.731549893978350
 21
65.848389152257823
  0
LINE
  8
0
  6
CONTINUOUS
 62
3
 10
-103.731549894028370
 20
56.672373292630482
 11
-99.731549894028603
 21
56.672373292630482
  0
ARC
  8
0
  6
CONTINUOUS
 62
3
 10
28.768450105971397
 20
201.294463830083940
 40
2.000000000000000
 50
270.000000000000000
 51
0.000000000000000
  0
ARC
  8
0
  6
CONTINUOUS
 62
3
 10
28.768450105971397
 20
202.093465701202830
 40
2.000000000000000
 50
270.000000000000000
 51
0.000000000000000
  0
ARC
  8
0
  6
CONTINUOUS
 62
3
 10
28.768450105971397
 20
202.892467572288070
 40
2.000000000000000
 50
270.000000000000000
 51
0.000000000000000
  0
ARC
  8
0
  6
CONTINUOUS
 62
3
 10
28.768450105971397
 20
203.986104500565260
 40
2.000000000000000
 50
0.000000000000000
 51
90.000000000000000
  0
LINE
  8
0
  6
CONTINUOUS
 62
3
 10
27.768450105971397
 20
205.986104500565260
 11
28.768450105971397
 21
205.986104500565260
  0
LINE
  8
0
  6
CONTINUOUS
 62
3
 10
28.768450105971397
 20
199.294463830083940
 11
-97.231549894028603
 21
199.294463830083940
  0
LINE
  8
0
  6
CONTINUOUS
 62
3
 10
28.768450105971397
 20
200.093465701186010
 11
-97.231549894028603
 21
200.093465701186010
  0
LINE
  8
0
  6
CONTINUOUS
 62
3
 10
30.768450105971397
 20
203.986104500565260
 11
30.768450105971397
 21
201.294463830083940
  0
LINE
  8
0
  6
CONTINUOUS
 62
3
 10
27.768450105971397
 20
187.791594209503050
 11
27.768450105971397
 21
199.093465701202830
  0
LINE
  8
0
  6
CONTINUOUS
 62
3
 10
-91.231549894028603
 20
224.391594209502950
 11
22.768450105971397
 21
224.391594209502950
  0
ARC
  8
0
  6
CONTINUOUS
 62
3
 10
22.768450105971397
 20
219.391594209502950
 40
5.000000000000000
 50
0.000000000000000
 51
90.000000000000000
  0
LINE
  8
0
  6
CONTINUOUS
 62
3
 10
-96.231549894028603
 20
187.791594209503050
 11
-96.231549894028603
 21
199.294463830083940
  0
ARC
  8
0
  6
CONTINUOUS
 62
3
 10
-97.231549894028603
 20
201.294463830083940
 40
2.000000000000000
 50
180.000000000000000
 51
270.000000000000000
  0
LINE
  8
0
  6
CONTINUOUS
 62
3
 10
-99.231549894028603
 20
203.986104500565260
 11
-99.231549894028603
 21
201.294463830083940
  0
ARC
  8
0
  6
CONTINUOUS
 62
3
 10
-97.231549894028603
 20
202.093465701202830
 40
2.000000000000000
 50
180.000000000000000
 51
270.000000000000000
  0
ARC
  8
0
  6
CONTINUOUS
 62
3
 10
-97.231549894028603
 20
202.892467572288070
 40
2.000000000000000
 50
180.000000000000000
 51
270.000000000000000
  0
ARC
  8
0
  6
CONTINUOUS
 62
3
 10
-97.231549894028603
 20
203.986104500565260
 40
2.000000000000000
 50
90.000000000000000
 51
180.000000000000000
  0
ARC
  8
0
  6
CONTINUOUS
 62
3
 10
-91.231549894028603
 20
219.391594209502950
 40
5.000000000000000
 50
90.000000000000000
 51
180.000000000000000
  0
LINE
  8
0
  6
CONTINUOUS
 62
3
 10
28.768450105971397
 20
200.892467572288070
 11
-97.231549894028603
 21
200.892467572288070
  0
LINE
  8
0
  6
CONTINUOUS
 62
3
 10
-96.231549894028603
 20
205.986104500565260
 11
-97.231549894028603
 21
205.986104500565260
  0
LINE
  8
0
  6
CONTINUOUS
 62
3
 10
-96.231549894028603
 20
206.452619269189880
 11
-96.231549894028603
 21
219.391594209502950
  0
LINE
  8
0
  6
CONTINUOUS
 62
3
 10
27.768450105971397
 20
206.452619269189880
 11
27.768450105971397
 21
219.391594209502950
  0
POLYLINE
  8
0
  6
CONTINUOUS
 62
3
 66
1
  0
VERTEX
  8
0
  6
CONTINUOUS
 62
3
 10
-92.731549894028603
 20
201.142155657007830
  0
VERTEX
  8
0
  6
CONTINUOUS
 62
3
 10
-92.664298375439913
 20
201.108057446811840
  0
VERTEX
  8
0
  6
CONTINUOUS
 62
3
 10
-92.465128257818108
 20
201.075269611711210
  0
VERTEX
  8
0
  6
CONTINUOUS
 62
3
 10
-92.141693537087505
 20
201.045052169821190
  0
VERTEX
  8
0
  6
CONTINUOUS
 62
3
 10
-91.706423628181525
 20
201.018566360487480
  0
VERTEX
  8
0
  6
CONTINUOUS
 62
3
 10
-91.176045709597219
 20
200.996830018509400
  0
VERTEX
  8
0
  6
CONTINUOUS
 62
3
 10
-90.570941907306420
 20
200.980678459319220
  0
VERTEX
  8
0
  6
CONTINUOUS
 62
3
 10
-89.914366021085058
 20
200.970732378278770
  0
VERTEX
  8
0
  6
CONTINUOUS
 62
3
 10
-89.231549894028603
 20
200.967373997704610
  0
VERTEX
  8
0
  6
CONTINUOUS
 62
3
 10
-88.548733766972163
 20
200.970732378278770
  0
VERTEX
  8
0
  6
CONTINUOUS
 62
3
 10
-87.892157880750787
 20
200.980678459319220
  0
VERTEX
  8
0
  6
CONTINUOUS
 62
3
 10
-87.287054078460002
 20
200.996830018509400
  0
VERTEX
  8
0
  6
CONTINUOUS
 62
3
 10
-86.756676159875695
 20
201.018566360487480
  0
VERTEX
  8
0
  6
CONTINUOUS
 62
3
 10
-86.321406250969702
 20
201.045052169821190
  0
VERTEX
  8
0
  6
CONTINUOUS
 62
3
 10
-85.997971530239099
 20
201.075269611711210
  0
VERTEX
  8
0
  6
CONTINUOUS
 62
3
 10
-85.798801412617294
 20
201.108057446811840
  0
VERTEX
  8
0
  6
CONTINUOUS
 62
3
 10
-85.731549894028603
 20
201.142155657007830
  0
SEQEND
  8
0
  6
CONTINUOUS
 62
3
  0
ARC
  8
0
  6
CONTINUOUS
 62
3
 10
-87.031549894028785
 20
202.129165394932220
 40
1.300000000000182
 50
0.000000000000000
 51
73.398450400977637
  0
ARC
  8
0
  6
CONTINUOUS
 62
3
 10
-89.231549894028603
 20
194.750141069182750
 40
9.000000000000123
 50
73.398450400980877
 51
106.601549599019120
  0
ARC
  8
0
  6
CONTINUOUS
 62
3
 10
-91.431549894028421
 20
202.129165394932220
 40
1.300000000000019
 50
106.601549599022360
 51
180.000000000000000
  0
LINE
  8
0
  6
CONTINUOUS
 62
3
 10
-85.731549894028603
 20
202.129165394932220
 11
-85.731549894028603
 21
201.142155657007830
  0
LINE
  8
0
  6
CONTINUOUS
 62
3
 10
-92.731549894028603
 20
202.129165394932220
 11
-92.731549894028603
 21
201.142155657007830
  0
ARC
  8
0
  6
CONTINUOUS
 62
3
 10
-91.231549894028603
 20
206.452619269189880
 40
5.000000000000000
 50
180.000000000000000
 51
252.542396876278160
  0
LINE
  8
0
  6
CONTINUOUS
 62
3
 10
17.268450105971397
 20
202.129165394932220
 11
17.268450105971397
 21
201.142155657007830
  0
POLYLINE
  8
0
  6
CONTINUOUS
 62
3
 66
1
  0
VERTEX
  8
0
  6
CONTINUOUS
 62
3
 10
17.268450105971397
 20
201.142155657007830
  0
VERTEX
  8
0
  6
CONTINUOUS
 62
3
 10
17.335701624560091
 20
201.108057446811840
  0
VERTEX
  8
0
  6
CONTINUOUS
 62
3
 10
17.534871742181892
 20
201.075269611711210
  0
VERTEX
  8
0
  6
CONTINUOUS
 62
3
 10
17.858306462912488
 20
201.045052169821190
  0
VERTEX
  8
0
  6
CONTINUOUS
 62
3
 10
18.293576371818482
 20
201.018566360487480
  0
VERTEX
  8
0
  6
CONTINUOUS
 62
3
 10
18.823954290402789
 20
200.996830018509400
  0
VERTEX
  8
0
  6
CONTINUOUS
 62
3
 10
19.429058092693580
 20
200.980678459319220
  0
VERTEX
  8
0
  6
CONTINUOUS
 62
3
 10
20.085633978914949
 20
200.970732378278770
  0
VERTEX
  8
0
  6
CONTINUOUS
 62
3
 10
20.768450105971397
 20
200.967373997704610
  0
VERTEX
  8
0
  6
CONTINUOUS
 62
3
 10
21.451266233027845
 20
200.970732378278770
  0
VERTEX
  8
0
  6
CONTINUOUS
 62
3
 10
22.107842119249209
 20
200.980678459319220
  0
VERTEX
  8
0
  6
CONTINUOUS
 62
3
 10
22.712945921540001
 20
200.996830018509400
  0
VERTEX
  8
0
  6
CONTINUOUS
 62
3
 10
23.243323840124312
 20
201.018566360487480
  0
VERTEX
  8
0
  6
CONTINUOUS
 62
3
 10
23.678593749030302
 20
201.045052169821190
  0
VERTEX
  8
0
  6
CONTINUOUS
 62
3
 10
24.002028469760898
 20
201.075269611711210
  0
VERTEX
  8
0
  6
CONTINUOUS
 62
3
 10
24.201198587382702
 20
201.108057446811840
  0
VERTEX
  8
0
  6
CONTINUOUS
 62
3
 10
24.268450105971393
 20
201.142155657007830
  0
SEQEND
  8
0
  6
CONTINUOUS
 62
3
  0
LINE
  8
0
  6
CONTINUOUS
 62
3
 10
24.268450105971397
 20
202.129165394932220
 11
24.268450105971397
 21
201.142155657007830
  0
ARC
  8
0
  6
CONTINUOUS
 62
3
 10
18.568450105971579
 20
202.129165394932220
 40
1.300000000000019
 50
106.601549599022360
 51
180.000000000000000
  0
ARC
  8
0
  6
CONTINUOUS
 62
3
 10
20.768450105971397
 20
194.750141069182750
 40
9.000000000000123
 50
73.398450400980877
 51
106.601549599019120
  0
ARC
  8
0
  6
CONTINUOUS
 62
3
 10
22.968450105971215
 20
202.129165394932220
 40
1.300000000000182
 50
0.000000000000000
 51
73.398450400977637
  0
ARC
  8
0
  6
CONTINUOUS
 62
3
 10
22.768450105971397
 20
206.452619269189880
 40
5.000000000000072
 50
287.457603123721870
 51
0.000000000000000
  0
LINE
  8
0
  6
CONTINUOUS
 62
3
 10
17.268450105971397
 20
201.452619269189880
 11
-85.731549894028603
 21
201.452619269189880
  0
LINE
  8
0
  6
CONTINUOUS
 62
3
 10
-96.231549894028603
 20
182.791594209503050
 11
27.768450105971397
 21
182.791594209503050
  0
LINE
  8
0
  6
DASHDOT
 62
3
 10
27.768450105971397
 20
177.791594209503050
 11
27.768450105971397
 21
182.791594209503050
  0
ARC
  8
0
  6
CONTINUOUS
 62
3
 10
22.768450105971397
 20
187.791594209503050
 40
5.000000000000000
 50
270.000000000000000
 51
0.000000000000000
  0
LINE
  8
0
  6
DASHDOT
 62
3
 10
27.768450105971397
 20
177.791594209503050
 11
27.768450105971397
 21
182.791594209503050
  0
LINE
  8
0
  6
CONTINUOUS
 62
3
 10
-96.231549894028603
 20
177.791594209503050
 11
-96.231549894028603
 21
182.791594209503050
  0
ARC
  8
0
  6
CONTINUOUS
 62
3
 10
-91.231549894028603
 20
187.791594209503050
 40
5.000000000000000
 50
180.000000000000000
 51
270.000000000000000
  0
LINE
  8
0
  6
DASHDOT
 62
4
 10
236.732041548640380
 20
118.291594209503270
 11
-227.527098415505630
 21
118.291594209503270
  0
LINE
  8
0
  6
DASHDOT
 62
4
 10
-83.531549894028842
 20
34.791594209503273
 11
-101.531549894028840
 21
34.791594209503273
  0
LINE
  8
0
  6
DASHDOT
 62
4
 10
-92.531549894028842
 20
25.791594209503273
 11
-92.531549894028842
 21
52.793193532053010
  0
LINE
  8
0
  6
DASHED
 62
4
 10
-99.531549894028842
 20
54.791594209503273
 11
-99.531549894028842
 21
34.791594209503273
  0
LINE
  8
0
  6
DASHED
 62
4
 10
-85.531549894028842
 20
54.791594209503273
 11
-85.531549894028842
 21
34.791594209503273
  0
ARC
  8
0
  6
DASHED
 62
4
 10
-92.531549894028842
 20
34.791594209503273
 40
7.000000000000000
 50
180.000000000000000
 51
0.000000000000000
  0
CIRCLE
  8
0
  6
DASHED
 62
4
 10
-92.531549894028842
 20
34.791594209503273
 40
6.000000000000000
  0
ARC
  8
0
  6
CONTINUOUS
 62
3
 10
355.127669068304390
 20
-128.057558807393430
 40
79.999999999999986
 50
39.848585875481504
 51
12.938012514045981
  0
ARC
  8
0
  6
CONTINUOUS
 62
3
 10
278.324348827575250
 20
-122.557558807393430
 40
3.000000000000195
 50
175.903956241837960
 51
270.000000000000000
  0
ARC
  8
0
  6
CONTINUOUS
 62
3
 10
283.056379116275820
 20
-122.557558807393430
 40
3.000000000000146
 50
164.678311543429370
 51
270.000000000000000
  0
ARC
  8
0
  6
CONTINUOUS
 62
3
 10
369.627669068304390
 20
-138.330707652151430
 40
62.692927983300109
 50
15.321688456567088
 51
56.614043319659181
  0
ARC
  8
0
  6
CONTINUOUS
 62
3
 10
220.368450105960160
 20
104.691594209502910
 40
0.399999999999636
 50
270.000000000000000
 51
0.000000000000000
  0
LINE
  8
0
  6
CONTINUOUS
 62
3
 10
220.768450105960710
 20
104.691594209502910
 11
220.768450105960710
 21
118.291594209503270
  0
LINE
  8
0
  6
CONTINUOUS
 62
3
 10
220.768450105960710
 20
101.291594209503270
 11
220.768450105960710
 21
104.691594209502910
  0
ARC
  8
0
  6
CONTINUOUS
 62
3
 10
220.368450105960160
 20
131.891594209503640
 40
0.400000000000546
 50
0.000000000000000
 51
90.000000000000000
  0
LINE
  8
0
  6
CONTINUOUS
 62
3
 10
220.768450105960710
 20
131.891594209503640
 11
220.768450105960710
 21
118.291594209503270
  0
ARC
  8
0
  6
CONTINUOUS
 62
3
 10
440.427669068304340
 20
-168.100058807393450
 40
20.799999999999990
 50
297.797377654170700
 51
334.359929784105190
  0
ARC
  8
0
  6
CONTINUOUS
 62
3
 10
440.427669068304340
 20
-168.100058807393450
 40
20.799999999999926
 50
334.359929784105190
 51
5.724810452223241
  0
ARC
  8
0
  6
CONTINUOUS
 62
3
 10
440.427669068304340
 20
-168.100058807393450
 40
20.799999999999926
 50
334.359929784105190
 51
5.724810452223241
  0
ARC
  8
0
  6
CONTINUOUS
 62
3
 10
438.427669068304340
 20
-128.100058807393450
 40
18.799999999999837
 50
5.724810452223617
 51
35.808626813495749
  0
ARC
  8
0
  6
CONTINUOUS
 62
3
 10
438.427669068304340
 20
-128.100058807393450
 40
18.799999999999933
 50
35.808626813495749
 51
51.512753096874874
  0
LINE
  8
0
  6
CONTINUOUS
 62
3
 10
461.123928419925280
 20
-166.025245839812500
 11
457.133903482269260
 21
-126.224747086695170
  0
LINE
  8
0
  6
CONTINUOUS
 62
4
 10
-96.731549894034174
 20
-209.057558807393430
 11
52.268450105966622
 21
-209.057558807393410
  0
LINE
  8
0
  6
CONTINUOUS
 62
4
 10
-96.731549894034174
 20
-210.057558807393430
 11
52.268450105966622
 21
-210.057558807393410
  0
LINE
  8
0
  6
CONTINUOUS
 62
4
 10
-96.731549894034174
 20
-211.057558807393430
 11
52.268450105966622
 21
-211.057558807393430
  0
LINE
  8
0
  6
CONTINUOUS
 62
4
 10
-96.731549894034174
 20
-211.557558807393430
 11
52.268450105966622
 21
-211.557558807393430
  0
LINE
  8
0
  6
CONTINUOUS
 62
4
 10
-96.731549894034174
 20
-204.373092994168930
 11
52.268450105966622
 21
-204.373092994168930
  0
LINE
  8
0
  6
CONTINUOUS
 62
4
 10
-14.831952384524698
 20
-189.772095947567320
 11
52.268450105966622
 21
-189.772095947567320
  0
LINE
  8
0
  6
CONTINUOUS
 62
4
 10
-14.531549894034356
 20
-180.249492599873070
 11
52.268450105966622
 21
-180.249492599873070
  0
LINE
  8
0
  6
CONTINUOUS
 62
4
 10
-14.531549894034356
 20
-174.057558807393430
 11
52.268450105966622
 21
-174.057558807393430
  0
LINE
  8
0
  6
CONTINUOUS
 62
4
 10
-14.531549894034356
 20
-184.339993133962710
 11
52.268450105966622
 21
-184.339993133962710
  0
LINE
  8
0
  6
CONTINUOUS
 62
4
 10
-14.531549894034356
 20
-178.887612264523800
 11
52.268450105966622
 21
-178.887612264523800
  0
LINE
  8
0
  6
CONTINUOUS
 62
4
 10
-14.531549894034356
 20
-185.808350523767790
 11
52.268450105966622
 21
-185.808350523767790
  0
LINE
  8
0
  6
CONTINUOUS
 62
4
 10
-105.634542452414280
 20
-191.376743863129380
 11
52.268450105966622
 21
-191.376743863129380
  0
LINE
  8
0
  6
CONTINUOUS
 62
4
 10
-96.731549894034174
 20
-199.423345525863170
 11
52.268450105966622
 21
-199.423345525863170
  0
LINE
  8
0
  6
CONTINUOUS
 62
4
 10
-96.731549894034174
 20
-99.057558807393434
 11
52.268450105966622
 21
-99.057558807393434
  0
LINE
  8
0
  6
CONTINUOUS
 62
4
 10
-96.731549894034174
 20
-98.057558807393434
 11
52.268450105966622
 21
-98.057558807393434
  0
LINE
  8
0
  6
CONTINUOUS
 62
4
 10
-96.731549894034174
 20
-97.057558807393434
 11
52.268450105966622
 21
-97.057558807393434
  0
LINE
  8
0
  6
CONTINUOUS
 62
4
 10
-96.731549894034174
 20
-96.557558807393434
 11
52.268450105966622
 21
-96.557558807393434
  0
LINE
  8
0
  6
CONTINUOUS
 62
4
 10
-14.831952384524470
 20
-118.343021667219540
 11
52.268450105966622
 21
-118.343021667219540
  0
LINE
  8
0
  6
CONTINUOUS
 62
4
 10
-14.531549894034356
 20
-122.306767091019080
 11
52.268450105966622
 21
-122.306767091019080
  0
LINE
  8
0
  6
CONTINUOUS
 62
4
 10
-105.634542452414280
 20
-116.738373751657490
 11
52.268450105966622
 21
-116.738373751657490
  0
LINE
  8
0
  6
CONTINUOUS
 62
4
 10
-96.731549894034174
 20
-108.691772088923690
 11
52.268450105966622
 21
-108.691772088923690
  0
LINE
  8
0
  6
CONTINUOUS
 62
4
 10
-96.731549894034174
 20
-103.742024620617940
 11
52.268450105966622
 21
-103.742024620617940
  0
LINE
  8
0
  6
CONTINUOUS
 62
4
 10
-14.531549894034356
 20
-134.057558807393430
 11
52.268450105966622
 21
-134.057558807393430
  0
LINE
  8
0
  6
CONTINUOUS
 62
4
 10
-14.531549894034356
 20
-127.865625014913800
 11
52.268450105966622
 21
-127.865625014913800
  0
LINE
  8
0
  6
CONTINUOUS
 62
4
 10
-14.531549894034356
 20
-129.227505350263070
 11
52.268450105966622
 21
-129.227505350263070
  0
LINE
  8
0
  6
CONTINUOUS
 62
4
 10
-14.531549894034356
 20
-123.775124480824160
 11
52.268450105966622
 21
-123.775124480824160
  0
LINE
  8
0
  6
CONTINUOUS
 62
3
 10
52.268450105965712
 20
-95.557558807393434
 11
-96.731549894034174
 21
-95.557558807393434
  0
LINE
  8
0
  6
DASHDOT
 62
4
 10
92.382109856098396
 20
-154.057558807393430
 11
-219.834809015839710
 21
-154.057558807393430
  0
LINE
  8
0
  6
CONTINUOUS
 62
3
 10
52.268450105965712
 20
-212.557558807393430
 11
-96.731549894034174
 21
-212.557558807393430
  0
POLYLINE
  8
0
  6
CONTINUOUS
 62
3
 66
1
 70
1
  0
VERTEX
  8
0
  6
CONTINUOUS
 62
3
 10
-103.031549894033610
 20
-205.981083839453280
  0
VERTEX
  8
0
  6
CONTINUOUS
 62
3
 10
-103.121859076138430
 20
-205.278126873252920
  0
VERTEX
  8
0
  6
CONTINUOUS
 62
3
 10
-103.389316091230560
 20
-204.602184149040820
  0
VERTEX
  8
0
  6
CONTINUOUS
 62
3
 10
-103.823642716211650
 20
-203.979231766635420
  0
VERTEX
  8
0
  6
CONTINUOUS
 62
3
 10
-104.408148022456840
 20
-203.433209436736830
  0
VERTEX
  8
0
  6
CONTINUOUS
 62
3
 10
-105.120369798841480
 20
-202.985100491270200
  0
VERTEX
  8
0
  6
CONTINUOUS
 62
3
 10
-105.932937761917680
 20
-202.652125505707460
  0
VERTEX
  8
0
  6
CONTINUOUS
 62
3
 10
-106.814625380557800
 20
-202.447080522009200
  0
VERTEX
  8
0
  6
CONTINUOUS
 62
3
 10
-107.731549894033600
 20
-202.377845303908430
  0
VERTEX
  8
0
  6
CONTINUOUS
 62
3
 10
-108.648474407509410
 20
-202.447080522009200
  0
VERTEX
  8
0
  6
CONTINUOUS
 62
3
 10
-109.530162026149520
 20
-202.652125505707460
  0
VERTEX
  8
0
  6
CONTINUOUS
 62
3
 10
-110.342729989225730
 20
-202.985100491270200
  0
VERTEX
  8
0
  6
CONTINUOUS
 62
3
 10
-111.054951765610360
 20
-203.433209436736830
  0
VERTEX
  8
0
  6
CONTINUOUS
 62
3
 10
-111.639457071855560
 20
-203.979231766635420
  0
VERTEX
  8
0
  6
CONTINUOUS
 62
3
 10
-112.073783696836640
 20
-204.602184149040820
  0
VERTEX
  8
0
  6
CONTINUOUS
 62
3
 10
-112.341240711928770
 20
-205.278126873252920
  0
VERTEX
  8
0
  6
CONTINUOUS
 62
3
 10
-112.431549894033590
 20
-205.981083839453280
  0
VERTEX
  8
0
  6
CONTINUOUS
 62
3
 10
-112.341240711928770
 20
-206.684040805653640
  0
VERTEX
  8
0
  6
CONTINUOUS
 62
3
 10
-112.073783696836640
 20
-207.359983529865730
  0
VERTEX
  8
0
  6
CONTINUOUS
 62
3
 10
-111.639457071855560
 20
-207.982935912271130
  0
VERTEX
  8
0
  6
CONTINUOUS
 62
3
 10
-111.054951765610360
 20
-208.528958242169720
  0
VERTEX
  8
0
  6
CONTINUOUS
 62
3
 10
-110.342729989225730
 20
-208.977067187636350
  0
VERTEX
  8
0
  6
CONTINUOUS
 62
3
 10
-109.530162026149520
 20
-209.310042173199090
  0
VERTEX
  8
0
  6
CONTINUOUS
 62
3
 10
-108.648474407509410
 20
-209.515087156897350
  0
VERTEX
  8
0
  6
CONTINUOUS
 62
3
 10
-107.731549894033600
 20
-209.584322374998120
  0
VERTEX
  8
0
  6
CONTINUOUS
 62
3
 10
-106.814625380557800
 20
-209.515087156897350
  0
VERTEX
  8
0
  6
CONTINUOUS
 62
3
 10
-105.932937761917680
 20
-209.310042173199090
  0
VERTEX
  8
0
  6
CONTINUOUS
 62
3
 10
-105.120369798841480
 20
-208.977067187636350
  0
VERTEX
  8
0
  6
CONTINUOUS
 62
3
 10
-104.408148022456840
 20
-208.528958242169720
  0
VERTEX
  8
0
  6
CONTINUOUS
 62
3
 10
-103.823642716211650
 20
-207.982935912271130
  0
VERTEX
  8
0
  6
CONTINUOUS
 62
3
 10
-103.389316091230560
 20
-207.359983529865730
  0
VERTEX
  8
0
  6
CONTINUOUS
 62
3
 10
-103.121859076138430
 20
-206.684040805653640
  0
SEQEND
  8
0
  6
CONTINUOUS
 62
3
  0
LINE
  8
0
  6
CONTINUOUS
 62
3
 10
-109.731549894033600
 20
-208.973459393453600
 11
-107.731549894033600
 21
-207.797673907831270
  0
LINE
  8
0
  6
CONTINUOUS
 62
3
 10
-107.731549894033600
 20
-207.797673907831270
 11
-105.731549894033600
 21
-206.145032268707840
  0
LINE
  8
0
  6
CONTINUOUS
 62
3
 10
-105.731549894033600
 20
-208.973459393453600
 11
-107.731549894033600
 21
-207.797673907831270
  0
LINE
  8
0
  6
CONTINUOUS
 62
3
 10
-107.731549894033600
 20
-207.797673907831270
 11
-109.731549894033600
 21
-206.145032268707840
  0
LINE
  8
0
  6
CONTINUOUS
 62
3
 10
-96.731549894034174
 20
-214.057558807393430
 11
-177.425574116454530
 21
-214.057558807393430
  0
LINE
  8
0
  6
CONTINUOUS
 62
3
 10
-199.731549893984040
 20
-154.057558807393430
 11
-199.731549893984040
 21
-201.500763864638880
  0
ARC
  8
0
  6
CONTINUOUS
 62
3
 10
-177.425574116454530
 20
-194.057558807393430
 40
20.000000000000007
 50
234.999999999999740
 51
270.000000000000000
  0
LINE
  8
0
  6
CONTINUOUS
 62
3
 10
-188.897102843475520
 20
-210.440599693173230
 11
-198.622848628496510
 21
-203.630559179790000
  0
ARC
  8
0
  6
CONTINUOUS
 62
3
 10
-197.131549893983900
 20
-201.500763864638880
 40
2.600000000000136
 50
180.000000000000000
 51
234.999999999998610
  0
LINE
  8
0
  6
CONTINUOUS
 62
3
 10
-96.731549894034174
 20
-195.057558807393430
 11
-96.731549894034174
 21
-214.057558807393430
  0
ARC
  8
0
  6
CONTINUOUS
 62
3
 10
-103.731549894034060
 20
-189.057558807393430
 40
3.000000000000000
 50
180.000000000000000
 51
270.000000000000000
  0
LINE
  8
0
  6
CONTINUOUS
 62
3
 10
-99.731549894034174
 20
-192.057558807393430
 11
-103.731549894034060
 21
-192.057558807393430
  0
ARC
  8
0
  6
CONTINUOUS
 62
3
 10
-99.731549894034174
 20
-195.057558807393430
 40
3.000000000000000
 50
0.000000000000000
 51
90.000000000000000
  0
LINE
  8
0
  6
CONTINUOUS
 62
3
 10
-106.731549894034060
 20
-189.057558807393430
 11
-106.731549894034060
 21
-154.057558807393430
  0
LINE
  8
0
  6
CONTINUOUS
 62
4
 10
-106.645213683030980
 20
-189.772095947567320
 11
-104.231147403544010
 21
-189.772095947567320
  0
LINE
  8
0
  6
CONTINUOUS
 62
4
 10
-106.731549894034060
 20
-184.339993133962710
 11
-104.531549894034350
 21
-184.339993133962710
  0
LINE
  8
0
  6
CONTINUOUS
 62
4
 10
-106.731549894034060
 20
-180.249492599873070
 11
-104.531549894034350
 21
-180.249492599873070
  0
LINE
  8
0
  6
CONTINUOUS
 62
4
 10
-106.731549894034060
 20
-178.887612264523800
 11
-104.531549894034350
 21
-178.887612264523800
  0
LINE
  8
0
  6
CONTINUOUS
 62
4
 10
-106.731549894034060
 20
-174.057558807393430
 11
-104.531549894034350
 21
-174.057558807393430
  0
LINE
  8
0
  6
CONTINUOUS
 62
4
 10
-106.731549894034060
 20
-123.775124480824160
 11
-104.531549894034350
 21
-123.775124480824160
  0
LINE
  8
0
  6
CONTINUOUS
 62
4
 10
-106.731549894034060
 20
-129.227505350263070
 11
-104.531549894034350
 21
-129.227505350263070
  0
LINE
  8
0
  6
CONTINUOUS
 62
4
 10
-106.731549894034060
 20
-127.865625014913800
 11
-104.531549894034350
 21
-127.865625014913800
  0
LINE
  8
0
  6
CONTINUOUS
 62
4
 10
-106.731549894034060
 20
-134.057558807393430
 11
-104.531549894034350
 21
-134.057558807393430
  0
LINE
  8
0
  6
CONTINUOUS
 62
4
 10
-106.645213683030980
 20
-118.343021667219540
 11
-104.231147403544010
 21
-118.343021667219540
  0
LINE
  8
0
  6
CONTINUOUS
 62
4
 10
-106.731549894034060
 20
-122.306767091019080
 11
-104.531549894034350
 21
-122.306767091019080
  0
LINE
  8
0
  6
CONTINUOUS
 62
3
 10
-96.731549894034174
 20
-113.057558807393430
 11
-96.731549894034174
 21
-94.057558807393434
  0
ARC
  8
0
  6
CONTINUOUS
 62
3
 10
-103.731549894034060
 20
-119.057558807393430
 40
3.000000000000000
 50
90.000000000000000
 51
180.000000000000000
  0
LINE
  8
0
  6
CONTINUOUS
 62
3
 10
-99.731549894034174
 20
-116.057558807393430
 11
-103.731549894034060
 21
-116.057558807393430
  0
ARC
  8
0
  6
CONTINUOUS
 62
3
 10
-99.731549894034174
 20
-113.057558807393430
 40
3.000000000000000
 50
270.000000000000000
 51
0.000000000000000
  0
LINE
  8
0
  6
CONTINUOUS
 62
3
 10
-106.731549894034060
 20
-119.057558807393430
 11
-106.731549894034060
 21
-154.057558807393430
  0
LINE
  8
0
  6
CONTINUOUS
 62
3
 10
-96.731549894034174
 20
-94.057558807393434
 11
-177.425574116454530
 21
-94.057558807393434
  0
LINE
  8
0
  6
CONTINUOUS
 62
3
 10
-199.731549893984040
 20
-154.057558807393430
 11
-199.731549893984040
 21
-106.614353750147980
  0
ARC
  8
0
  6
CONTINUOUS
 62
3
 10
-177.425574116454530
 20
-114.057558807393430
 40
20.000000000000000
 50
90.000000000000000
 51
125.000000000000240
  0
LINE
  8
0
  6
CONTINUOUS
 62
3
 10
-188.897102843475520
 20
-97.674517921613642
 11
-198.622848628496510
 21
-104.484558434996870
  0
ARC
  8
0
  6
CONTINUOUS
 62
3
 10
-197.131549893983900
 20
-106.614353750147980
 40
2.599999999999721
 50
125.000000000001370
 51
180.000000000000000
  0
POLYLINE
  8
0
  6
CONTINUOUS
 62
3
 66
1
 70
1
  0
VERTEX
  8
0
  6
CONTINUOUS
 62
3
 10
-103.031549894033610
 20
-102.134033775333360
  0
VERTEX
  8
0
  6
CONTINUOUS
 62
3
 10
-103.121859076138430
 20
-101.431076809133000
  0
VERTEX
  8
0
  6
CONTINUOUS
 62
3
 10
-103.389316091230560
 20
-100.755134084920910
  0
VERTEX
  8
0
  6
CONTINUOUS
 62
3
 10
-103.823642716211650
 20
-100.132181702515510
  0
VERTEX
  8
0
  6
CONTINUOUS
 62
3
 10
-104.408148022456840
 20
-99.586159372616933
  0
VERTEX
  8
0
  6
CONTINUOUS
 62
3
 10
-105.120369798841480
 20
-99.138050427150318
  0
VERTEX
  8
0
  6
CONTINUOUS
 62
3
 10
-105.932937761917680
 20
-98.805075441587547
  0
VERTEX
  8
0
  6
CONTINUOUS
 62
3
 10
-106.814625380557800
 20
-98.600030457889304
  0
VERTEX
  8
0
  6
CONTINUOUS
 62
3
 10
-107.731549894033600
 20
-98.530795239788532
  0
VERTEX
  8
0
  6
CONTINUOUS
 62
3
 10
-108.648474407509410
 20
-98.600030457889304
  0
VERTEX
  8
0
  6
CONTINUOUS
 62
3
 10
-109.530162026149520
 20
-98.805075441587547
  0
VERTEX
  8
0
  6
CONTINUOUS
 62
3
 10
-110.342729989225730
 20
-99.138050427150318
  0
VERTEX
  8
0
  6
CONTINUOUS
 62
3
 10
-111.054951765610360
 20
-99.586159372616933
  0
VERTEX
  8
0
  6
CONTINUOUS
 62
3
 10
-111.639457071855560
 20
-100.132181702515510
  0
VERTEX
  8
0
  6
CONTINUOUS
 62
3
 10
-112.073783696836640
 20
-100.755134084920910
  0
VERTEX
  8
0
  6
CONTINUOUS
 62
3
 10
-112.341240711928770
 20
-101.431076809133000
  0
VERTEX
  8
0
  6
CONTINUOUS
 62
3
 10
-112.431549894033590
 20
-102.134033775333360
  0
VERTEX
  8
0
  6
CONTINUOUS
 62
3
 10
-112.341240711928770
 20
-102.836990741533720
  0
VERTEX
  8
0
  6
CONTINUOUS
 62
3
 10
-112.073783696836640
 20
-103.512933465745810
  0
VERTEX
  8
0
  6
CONTINUOUS
 62
3
 10
-111.639457071855560
 20
-104.135885848151210
  0
VERTEX
  8
0
  6
CONTINUOUS
 62
3
 10
-111.054951765610360
 20
-104.681908178049790
  0
VERTEX
  8
0
  6
CONTINUOUS
 62
3
 10
-110.342729989225730
 20
-105.130017123516410
  0
VERTEX
  8
0
  6
CONTINUOUS
 62
3
 10
-109.530162026149520
 20
-105.462992109079180
  0
VERTEX
  8
0
  6
CONTINUOUS
 62
3
 10
-108.648474407509410
 20
-105.668037092777420
  0
VERTEX
  8
0
  6
CONTINUOUS
 62
3
 10
-107.731549894033600
 20
-105.737272310878190
  0
VERTEX
  8
0
  6
CONTINUOUS
 62
3
 10
-106.814625380557800
 20
-105.668037092777420
  0
VERTEX
  8
0
  6
CONTINUOUS
 62
3
 10
-105.932937761917680
 20
-105.462992109079180
  0
VERTEX
  8
0
  6
CONTINUOUS
 62
3
 10
-105.120369798841480
 20
-105.130017123516410
  0
VERTEX
  8
0
  6
CONTINUOUS
 62
3
 10
-104.408148022456840
 20
-104.681908178049790
  0
VERTEX
  8
0
  6
CONTINUOUS
 62
3
 10
-103.823642716211650
 20
-104.135885848151210
  0
VERTEX
  8
0
  6
CONTINUOUS
 62
3
 10
-103.389316091230560
 20
-103.512933465745810
  0
VERTEX
  8
0
  6
CONTINUOUS
 62
3
 10
-103.121859076138430
 20
-102.836990741533720
  0
SEQEND
  8
0
  6
CONTINUOUS
 62
3
  0
LINE
  8
0
  6
CONTINUOUS
 62
3
 10
-109.731549894033600
 20
-99.141658221333046
 11
-107.731549894033600
 21
-100.317443706955820
  0
LINE
  8
0
  6
CONTINUOUS
 62
3
 10
-107.731549894033600
 20
-100.317443706955820
 11
-105.731549894033600
 21
-101.970085346079250
  0
LINE
  8
0
  6
CONTINUOUS
 62
3
 10
-105.731549894033600
 20
-99.141658221333046
 11
-107.731549894033600
 21
-100.317443706955820
  0
LINE
  8
0
  6
CONTINUOUS
 62
3
 10
-107.731549894033600
 20
-100.317443706955820
 11
-109.731549894033600
 21
-101.970085346079250
  0
ARC
  8
0
  6
CONTINUOUS
 62
3
 10
-15.531549894034356
 20
-189.057558807393430
 40
1.000000000000000
 50
270.000000000000000
 51
0.000000000000000
  0
ARC
  8
0
  6
CONTINUOUS
 62
3
 10
-15.531549894034356
 20
-119.057558807393430
 40
1.000000000000000
 50
0.000000000000000
 51
90.000000000000000
  0
LINE
  8
0
  6
CONTINUOUS
 62
3
 10
-14.531549894034356
 20
-119.057558807393430
 11
-14.531549894034356
 21
-189.057558807393430
  0
ARC
  8
0
  6
CONTINUOUS
 62
3
 10
-103.531549894034350
 20
-119.057558807393430
 40
1.000000000000000
 50
90.000000000000000
 51
180.000000000000000
  0
ARC
  8
0
  6
CONTINUOUS
 62
3
 10
-103.531549894034350
 20
-189.057558807393430
 40
1.000000000000000
 50
180.000000000000000
 51
270.000000000000000
  0
LINE
  8
0
  6
CONTINUOUS
 62
3
 10
-104.531549894034350
 20
-119.057558807393430
 11
-104.531549894034350
 21
-189.057558807393430
  0
LINE
  8
0
  6
CONTINUOUS
 62
3
 10
-15.531549894034356
 20
-118.057558807393430
 11
-103.531549894034350
 21
-118.057558807393430
  0
LINE
  8
0
  6
CONTINUOUS
 62
3
 10
-15.531549894034356
 20
-190.057558807393430
 11
-103.531549894034350
 21
-190.057558807393430
  0
LINE
  8
0
  6
CONTINUOUS
 62
3
 10
257.638085915822100
 20
-156.557558807393430
 11
257.127669068304390
 21
-156.557558807393430
  0
LINE
  8
0
  6
CONTINUOUS
 62
3
 10
257.627670925502120
 20
-151.557558807393430
 11
257.127669068304390
 21
-151.557558807393430
  0
LINE
  8
0
  6
CONTINUOUS
 62
3
 10
257.127669068304390
 20
-156.557558807393430
 11
257.127669068304390
 21
-151.557558807393430
  0
ARC
  8
0
  6
CONTINUOUS
 62
3
 10
355.127669068304390
 20
-128.057558807393430
 40
79.999999999999972
 50
11.523465975594833
 51
40.198932886414596
  0
ARC
  8
0
  6
CONTINUOUS
 62
3
 10
340.627669068304390
 20
-138.330707652151430
 40
62.692927983299832
 50
123.385956680340820
 51
164.678311543432900
  0
ARC
  8
0
  6
CONTINUOUS
 62
3
 10
301.324075083147360
 20
-183.140889083261750
 40
2.999999999999571
 50
225.673360121564310
 51
4.263738012311674
  0
LINE
  8
0
  6
DASHDOT
 62
4
 10
246.660029206177570
 20
-128.057558807393430
 11
468.398020626209470
 21
-128.057558807393430
  0
LINE
  8
0
  6
CONTINUOUS
 62
3
 10
278.324348827575250
 20
-125.557558807393430
 11
317.527802047262870
 21
-125.557558807393430
  0
LINE
  8
0
  6
CONTINUOUS
 62
3
 10
278.324348827575250
 20
-130.557558807393430
 11
317.527802047262870
 21
-130.557558807393430
  0
LINE
  8
0
  6
CONTINUOUS
 62
3
 10
260.127669068304390
 20
-43.057558807393434
 11
260.127669068304390
 21
-213.057558807393430
  0
LINE
  8
0
  6
CONTINUOUS
 62
3
 10
278.041866002729420
 20
-185.344371999744910
 11
260.713455505931510
 21
-202.672782496542820
  0
ARC
  8
0
  6
DASHDOT
 62
4
 10
355.127669068304390
 20
-128.057558807393430
 40
117.499999999999870
 50
219.132561753867150
 51
230.364178174484010
  0
ARC
  8
0
  6
CONTINUOUS
 62
3
 10
355.127669068304390
 20
-128.057558807393430
 40
88.000000000000014
 50
149.175803515866790
 51
174.956497631052430
  0
ARC
  8
0
  6
CONTINUOUS
 62
3
 10
281.125881689056310
 20
-133.557558807393430
 40
3.000000000000000
 50
90.000000000000000
 51
175.413634931326700
  0
ARC
  8
0
  6
CONTINUOUS
 62
3
 10
340.627669068304390
 20
-138.330707652151430
 40
62.692927983299811
 50
175.413634931334290
 51
180.000000000000000
  0
ARC
  8
0
  6
CONTINUOUS
 62
3
 10
278.324348827575250
 20
-133.557558807393430
 40
3.000000000000000
 50
90.000000000000000
 51
184.096043758144700
  0
LINE
  8
0
  6
CONTINUOUS
 62
3
 10
277.934741085004590
 20
-148.658758706061230
 11
277.934741085004590
 21
-138.330707652151430
  0
ARC
  8
0
  6
CONTINUOUS
 62
3
 10
355.127669068304390
 20
-128.057558807393430
 40
88.000000000000085
 50
185.043502368947570
 51
210.824196484133210
  0
ARC
  8
0
  6
CONTINUOUS
 62
3
 10
270.970798190863660
 20
-178.273304187879150
 40
10.000000000000401
 50
315.000000000000000
 51
30.824196484128137
  0
ARC
  8
0
  6
CONTINUOUS
 62
3
 10
264.479999489875810
 20
-136.057558807393430
 40
2.999999999999722
 50
5.043502368944078
 51
90.000000000000000
  0
ARC
  8
0
  6
CONTINUOUS
 62
3
 10
264.479999489875350
 20
-120.057558807393430
 40
3.000000000000000
 50
270.000000000000000
 51
354.956497631056660
  0
ARC
  8
0
  6
CONTINUOUS
 62
3
 10
262.127669068304390
 20
-125.057558807393430
 40
2.000000000000000
 50
90.000000000000000
 51
180.000000000000000
  0
LINE
  8
0
  6
CONTINUOUS
 62
3
 10
264.479999489875350
 20
-123.057558807393430
 11
262.127669068304390
 21
-123.057558807393430
  0
ARC
  8
0
  6
CONTINUOUS
 62
3
 10
262.127669068304390
 20
-131.057558807393430
 40
2.000000000000000
 50
180.000000000000000
 51
270.000000000000000
  0
LINE
  8
0
  6
CONTINUOUS
 62
3
 10
264.479999489875350
 20
-133.057558807393430
 11
262.127669068304390
 21
-133.057558807393430
  0
LINE
  8
0
  6
CONTINUOUS
 62
3
 10
257.127669068304440
 20
-156.557558807393430
 11
257.127669068304440
 21
-151.557558807393430
  0
LINE
  8
0
  6
DASHED
 62
3
 10
272.964293404547160
 20
-156.663255485555110
 11
272.963916703192180
 21
-156.663255485555110
  0
LINE
  8
0
  6
CONTINUOUS
 62
3
 10
257.627670925502060
 20
-151.557558807393430
 11
257.127669068304440
 21
-151.557558807393430
  0
LINE
  8
0
  6
CONTINUOUS
 62
3
 10
257.638085915822270
 20
-156.557558807393430
 11
257.127669068304440
 21
-156.557558807393430
  0
ARC
  8
0
  6
CONTINUOUS
 62
3
 10
557.627669068304500
 20
-154.057558807393430
 40
300.000000000000000
 50
173.967950853630190
 51
186.032049146369810
  0
ARC
  8
0
  6
CONTINUOUS
 62
3
 10
264.261004295362000
 20
-123.057558807393430
 40
5.000000000000046
 50
145.757869862926380
 51
173.967950853630100
  0
ARC
  8
0
  6
CONTINUOUS
 62
3
 10
264.261004295362000
 20
-185.057558807393430
 40
4.999999999999968
 50
186.032049146369900
 51
214.242130137073620
  0
LINE
  8
0
  6
CONTINUOUS
 62
3
 10
278.041866002729420
 20
-70.770745615041960
 11
260.713455505931510
 21
-53.442335118243136
  0
ARC
  8
0
  6
CONTINUOUS
 62
3
 10
270.970798190864120
 20
-77.841813426906810
 40
10.000000000000068
 50
329.175803515866050
 51
44.999999999998167
  0
ARC
  8
0
  6
CONTINUOUS
 62
3
 10
279.098231816781660
 20
-35.057558807393434
 40
2.000000000000338
 50
45.000000000000000
 51
90.000000000000000
  0
ARC
  8
0
  6
CONTINUOUS
 62
3
 10
262.127669068304390
 20
-52.028121555870712
 40
2.000000000000000
 50
180.000000000000000
 51
224.999999999990790
  0
ARC
  8
0
  6
DASHDOT
 62
4
 10
355.127669068304390
 20
-128.057558807393430
 40
117.499999999999780
 50
129.635821825516160
 51
140.364178174483360
  0
ARC
  8
0
  6
CONTINUOUS
 62
3
 10
270.127669068304390
 20
-43.057558807393434
 40
10.000000000000000
 50
90.000000000000000
 51
180.000000000000000
  0
CIRCLE
  8
0
  6
CONTINUOUS
 62
3
 10
272.042622278885120
 20
-44.972512017973713
 40
6.000000000000000
  0
LINE
  8
0
  6
DASHDOT
 62
4
 10
280.611358905463250
 20
-202.573868970235030
 11
264.264447685833600
 21
-218.920780189864670
  0
ARC
  8
0
  6
CONTINUOUS
 62
3
 10
279.098231816781210
 20
-221.057558807393430
 40
2.000000000000000
 50
270.000000000000000
 51
315.000000000000000
  0
ARC
  8
0
  6
CONTINUOUS
 62
3
 10
262.127669068304390
 20
-204.086996058916160
 40
2.000000000000016
 50
134.999999999990790
 51
180.000000000000000
  0
ARC
  8
0
  6
CONTINUOUS
 62
3
 10
270.127669068304390
 20
-213.057558807393430
 40
10.000000000000000
 50
180.000000000000000
 51
270.000000000000000
  0
CIRCLE
  8
0
  6
CONTINUOUS
 62
3
 10
272.042622278885570
 20
-211.142605596813150
 40
6.000000000000000
  0
LINE
  8
0
  6
CONTINUOUS
 62
3
 10
338.127669068304390
 20
-132.057558807394340
 11
338.127669068304390
 21
-124.057558807394340
  0
LINE
  8
0
  6
CONTINUOUS
 62
3
 10
338.127669068304390
 20
-132.057558807394340
 11
345.127669068304390
 21
-132.057558807394340
  0
LINE
  8
0
  6
CONTINUOUS
 62
3
 10
345.127669068304390
 20
-132.057558807394340
 11
345.127669068304390
 21
-124.057558807394340
  0
LINE
  8
0
  6
CONTINUOUS
 62
3
 10
338.127669068304390
 20
-124.057558807394340
 11
345.127669068304390
 21
-124.057558807394340
  0
ARC
  8
0
  6
CONTINUOUS
 62
3
 10
355.127669068304390
 20
-128.057558807394340
 40
13.999999999999572
 50
196.601549599020760
 51
163.398450400979240
  0
CIRCLE
  8
0
  6
CONTINUOUS
 62
3
 10
355.127669068304390
 20
-128.057558807393430
 40
3.323500000000024
  0
CIRCLE
  8
0
  6
CONTINUOUS
 62
4
 10
355.127669068304390
 20
-128.057558807393430
 40
4.000000000000000
  0
LINE
  8
0
  6
DASHDOT
 62
4
 10
376.960173202784060
 20
-154.057558807393430
 11
332.929158880884640
 21
-154.057558807393430
  0
LINE
  8
0
  6
DASHDOT
 62
4
 10
355.127669068304390
 20
-20.633164582688551
 11
355.127669068304390
 21
-250.037299995079590
  0
ARC
  8
0
  6
DASHDOT
 62
4
 10
355.127669068304390
 20
-128.057558807393430
 40
117.499999999999840
 50
39.722139981755809
 51
50.364178174483833
  0
CIRCLE
  8
0
  6
CONTINUOUS
 62
3
 10
355.127669068304390
 20
-128.057558807393430
 40
22.499999999999545
  0
CIRCLE
  8
0
  6
CONTINUOUS
 62
3
 10
355.127669068304390
 20
-128.057558807393430
 40
35.000000000000000
  0
LINE
  8
0
  6
CONTINUOUS
 62
3
 10
431.930989309033520
 20
-130.557558807393430
 11
392.727536089345900
 21
-130.557558807393430
  0
LINE
  8
0
  6
CONTINUOUS
 62
3
 10
431.930989309033520
 20
-125.557558807393430
 11
392.727536089345900
 21
-125.557558807393430
  0
LINE
  8
0
  6
CONTINUOUS
 62
3
 10
357.627669068304390
 20
-51.254238566663844
 11
357.627669068304390
 21
-90.457691786351461
  0
LINE
  8
0
  6
CONTINUOUS
 62
3
 10
352.627669068304390
 20
-51.254238566663844
 11
352.627669068304390
 21
-90.457691786351461
  0
LINE
  8
0
  6
CONTINUOUS
 62
3
 10
445.775338646733420
 20
-123.057558807393430
 11
448.127669068304390
 21
-123.057558807393430
  0
LINE
  8
0
  6
CONTINUOUS
 62
3
 10
445.775338646733420
 20
-133.057558807393430
 11
448.127669068304390
 21
-133.057558807393430
  0
LINE
  8
0
  6
CONTINUOUS
 62
3
 10
412.414482260655860
 20
-205.143361872967940
 11
429.742892757453770
 21
-222.471772369766770
  0
LINE
  8
0
  6
CONTINUOUS
 62
3
 10
297.840855875952460
 20
-205.143361872967940
 11
280.512445379154540
 21
-222.471772369766770
  0
LINE
  8
0
  6
CONTINUOUS
 62
3
 10
297.840855875952910
 20
-50.971755741818015
 11
280.512445379155000
 21
-33.643345245020100
  0
LINE
  8
0
  6
CONTINUOUS
 62
3
 10
412.414482260655860
 20
-50.971755741818015
 11
429.742892757453770
 21
-33.643345245020100
  0
LINE
  8
0
  6
DASHDOT
 62
4
 10
280.420649750923300
 20
-53.350539490011954
 11
264.064660488821800
 21
-36.994550227910395
  0
LINE
  8
0
  6
CONTINUOUS
 62
3
 10
270.127669068304390
 20
-33.057558807393434
 11
440.127669068304390
 21
-33.057558807393434
  0
LINE
  8
0
  6
CONTINUOUS
 62
3
 10
432.213472133879350
 20
-185.344371999744910
 11
449.541882630677260
 21
-202.672782496543730
  0
LINE
  8
0
  6
CONTINUOUS
 62
3
 10
450.127669068304390
 20
-43.057558807393434
 11
450.127669068304390
 21
-213.057558807393430
  0
LINE
  8
0
  6
CONTINUOUS
 62
3
 10
432.213472133879350
 20
-70.770745615041960
 11
449.541882630677260
 21
-53.442335118243136
  0
LINE
  8
0
  6
DASHDOT
 62
4
 10
429.307518147980770
 20
-53.877709727716990
 11
445.990890450775620
 21
-37.194337424922196
  0
LINE
  8
0
  6
DASHDOT
 62
4
 10
430.220108195828740
 20
-203.149997934918760
 11
445.909288418161170
 21
-218.839178157251520
  0
LINE
  8
0
  6
DASHED
 62
4
 10
299.759125752651470
 20
-223.057558807393430
 11
301.139038580386570
 21
-223.057558807393430
  0
LINE
  8
0
  6
CONTINUOUS
 62
3
 10
270.127669068304390
 20
-223.057558807393430
 11
299.759125752651470
 21
-223.057558807393430
  0
LINE
  8
0
  6
CONTINUOUS
 62
3
 10
410.496212383957300
 20
-223.057558807393430
 11
440.127669068304390
 21
-223.057558807393430
  0
LINE
  8
0
  6
CONTINUOUS
 62
3
 10
432.320597051604180
 20
-138.330707652151430
 11
432.320597051604180
 21
-148.658758706061230
  0
LINE
  8
0
  6
CONTINUOUS
 62
3
 10
302.587287461409230
 20
-71.981643294565401
 11
330.308315078980290
 21
-99.702670912136455
  0
LINE
  8
0
  6
CONTINUOUS
 62
3
 10
299.051753555476810
 20
-75.517177200497827
 11
326.772781173046950
 21
-103.238204818068880
  0
LINE
  8
0
  6
CONTINUOUS
 62
3
 10
407.668050675199540
 20
-71.981643294565401
 11
379.947023057628940
 21
-99.702670912136455
  0
LINE
  8
0
  6
CONTINUOUS
 62
3
 10
411.203584581132420
 20
-75.517177200497827
 11
383.482556963561820
 21
-103.238204818068880
  0
LINE
  8
0
  6
CONTINUOUS
 62
3
 10
411.203584581131960
 20
-180.597940414289040
 11
383.482556963561820
 21
-152.876912796717990
  0
ARC
  8
0
  6
CONTINUOUS
 62
3
 10
331.241046698470650
 20
-180.910461014944300
 40
27.000000000000064
 50
101.549996895618320
 51
184.263738012298550
  0
CIRCLE
  8
0
  6
CONTINUOUS
 62
3
 10
355.127669068304390
 20
-128.057558807393430
 40
27.500000000000000
  0
ARC
  8
0
  6
CONTINUOUS
 62
3
 10
448.127669068304390
 20
-125.057558807393430
 40
2.000000000000000
 50
0.000000000000000
 51
90.000000000000000
  0
ARC
  8
0
  6
CONTINUOUS
 62
3
 10
445.775338646733420
 20
-120.057558807393430
 40
3.000000000000175
 50
185.043502368943310
 51
270.000000000000000
  0
ARC
  8
0
  6
CONTINUOUS
 62
3
 10
448.127669068304390
 20
-131.057558807393430
 40
2.000000000000000
 50
270.000000000000000
 51
0.000000000000000
  0
ARC
  8
0
  6
CONTINUOUS
 62
3
 10
445.775338646733420
 20
-136.057558807393430
 40
3.000000000000000
 50
90.000000000000000
 51
174.956497631056660
  0
ARC
  8
0
  6
CONTINUOUS
 62
3
 10
405.343414448790550
 20
-212.214429684833700
 40
10.000000000000082
 50
45.000000000001855
 51
120.824196484135270
  0
ARC
  8
0
  6
CONTINUOUS
 62
3
 10
304.911923687818220
 20
-212.214429684833700
 40
9.999999999999677
 50
59.175803515864729
 51
135.000000000000000
  0
ARC
  8
0
  6
CONTINUOUS
 62
3
 10
355.127669068304390
 20
-128.057558807393430
 40
88.000000000000185
 50
239.175803515867240
 51
300.824196484132760
  0
ARC
  8
0
  6
CONTINUOUS
 62
3
 10
355.127669068304390
 20
-128.057558807393430
 40
88.000000000000185
 50
59.175803515867223
 51
120.824196484132780
  0
ARC
  8
0
  6
CONTINUOUS
 62
3
 10
304.911923687818220
 20
-43.900687929953165
 40
9.999999999999437
 50
224.999999999998180
 51
300.824196484135310
  0
ARC
  8
0
  6
CONTINUOUS
 62
3
 10
405.343414448790550
 20
-43.900687929953165
 40
9.999999999999677
 50
239.175803515864690
 51
315.000000000001820
  0
ARC
  8
0
  6
CONTINUOUS
 62
3
 10
448.127669068304390
 20
-204.086996058916160
 40
2.000000000000000
 50
0.000000000000000
 51
44.999999999990798
  0
ARC
  8
0
  6
CONTINUOUS
 62
3
 10
440.127669068304390
 20
-213.057558807393430
 40
10.000000000000000
 50
270.000000000000000
 51
0.000000000000000
  0
ARC
  8
0
  6
DASHDOT
 62
4
 10
355.127669068304390
 20
-128.057558807393430
 40
117.499999999999500
 50
309.635821825515960
 51
320.364178174483360
  0
CIRCLE
  8
0
  6
CONTINUOUS
 62
3
 10
438.212715857723650
 20
-211.142605596813150
 40
6.000000000000000
  0
ARC
  8
0
  6
CONTINUOUS
 62
3
 10
439.284539945744650
 20
-178.273304187879150
 40
9.999999999999602
 50
149.175803515870540
 51
225.000000000001850
  0
ARC
  8
0
  6
CONTINUOUS
 62
3
 10
355.127669068304390
 20
-128.057558807393430
 40
88.000000000000014
 50
329.175803515866790
 51
354.956497631052460
  0
ARC
  8
0
  6
CONTINUOUS
 62
3
 10
448.127669068304390
 20
-52.028121555870712
 40
1.999999999999373
 50
315.000000000009210
 51
0.000000000000000
  0
ARC
  8
0
  6
CONTINUOUS
 62
3
 10
431.157106319827110
 20
-35.057558807393434
 40
2.000000000000000
 50
90.000000000000000
 51
135.000000000000000
  0
ARC
  8
0
  6
CONTINUOUS
 62
3
 10
439.284539945744650
 20
-77.841813426906810
 40
9.999999999999437
 50
135.000000000001820
 51
210.824196484133950
  0
ARC
  8
0
  6
CONTINUOUS
 62
3
 10
440.127669068304390
 20
-43.057558807393434
 40
10.000000000000000
 50
0.000000000000000
 51
90.000000000000000
  0
CIRCLE
  8
0
  6
CONTINUOUS
 62
3
 10
438.212715857723650
 20
-44.972512017973713
 40
6.000000000000000
  0
ARC
  8
0
  6
CONTINUOUS
 62
3
 10
431.157106319827110
 20
-221.057558807393430
 40
2.000000000000338
 50
225.000000000000000
 51
270.000000000000000
  0
ARC
  8
0
  6
CONTINUOUS
 62
3
 10
360.627669068304390
 20
-51.254238566663844
 40
2.999999999999255
 50
85.903956241845407
 51
180.000000000000000
  0
ARC
  8
0
  6
CONTINUOUS
 62
3
 10
349.627669068304390
 20
-51.254238566663844
 40
3.000000000000000
 50
0.000000000000000
 51
94.096043758154593
  0
ARC
  8
0
  6
CONTINUOUS
 62
3
 10
431.930989309033520
 20
-122.557558807393430
 40
3.000000000000000
 50
270.000000000000000
 51
4.096043758162018
  0
ARC
  8
0
  6
CONTINUOUS
 62
3
 10
431.930989309033520
 20
-133.557558807393430
 40
3.000000000000130
 50
355.903956241855330
 51
90.000000000000000
  0
ARC
  8
0
  6
CONTINUOUS
 62
3
 10
355.127669068304390
 20
-128.057558807393430
 40
88.000000000000085
 50
5.043502368947569
 51
30.824196484133207
  0
ARC
  8
0
  6
CONTINUOUS
 62
3
 10
299.759125752651470
 20
-226.057558807393430
 40
3.000000000000225
 50
2.314929004306812
 51
90.000000000000000
  0
ARC
  8
0
  6
CONTINUOUS
 62
3
 10
312.127669068304390
 20
-225.557558807393430
 40
9.378645473200079
 50
182.314929004302910
 51
228.277461126551540
  0
ARC
  8
0
  6
CONTINUOUS
 62
3
 10
398.127669068304840
 20
-225.557558807393430
 40
9.378645473199995
 50
311.722538873448460
 51
357.685070995696950
  0
ARC
  8
0
  6
CONTINUOUS
 62
3
 10
410.496212383957300
 20
-226.057558807393430
 40
3.000000000000000
 50
90.000000000000000
 51
177.685070995693200
  0
ARC
  8
0
  6
CONTINUOUS
 62
3
 10
340.627669068304390
 20
-138.330707652151430
 40
62.692927983299825
 50
92.158403465040607
 51
112.319350801796330
  0
ARC
  8
0
  6
CONTINUOUS
 62
3
 10
355.127669068304840
 20
-523.057558807617170
 40
447.692927983299800
 50
90.708657147836817
 51
92.158403465040649
  0
ARC
  8
0
  6
CONTINUOUS
 62
3
 10
369.627669068304390
 20
-138.330707652151430
 40
62.692927983299796
 50
0.000000000000000
 51
4.586365068665701
  0
ARC
  8
0
  6
CONTINUOUS
 62
3
 10
355.127669068304390
 20
-523.057558807617170
 40
447.692927983299680
 50
87.841596534959422
 51
89.291342852163240
  0
ARC
  8
0
  6
CONTINUOUS
 62
3
 10
369.627669068304390
 20
-138.330707652151430
 40
62.692927983300109
 50
15.321688456567088
 51
22.451256460373514
  0
ARC
  8
0
  6
CONTINUOUS
 62
3
 10
304.708607804968780
 20
-69.860322951005401
 40
2.999999999999418
 50
130.903956241850580
 51
225.000000000006170
  0
ARC
  8
0
  6
CONTINUOUS
 62
3
 10
296.930433211916810
 20
-77.638497544057827
 40
3.000000000000185
 50
45.000000000006146
 51
139.096043758148540
  0
ARC
  8
0
  6
CONTINUOUS
 62
3
 10
413.324904924691960
 20
-77.638497544057827
 40
3.000000000000403
 50
40.903956241845769
 51
134.999999999993830
  0
ARC
  8
0
  6
CONTINUOUS
 62
3
 10
405.546730331639990
 20
-69.860322951005401
 40
3.000000000000185
 50
314.999999999993860
 51
49.096043758149435
  0
ARC
  8
0
  6
CONTINUOUS
 62
3
 10
369.627669068304390
 20
-138.330707652151430
 40
62.692927983300230
 50
67.680649198203270
 51
87.841596534959393
  0
ARC
  8
0
  6
CONTINUOUS
 62
3
 10
413.324904924691960
 20
-178.476620070729040
 40
3.000000000000507
 50
225.000000000000000
 51
319.096043758148540
  0
ARC
  8
0
  6
CONTINUOUS
 62
3
 10
317.527802047262870
 20
-122.557558807393430
 40
3.000000000000000
 50
270.000000000000000
 51
351.677959400822430
  0
ARC
  8
0
  6
CONTINUOUS
 62
3
 10
317.527802047262870
 20
-133.557558807393430
 40
3.000000000000119
 50
8.322040599177583
 51
90.000000000000000
  0
ARC
  8
0
  6
CONTINUOUS
 62
3
 10
392.727536089345900
 20
-122.557558807393430
 40
3.000000000000119
 50
188.322040599177600
 51
270.000000000000000
  0
ARC
  8
0
  6
CONTINUOUS
 62
3
 10
392.727536089345900
 20
-133.557558807393430
 40
3.000000000000000
 50
90.000000000000000
 51
171.677959400822400
  0
ARC
  8
0
  6
CONTINUOUS
 62
3
 10
349.627669068304390
 20
-90.457691786351461
 40
3.000000000000119
 50
278.322040599177570
 51
0.000000000000000
  0
ARC
  8
0
  6
CONTINUOUS
 62
3
 10
360.627669068304390
 20
-90.457691786351461
 40
3.000000000000000
 50
180.000000000000000
 51
261.677959400831010
  0
ARC
  8
0
  6
CONTINUOUS
 62
3
 10
355.127669068304390
 20
-128.057558807393430
 40
41.999999999999993
 50
93.412480210152708
 51
131.587519789847140
  0
ARC
  8
0
  6
CONTINUOUS
 62
3
 10
355.127669068304390
 20
-128.057558807393430
 40
41.999999999999993
 50
3.412480210152714
 51
41.587519789847612
  0
ARC
  8
0
  6
CONTINUOUS
 62
3
 10
355.127669068304390
 20
-128.057558807393430
 40
41.999999999999993
 50
183.412480210152720
 51
220.223497577760530
  0
ARC
  8
0
  6
CONTINUOUS
 62
3
 10
325.234358170380350
 20
-151.517950184352230
 40
2.999999999999337
 50
281.549996895632720
 51
38.124966414610668
  0
ARC
  8
0
  6
CONTINUOUS
 62
3
 10
360.627669068304390
 20
-78.398644359294849
 40
2.999999999999795
 50
89.291342852161520
 51
180.000000000000000
  0
ARC
  8
0
  6
CONTINUOUS
 62
3
 10
349.627669068304390
 20
-78.398644359294849
 40
3.000000000000000
 50
0.000000000000000
 51
90.708657147838480
  0
ARC
  8
0
  6
CONTINUOUS
 62
3
 10
429.129456447552460
 20
-133.557558807393430
 40
2.999999999999651
 50
4.586365068673312
 51
90.000000000000000
  0
ARC
  8
0
  6
CONTINUOUS
 62
3
 10
427.198959020332950
 20
-122.557558807393430
 40
3.000000000000000
 50
270.000000000000000
 51
15.321688456570628
  0
ARC
  8
0
  6
CONTINUOUS
 62
3
 10
429.320597051604180
 20
-148.658758706061230
 40
3.000000000000288
 50
344.481586472375000
 51
0.000000000000000
  0
ARC
  8
0
  6
CONTINUOUS
 62
3
 10
332.429635422539380
 20
-97.581350568576454
 40
2.999999999999864
 50
225.000000000012280
 51
306.677959400826810
  0
ARC
  8
0
  6
CONTINUOUS
 62
3
 10
324.651460829487860
 20
-105.359525161628880
 40
2.999999999999426
 50
323.322040599176720
 51
45.000000000012292
  0
ARC
  8
0
  6
CONTINUOUS
 62
3
 10
355.127669068304390
 20
-128.057558807393430
 40
41.999999999999943
 50
138.412480210151980
 51
176.587519789847280
  0
ARC
  8
0
  6
CONTINUOUS
 62
3
 10
307.780077428290950
 20
-88.488141760431972
 40
2.999999999999864
 50
44.999999999987722
 51
123.385956680338290
  0
ARC
  8
0
  6
CONTINUOUS
 62
3
 10
317.958168555919660
 20
-83.109883701956278
 40
2.999999999999910
 50
112.319350801792870
 51
225.000000000006170
  0
ARC
  8
0
  6
CONTINUOUS
 62
3
 10
385.603877307121370
 20
-105.359525161628880
 40
3.000000000000185
 50
134.999999999993830
 51
216.677959400818080
  0
ARC
  8
0
  6
CONTINUOUS
 62
3
 10
377.825702714069390
 20
-97.581350568576454
 40
3.000000000000427
 50
233.322040599180130
 51
314.999999999993860
  0
ARC
  8
0
  6
CONTINUOUS
 62
3
 10
392.297169580689570
 20
-83.109883701956278
 40
2.999999999999864
 50
314.999999999987720
 51
67.680649198207121
  0
ARC
  8
0
  6
CONTINUOUS
 62
3
 10
402.475260708317820
 20
-88.488141760431972
 40
2.999999999999778
 50
56.614043319654456
 51
135.000000000012250
  0
ARC
  8
0
  6
CONTINUOUS
 62
3
 10
355.127669068304390
 20
-128.057558807393430
 40
41.999999999999979
 50
48.412480210152864
 51
86.587519789847292
  0
ARC
  8
0
  6
CONTINUOUS
 62
3
 10
385.603877307120910
 20
-150.755592453157990
 40
2.999999999999426
 50
143.322040599176740
 51
225.000000000012280
  0
ARC
  8
0
  6
CONTINUOUS
 62
3
 10
355.127669068304390
 20
-128.057558807393430
 40
41.999999999999943
 50
318.412480210151950
 51
356.587519789847310
  0
ARC
  8
0
  6
CONTINUOUS
 62
3
 10
369.627669068304390
 20
-138.330707652151430
 40
62.692927983299938
 50
51.969139227745345
 51
56.614043319658833
  0
ARC
  8
0
  6
CONTINUOUS
 62
3
 10
68.768450105966622
 20
-218.481556674836610
 40
5.000000000000000
 50
0.000000000000000
 51
87.000000000004846
  0
LINE
  8
0
  6
CONTINUOUS
 62
3
 10
69.030129887180919
 20
-213.488409001063700
 11
52.268450105966622
 21
-212.609966586676820
  0
ARC
  8
0
  6
CONTINUOUS
 62
3
 10
68.768450105967531
 20
-89.633560939950257
 40
5.000000000000066
 50
273.000000000005570
 51
323.130102354173290
  0
LINE
  8
0
  6
CONTINUOUS
 62
3
 10
69.030129887182738
 20
-94.626708613723167
 11
52.268450105967531
 21
-95.505151028110049
  0
LINE
  8
0
  6
CONTINUOUS
 62
3
 10
84.768450105968441
 20
-73.057558807393434
 11
75.768451458709023
 21
-73.057558807393434
  0
LINE
  8
0
  6
CONTINUOUS
 62
3
 10
84.768450105966622
 20
-230.557558807393430
 11
78.768450105966622
 21
-230.557558807393430
  0
LINE
  8
0
  6
CONTINUOUS
 62
3
 10
73.768450105965712
 20
-125.184575461186790
 11
73.768450105967531
 21
-88.451571827958105
  0
LINE
  8
0
  6
CONTINUOUS
 62
3
 10
73.768450105966622
 20
-144.930542153601890
 11
73.768450105966622
 21
-149.057558807393430
  0
ARC
  8
0
  6
CONTINUOUS
 62
3
 10
75.768450105968441
 20
-75.057558807393434
 40
2.000000000000000
 50
90.000000000000000
 51
180.000000000000000
  0
LINE
  8
0
  6
CONTINUOUS
 62
3
 10
84.768450105966622
 20
-154.057558807393430
 11
84.768450105966622
 21
-230.557558807393430
  0
LINE
  8
0
  6
CONTINUOUS
 62
3
 10
84.768450105956617
 20
-154.057558807393430
 11
84.768450105968441
 21
-73.057558807393434
  0
LINE
  8
0
  6
CONTINUOUS
 62
3
 10
73.768450105968441
 20
-83.057558807393434
 11
73.768450105968441
 21
-75.057558807393434
  0
LINE
  8
0
  6
CONTINUOUS
 62
3
 10
72.768450105966622
 20
-230.557558807393430
 11
72.768450105966622
 21
-220.557558807393430
  0
LINE
  8
0
  6
CONTINUOUS
 62
3
 10
78.646879191474397
 20
-220.557558807393430
 11
72.768450105966622
 21
-220.557558807393430
  0
LINE
  8
0
  6
CONTINUOUS
 62
3
 10
78.768450105966622
 20
-230.557558807393430
 11
72.768450105966622
 21
-230.557558807393430
  0
POINT
  8
0
  6
CONTINUOUS
 62
3
 10
78.768450105966622
 20
-225.557558807393430
  0
LINE
  8
0
  6
CONTINUOUS
 62
3
 10
78.768450105968441
 20
-81.957559379598024
 11
78.768450105968441
 21
-86.451571827958105
  0
LINE
  8
0
  6
CONTINUOUS
 62
3
 10
72.768450105968441
 20
-93.057558807393434
 11
72.768450105968441
 21
-83.057558807393434
  0
LINE
  8
0
  6
CONTINUOUS
 62
3
 10
78.768450105968441
 20
-83.057558807393434
 11
72.768450105968441
 21
-83.057558807393434
  0
LINE
  8
0
  6
CONTINUOUS
 62
3
 10
73.768450105967318
 20
-93.057558807393434
 11
72.768450105968441
 21
-93.057558807393434
  0
LINE
  8
0
  6
CONTINUOUS
 62
3
 10
73.768450105966622
 20
-159.057558807393430
 11
73.768450105966622
 21
-220.557558807393430
  0
ARC
  8
0
  6
CONTINUOUS
 62
3
 10
79.768450105966622
 20
-229.557558807393430
 40
1.000000000000000
 50
180.000000000000000
 51
270.000000000000000
  0
ARC
  8
0
  6
CONTINUOUS
 62
3
 10
77.768450105966622
 20
-221.035431532848630
 40
1.000000000000000
 50
0.000000000000000
 51
90.000000000000000
  0
ARC
  8
0
  6
CONTINUOUS
 62
3
 10
74.768450105966622
 20
-219.035431532848630
 40
1.000000000000000
 50
180.000000000000000
 51
270.000000000000000
  0
LINE
  8
0
  6
CONTINUOUS
 62
3
 10
74.768450105966622
 20
-220.035431532848630
 11
77.768450105966622
 21
-220.035431532848630
  0
LINE
  8
0
  6
CONTINUOUS
 62
3
 10
78.768450105966622
 20
-230.557558807393430
 11
78.768450105966622
 21
-221.035431532848630
  0
ARC
  8
0
  6
CONTINUOUS
 62
3
 10
77.768450105968441
 20
-77.648052067294884
 40
1.000000000000000
 50
0.000000000000000
 51
90.000000000000000
  0
ARC
  8
0
  6
CONTINUOUS
 62
3
 10
74.768450105968441
 20
-75.648052067294884
 40
1.000000000000000
 50
180.000000000000000
 51
270.000000000000000
  0
LINE
  8
0
  6
CONTINUOUS
 62
3
 10
74.768450105968441
 20
-76.648052067294884
 11
77.768450105968441
 21
-76.648052067294884
  0
ARC
  8
0
  6
CONTINUOUS
 62
3
 10
77.768450105968441
 20
-86.451571827958105
 40
1.000000000000000
 50
270.000000000000000
 51
0.000000000000000
  0
ARC
  8
0
  6
CONTINUOUS
 62
3
 10
74.768450105968441
 20
-88.451571827958105
 40
1.000000000000000
 50
90.000000000000000
 51
180.000000000000000
  0
LINE
  8
0
  6
CONTINUOUS
 62
3
 10
74.768450105968441
 20
-87.451571827958105
 11
77.768450105968441
 21
-87.451571827958105
  0
LINE
  8
0
  6
CONTINUOUS
 62
3
 10
78.768450105968441
 20
-86.451571827958105
 11
78.768450105968441
 21
-77.648052067294884
  0
ARC
  8
0
  6
CONTINUOUS
 62
3
 10
77.768450105966622
 20
-148.057558807393430
 40
1.000000000000000
 50
0.000000000000000
 51
90.000000000000000
  0
ARC
  8
0
  6
CONTINUOUS
 62
3
 10
74.768450105966622
 20
-146.057558807393430
 40
1.000000000000000
 50
180.000000000000000
 51
270.000000000000000
  0
LINE
  8
0
  6
CONTINUOUS
 62
3
 10
78.768450105966622
 20
-160.057558807392520
 11
78.768450105966622
 21
-148.057558807393430
  0
LINE
  8
0
  6
CONTINUOUS
 62
3
 10
74.768450105966622
 20
-147.057558807393430
 11
77.768450105966622
 21
-147.057558807393430
  0
ARC
  8
0
  6
CONTINUOUS
 62
3
 10
71.768450105966622
 20
-144.930542153601890
 40
2.000000000000000
 50
0.000000000000000
 51
75.522487814070544
  0
LINE
  8
0
  6
CONTINUOUS
 62
3
 10
70.768450105967531
 20
-141.057558807394340
 11
70.768450105967531
 21
-129.057558807394340
  0
ARC
  8
0
  6
CONTINUOUS
 62
3
 10
72.768450105967531
 20
-141.057558807394340
 40
2.000000000000000
 50
180.000000000000000
 51
255.522487814045290
  0
ARC
  8
0
  6
CONTINUOUS
 62
3
 10
71.768450105966622
 20
-125.184575461186790
 40
2.000000000000063
 50
284.477512185929470
 51
359.999999999973970
  0
ARC
  8
0
  6
CONTINUOUS
 62
3
 10
72.768450105967531
 20
-129.057558807394340
 40
2.000000000000290
 50
104.477512185954690
 51
180.000000000000000
  0
ARC
  8
0
  6
CONTINUOUS
 62
3
 10
77.768450105966622
 20
-160.057558807392520
 40
1.000000000000000
 50
270.000000000000000
 51
0.000000000000000
  0
ARC
  8
0
  6
CONTINUOUS
 62
3
 10
74.768450105966622
 20
-162.057558807392520
 40
1.000000000000000
 50
90.000000000000000
 51
180.000000000000000
  0
LINE
  8
0
  6
CONTINUOUS
 62
3
 10
74.768450105966622
 20
-161.057558807392520
 11
77.768450105966622
 21
-161.057558807392520
  0
LINE
  8
0
  6
CONTINUOUS
 62
3
 10
52.268450105967531
 20
-134.057558807393430
 11
70.768450105967531
 21
-134.057558807393430
  0
LINE
  8
0
  6
CONTINUOUS
 62
3
 10
73.768450105966622
 20
-174.057558807393430
 11
52.268450105966622
 21
-174.057558807393430
  0
LINE
  8
0
  6
DASHDOT
 62
4
 10
233.891825108385090
 20
-128.057558807393430
 11
143.274604437517380
 21
-128.057558807393430
  0
LINE
  8
0
  6
CONTINUOUS
 62
3
 10
142.198708442532050
 20
-82.993437240374988
 11
158.029258074829390
 21
-82.993437240374988
  0
LINE
  8
0
  6
CONTINUOUS
 62
3
 10
85.268450105960483
 20
-73.022638037901743
 11
148.503074111468550
 21
-70.814436309106895
  0
ARC
  8
0
  6
CONTINUOUS
 62
3
 10
155.268450105960480
 20
-58.559910152932389
 40
5.000000000000030
 50
310.170179485510800
 51
0.000000000000000
  0
LINE
  8
0
  6
CONTINUOUS
 62
3
 10
141.133162917045870
 20
-77.035921967597460
 11
158.493750457618260
 21
-62.380569473206378
  0
ARC
  8
0
  6
CONTINUOUS
 62
3
 10
137.907862565388090
 20
-73.215262647323470
 40
5.000000000000000
 50
270.000000000000000
 51
310.170179485510800
  0
ARC
  8
0
  6
CONTINUOUS
 62
3
 10
155.268450105960480
 20
-63.338084745983906
 40
5.000000000000030
 50
310.170179485510800
 51
0.000000000000000
  0
LINE
  8
0
  6
CONTINUOUS
 62
3
 10
141.133162917045870
 20
-81.814096560648977
 11
158.493750457618260
 21
-67.158744066257896
  0
ARC
  8
0
  6
CONTINUOUS
 62
3
 10
137.907862565388090
 20
-77.993437240374988
 40
5.000000000000000
 50
270.000000000000000
 51
310.170179485510800
  0
LINE
  8
0
  6
CONTINUOUS
 62
3
 10
172.268450105960480
 20
-133.057558807393430
 11
167.268450105960480
 21
-133.057558807393430
  0
LINE
  8
0
  6
CONTINUOUS
 62
3
 10
172.268450105960480
 20
-179.590954084412260
 11
167.268450105960480
 21
-179.590954084412260
  0
LINE
  8
0
  6
CONTINUOUS
 62
3
 10
172.268450105960480
 20
-203.258568934170400
 11
167.268450105960480
 21
-203.258568934170400
  0
ARC
  8
0
  6
CONTINUOUS
 62
3
 10
167.268450105960480
 20
-201.258568934170400
 40
2.000000000000000
 50
180.000000000000000
 51
270.000000000000000
  0
LINE
  8
0
  6
CONTINUOUS
 62
3
 10
165.268450105960480
 20
-201.258568934170400
 11
165.268450105960480
 21
-135.057558807393430
  0
ARC
  8
0
  6
CONTINUOUS
 62
3
 10
167.268450105960480
 20
-177.590954084412260
 40
2.000000000000000
 50
180.000000000000000
 51
270.000000000000000
  0
ARC
  8
0
  6
CONTINUOUS
 62
3
 10
167.268450105960480
 20
-135.057558807393430
 40
2.000000000000000
 50
90.000000000000000
 51
180.000000000000000
  0
LINE
  8
0
  6
CONTINUOUS
 62
3
 10
172.268450105960480
 20
-123.057558807393430
 11
167.268450105960480
 21
-123.057558807393430
  0
LINE
  8
0
  6
CONTINUOUS
 62
3
 10
172.268450105960480
 20
-76.524163530374608
 11
167.268450105960480
 21
-76.524163530374608
  0
LINE
  8
0
  6
CONTINUOUS
 62
3
 10
172.268450105960480
 20
-52.856548680616470
 11
167.268450105960480
 21
-52.856548680616470
  0
ARC
  8
0
  6
CONTINUOUS
 62
3
 10
167.268450105960480
 20
-54.856548680616470
 40
2.000000000000000
 50
90.000000000000000
 51
180.000000000000000
  0
LINE
  8
0
  6
CONTINUOUS
 62
3
 10
165.268450105960480
 20
-54.856548680616470
 11
165.268450105960480
 21
-121.057558807393430
  0
ARC
  8
0
  6
CONTINUOUS
 62
3
 10
167.268450105960480
 20
-78.524163530374608
 40
2.000000000000000
 50
90.000000000000000
 51
180.000000000000000
  0
ARC
  8
0
  6
CONTINUOUS
 62
3
 10
167.268450105960480
 20
-121.057558807393430
 40
2.000000000000000
 50
180.000000000000000
 51
270.000000000000000
  0
LINE
  8
0
  6
DASHDOT
 62
4
 10
182.886902516574540
 20
-211.142605596813150
 11
150.411441816210980
 21
-211.142605596813150
  0
LINE
  8
0
  6
DASHDOT
 62
4
 10
182.886902516574540
 20
-44.972512017973713
 11
150.411441816210980
 21
-44.972512017973713
  0
LINE
  8
0
  6
CONTINUOUS
 62
3
 10
172.268450105960480
 20
-222.569412709248350
 11
172.268450105960480
 21
-128.057558807393430
  0
LINE
  8
0
  6
CONTINUOUS
 62
3
 10
172.268450105960480
 20
-33.545704905539424
 11
172.268450105960480
 21
-128.057558807393430
  0
ARC
  8
0
  6
CONTINUOUS
 62
3
 10
162.268450105960480
 20
-34.473336371419464
 40
1.999999999999651
 50
87.000000000000398
 51
180.000000000000000
  0
ARC
  8
0
  6
CONTINUOUS
 62
3
 10
162.268450105960480
 20
-221.641781243367400
 40
2.000000000000000
 50
180.000000000000000
 51
272.999999999999600
  0
LINE
  8
0
  6
CONTINUOUS
 62
3
 10
160.268450105960480
 20
-34.473336371419464
 11
160.268450105960480
 21
-221.641781243367400
  0
LINE
  8
0
  6
CONTINUOUS
 62
3
 10
165.268450105960480
 20
-223.487302597514830
 11
165.268450105960480
 21
-231.962615370093770
  0
LINE
  8
0
  6
CONTINUOUS
 62
3
 10
171.718169847585610
 20
-223.149287108858520
 11
162.373122018446340
 21
-223.639040312877110
  0
LINE
  8
0
  6
CONTINUOUS
 62
3
 10
175.268450105960480
 20
-213.057558807393430
 11
175.268450105960480
 21
-128.057558807393430
  0
LINE
  8
0
  6
CONTINUOUS
 62
3
 10
175.268450105960480
 20
-43.057558807393434
 11
175.268450105960480
 21
-128.057558807393430
  0
ARC
  8
0
  6
CONTINUOUS
 62
3
 10
175.768450105960710
 20
-156.611338932674700
 40
0.999999999999832
 50
93.000000000006111
 51
120.000000000021580
  0
ARC
  8
0
  6
CONTINUOUS
 62
3
 10
175.768450105960710
 20
-99.503778682113079
 40
0.999999999999802
 50
239.999999999978400
 51
266.999999999993860
  0
ARC
  8
0
  6
CONTINUOUS
 62
3
 10
155.273436191489050
 20
-34.209176691771063
 40
5.000000000000016
 50
330.000000000000110
 51
357.837310087936940
  0
LINE
  8
0
  6
CONTINUOUS
 62
3
 10
175.268450105960480
 20
-213.057558807393430
 11
172.268450105960480
 21
-213.057558807393430
  0
LINE
  8
0
  6
CONTINUOUS
 62
3
 10
175.268450105960480
 20
-43.057558807393434
 11
172.268450105960480
 21
-43.057558807393434
  0
LINE
  8
0
  6
CONTINUOUS
 62
3
 10
85.268450105960483
 20
-231.075013872321510
 11
85.268450105960483
 21
-73.022638037901743
  0
ARC
  8
0
  6
CONTINUOUS
 62
3
 10
162.268450105960480
 20
-34.473336371419464
 40
2.000000000000025
 50
177.837310087963030
 51
180.000000000000000
  0
LINE
  8
0
  6
CONTINUOUS
 62
3
 10
159.603563210411270
 20
-36.709176691771063
 11
141.121900085876860
 21
-68.720356231837286
  0
ARC
  8
0
  6
CONTINUOUS
 62
3
 10
136.791773066954650
 20
-66.220356231837286
 40
5.000000000000146
 50
272.000000000000970
 51
330.000000000000110
  0
LINE
  8
0
  6
CONTINUOUS
 62
3
 10
176.768450105960710
 20
-128.057558807393430
 11
176.768450105960710
 21
-101.557558807393430
  0
LINE
  8
0
  6
CONTINUOUS
 62
3
 10
176.768450105960710
 20
-128.057558807393430
 11
176.768450105960710
 21
-154.557558807393430
  0
LINE
  8
0
  6
CONTINUOUS
 62
3
 10
171.718169847585610
 20
-32.965830505929262
 11
162.373122018446340
 21
-32.476077301910664
  0
LINE
  8
0
  6
CONTINUOUS
 62
3
 10
171.718169847585610
 20
-32.965830505929262
 11
172.268450105960480
 21
-33.545704905539424
  0
LINE
  8
0
  6
CONTINUOUS
 62
3
 10
171.718169847585610
 20
-223.149287108858520
 11
172.268450105960480
 21
-222.569412709248350
  0
LINE
  8
0
  6
CONTINUOUS
 62
3
 10
164.759723902741830
 20
-232.462539217671290
 11
85.268450105960483
 21
-231.075013872321510
  0
LINE
  8
0
  6
CONTINUOUS
 62
3
 10
175.768450105960710
 20
-100.557558807393430
 11
175.716114149717670
 21
-100.502408216867470
  0
LINE
  8
0
  6
CONTINUOUS
 62
3
 10
175.768450105960710
 20
-155.557558807393430
 11
175.716114149717670
 21
-155.612709397920300
  0
ARC
  8
0
  6
CONTINUOUS
 62
3
 10
175.768450105960710
 20
-101.557558807393430
 40
1.000000000000000
 50
0.000000000000000
 51
90.000000000000000
  0
ARC
  8
0
  6
CONTINUOUS
 62
3
 10
175.768450105960710
 20
-154.557558807393430
 40
1.000000000000000
 50
270.000000000000000
 51
0.000000000000000
  0
ARC
  8
0
  6
CONTINUOUS
 62
3
 10
164.768450105960480
 20
-231.962615370093770
 40
0.500000000000234
 50
268.999999999998690
 51
0.000000000000000
  0
LINE
  8
0
  6
CONTINUOUS
 62
3
 10
178.568450105959980
 20
-142.557558807393430
 11
176.768450105959800
 21
-142.557558807393430
  0
LINE
  8
0
  6
CONTINUOUS
 62
3
 10
178.768450105960710
 20
-128.057558807393430
 11
178.768450105960710
 21
-142.357558807393620
  0
LINE
  8
0
  6
CONTINUOUS
 62
3
 10
178.768450105960710
 20
-142.357558807393620
 11
178.568450105959980
 21
-142.557558807393430
  0
ARC
  8
0
  6
CONTINUOUS
 62
3
 10
179.168450105960350
 20
-142.307558807393430
 40
0.399999999999636
 50
90.000000000000000
 51
180.000000000000000
  0
LINE
  8
0
  6
CONTINUOUS
 62
3
 10
181.328257727095210
 20
-142.057558807393430
 11
180.768450105960710
 21
-141.907558807393800
  0
LINE
  8
0
  6
CONTINUOUS
 62
3
 10
180.768450105960710
 20
-141.907558807393800
 11
179.168450105960350
 21
-141.907558807393800
  0
LINE
  8
0
  6
CONTINUOUS
 62
3
 10
178.568450105959980
 20
-113.557558807393430
 11
176.768450105959800
 21
-113.557558807393430
  0
LINE
  8
0
  6
CONTINUOUS
 62
3
 10
178.768450105960710
 20
-128.057558807393430
 11
178.768450105960710
 21
-113.757558807393250
  0
LINE
  8
0
  6
CONTINUOUS
 62
3
 10
178.768450105960710
 20
-113.757558807393250
 11
178.568450105959980
 21
-113.557558807393430
  0
ARC
  8
0
  6
CONTINUOUS
 62
3
 10
179.168450105960350
 20
-113.807558807393430
 40
0.399999999999636
 50
180.000000000000000
 51
270.000000000000000
  0
LINE
  8
0
  6
CONTINUOUS
 62
3
 10
181.328257727095210
 20
-114.057558807393430
 11
180.768450105960710
 21
-114.207558807393070
  0
LINE
  8
0
  6
CONTINUOUS
 62
3
 10
180.768450105960710
 20
-114.207558807393070
 11
179.168450105960350
 21
-114.207558807393070
  0
LINE
  8
0
  6
CONTINUOUS
 62
3
 10
220.768450105960710
 20
-114.457558807393070
 11
220.768450105960710
 21
-128.057558807393430
  0
LINE
  8
0
  6
CONTINUOUS
 62
3
 10
220.368450105960160
 20
-114.057558807393430
 11
181.328257727095210
 21
-114.057558807393430
  0
ARC
  8
0
  6
CONTINUOUS
 62
3
 10
220.368450105960160
 20
-114.457558807393070
 40
0.400000000000546
 50
0.000000000000000
 51
90.000000000000000
  0
LINE
  8
0
  6
CONTINUOUS
 62
3
 10
220.768450105960710
 20
-141.657558807393800
 11
220.768450105960710
 21
-128.057558807393430
  0
LINE
  8
0
  6
CONTINUOUS
 62
3
 10
220.368450105960160
 20
-142.057558807393430
 11
181.328257727095210
 21
-142.057558807393430
  0
ARC
  8
0
  6
CONTINUOUS
 62
3
 10
188.768450105960710
 20
-128.057558807393430
 40
4.000000000000000
 50
90.000000000000000
 51
270.000000000000000
  0
LINE
  8
0
  6
CONTINUOUS
 62
3
 10
220.768450105960710
 20
-132.057558807393430
 11
188.768450105960710
 21
-132.057558807393430
  0
LINE
  8
0
  6
CONTINUOUS
 62
3
 10
220.768450105960710
 20
-124.057558807393430
 11
188.768450105960710
 21
-124.057558807393430
  0
LINE
  8
0
  6
CONTINUOUS
 62
3
 10
178.768450105960710
 20
-128.057558807393430
 11
178.768450105960710
 21
-116.457558807393980
  0
LINE
  8
0
  6
CONTINUOUS
 62
3
 10
178.768450105960710
 20
-128.057558807393430
 11
178.768450105960710
 21
-139.657558807393800
  0
LINE
  8
0
  6
CONTINUOUS
 62
3
 10
52.268450105967531
 20
-154.057558807393430
 11
52.268450105967531
 21
-95.505151028110504
  0
LINE
  8
0
  6
CONTINUOUS
 62
3
 10
52.268450105966622
 20
-154.057558807393430
 11
52.268450105966622
 21
-212.609966586676820
  0
LINE
  8
0
  6
CONTINUOUS
 62
3
 10
52.268450105967531
 20
-212.557558807393430
 11
52.268450105967531
 21
-154.057558807393430
  0
LINE
  8
0
  6
CONTINUOUS
 62
3
 10
52.268450105967531
 20
-95.557558807393434
 11
52.268450105967531
 21
-154.057558807393430
  0
ENDSEC
  0
EOF
