  0
SECTION
  2
HEADER
  9
$FILLMODE
 70
1
  9
$TEXTSTYLE
  7
STANDARD1
  9
$ACADVER
  1
AC1009
  9
$DIMASZ
 40
1.931851648807023
  9
$DIMEXE
 40
2.000000000000000
  9
$DIMEXO
 40
1.000000000000000
  9
$DIMLFAC
 40
1.000000000000000
  9
$DIMSCALE
 40
1.000000000000000
  9
$DIMTAD
 70
1
  9
$DIMTFAC
 40
0.714285731315613
  9
$DIMTXT
 40
2.799999952316284
  9
$LUPREC
 70
3
  9
$TEXTSIZE
 40
2.799999952316284
  9
$REGENMODE
 70
1
  0
ENDSEC
  0
SECTION
  2
TABLES
  0
TABLE
  2
LTYPE
 70
4
  0
LTYPE
  2
CONTINUOUS
 70
64
  3
Solid line
 72
65
 73
0
 40
0.0
  0
LTYPE
  2
DASHED
 70
64
  3
-- -- -- -- -- -- -- -- -- -- -- -- -- -- --
 72
65
 73
2
 40
0.75
 49
0.5
 49
-0.25
  0
LTYPE
  2
DASHDOT
 70
64
  3
__ . __ . __ . __ . __ . __ . __ . __ . __ . __
 72
65
 73
4
 40
1.0
 49
0.5
 49
-0.25
 49
0.0
 49
-0.25
  0
LTYPE
  2
DIVIDE
 70
64
  3
__ . . __ . . __ . . __ . . __ . . __ . . __
 72
65
 73
6
 40
1.25
 49
0.5
 49
-0.25
 49
0.0
 49
-0.25
 49
0.0
 49
-0.25
  0
ENDTAB
  0
TABLE
  2
LAYER
 70
1
  0
LAYER
  2
0
 70
64
 62
2
  6
CONTINUOUS
  0
ENDTAB
  0
TABLE
  2
STYLE
 70
4
  0
STYLE
  2
STANDARD1
 70
64
 40
0.0
 41
1.0
 50
0.0
 71
0
 42
2.799999952316284
  3
MONOTXT
  4
BIGFONT
  0
STYLE
  2
STANDARD2
 70
68
 40
0.0
 41
1.0
 50
0.0
 71
0
 42
2.799999952316284
  3
MONOTXT
  4
BIGFONT
  0
STYLE
  2
STANDARD3
 70
64
 40
0.0
 41
1.0
 50
0.0
 71
0
 42
2.799999952316284
  3
MONOTXT
  4

  0
STYLE
  2
STANDARD4
 70
68
 40
0.0
 41
1.0
 50
0.0
 71
0
 42
2.799999952316284
  3
MONOTXT
  4

  0
ENDTAB
  0
TABLE
  2
VIEW
 70
0
  0
ENDTAB
  0
ENDSEC
  0
SECTION
  2
BLOCKS
  0
BLOCK
  8
0
  2
SYM1
 70
64
 10
0.000000000000000
 20
0.000000000000000
  0
ARC
  8
0
  6
CONTINUOUS
 62
3
 10
-0.979025304317474
 20
-2.200000762939453
 40
1.299999237060547
 50
196.601531107481040
 51
270.000000000000000
  0
ARC
  8
0
  6
CONTINUOUS
 62
3
 10
-0.979025304317474
 20
2.200000762939453
 40
1.299999237060547
 50
90.000000000000000
 51
163.398451589674950
  0
LINE
  8
0
  6
CONTINUOUS
 62
3
 10
-0.000000000000000
 20
-3.500000000000000
 11
-0.979025304317474
 21
-3.500000000000000
  0
LINE
  8
0
  6
CONTINUOUS
 62
3
 10
0.000000000000000
 20
3.500000000000000
 11
-0.979025304317474
 21
3.500000000000000
  0
LINE
  8
0
  6
CONTINUOUS
 62
3
 10
0.000000000000000
 20
-3.500000000000000
 11
-0.000000000000000
 21
3.500000000000000
  0
LINE
  8
0
  6
CONTINUOUS
 62
3
 10
0.000000000000000
 20
-3.500000000000000
 11
-0.000000000000000
 21
3.500000000000000
  0
POINT
  8
0
  6
CONTINUOUS
 62
3
 10
0.000000000000000
 20
0.000000000000000
  0
ARC
  8
0
  6
CONTINUOUS
 62
3
 10
6.399999618530273
 20
0.000000000000000
 40
9.000000000000000
 50
163.398451589674950
 51
196.601531107481040
  0
ENDBLK
  8
0
  0
BLOCK
  8
0
  2
SYM2
 70
64
 10
0.000000000000000
 20
0.000000000000000
  0
ARC
  8
0
  6
CONTINUOUS
 62
3
 10
-0.979025304317474
 20
-2.200000762939453
 40
1.299999237060547
 50
196.601531107481040
 51
270.000000000000000
  0
ARC
  8
0
  6
CONTINUOUS
 62
3
 10
-0.979025304317474
 20
2.200000762939453
 40
1.299999237060547
 50
90.000000000000000
 51
163.398451589674950
  0
LINE
  8
0
  6
CONTINUOUS
 62
3
 10
-0.000000000000000
 20
-3.500000000000000
 11
-0.979025304317474
 21
-3.500000000000000
  0
LINE
  8
0
  6
CONTINUOUS
 62
3
 10
0.000000000000000
 20
3.500000000000000
 11
-0.979025304317474
 21
3.500000000000000
  0
LINE
  8
0
  6
CONTINUOUS
 62
3
 10
0.000000000000000
 20
-3.500000000000000
 11
-0.000000000000000
 21
3.500000000000000
  0
LINE
  8
0
  6
CONTINUOUS
 62
3
 10
0.000000000000000
 20
-3.500000000000000
 11
-0.000000000000000
 21
3.500000000000000
  0
POINT
  8
0
  6
CONTINUOUS
 62
3
 10
0.000000000000000
 20
0.000000000000000
  0
ARC
  8
0
  6
CONTINUOUS
 62
3
 10
6.399999618530273
 20
0.000000000000000
 40
9.000000000000000
 50
163.398451589674950
 51
196.601531107481040
  0
ENDBLK
  8
0
  0
ENDSEC
  0
SECTION
  2
ENTITIES
  0
LINE
  8
0
  6
CONTINUOUS
 62
3
 10
-427.994711216718200
 20
-142.327603291884170
 11
-428.481514608423820
 21
-141.840799900178550
  0
LINE
  8
0
  6
CONTINUOUS
 62
3
 10
-421.347907743304520
 20
-135.680799818470430
 11
-421.834711135010140
 21
-135.193996426764840
  0
LINE
  8
0
  6
CONTINUOUS
 62
3
 10
-428.307849825687010
 20
-142.075056341033790
 11
-421.630750523214090
 21
-135.397957038560860
  0
LINE
  8
0
  6
CONTINUOUS
 62
3
 10
-427.994711216718200
 20
-142.327603291884170
 11
-421.347907743304520
 21
-135.680799818470430
  0
POINT
  8
0
  6
CONTINUOUS
 62
3
 10
-424.671309480011360
 20
-139.004201555177300
  0
ARC
  8
0
  6
CONTINUOUS
 62
3
 10
-422.408567915084350
 20
-141.266943120104340
 40
6.099999427795406
 50
84.601927898108471
 51
185.398089404735120
  0
LINE
  8
0
  6
CONTINUOUS
 62
3
 10
-427.994711216718200
 20
-239.059811227943810
 11
-428.481514608423820
 21
-239.546614619649430
  0
LINE
  8
0
  6
CONTINUOUS
 62
3
 10
-421.347907743304520
 20
-245.706614701357550
 11
-421.834711135010140
 21
-246.193418093063140
  0
LINE
  8
0
  6
CONTINUOUS
 62
3
 10
-428.307849825687010
 20
-239.312358178794200
 11
-421.630750523214090
 21
-245.989457481267120
  0
LINE
  8
0
  6
CONTINUOUS
 62
3
 10
-427.994711216718200
 20
-239.059811227943810
 11
-421.347907743304520
 21
-245.706614701357550
  0
POINT
  8
0
  6
CONTINUOUS
 62
3
 10
-424.671309480011360
 20
-242.383212964650680
  0
ARC
  8
0
  6
CONTINUOUS
 62
3
 10
-422.408567915084350
 20
-240.120471399723640
 40
6.099999427795398
 50
174.601910595264880
 51
275.398072101891500
  0
LINE
  8
0
  6
CONTINUOUS
 62
3
 10
-317.968896333831370
 20
-239.059811227943810
 11
-317.482092942125750
 21
-239.546614619649430
  0
LINE
  8
0
  6
CONTINUOUS
 62
3
 10
-324.615699807245050
 20
-245.706614701357550
 11
-324.128896415539430
 21
-246.193418093063140
  0
LINE
  8
0
  6
CONTINUOUS
 62
3
 10
-317.655757724862550
 20
-239.312358178794200
 11
-324.332857027335480
 21
-245.989457481267120
  0
LINE
  8
0
  6
CONTINUOUS
 62
3
 10
-317.968896333831370
 20
-239.059811227943810
 11
-324.615699807245050
 21
-245.706614701357550
  0
POINT
  8
0
  6
CONTINUOUS
 62
3
 10
-321.292298070538210
 20
-242.383212964650680
  0
ARC
  8
0
  6
CONTINUOUS
 62
3
 10
-323.555039635465220
 20
-240.120471399723640
 40
6.099999427795406
 50
264.601927898108500
 51
5.398089404735109
  0
LINE
  8
0
  6
CONTINUOUS
 62
3
 10
-317.968896333831370
 20
-142.327603291884170
 11
-317.482092942125750
 21
-141.840799900178550
  0
LINE
  8
0
  6
CONTINUOUS
 62
3
 10
-324.615699807245050
 20
-135.680799818470430
 11
-324.128896415539430
 21
-135.193996426764840
  0
LINE
  8
0
  6
CONTINUOUS
 62
3
 10
-317.655757724862550
 20
-142.075056341033790
 11
-324.332857027335480
 21
-135.397957038560860
  0
LINE
  8
0
  6
CONTINUOUS
 62
3
 10
-317.968896333831370
 20
-142.327603291884170
 11
-324.615699807245050
 21
-135.680799818470430
  0
POINT
  8
0
  6
CONTINUOUS
 62
3
 10
-321.292298070538210
 20
-139.004201555177300
  0
ARC
  8
0
  6
CONTINUOUS
 62
3
 10
-323.555039635465220
 20
-141.266943120104340
 40
6.099999427795398
 50
354.601910595264880
 51
95.398072101891529
  0
TEXT
  8
0
  6
CONTINUOUS
 62
3
 10
-430.134155273437500
 20
149.253967285156250
 40
10.295999526977539
  1
Ｓ２０５
 50
0.000002504478167
 41
0.984848625190477
  7
STANDARD1
  0
TEXT
  8
0
  6
CONTINUOUS
 62
3
 10
-430.134155273437500
 20
132.717956542968750
 40
10.295999526977539
  1
三菱ギヤードモートル
 50
0.000002504478167
 41
0.984848625190477
  7
STANDARD1
  0
TEXT
  8
0
  6
CONTINUOUS
 62
3
 10
-430.134155273437500
 20
116.181961059570310
 40
10.295999526977539
  1
ＧＭ－ＳＦＳＢ
 50
0.000002504478167
 41
0.984848625190477
  7
STANDARD1
  0
TEXT
  8
0
  6
CONTINUOUS
 62
3
 10
-430.134155273437500
 20
99.645957946777344
 40
10.295999526977539
  1
０．４ｋＷ
 50
0.000002504478167
 41
0.984848625190477
  7
STANDARD1
  0
TEXT
  8
0
  6
CONTINUOUS
 62
3
 10
-430.134155273437500
 20
83.109962463378906
 40
10.295999526977539
  1
１／１２０～１／２００
 50
0.000002504478167
 41
0.984848625190477
  7
STANDARD1
  0
TEXT
  8
0
  6
CONTINUOUS
 62
3
 10
-430.134155273437500
 20
66.573959350585938
 40
10.295999526977539
  1
ＳＣＡＬＥ１／１
 50
0.000002504478167
 41
0.984848625190477
  7
STANDARD1
  0
LINE
  8
0
  6
DASHDOT
 62
4
 10
51.194520908553386
 20
-99.693707259915300
 11
34.516243465921434
 21
-99.693707259915300
  0
ARC
  8
0
  6
CONTINUOUS
 62
3
 10
49.553574491327595
 20
-113.889860233222790
 40
3.000000000000000
 50
0.000000000000000
 51
60.000010515703380
  0
LINE
  8
0
  6
CONTINUOUS
 62
3
 10
52.553574491327595
 20
-268.059831413052510
 11
52.553574491327595
 21
-279.327777656338640
  0
LINE
  8
0
  6
CONTINUOUS
 62
3
 10
60.553573537653278
 20
-267.193707259915300
 11
53.053574491327595
 21
-267.193707259915300
  0
LINE
  8
0
  6
CONTINUOUS
 62
3
 10
60.553573537653278
 20
-280.193707259915300
 11
53.053575445001911
 21
-280.193707259915300
  0
LINE
  8
0
  6
CONTINUOUS
 62
3
 10
53.053575129185297
 20
-267.193707235847110
 11
52.553575103038341
 21
-268.059831375981160
  0
LINE
  8
0
  6
CONTINUOUS
 62
3
 10
53.053575755812517
 20
-280.193707237214310
 11
52.553574805619405
 21
-279.327777666145890
  0
LINE
  8
0
  6
CONTINUOUS
 62
3
 10
53.053574491327595
 20
-267.193707259915300
 11
53.053574491327595
 21
-280.193707259915300
  0
LINE
  8
0
  6
CONTINUOUS
 62
3
 10
52.553574491327595
 20
-180.059831413052510
 11
52.553574491327595
 21
-191.327777656338640
  0
LINE
  8
0
  6
CONTINUOUS
 62
3
 10
60.553573537653278
 20
-179.193707259915300
 11
53.053574491327595
 21
-179.193707259915300
  0
LINE
  8
0
  6
CONTINUOUS
 62
3
 10
60.553573537653278
 20
-192.193707259915300
 11
53.053575445001911
 21
-192.193707259915300
  0
LINE
  8
0
  6
CONTINUOUS
 62
3
 10
53.053575129185297
 20
-179.193707235847140
 11
52.553575103038341
 21
-180.059831375981160
  0
LINE
  8
0
  6
CONTINUOUS
 62
3
 10
53.053575755812517
 20
-192.193707237214310
 11
52.553574805619405
 21
-191.327777666145890
  0
LINE
  8
0
  6
CONTINUOUS
 62
3
 10
53.053574491327595
 20
-179.193707259915300
 11
53.053574491327595
 21
-192.193707259915300
  0
LINE
  8
0
  6
CONTINUOUS
 62
3
 10
52.553574491327595
 20
-104.059831413052500
 11
52.553574491327595
 21
-115.327777656338640
  0
LINE
  8
0
  6
CONTINUOUS
 62
3
 10
60.553573537653278
 20
-103.193707259915300
 11
53.053574491327595
 21
-103.193707259915300
  0
LINE
  8
0
  6
CONTINUOUS
 62
3
 10
60.553573537653278
 20
-116.193707259915300
 11
53.053575445001911
 21
-116.193707259915300
  0
LINE
  8
0
  6
CONTINUOUS
 62
3
 10
53.053575129185297
 20
-103.193707235847140
 11
52.553575103038341
 21
-104.059831375981140
  0
LINE
  8
0
  6
CONTINUOUS
 62
3
 10
53.053575755812517
 20
-116.193707237214310
 11
52.553574805619405
 21
-115.327777666145890
  0
LINE
  8
0
  6
CONTINUOUS
 62
3
 10
53.053574491327595
 20
-103.193707259915300
 11
53.053574491327595
 21
-116.193707259915300
  0
LINE
  8
0
  6
CONTINUOUS
 62
3
 10
37.053574491331233
 20
-94.059831413052507
 11
37.053574491331233
 21
-105.327777656338640
  0
LINE
  8
0
  6
CONTINUOUS
 62
3
 10
45.053573537656916
 20
-93.193707259915300
 11
37.553574491331233
 21
-93.193707259915300
  0
LINE
  8
0
  6
CONTINUOUS
 62
3
 10
45.053573537656916
 20
-106.193707259915300
 11
37.553575445005549
 21
-106.193707259915300
  0
LINE
  8
0
  6
CONTINUOUS
 62
3
 10
37.553575129188935
 20
-93.193707235847143
 11
37.053575103041979
 21
-94.059831375981148
  0
LINE
  8
0
  6
CONTINUOUS
 62
3
 10
37.553575755816155
 20
-106.193707237214310
 11
37.053574805623043
 21
-105.327777666145890
  0
LINE
  8
0
  6
CONTINUOUS
 62
3
 10
37.553574491331233
 20
-93.193707259915300
 11
37.553574491331233
 21
-106.193707259915300
  0
LINE
  8
0
  6
CONTINUOUS
 62
3
 10
53.053574491331233
 20
88.530132509848954
 11
53.053574491331233
 21
75.530132509848954
  0
LINE
  8
0
  6
CONTINUOUS
 62
3
 10
53.053575755816155
 20
75.530132532549942
 11
52.553574805623043
 21
76.396062103618362
  0
LINE
  8
0
  6
CONTINUOUS
 62
3
 10
53.053575129188935
 20
88.530132533917111
 11
52.553575103041979
 21
87.664008393783106
  0
LINE
  8
0
  6
CONTINUOUS
 62
3
 10
60.553573537656916
 20
75.530132509848954
 11
53.053575445005549
 21
75.530132509848954
  0
LINE
  8
0
  6
CONTINUOUS
 62
3
 10
60.553573537656916
 20
88.530132509848954
 11
53.053574491331233
 21
88.530132509848954
  0
LINE
  8
0
  6
CONTINUOUS
 62
3
 10
52.553574491331233
 20
87.664008356711747
 11
52.553574491331233
 21
76.396062113425614
  0
LINE
  8
0
  6
CONTINUOUS
 62
3
 10
37.553574491336690
 20
128.030132509848950
 11
37.553574491336690
 21
115.030132509848950
  0
LINE
  8
0
  6
CONTINUOUS
 62
3
 10
37.553575755821612
 20
115.030132532549940
 11
37.053574805628500
 21
115.896062103618360
  0
LINE
  8
0
  6
CONTINUOUS
 62
3
 10
37.553575129194392
 20
128.030132533917110
 11
37.053575103047436
 21
127.164008393783100
  0
LINE
  8
0
  6
CONTINUOUS
 62
3
 10
45.053573537662373
 20
115.030132509848950
 11
37.553575445011006
 21
115.030132509848950
  0
LINE
  8
0
  6
CONTINUOUS
 62
3
 10
45.053573537662373
 20
128.030132509848950
 11
37.553574491336690
 21
128.030132509848950
  0
LINE
  8
0
  6
CONTINUOUS
 62
3
 10
37.053574491336690
 20
127.164008356711740
 11
37.053574491336690
 21
115.896062113425610
  0
LINE
  8
0
  6
CONTINUOUS
 62
3
 10
37.553574491336953
 20
136.030132509849120
 11
37.553574491337791
 21
149.030132509849120
  0
LINE
  8
0
  6
CONTINUOUS
 62
3
 10
37.553575755822713
 20
149.030132487148140
 11
37.053574805629545
 21
148.164202916079740
  0
LINE
  8
0
  6
CONTINUOUS
 62
3
 10
37.553575129194655
 20
136.030132485780940
 11
37.053575103047756
 21
136.896256625914990
  0
LINE
  8
0
  6
CONTINUOUS
 62
3
 10
45.053573537663475
 20
149.030132509848640
 11
37.553575445012108
 21
149.030132509849120
  0
LINE
  8
0
  6
CONTINUOUS
 62
3
 10
45.053573537662636
 20
136.030132509848640
 11
37.553574491336953
 21
136.030132509849120
  0
LINE
  8
0
  6
CONTINUOUS
 62
3
 10
37.053574491337010
 20
136.896256662986360
 11
37.053574491337734
 21
148.164202906272490
  0
LINE
  8
0
  6
CONTINUOUS
 62
3
 10
53.053574491333997
 20
175.530132509848220
 11
53.053574491334835
 21
188.530132509848220
  0
LINE
  8
0
  6
CONTINUOUS
 62
3
 10
53.053575755819757
 20
188.530132487147230
 11
52.553574805626589
 21
187.664202916078840
  0
LINE
  8
0
  6
CONTINUOUS
 62
3
 10
53.053575129191699
 20
175.530132485780030
 11
52.553575103044800
 21
176.396256625914080
  0
LINE
  8
0
  6
CONTINUOUS
 62
3
 10
60.553573537660519
 20
188.530132509847730
 11
53.053575445009152
 21
188.530132509848220
  0
LINE
  8
0
  6
CONTINUOUS
 62
3
 10
60.553573537659680
 20
175.530132509847730
 11
53.053574491333997
 21
175.530132509848220
  0
LINE
  8
0
  6
CONTINUOUS
 62
3
 10
52.553574491334054
 20
176.396256662985450
 11
52.553574491334778
 21
187.664202906271580
  0
INSERT
  8
0
  2
SYM1
 10
-460.426625981618140
 20
-231.612663871174330
 41
1.000000000000000
 42
1.000000000000000
 43
1.000000000000000
 50
357.137594773886350
  0
LINE
  8
0
  6
CONTINUOUS
 62
3
 10
-375.981803775274780
 20
-66.154315245744442
 11
-375.981803775274780
 21
-85.233099274083315
  0
LINE
  8
0
  6
CONTINUOUS
 62
3
 10
-369.981803775274780
 20
-66.154315245744442
 11
-369.981803775274780
 21
-85.233099274083315
  0
CIRCLE
  8
0
  6
CONTINUOUS
 62
3
 10
-372.981803775274780
 20
-75.693707259913879
 40
10.000000000000000
  0
LINE
  8
0
  6
DASHDOT
 62
4
 10
-349.813890776393240
 20
-75.693707259913879
 11
-396.836404677927930
 21
-75.693707259913879
  0
LINE
  8
0
  6
CONTINUOUS
 62
3
 10
-352.481803775274780
 20
-65.693707259913879
 11
-352.481803775274780
 21
-91.191605194833926
  0
LINE
  8
0
  6
CONTINUOUS
 62
3
 10
-393.481803775274780
 20
-65.693707259913879
 11
-393.481803775274780
 21
-91.191605194833699
  0
ARC
  8
0
  6
CONTINUOUS
 62
3
 10
-383.481803775274780
 20
-65.693707259913879
 40
10.000000000000000
 50
90.000000000000000
 51
180.000000000000000
  0
LINE
  8
0
  6
CONTINUOUS
 62
3
 10
-362.481803775274780
 20
-55.693707259913879
 11
-383.481803775274780
 21
-55.693707259913879
  0
ARC
  8
0
  6
CONTINUOUS
 62
3
 10
-362.481803775274780
 20
-65.693707259913879
 40
10.000000000000000
 50
0.000000000000000
 51
90.000000000000000
  0
ARC
  8
0
  6
CONTINUOUS
 62
3
 10
-426.986211227670990
 20
-98.204018433279259
 40
3.000000000000024
 50
225.000000000003070
 51
298.814852117041600
  0
LINE
  8
0
  6
CONTINUOUS
 62
3
 10
-287.558592965448270
 20
-79.513137137206684
 11
-310.817925270681370
 21
-102.772469442439780
  0
LINE
  8
0
  6
CONTINUOUS
 62
3
 10
-291.801233652567590
 20
-75.270496450087364
 11
-316.856075979319260
 21
-100.325338776839030
  0
LINE
  8
0
  6
CONTINUOUS
 62
3
 10
-458.405014585101070
 20
-79.513137137206684
 11
-435.145682279868200
 21
-102.772469442439780
  0
LINE
  8
0
  6
CONTINUOUS
 62
3
 10
-454.162373897981980
 20
-75.270496450087364
 11
-429.107531571230080
 21
-100.325338776839030
  0
LINE
  8
0
  6
CONTINUOUS
 62
3
 10
-260.481803775274780
 20
-56.193707259913879
 11
-260.481803775274780
 21
-265.193707259913880
  0
LINE
  8
0
  6
CONTINUOUS
 62
3
 10
-477.481803775274780
 20
-48.193707259913879
 11
-268.481803775274780
 21
-48.193707259913879
  0
LINE
  8
0
  6
CONTINUOUS
 62
3
 10
-485.481803775274780
 20
-56.193707259913879
 11
-485.481803775274780
 21
-265.193707259913880
  0
LINE
  8
0
  6
CONTINUOUS
 62
3
 10
-477.481803775274780
 20
-273.193707259913880
 11
-435.043592603282380
 21
-273.193707259913880
  0
LINE
  8
0
  6
CONTINUOUS
 62
3
 10
-310.920014947267190
 20
-273.193707259913880
 11
-268.481803775274780
 21
-273.193707259913880
  0
LINE
  8
0
  6
DASHDOT
 62
4
 10
-372.981803775274780
 20
-160.693707259913880
 11
-372.981803775274780
 21
-190.693707259913880
  0
LINE
  8
0
  6
CONTINUOUS
 62
3
 10
-320.981803775274780
 20
-283.693707259913880
 11
-372.981803775274560
 21
-283.693707259913880
  0
LINE
  8
0
  6
CONTINUOUS
 62
3
 10
-424.981803775274780
 20
-283.693707259913880
 11
-372.981803775274780
 21
-283.693707259913880
  0
ARC
  8
0
  6
CONTINUOUS
 62
3
 10
-308.696604927121830
 20
-104.893789785999330
 40
2.999999999999864
 50
135.000000000000000
 51
232.710272620194250
  0
ARC
  8
0
  6
CONTINUOUS
 62
3
 10
-285.437272621888500
 20
-81.634457480766230
 40
2.999999999999864
 50
45.000000000000000
 51
135.000000000003040
  0
ARC
  8
0
  6
CONTINUOUS
 62
3
 10
-293.922553996127140
 20
-73.149176106527591
 40
3.000000000000024
 50
314.999999999996870
 51
45.000000000000000
  0
ARC
  8
0
  6
CONTINUOUS
 62
3
 10
-452.041053554422430
 20
-73.149176106527818
 40
3.000000000000024
 50
134.999999999996930
 51
225.000000000000000
  0
ARC
  8
0
  6
CONTINUOUS
 62
3
 10
-460.526334928661070
 20
-81.634457480766230
 40
3.000000000000185
 50
44.999999999993868
 51
135.000000000000000
  0
ARC
  8
0
  6
CONTINUOUS
 62
3
 10
-437.267002623427740
 20
-104.893789785999330
 40
3.000000000000132
 50
307.289727379809220
 51
45.000000000000000
  0
ARC
  8
0
  6
CONTINUOUS
 62
3
 10
-366.981803775274780
 20
-53.693707259913879
 40
3.000000000000000
 50
90.000000000000000
 51
180.000000000000000
  0
ARC
  8
0
  6
CONTINUOUS
 62
3
 10
-378.981803775274780
 20
-53.693707259913879
 40
3.000000000000000
 50
0.000000000000000
 51
90.000000000000000
  0
CIRCLE
  8
0
  6
CONTINUOUS
 62
3
 10
-273.986854409158010
 20
-61.698757893797335
 40
7.500000000000000
  0
CIRCLE
  8
0
  6
CONTINUOUS
 62
3
 10
-471.976753141391330
 20
-61.698757893797335
 40
7.500000000000000
  0
CIRCLE
  8
0
  6
CONTINUOUS
 62
3
 10
-471.976753141391330
 20
-259.688656626030420
 40
7.500000000000000
  0
CIRCLE
  8
0
  6
CONTINUOUS
 62
3
 10
-273.986854409158010
 20
-259.688656626030420
 40
7.500000000000000
  0
ARC
  8
0
  6
CONTINUOUS
 62
3
 10
-268.481803775274780
 20
-56.193707259913879
 40
8.000000000000000
 50
0.000000000000000
 51
90.000000000000000
  0
ARC
  8
0
  6
CONTINUOUS
 62
3
 10
-477.481803775274780
 20
-56.193707259913879
 40
8.000000000000000
 50
90.000000000000000
 51
180.000000000000000
  0
ARC
  8
0
  6
CONTINUOUS
 62
3
 10
-477.481803775274780
 20
-265.193707259913880
 40
8.000000000000000
 50
180.000000000000000
 51
270.000000000000000
  0
ARC
  8
0
  6
CONTINUOUS
 62
3
 10
-268.481803775274780
 20
-265.193707259913880
 40
8.000000000000000
 50
270.000000000000000
 51
0.000000000000000
  0
ARC
  8
0
  6
CONTINUOUS
 62
3
 10
-320.981803775274780
 20
-273.693707259913880
 40
10.000000000000000
 50
270.000000000000000
 51
358.218230102088230
  0
ARC
  8
0
  6
CONTINUOUS
 62
3
 10
-424.981803775274780
 20
-273.693707259913880
 40
9.999999999999675
 50
181.781769897911860
 51
270.000000000000000
  0
ARC
  8
0
  6
CONTINUOUS
 62
3
 10
-442.973100845485530
 20
-274.253376565324000
 40
8.000000000000107
 50
1.781769897912753
 51
50.049766338017157
  0
LINE
  8
0
  6
CONTINUOUS
 62
3
 10
-369.981803775274780
 20
-53.693707259913879
 11
-369.981803775274780
 21
-55.693707259913879
  0
LINE
  8
0
  6
CONTINUOUS
 62
3
 10
-375.981803775274780
 20
-53.693707259913879
 11
-375.981803775274780
 21
-55.693707259913879
  0
ARC
  8
0
  6
CONTINUOUS
 62
3
 10
-318.977396322879030
 20
-98.204018433279259
 40
3.000000000000092
 50
241.185147882958400
 51
315.000000000000000
  0
ARC
  8
0
  6
CONTINUOUS
 62
3
 10
-302.990506705063810
 20
-274.253376565324000
 40
7.999999999999901
 50
129.950233661982820
 51
178.218230102087180
  0
LINE
  8
0
  6
CONTINUOUS
 62
3
 10
-393.481803775274780
 20
-91.191605194833585
 11
-393.481803775274780
 21
-106.693707259913870
  0
LINE
  8
0
  6
CONTINUOUS
 62
3
 10
-424.981803775274780
 20
-283.693707259913880
 11
-372.981803775275240
 21
-283.693707259913880
  0
LINE
  8
0
  6
CONTINUOUS
 62
3
 10
-320.981803775275010
 20
-283.693707259913880
 11
-372.981803775275010
 21
-283.693707259913880
  0
LINE
  8
0
  6
CONTINUOUS
 62
3
 10
-352.481803775274780
 20
-91.191605194833642
 11
-352.481803775274780
 21
-106.693707259913870
  0
LINE
  8
0
  6
CONTINUOUS
 62
3
 10
-375.981803775274780
 20
-112.693707259913870
 11
-375.981803775274780
 21
-129.193707259913880
  0
LINE
  8
0
  6
CONTINUOUS
 62
3
 10
-355.481803775274780
 20
-109.693707259913870
 11
-390.481803775274780
 21
-109.693707259913870
  0
LINE
  8
0
  6
CONTINUOUS
 62
3
 10
-369.981803775274780
 20
-112.693707259913870
 11
-369.981803775274780
 21
-129.193707259913880
  0
ARC
  8
0
  6
CONTINUOUS
 62
3
 10
-302.990506705064040
 20
-274.253376565324000
 40
7.999999999999901
 50
129.950233661982820
 51
178.218230102087230
  0
ARC
  8
0
  6
CONTINUOUS
 62
3
 10
-320.981803775275010
 20
-273.693707259913880
 40
10.000000000000000
 50
270.000000000000000
 51
358.218230102088230
  0
ARC
  8
0
  6
CONTINUOUS
 62
3
 10
-424.981803775274780
 20
-273.693707259913880
 40
10.000000000000128
 50
181.781769897911770
 51
270.000000000000000
  0
ARC
  8
0
  6
CONTINUOUS
 62
3
 10
-442.973100845485990
 20
-274.253376565324000
 40
8.000000000000107
 50
1.781769897912753
 51
50.049766338017157
  0
ARC
  8
0
  6
CONTINUOUS
 62
3
 10
-283.981803775274780
 20
-226.679815690807060
 40
4.999999999999877
 50
337.984630459601990
 51
0.000000000000000
  0
ARC
  8
0
  6
CONTINUOUS
 62
3
 10
-461.981803775275240
 20
-226.679815690807060
 40
5.000000000000000
 50
180.000000000000000
 51
202.015369540398010
  0
ARC
  8
0
  6
CONTINUOUS
 62
3
 10
-372.981803775275240
 20
-190.693707259913880
 40
100.999999999999880
 50
202.015369540396900
 51
230.049766338017580
  0
ARC
  8
0
  6
CONTINUOUS
 62
3
 10
-372.981803775274780
 20
-190.693707259913880
 40
101.000000000000050
 50
309.950233661982400
 51
337.984630459603070
  0
ARC
  8
0
  6
CONTINUOUS
 62
3
 10
-390.481803775274780
 20
-106.693707259913870
 40
3.000000000000000
 50
180.000000000000000
 51
270.000000000000000
  0
ARC
  8
0
  6
CONTINUOUS
 62
3
 10
-355.481803775274780
 20
-106.693707259913870
 40
3.000000000000000
 50
270.000000000000000
 51
0.000000000000000
  0
ARC
  8
0
  6
CONTINUOUS
 62
3
 10
-378.981803775274780
 20
-112.693707259913870
 40
3.000000000000000
 50
0.000000000000000
 51
90.000000000000000
  0
ARC
  8
0
  6
CONTINUOUS
 62
3
 10
-366.981803775274780
 20
-112.693707259913870
 40
3.000000000000000
 50
90.000000000000000
 51
180.000000000000000
  0
ARC
  8
0
  6
DASHDOT
 62
4
 10
-372.981803775274780
 20
-160.693707259913880
 40
140.000000000000000
 50
309.675311540691890
 51
320.447978627925410
  0
LINE
  8
0
  6
DASHDOT
 62
4
 10
-263.716896259650640
 20
-269.958614775537630
 11
-284.705447628887900
 21
-248.970063406300770
  0
ARC
  8
0
  6
DASHDOT
 62
4
 10
-372.981803775274780
 20
-160.693707259913880
 40
140.000000000000030
 50
219.631952542387980
 51
230.565466064927790
  0
LINE
  8
0
  6
DASHDOT
 62
4
 10
-482.213512316383460
 20
-269.925415801023010
 11
-461.431877487807470
 21
-249.143780972447020
  0
LINE
  8
0
  6
DASHDOT
 62
4
 10
-481.872791412203920
 20
-51.802719622984739
 11
-462.725019307795490
 21
-70.950491727393171
  0
ARC
  8
0
  6
DASHDOT
 62
4
 10
-372.981803775274780
 20
-160.693707259913880
 40
140.000000000000090
 50
129.903202530482840
 51
140.181689371394210
  0
ARC
  8
0
  6
DASHDOT
 62
4
 10
-372.981803775274780
 20
-160.693707259913880
 40
139.999999999999910
 50
39.833380666744844
 51
50.487904586889194
  0
LINE
  8
0
  6
DASHDOT
 62
4
 10
-263.633401207634050
 20
-51.345304692273601
 11
-285.004806302801630
 21
-72.716709787441175
  0
LINE
  8
0
  6
DASHDOT
 62
4
 10
-353.705243649157640
 20
-160.693707259913880
 11
-392.714555108304920
 21
-160.693707259913880
  0
ARC
  8
0
  6
CONTINUOUS
 62
3
 10
-575.481803775274780
 20
-190.693707259913990
 40
300.000000000000060
 50
353.967950853630210
 51
6.032049146369816
  0
LINE
  8
0
  6
CONTINUOUS
 62
3
 10
-275.492220622792500
 20
-193.193707259913880
 11
-274.981803775274780
 21
-193.193707259913880
  0
LINE
  8
0
  6
CONTINUOUS
 62
3
 10
-275.481805632472510
 20
-188.193707259913880
 11
-274.981803775274780
 21
-188.193707259913880
  0
LINE
  8
0
  6
CONTINUOUS
 62
3
 10
-274.981803775274780
 20
-193.193707259913880
 11
-274.981803775274780
 21
-188.193707259913880
  0
ARC
  8
0
  6
CONTINUOUS
 62
3
 10
-282.115139002332400
 20
-221.693707259913880
 40
5.000000000000000
 50
270.000000000000000
 51
353.967950853629650
  0
LINE
  8
0
  6
CONTINUOUS
 62
3
 10
-310.675500266354220
 20
-226.693707259913880
 11
-282.115139002332400
 21
-226.693707259913880
  0
LINE
  8
0
  6
CONTINUOUS
 62
3
 10
-310.675500266354220
 20
-154.693707259913880
 11
-282.115139002332400
 21
-154.693707259913880
  0
ARC
  8
0
  6
CONTINUOUS
 62
3
 10
-282.115139002332400
 20
-159.693707259913880
 40
5.000000000000131
 50
6.032049146369048
 51
90.000000000000000
  0
LINE
  8
0
  6
CONTINUOUS
 62
3
 10
-309.481803775274780
 20
-220.686206322180680
 11
-309.481803775274780
 21
-226.693707259913880
  0
LINE
  8
0
  6
CONTINUOUS
 62
3
 10
-309.481803775274780
 20
-160.701208197647080
 11
-309.481803775274780
 21
-154.693707259913880
  0
ARC
  8
0
  6
CONTINUOUS
 62
4
 10
-137.381803775274650
 20
-190.693707259913880
 40
289.397000000000160
 50
180.000000000000000
 51
186.051985358668500
  0
ARC
  8
0
  6
CONTINUOUS
 62
4
 10
-409.854704700485170
 20
-219.581736985052150
 40
15.397000000000052
 50
186.051985358668840
 51
225.000000000000000
  0
LINE
  8
0
  6
CONTINUOUS
 62
4
 10
-416.165962417775970
 20
-235.045125487620170
 11
-420.742027810414580
 21
-230.469060094981560
  0
ARC
  8
0
  6
CONTINUOUS
 62
4
 10
-411.923321730656880
 20
-230.802484800500620
 40
6.000000000000049
 50
225.000000000003070
 51
262.102011327574360
  0
ARC
  8
0
  6
CONTINUOUS
 62
4
 10
-372.981803775274560
 20
49.906292740086030
 40
289.396999999999820
 50
262.102011327572200
 51
270.000000000000000
  0
ARC
  8
0
  6
CONTINUOUS
 62
4
 10
-608.581803775274690
 20
-190.693707259913880
 40
289.397000000000160
 50
353.948014641331500
 51
0.000000000000000
  0
ARC
  8
0
  6
CONTINUOUS
 62
4
 10
-336.108902850064170
 20
-219.581736985052150
 40
15.396999999999876
 50
315.000000000000000
 51
353.948014641331160
  0
LINE
  8
0
  6
CONTINUOUS
 62
4
 10
-329.797645132773370
 20
-235.045125487620170
 11
-325.221579740134760
 21
-230.469060094981560
  0
ARC
  8
0
  6
CONTINUOUS
 62
4
 10
-334.040285819892460
 20
-230.802484800500620
 40
5.999999999999923
 50
277.897988672425640
 51
314.999999999996870
  0
ARC
  8
0
  6
CONTINUOUS
 62
4
 10
-372.981803775274780
 20
49.906292740086030
 40
289.396999999999930
 50
270.000000000000000
 51
277.897988672427800
  0
ARC
  8
0
  6
CONTINUOUS
 62
4
 10
-608.581803775274690
 20
-190.693707259913880
 40
289.397000000000160
 50
0.000000000000000
 51
6.051985358668508
  0
ARC
  8
0
  6
CONTINUOUS
 62
4
 10
-336.108902850064170
 20
-161.805677534775610
 40
15.397000000000052
 50
6.051985358668849
 51
45.000000000000000
  0
LINE
  8
0
  6
CONTINUOUS
 62
4
 10
-329.797645132773370
 20
-146.342289032207590
 11
-325.221579740134760
 21
-150.918354424846200
  0
ARC
  8
0
  6
CONTINUOUS
 62
4
 10
-334.040285819892460
 20
-150.584929719327140
 40
6.000000000000049
 50
45.000000000003077
 51
82.102011327574374
  0
ARC
  8
0
  6
CONTINUOUS
 62
4
 10
-372.981803775274780
 20
-431.293707259913790
 40
289.396999999999820
 50
82.102011327572214
 51
90.000000000000000
  0
ARC
  8
0
  6
CONTINUOUS
 62
4
 10
-137.381803775274880
 20
-190.693707259913880
 40
289.396999999999930
 50
173.948014641331470
 51
180.000000000000000
  0
LINE
  8
0
  6
CONTINUOUS
 62
4
 10
-416.165962417775970
 20
-146.342289032207590
 11
-420.742027810414580
 21
-150.918354424846200
  0
ARC
  8
0
  6
CONTINUOUS
 62
4
 10
-409.854704700485170
 20
-161.805677534775610
 40
15.396999999999876
 50
135.000000000000000
 51
173.948014641331160
  0
ARC
  8
0
  6
CONTINUOUS
 62
3
 10
-336.108902850064170
 20
-219.581736985052150
 40
26.599999999999955
 50
315.000000000001020
 51
353.948014641331380
  0
LINE
  8
0
  6
CONTINUOUS
 62
3
 10
-324.366311589161110
 20
-245.457226483273590
 11
-317.299862470501690
 21
-238.390777364613940
  0
ARC
  8
0
  6
CONTINUOUS
 62
3
 10
-608.581803775274690
 20
-190.693707259913880
 40
300.600000000000080
 50
353.948014641331500
 51
6.051985358668499
  0
ARC
  8
0
  6
CONTINUOUS
 62
3
 10
-409.854704700485170
 20
-219.581736985052150
 40
26.599999999999969
 50
186.051985358668590
 51
224.999999999998980
  0
ARC
  8
0
  6
CONTINUOUS
 62
3
 10
-137.381803775274880
 20
-190.693707259913880
 40
300.599999999999850
 50
173.948014641331500
 51
186.051985358668500
  0
LINE
  8
0
  6
CONTINUOUS
 62
3
 10
-421.597295961388450
 20
-245.457226483273590
 11
-428.663745080047650
 21
-238.390777364613940
  0
ARC
  8
0
  6
CONTINUOUS
 62
3
 10
-409.854704700485170
 20
-161.805677534775610
 40
26.600000000000119
 50
135.000000000000000
 51
173.948014641331410
  0
LINE
  8
0
  6
CONTINUOUS
 62
3
 10
-421.597295961388450
 20
-135.930188036554400
 11
-428.663745080047420
 21
-142.996637155213360
  0
ARC
  8
0
  6
CONTINUOUS
 62
3
 10
-336.108902850064400
 20
-161.805677534775610
 40
26.600000000000193
 50
6.051985358668552
 51
45.000000000000000
  0
LINE
  8
0
  6
CONTINUOUS
 62
3
 10
-324.366311589161110
 20
-135.930188036554400
 11
-317.299862470502150
 21
-142.996637155213360
  0
ARC
  8
0
  6
CONTINUOUS
 62
3
 10
-416.930391205557270
 20
-240.790321727442400
 40
6.599999999999957
 50
225.000000000000000
 51
261.402917762751090
  0
ARC
  8
0
  6
CONTINUOUS
 62
3
 10
-372.981803775274780
 20
49.906292740086258
 40
300.600000000000020
 50
261.402917762750920
 51
270.000000000000000
  0
ARC
  8
0
  6
CONTINUOUS
 62
3
 10
-329.033216344992300
 20
-240.790321727442400
 40
6.599999999999747
 50
278.597082237248910
 51
315.000000000000000
  0
ARC
  8
0
  6
CONTINUOUS
 62
3
 10
-372.981803775274780
 20
-431.293707259913790
 40
300.599999999999800
 50
81.402917762750931
 51
90.000000000000000
  0
ARC
  8
0
  6
CONTINUOUS
 62
3
 10
-329.033216344992300
 20
-140.597092792385580
 40
6.600000000000118
 50
45.000000000001400
 51
81.402917762751386
  0
ARC
  8
0
  6
CONTINUOUS
 62
3
 10
-372.981803775274780
 20
49.906292740086258
 40
300.600000000000140
 50
270.000000000000000
 51
278.597082237249080
  0
ARC
  8
0
  6
CONTINUOUS
 62
3
 10
-372.981803775274780
 20
-431.293707259913790
 40
300.599999999999910
 50
90.000000000000000
 51
98.597082237249069
  0
ARC
  8
0
  6
CONTINUOUS
 62
3
 10
-368.981803775274780
 20
-149.386928155268320
 40
1.500000000000203
 50
84.468928475159132
 51
180.000000000000000
  0
ARC
  8
0
  6
CONTINUOUS
 62
3
 10
-376.981803775274780
 20
-149.386928155268090
 40
1.500000000000000
 50
0.000000000000000
 51
95.531071524841693
  0
ARC
  8
0
  6
CONTINUOUS
 62
3
 10
-372.981803775274560
 20
-190.693707259913420
 40
17.999999999999922
 50
41.837004155893325
 51
78.162995844107314
  0
ARC
  8
0
  6
CONTINUOUS
 62
3
 10
-372.981803775275010
 20
-190.693707259913420
 40
27.499999999999815
 50
97.928141766201691
 51
142.071858233797880
  0
LINE
  8
0
  6
CONTINUOUS
 62
3
 10
-370.481803775274780
 20
-149.386928155268320
 11
-370.481803775274780
 21
-152.402063262822310
  0
LINE
  8
0
  6
CONTINUOUS
 62
3
 10
-341.070267321123990
 20
-169.382821751907100
 11
-338.459083722139890
 21
-167.875254198129990
  0
LINE
  8
0
  6
CONTINUOUS
 62
3
 10
-370.481803775274780
 20
-158.944691527138900
 11
-370.481803775274780
 21
-161.970894027223440
  0
ARC
  8
0
  6
CONTINUOUS
 62
3
 10
-368.981803775274780
 20
-158.944691527138900
 40
1.499999999999998
 50
82.819244218541712
 51
180.000000000000000
  0
ARC
  8
0
  6
CONTINUOUS
 62
3
 10
-368.981803775274780
 20
-152.402063262822310
 40
1.500000000000000
 50
180.000000000000000
 51
264.036429881682580
  0
ARC
  8
0
  6
CONTINUOUS
 62
3
 10
-339.209083722139890
 20
-166.576216092453190
 40
1.500000000000123
 50
299.999999999997270
 51
35.531071524839192
  0
ARC
  8
0
  6
CONTINUOUS
 62
3
 10
-372.981803775275240
 20
-190.693707259913880
 40
42.999999999999908
 50
35.531071524839248
 51
84.468928475160212
  0
ARC
  8
0
  6
CONTINUOUS
 62
3
 10
-335.209083722139440
 20
-173.504419322729230
 40
1.500000000000034
 50
24.468928475159590
 51
119.999999999997270
  0
LINE
  8
0
  6
CONTINUOUS
 62
3
 10
-338.570267321123770
 20
-173.712948770829540
 11
-335.959083722139440
 21
-172.205381217052430
  0
ARC
  8
0
  6
CONTINUOUS
 62
3
 10
-337.820267321123770
 20
-175.011986876506340
 40
1.500000000000123
 50
119.999999999997270
 51
204.036429881680680
  0
ARC
  8
0
  6
CONTINUOUS
 62
3
 10
-372.981803775275010
 20
-190.693707259914330
 40
36.999999999999972
 50
335.963570118321740
 51
24.036429881678870
  0
ARC
  8
0
  6
CONTINUOUS
 62
3
 10
-372.981803775275010
 20
-190.693707259914330
 40
42.999999999999936
 50
335.531071524839770
 51
24.468928475160769
  0
ARC
  8
0
  6
CONTINUOUS
 62
3
 10
-335.209083722139440
 20
-207.882995197098750
 40
1.500000000000320
 50
240.000000000007050
 51
335.531071524832500
  0
LINE
  8
0
  6
CONTINUOUS
 62
3
 10
-335.959083722139440
 20
-209.182033302775780
 11
-338.570267321123540
 21
-207.674465748998440
  0
ARC
  8
0
  6
CONTINUOUS
 62
3
 10
-337.820267321123540
 20
-206.375427643321870
 40
1.500000000000063
 50
155.963570118322880
 51
239.999999999998410
  0
ARC
  8
0
  6
CONTINUOUS
 62
3
 10
-339.209083722139440
 20
-214.811198427374560
 40
1.499999999999844
 50
324.468928475167900
 51
59.999999999998380
  0
LINE
  8
0
  6
CONTINUOUS
 62
3
 10
-338.459083722139440
 20
-213.512160321697990
 11
-341.070267321123540
 21
-212.004592767920660
  0
LINE
  8
0
  6
CONTINUOUS
 62
3
 10
-375.481803775274780
 20
-149.386928155268090
 11
-375.481803775274780
 21
-152.402063262822310
  0
ARC
  8
0
  6
CONTINUOUS
 62
3
 10
-376.981803775274780
 20
-152.402063262822310
 40
1.499999999999933
 50
275.963570118318330
 51
0.000000000000000
  0
LINE
  8
0
  6
CONTINUOUS
 62
3
 10
-375.481803775274780
 20
-158.944691527138900
 11
-375.481803775274780
 21
-161.970894027223440
  0
ARC
  8
0
  6
CONTINUOUS
 62
3
 10
-376.981803775274780
 20
-158.944691527138900
 40
1.500000000000000
 50
0.000000000000000
 51
97.180755781458288
  0
ARC
  8
0
  6
CONTINUOUS
 62
3
 10
-372.981803775275240
 20
-190.693707259913420
 40
23.999999999999901
 50
100.240348321185670
 51
139.759651678813550
  0
ARC
  8
0
  6
CONTINUOUS
 62
3
 10
-390.156983044319760
 20
-176.158810732033490
 40
1.499999999999802
 50
139.759651678811420
 51
239.999999999998410
  0
LINE
  8
0
  6
CONTINUOUS
 62
3
 10
-388.260188451340580
 20
-178.985976408456220
 11
-390.906983044319760
 21
-177.457848837710060
  0
ARC
  8
0
  6
CONTINUOUS
 62
3
 10
-387.510188451340580
 20
-177.686938302779650
 40
1.499999999999926
 50
239.999999999998410
 51
318.162995844106720
  0
ARC
  8
0
  6
CONTINUOUS
 62
3
 10
-372.981803775275240
 20
-190.693707259913420
 40
17.999999999999829
 50
101.837004155891980
 51
138.162995844106210
  0
ARC
  8
0
  6
CONTINUOUS
 62
3
 10
-376.981803775274780
 20
-171.608372575921240
 40
1.499999999999954
 50
281.837004155896690
 51
0.000000000000000
  0
LINE
  8
0
  6
CONTINUOUS
 62
3
 10
-375.481803775274780
 20
-168.552117434428910
 11
-375.481803775274780
 21
-171.608372575921240
  0
ARC
  8
0
  6
CONTINUOUS
 62
3
 10
-376.981803775274780
 20
-168.552117434428910
 40
1.500000000000000
 50
0.000000000000000
 51
100.240348321194510
  0
ARC
  8
0
  6
CONTINUOUS
 62
3
 10
-372.981803775275240
 20
-190.693707259913420
 40
14.499999999999980
 50
107.920213139390830
 51
132.079786860607560
  0
ARC
  8
0
  6
CONTINUOUS
 62
3
 10
-381.693946418089350
 20
-181.044947206349150
 40
1.499999999999792
 50
132.079786860611680
 51
239.999999999998410
  0
LINE
  8
0
  6
CONTINUOUS
 62
3
 10
-379.669057708468700
 20
-183.946068055496600
 11
-382.443946418089350
 21
-182.343985312025720
  0
ARC
  8
0
  6
CONTINUOUS
 62
3
 10
-378.919057708468700
 20
-182.647029949820020
 40
1.499999999999926
 50
239.999999999998410
 51
306.421821521797600
  0
ARC
  8
0
  6
CONTINUOUS
 62
3
 10
-372.981803775275240
 20
-190.693707259913420
 40
8.499999999999879
 50
113.578178478199500
 51
126.421821521797340
  0
ARC
  8
0
  6
CONTINUOUS
 62
3
 10
-376.981803775274780
 20
-181.528555870001530
 40
1.500000000000139
 50
293.578178478195700
 51
0.000000000000000
  0
LINE
  8
0
  6
CONTINUOUS
 62
3
 10
-375.481803775274780
 20
-178.324390383060460
 11
-375.481803775274780
 21
-181.528555870001530
  0
ARC
  8
0
  6
CONTINUOUS
 62
3
 10
-376.981803775274780
 20
-178.324390383060460
 40
1.500000000000000
 50
0.000000000000000
 51
107.920213139394770
  0
ARC
  8
0
  6
CONTINUOUS
 62
3
 10
-372.981803775274780
 20
-190.693707259913880
 40
23.999999999999716
 50
280.240348321186270
 51
319.759651678814690
  0
ARC
  8
0
  6
CONTINUOUS
 62
3
 10
-368.981803775274780
 20
-212.835297085398390
 40
1.500000000000000
 50
180.000000000000000
 51
280.240348321187530
  0
LINE
  8
0
  6
CONTINUOUS
 62
3
 10
-370.481803775274780
 20
-209.779041943906070
 11
-370.481803775274780
 21
-212.835297085398390
  0
ARC
  8
0
  6
CONTINUOUS
 62
3
 10
-368.981803775274780
 20
-209.779041943906070
 40
1.499999999999731
 50
101.837004155898450
 51
180.000000000000000
  0
ARC
  8
0
  6
CONTINUOUS
 62
3
 10
-372.981803775274780
 20
-190.693707259913880
 40
18.000000000000146
 50
281.837004155893230
 51
318.162995844107680
  0
ARC
  8
0
  6
CONTINUOUS
 62
3
 10
-358.453419099208990
 20
-203.700476217047650
 40
1.499999999999926
 50
59.999999999998380
 51
138.162995844100240
  0
LINE
  8
0
  6
CONTINUOUS
 62
3
 10
-355.056624506230040
 20
-203.929565682117240
 11
-357.703419099208990
 21
-202.401438111371080
  0
ARC
  8
0
  6
CONTINUOUS
 62
3
 10
-355.806624506230040
 20
-205.228603787793820
 40
1.499999999999828
 50
319.759651678823670
 51
59.999999999998380
  0
ARC
  8
0
  6
CONTINUOUS
 62
3
 10
-372.981803775274780
 20
-190.693707259913880
 40
14.500000000000121
 50
287.920213139392560
 51
312.079786860608860
  0
ARC
  8
0
  6
CONTINUOUS
 62
3
 10
-368.981803775274780
 20
-203.063024136766610
 40
1.500000000000000
 50
180.000000000000000
 51
287.920213139392100
  0
LINE
  8
0
  6
CONTINUOUS
 62
3
 10
-370.481803775274780
 20
-199.858858649825320
 11
-370.481803775274780
 21
-203.063024136766610
  0
ARC
  8
0
  6
CONTINUOUS
 62
3
 10
-368.981803775274780
 20
-199.858858649825780
 40
1.500000000000139
 50
113.578178478195690
 51
179.999999999982630
  0
ARC
  8
0
  6
CONTINUOUS
 62
3
 10
-372.981803775274780
 20
-190.693707259913880
 40
8.500000000000060
 50
293.578178478202350
 51
306.421821521799190
  0
ARC
  8
0
  6
CONTINUOUS
 62
3
 10
-367.044549842080870
 20
-198.740384570007280
 40
1.499999999999926
 50
59.999999999998380
 51
126.421821521801260
  0
LINE
  8
0
  6
CONTINUOUS
 62
3
 10
-363.519661132460440
 20
-199.043429207801130
 11
-366.294549842080870
 21
-197.441346464330710
  0
ARC
  8
0
  6
CONTINUOUS
 62
3
 10
-364.269661132460440
 20
-200.342467313478150
 40
1.499999999999944
 50
312.079786860618130
 51
60.000000000007070
  0
ARC
  8
0
  6
CONTINUOUS
 62
3
 10
-372.981803775274780
 20
-190.693707259913880
 40
23.999999999999844
 50
220.240348321185340
 51
259.759651678813730
  0
ARC
  8
0
  6
CONTINUOUS
 62
3
 10
-376.981803775274780
 20
-212.835297085398390
 40
1.499999999999728
 50
259.759651678812470
 51
0.000000000000000
  0
LINE
  8
0
  6
CONTINUOUS
 62
3
 10
-375.481803775274780
 20
-209.779041943906070
 11
-375.481803775274780
 21
-212.835297085398390
  0
ARC
  8
0
  6
CONTINUOUS
 62
3
 10
-376.981803775274780
 20
-209.779041943906070
 40
1.500000000000000
 50
0.000000000000000
 51
78.162995844101530
  0
ARC
  8
0
  6
CONTINUOUS
 62
3
 10
-372.981803775274780
 20
-190.693707259913880
 40
17.999999999999940
 50
221.837004155892320
 51
258.162995844106770
  0
ARC
  8
0
  6
CONTINUOUS
 62
3
 10
-387.510188451340580
 20
-203.700476217047650
 40
1.500000000000118
 50
41.837004155899741
 51
120.000000000001620
  0
LINE
  8
0
  6
CONTINUOUS
 62
3
 10
-390.906983044319530
 20
-203.929565682117240
 11
-388.260188451340580
 21
-202.401438111371080
  0
ARC
  8
0
  6
CONTINUOUS
 62
3
 10
-390.156983044319530
 20
-205.228603787793820
 40
1.499999999999926
 50
120.000000000001620
 51
220.240348321176330
  0
ARC
  8
0
  6
CONTINUOUS
 62
3
 10
-372.981803775274780
 20
-190.693707259913880
 40
14.500000000000011
 50
227.920213139391080
 51
252.079786860607410
  0
ARC
  8
0
  6
CONTINUOUS
 62
3
 10
-376.981803775274780
 20
-203.063024136766610
 40
1.500000000000355
 50
252.079786860607900
 51
0.000000000000000
  0
LINE
  8
0
  6
CONTINUOUS
 62
3
 10
-375.481803775274780
 20
-199.858858649825320
 11
-375.481803775274780
 21
-203.063024136766610
  0
ARC
  8
0
  6
CONTINUOUS
 62
3
 10
-376.981803775274780
 20
-199.858858649825780
 40
1.500000000000000
 50
0.000000000017370
 51
66.421821521804304
  0
ARC
  8
0
  6
CONTINUOUS
 62
3
 10
-372.981803775274780
 20
-190.693707259913880
 40
8.499999999999870
 50
233.578178478199590
 51
246.421821521797680
  0
ARC
  8
0
  6
CONTINUOUS
 62
3
 10
-378.919057708468700
 20
-198.740384570007280
 40
1.500000000000059
 50
53.578178478205707
 51
120.000000000001620
  0
LINE
  8
0
  6
CONTINUOUS
 62
3
 10
-382.443946418089130
 20
-199.043429207801130
 11
-379.669057708468700
 21
-197.441346464330710
  0
ARC
  8
0
  6
CONTINUOUS
 62
3
 10
-381.693946418089130
 20
-200.342467313478150
 40
1.500000000000320
 50
119.999999999992930
 51
227.920213139381870
  0
ARC
  8
0
  6
CONTINUOUS
 62
3
 10
-372.981803775275240
 20
-190.693707259913420
 40
23.999999999999925
 50
160.240348321185910
 51
199.759651678814090
  0
ARC
  8
0
  6
CONTINUOUS
 62
3
 10
-394.156983044319760
 20
-183.087013962308840
 40
1.499999999999926
 50
59.999999999998380
 51
160.240348321185250
  0
LINE
  8
0
  6
CONTINUOUS
 62
3
 10
-390.760188451340580
 20
-183.316103427378440
 11
-393.406983044319760
 21
-181.787975856632270
  0
ARC
  8
0
  6
CONTINUOUS
 62
3
 10
-391.510188451340580
 20
-184.615141533055010
 40
1.500000000000038
 50
341.837004155895390
 51
59.999999999998380
  0
ARC
  8
0
  6
CONTINUOUS
 62
3
 10
-372.981803775275240
 20
-190.693707259913420
 40
17.999999999999726
 50
161.837004155893140
 51
198.162995844106860
  0
ARC
  8
0
  6
CONTINUOUS
 62
3
 10
-391.510188451340580
 20
-196.772272986771840
 40
1.500000000000320
 50
299.999999999992950
 51
18.162995844104589
  0
LINE
  8
0
  6
CONTINUOUS
 62
3
 10
-393.406983044319530
 20
-199.599438663194580
 11
-390.760188451340580
 21
-198.071311092448870
  0
ARC
  8
0
  6
CONTINUOUS
 62
3
 10
-394.156983044319530
 20
-198.300400557518000
 40
1.500000000000246
 50
199.759651678811820
 51
300.000000000001590
  0
ARC
  8
0
  6
CONTINUOUS
 62
3
 10
-372.981803775275240
 20
-190.693707259913420
 40
14.499999999999851
 50
167.920213139392840
 51
192.079786860608920
  0
ARC
  8
0
  6
CONTINUOUS
 62
3
 10
-385.693946418089350
 20
-187.973150436624510
 40
1.499999999999926
 50
59.999999999998380
 51
167.920213139405550
  0
LINE
  8
0
  6
CONTINUOUS
 62
3
 10
-382.169057708468700
 20
-188.276195074418810
 11
-384.943946418089350
 21
-186.674112330947930
  0
ARC
  8
0
  6
CONTINUOUS
 62
3
 10
-382.919057708468700
 20
-189.575233180095380
 40
1.499999999999873
 50
353.578178478198030
 51
59.999999999998380
  0
ARC
  8
0
  6
CONTINUOUS
 62
3
 10
-372.981803775275240
 20
-190.693707259913420
 40
8.499999999999813
 50
173.578178478202550
 51
186.421821521800500
  0
ARC
  8
0
  6
CONTINUOUS
 62
3
 10
-382.919057708468700
 20
-191.812181339731920
 40
1.499999999999926
 50
300.000000000001590
 51
6.421821521801967
  0
LINE
  8
0
  6
CONTINUOUS
 62
3
 10
-384.943946418089130
 20
-194.713302188878910
 11
-382.169057708468700
 21
-193.111219445408490
  0
ARC
  8
0
  6
CONTINUOUS
 62
3
 10
-385.693946418089130
 20
-193.414264083202340
 40
1.500000000000287
 50
192.079786860609600
 51
300.000000000001590
  0
ARC
  8
0
  6
CONTINUOUS
 62
3
 10
-372.981803775274560
 20
-190.693707259913420
 40
24.000000000000139
 50
340.240348321186050
 51
19.759651678813924
  0
ARC
  8
0
  6
CONTINUOUS
 62
3
 10
-351.806624506230040
 20
-183.087013962308840
 40
1.500000000000246
 50
19.759651678811824
 51
120.000000000001620
  0
LINE
  8
0
  6
CONTINUOUS
 62
3
 10
-355.203419099208990
 20
-183.316103427378440
 11
-352.556624506230040
 21
-181.787975856632270
  0
ARC
  8
0
  6
CONTINUOUS
 62
3
 10
-354.453419099208990
 20
-184.615141533055010
 40
1.499999999999926
 50
120.000000000001620
 51
198.162995844104590
  0
ARC
  8
0
  6
CONTINUOUS
 62
3
 10
-372.981803775274560
 20
-190.693707259913420
 40
17.999999999999943
 50
341.837004155893340
 51
18.162995844106646
  0
ARC
  8
0
  6
CONTINUOUS
 62
3
 10
-354.453419099208990
 20
-196.772272986771840
 40
1.500000000000038
 50
161.837004155895410
 51
240.000000000007050
  0
LINE
  8
0
  6
CONTINUOUS
 62
3
 10
-352.556624506230040
 20
-199.599438663194580
 11
-355.203419099208990
 21
-198.071311092448870
  0
ARC
  8
0
  6
CONTINUOUS
 62
3
 10
-351.806624506230040
 20
-198.300400557518000
 40
1.499999999999926
 50
239.999999999998410
 51
340.240348321188210
  0
ARC
  8
0
  6
CONTINUOUS
 62
3
 10
-372.981803775274560
 20
-190.693707259913420
 40
14.500000000000169
 50
347.920213139391310
 51
12.079786860606980
  0
ARC
  8
0
  6
CONTINUOUS
 62
3
 10
-360.269661132460440
 20
-187.973150436624510
 40
1.500000000000192
 50
12.079786860592611
 51
120.000000000001620
  0
LINE
  8
0
  6
CONTINUOUS
 62
3
 10
-363.794549842080870
 20
-188.276195074418810
 11
-361.019661132460440
 21
-186.674112330947930
  0
ARC
  8
0
  6
CONTINUOUS
 62
3
 10
-363.044549842080870
 20
-189.575233180095380
 40
1.499999999999926
 50
120.000000000001620
 51
186.421821521801010
  0
ARC
  8
0
  6
CONTINUOUS
 62
3
 10
-372.981803775274560
 20
-190.693707259913420
 40
8.499999999999865
 50
353.578178478199500
 51
6.421821521797448
  0
ARC
  8
0
  6
CONTINUOUS
 62
3
 10
-363.044549842080870
 20
-191.812181339731920
 40
1.500000000000099
 50
173.578178478198990
 51
239.999999999998410
  0
LINE
  8
0
  6
CONTINUOUS
 62
3
 10
-361.019661132460440
 20
-194.713302188878910
 11
-363.794549842080870
 21
-193.111219445408490
  0
ARC
  8
0
  6
CONTINUOUS
 62
3
 10
-360.269661132460440
 20
-193.414264083202340
 40
1.499999999999926
 50
239.999999999998410
 51
347.920213139390400
  0
ARC
  8
0
  6
CONTINUOUS
 62
3
 10
-372.981803775274560
 20
-190.693707259913420
 40
8.500000000000101
 50
53.578178478202659
 51
66.421821521799089
  0
ARC
  8
0
  6
CONTINUOUS
 62
3
 10
-372.981803775274560
 20
-190.693707259913420
 40
23.999999999999819
 50
40.240348321186090
 51
79.759651678814322
  0
LINE
  8
0
  6
CONTINUOUS
 62
3
 10
-366.294549842080870
 20
-183.946068055496600
 11
-363.519661132460440
 21
-182.343985312025720
  0
LINE
  8
0
  6
CONTINUOUS
 62
3
 10
-370.481803775274780
 20
-168.552117434428910
 11
-370.481803775274780
 21
-171.608372575921240
  0
LINE
  8
0
  6
CONTINUOUS
 62
3
 10
-370.481803775274780
 20
-178.324390383060460
 11
-370.481803775274780
 21
-181.528555870001530
  0
ARC
  8
0
  6
CONTINUOUS
 62
3
 10
-372.981803775274560
 20
-190.693707259913420
 40
14.499999999999860
 50
47.920213139391755
 51
72.079786860608309
  0
LINE
  8
0
  6
CONTINUOUS
 62
3
 10
-357.703419099208990
 20
-178.985976408456220
 11
-355.056624506230040
 21
-177.457848837710060
  0
ARC
  8
0
  6
CONTINUOUS
 62
3
 10
-364.269661132460440
 20
-181.044947206349150
 40
1.499999999999926
 50
300.000000000001590
 51
47.920213139381872
  0
ARC
  8
0
  6
CONTINUOUS
 62
3
 10
-368.981803775274780
 20
-168.552117434428910
 40
1.499999999999952
 50
79.759651678814024
 51
180.000000000000000
  0
ARC
  8
0
  6
CONTINUOUS
 62
3
 10
-358.453419099208990
 20
-177.686938302779650
 40
1.499999999999967
 50
221.837004155893280
 51
300.000000000001590
  0
ARC
  8
0
  6
CONTINUOUS
 62
3
 10
-368.981803775274780
 20
-171.608372575921240
 40
1.500000000000000
 50
180.000000000000000
 51
258.162995844103310
  0
ARC
  8
0
  6
CONTINUOUS
 62
3
 10
-368.981803775274780
 20
-178.324390383060460
 40
1.500000000000138
 50
72.079786860605225
 51
180.000000000000000
  0
ARC
  8
0
  6
CONTINUOUS
 62
3
 10
-355.806624506230040
 20
-176.158810732033490
 40
1.499999999999926
 50
300.000000000001590
 51
40.240348321182964
  0
ARC
  8
0
  6
CONTINUOUS
 62
3
 10
-368.981803775274780
 20
-181.528555870001530
 40
1.500000000000000
 50
180.000000000000000
 51
246.421821521804280
  0
ARC
  8
0
  6
CONTINUOUS
 62
3
 10
-367.044549842080870
 20
-182.647029949820020
 40
1.499999999999693
 50
233.578178478195410
 51
300.000000000001590
  0
CIRCLE
  8
0
  6
CONTINUOUS
 62
3
 10
-372.981803775274780
 20
-190.693707259913420
 40
5.000000000000000
  0
ARC
  8
0
  6
CONTINUOUS
 62
3
 10
-350.107117847609060
 20
-172.868199028430750
 40
1.499999999999843
 50
217.928141766204990
 51
300.000000000001590
  0
LINE
  8
0
  6
CONTINUOUS
 62
3
 10
-349.357117847609060
 20
-174.167237134107320
 11
-346.736349605540230
 21
-172.654135884065170
  0
ARC
  8
0
  6
CONTINUOUS
 62
3
 10
-368.981803775274780
 20
-161.970894027223440
 40
1.500000000000000
 50
180.000000000000000
 51
262.071858233795980
  0
ARC
  8
0
  6
CONTINUOUS
 62
3
 10
-372.981803775274560
 20
-190.693707259913420
 40
27.500000000000060
 50
37.928141766201819
 51
82.071858233798309
  0
ARC
  8
0
  6
CONTINUOUS
 62
3
 10
-347.486349605540230
 20
-171.355097778388600
 40
1.499999999999926
 50
300.000000000001590
 51
37.180755781457485
  0
ARC
  8
0
  6
CONTINUOUS
 62
3
 10
-341.820267321123990
 20
-168.083783646230300
 40
1.500000000000102
 50
215.963570118316280
 51
299.999999999997270
  0
ARC
  8
0
  6
CONTINUOUS
 62
3
 10
-372.981803775275240
 20
-190.693707259913880
 40
36.999999999999943
 50
35.963570118321194
 51
84.036429881678174
  0
ARC
  8
0
  6
CONTINUOUS
 62
3
 10
-372.981803775275240
 20
-190.693707259913880
 40
33.500000000000071
 50
37.180755781458259
 51
82.819244218540931
  0
LINE
  8
0
  6
CONTINUOUS
 62
3
 10
-346.857117847608830
 20
-178.497364153029990
 11
-344.236349605540000
 21
-176.984262902987840
  0
ARC
  8
0
  6
CONTINUOUS
 62
3
 10
-343.486349605540000
 20
-178.283301008664640
 40
1.499999999999948
 50
22.819244218550043
 51
119.999999999997270
  0
ARC
  8
0
  6
CONTINUOUS
 62
3
 10
-346.107117847608830
 20
-179.796402258706560
 40
1.499999999999926
 50
120.000000000001620
 51
202.071858233797370
  0
ARC
  8
0
  6
CONTINUOUS
 62
3
 10
-372.981803775274330
 20
-190.693707259913880
 40
27.499999999999886
 50
337.928141766202200
 51
22.071858233797812
  0
ARC
  8
0
  6
CONTINUOUS
 62
3
 10
-372.981803775275010
 20
-190.693707259914330
 40
33.500000000000128
 50
337.180755781459030
 51
22.819244218541968
  0
ARC
  8
0
  6
CONTINUOUS
 62
3
 10
-346.107117847609060
 20
-201.591012261121190
 40
1.499999999999899
 50
157.928141766199360
 51
240.000000000007050
  0
LINE
  8
0
  6
CONTINUOUS
 62
3
 10
-344.236349605539770
 20
-204.403151616840150
 11
-346.857117847609060
 21
-202.890050366798220
  0
ARC
  8
0
  6
CONTINUOUS
 62
3
 10
-343.486349605539770
 20
-203.104113511163580
 40
1.499999999999926
 50
239.999999999998410
 51
337.180755781453340
  0
ARC
  8
0
  6
CONTINUOUS
 62
3
 10
-368.981803775274560
 20
-232.000486364558980
 40
1.500000000000000
 50
180.000000000000000
 51
275.531071524831360
  0
LINE
  8
0
  6
CONTINUOUS
 62
3
 10
-370.481803775274560
 20
-228.985351257004770
 11
-370.481803775274560
 21
-232.000486364558980
  0
LINE
  8
0
  6
CONTINUOUS
 62
3
 10
-370.481803775274560
 20
-219.416520492604320
 11
-370.481803775274560
 21
-222.442722992688630
  0
ARC
  8
0
  6
CONTINUOUS
 62
3
 10
-368.981803775274560
 20
-228.985351257005220
 40
1.500000000000182
 50
95.963570118326047
 51
179.999999999982630
  0
ARC
  8
0
  6
CONTINUOUS
 62
3
 10
-368.981803775274560
 20
-222.442722992688630
 40
1.500000000000000
 50
180.000000000000000
 51
277.180755781458290
  0
ARC
  8
0
  6
CONTINUOUS
 62
3
 10
-368.981803775274560
 20
-219.416520492604320
 40
1.499999999999967
 50
97.928141766195438
 51
180.000000000000000
  0
ARC
  8
0
  6
CONTINUOUS
 62
3
 10
-372.981803775274560
 20
-190.693707259914330
 40
27.499999999999879
 50
277.928141766202600
 51
322.071858233798930
  0
ARC
  8
0
  6
CONTINUOUS
 62
3
 10
-372.981803775274560
 20
-190.693707259913420
 40
37.000000000000028
 50
275.963570118320770
 51
324.036429881678030
  0
ARC
  8
0
  6
CONTINUOUS
 62
3
 10
-372.981803775274560
 20
-190.693707259913420
 40
43.000000000000199
 50
275.531071524838860
 51
324.468928475160340
  0
ARC
  8
0
  6
CONTINUOUS
 62
3
 10
-372.981803775274560
 20
-190.693707259913420
 40
33.500000000000114
 50
277.180755781458230
 51
322.819244218540860
  0
ARC
  8
0
  6
CONTINUOUS
 62
3
 10
-350.107117847609060
 20
-208.519215491397010
 40
1.500000000000320
 50
60.000000000007070
 51
142.071858233781280
  0
ARC
  8
0
  6
CONTINUOUS
 62
3
 10
-341.820267321123540
 20
-213.303630873597230
 40
1.499999999999926
 50
59.999999999998380
 51
144.036429881690740
  0
LINE
  8
0
  6
CONTINUOUS
 62
3
 10
-346.736349605539770
 20
-208.733278635762360
 11
-349.357117847609060
 21
-207.220177385719980
  0
ARC
  8
0
  6
CONTINUOUS
 62
3
 10
-347.486349605539770
 20
-210.032316741438930
 40
1.500000000000240
 50
322.819244218535570
 51
59.999999999998380
  0
ARC
  8
0
  6
CONTINUOUS
 62
3
 10
-376.981803775275010
 20
-232.000486364558980
 40
1.500000000000430
 50
264.468928475160000
 51
0.000000000000000
  0
LINE
  8
0
  6
CONTINUOUS
 62
3
 10
-375.481803775275010
 20
-228.985351257004770
 11
-375.481803775275010
 21
-232.000486364558980
  0
LINE
  8
0
  6
CONTINUOUS
 62
3
 10
-375.481803775275010
 20
-219.416520492604320
 11
-375.481803775275010
 21
-222.442722992688630
  0
ARC
  8
0
  6
CONTINUOUS
 62
3
 10
-376.981803775275010
 20
-228.985351257005220
 40
1.500000000000000
 50
0.000000000017370
 51
84.036429881682594
  0
ARC
  8
0
  6
CONTINUOUS
 62
3
 10
-376.981803775275010
 20
-222.442722992688630
 40
1.499999999999998
 50
262.819244218541710
 51
0.000000000000000
  0
ARC
  8
0
  6
CONTINUOUS
 62
3
 10
-376.981803775275010
 20
-219.416520492604320
 40
1.500000000000000
 50
0.000000000000000
 51
82.071858233804562
  0
ARC
  8
0
  6
CONTINUOUS
 62
3
 10
-372.981803775275010
 20
-190.693707259914330
 40
27.499999999999780
 50
217.928141766201070
 51
262.071858233797400
  0
ARC
  8
0
  6
CONTINUOUS
 62
3
 10
-372.981803775275010
 20
-190.693707259913420
 40
37.000000000000021
 50
215.963570118321970
 51
264.036429881678940
  0
ARC
  8
0
  6
CONTINUOUS
 62
3
 10
-372.981803775275010
 20
-190.693707259913420
 40
42.999999999999858
 50
215.531071524839690
 51
264.468928475160850
  0
ARC
  8
0
  6
CONTINUOUS
 62
3
 10
-372.981803775275010
 20
-190.693707259913420
 40
33.500000000000163
 50
217.180755781459110
 51
262.819244218541770
  0
ARC
  8
0
  6
CONTINUOUS
 62
3
 10
-395.856489702940510
 20
-208.519215491397010
 40
1.500000000000122
 50
37.928141766218701
 51
119.999999999992930
  0
ARC
  8
0
  6
CONTINUOUS
 62
3
 10
-406.754523828410130
 20
-214.811198427374560
 40
1.499999999999926
 50
120.000000000001620
 51
215.531071524832130
  0
LINE
  8
0
  6
CONTINUOUS
 62
3
 10
-407.504523828410130
 20
-213.512160321697990
 11
-404.893340229426030
 21
-212.004592767920660
  0
ARC
  8
0
  6
CONTINUOUS
 62
3
 10
-404.143340229426030
 20
-213.303630873597230
 40
1.499999999999968
 50
35.963570118309242
 51
120.000000000001620
  0
LINE
  8
0
  6
CONTINUOUS
 62
3
 10
-399.227257945009800
 20
-208.733278635762360
 11
-396.606489702940510
 21
-207.220177385719980
  0
ARC
  8
0
  6
CONTINUOUS
 62
3
 10
-398.477257945009800
 20
-210.032316741438930
 40
1.499999999999926
 50
120.000000000001620
 51
217.180755781464400
  0
ARC
  8
0
  6
CONTINUOUS
 62
3
 10
-410.754523828410130
 20
-173.504419322729230
 40
1.499999999999926
 50
59.999999999998380
 51
155.531071524840400
  0
LINE
  8
0
  6
CONTINUOUS
 62
3
 10
-407.393340229425580
 20
-173.712948770829770
 11
-410.004523828410130
 21
-172.205381217052660
  0
LINE
  8
0
  6
CONTINUOUS
 62
3
 10
-399.106489702940730
 20
-178.497364153029990
 11
-401.727257945009570
 21
-176.984262902987840
  0
ARC
  8
0
  6
CONTINUOUS
 62
3
 10
-408.143340229425800
 20
-175.011986876506340
 40
1.499999999999855
 50
335.963570118319300
 51
59.999999999990862
  0
ARC
  8
0
  6
CONTINUOUS
 62
3
 10
-402.477257945009570
 20
-178.283301008664640
 40
1.500000000000123
 50
60.000000000002721
 51
157.180755781457980
  0
ARC
  8
0
  6
CONTINUOUS
 62
3
 10
-399.856489702940730
 20
-179.796402258706560
 40
1.500000000000110
 50
337.928141766202600
 51
59.999999999998380
  0
ARC
  8
0
  6
CONTINUOUS
 62
3
 10
-372.981803775275240
 20
-190.693707259913880
 40
27.499999999999886
 50
157.928141766202200
 51
202.071858233798680
  0
ARC
  8
0
  6
CONTINUOUS
 62
3
 10
-372.981803775274560
 20
-190.693707259914330
 40
37.000000000000156
 50
155.963570118321120
 51
204.036429881678230
  0
ARC
  8
0
  6
CONTINUOUS
 62
3
 10
-372.981803775274560
 20
-190.693707259914330
 40
43.000000000000121
 50
155.531071524839230
 51
204.468928475160200
  0
ARC
  8
0
  6
CONTINUOUS
 62
3
 10
-372.981803775274560
 20
-190.693707259914330
 40
33.499999999999794
 50
157.180755781458400
 51
202.819244218540940
  0
ARC
  8
0
  6
CONTINUOUS
 62
3
 10
-399.856489702940510
 20
-201.591012261121190
 40
1.500000000000320
 50
299.999999999992950
 51
22.071858233784546
  0
ARC
  8
0
  6
CONTINUOUS
 62
3
 10
-410.754523828410130
 20
-207.882995197098750
 40
1.500000000000128
 50
204.468928475167470
 51
299.999999999992950
  0
LINE
  8
0
  6
CONTINUOUS
 62
3
 10
-410.004523828410130
 20
-209.182033302775780
 11
-407.393340229426030
 21
-207.674465748998440
  0
ARC
  8
0
  6
CONTINUOUS
 62
3
 10
-408.143340229426030
 20
-206.375427643321870
 40
1.499999999999926
 50
300.000000000001590
 51
24.036429881677126
  0
LINE
  8
0
  6
CONTINUOUS
 62
3
 10
-401.727257945009800
 20
-204.403151616840150
 11
-399.106489702940510
 21
-202.890050366798220
  0
ARC
  8
0
  6
CONTINUOUS
 62
3
 10
-402.477257945009800
 20
-203.104113511163580
 40
1.500000000000157
 50
202.819244218546660
 51
300.000000000001590
  0
ARC
  8
0
  6
CONTINUOUS
 62
3
 10
-406.754523828409670
 20
-166.576216092453190
 40
1.499999999999976
 50
144.468928475160790
 51
240.000000000002730
  0
LINE
  8
0
  6
CONTINUOUS
 62
3
 10
-404.893340229425580
 20
-169.382821751907100
 11
-407.504523828409670
 21
-167.875254198129990
  0
LINE
  8
0
  6
CONTINUOUS
 62
3
 10
-396.606489702940510
 20
-174.167237134107320
 11
-399.227257945009340
 21
-172.654135884065170
  0
ARC
  8
0
  6
CONTINUOUS
 62
3
 10
-404.143340229425580
 20
-168.083783646230300
 40
1.500000000000123
 50
240.000000000002730
 51
324.036429881683720
  0
ARC
  8
0
  6
CONTINUOUS
 62
3
 10
-398.477257945009340
 20
-171.355097778388600
 40
1.500000000000103
 50
142.819244218542510
 51
239.999999999998410
  0
ARC
  8
0
  6
CONTINUOUS
 62
3
 10
-395.856489702940510
 20
-172.868199028430750
 40
1.499999999999926
 50
239.999999999998410
 51
322.071858233800300
  0
ARC
  8
0
  6
CONTINUOUS
 62
3
 10
-372.981803775274330
 20
-190.693707259913880
 40
37.000000000000099
 50
95.963570118321798
 51
144.036429881678830
  0
ARC
  8
0
  6
CONTINUOUS
 62
3
 10
-372.981803775274330
 20
-190.693707259913880
 40
43.000000000000043
 50
95.531071524839788
 51
144.468928475160770
  0
ARC
  8
0
  6
CONTINUOUS
 62
3
 10
-372.981803775274330
 20
-190.693707259913880
 40
33.499999999999950
 50
97.180755781459069
 51
142.819244218541740
  0
ARC
  8
0
  6
CONTINUOUS
 62
3
 10
-376.981803775274780
 20
-161.970894027223440
 40
1.499999999999998
 50
277.928141766204020
 51
0.000000000000000
  0
ARC
  8
0
  6
CONTINUOUS
 62
3
 10
-416.930391205557270
 20
-140.597092792385580
 40
6.599999999999971
 50
98.597082237248614
 51
134.999999999998610
  0
ARC
  8
0
  6
CONTINUOUS
 62
4
 10
-411.923321730656880
 20
-150.584929719327140
 40
5.999999999999923
 50
97.897988672425626
 51
134.999999999996930
  0
ARC
  8
0
  6
CONTINUOUS
 62
4
 10
-372.981803775274780
 20
-431.293707259913790
 40
289.396999999999930
 50
90.000000000000000
 51
97.897988672427743
  0
ARC
  8
0
  6
CONTINUOUS
 62
3
 10
-456.281803775274740
 20
-164.736207259913900
 40
18.799999999999955
 50
0.000000000000000
 51
79.401214733933941
  0
ARC
  8
0
  6
CONTINUOUS
 62
3
 10
-452.456049141187800
 20
-144.291070882776180
 40
1.999999999999927
 50
177.137594773887290
 51
259.401214733934010
  0
ARC
  8
0
  6
CONTINUOUS
 62
3
 10
-458.049062238903620
 20
-144.011420227890370
 40
1.999999999999928
 50
274.873974813840960
 51
357.137594773887320
  0
LINE
  8
0
  6
CONTINUOUS
 62
3
 10
-454.783675266957970
 20
-134.773637093578660
 11
-459.877312195234940
 21
-236.646375659118750
  0
LINE
  8
0
  6
CONTINUOUS
 62
3
 10
-478.978063126895680
 20
-202.661394292332890
 11
-474.988038189239660
 21
-162.860895539215620
  0
ARC
  8
0
  6
CONTINUOUS
 62
3
 10
-456.281803775274740
 20
-164.736207259913900
 40
18.800000000000036
 50
94.873974813842736
 51
144.191373186504250
  0
ARC
  8
0
  6
CONTINUOUS
 62
3
 10
-456.281803775274740
 20
-164.736207259913900
 40
18.799999999999933
 50
144.191373186504250
 51
174.275189547776390
  0
LINE
  8
0
  6
CONTINUOUS
 62
3
 10
-455.582677138060260
 20
-134.733687000023510
 11
-453.984673395855680
 21
-134.813587187133690
  0
ARC
  8
0
  6
CONTINUOUS
 62
3
 10
-449.440350634954710
 20
-140.047049423803800
 40
9.000000000000060
 50
160.536063666407810
 51
193.739143184213500
  0
POINT
  8
0
  6
CONTINUOUS
 62
3
 10
-455.832365222779120
 20
-139.727448694412540
  0
LINE
  8
0
  6
CONTINUOUS
 62
3
 10
-455.657583563475550
 20
-136.231815508340160
 11
-456.007146882082680
 21
-143.223081880485040
  0
LINE
  8
0
  6
CONTINUOUS
 62
3
 10
-455.657583563475550
 20
-136.231815508340160
 11
-456.007146882082680
 21
-143.223081880485040
  0
LINE
  8
0
  6
CONTINUOUS
 62
3
 10
-456.007146882082680
 20
-143.223081880485040
 11
-456.984950694590450
 21
-143.174191689859700
  0
LINE
  8
0
  6
CONTINUOUS
 62
3
 10
-455.657583563475550
 20
-136.231815508340160
 11
-456.635387375983100
 21
-136.182925317714820
  0
ARC
  8
0
  6
CONTINUOUS
 62
3
 10
-456.920031830662770
 20
-141.875814411306070
 40
1.299999237060493
 50
193.739143184211430
 51
267.137612759980240
  0
ARC
  8
0
  6
CONTINUOUS
 62
3
 10
-456.700306239910790
 20
-137.481302596268340
 40
1.299999237060474
 50
87.137594090651831
 51
160.536063666412870
  0
LINE
  8
0
  6
CONTINUOUS
 62
3
 10
-455.582677138060260
 20
-134.733687000023510
 11
-460.676314066337230
 21
-236.606425565563480
  0
LINE
  8
0
  6
CONTINUOUS
 62
3
 10
-453.984673395855680
 20
-134.813587187133690
 11
-459.078310324132640
 21
-236.686325752674460
  0
ARC
  8
0
  6
CONTINUOUS
 62
3
 10
-458.281803775274740
 20
-204.736207259913900
 40
20.800000000000082
 50
274.191726156007460
 51
354.952683218987540
  0
ARC
  8
0
  6
CONTINUOUS
 62
3
 10
-458.281803775274740
 20
-204.736207259913900
 40
20.799999999999986
 50
174.275189547776620
 51
205.640070215894870
  0
ARC
  8
0
  6
CONTINUOUS
 62
3
 10
-458.281803775274740
 20
-204.736207259913900
 40
20.799999999999926
 50
205.640070215894870
 51
260.083463391769440
  0
ARC
  8
0
  6
CONTINUOUS
 62
3
 10
-458.281803775274740
 20
-204.736207259913900
 40
20.799999999999986
 50
174.275189547776620
 51
205.640070215894870
  0
ARC
  8
0
  6
CONTINUOUS
 62
3
 10
-456.615256508891210
 20
-227.475218236843200
 40
1.999999999999962
 50
94.191726156001650
 51
177.137594773887290
  0
ARC
  8
0
  6
CONTINUOUS
 62
3
 10
-462.208269606607020
 20
-227.195567581957390
 40
2.000000000000154
 50
357.137594773887600
 51
80.083463391767268
  0
LINE
  8
0
  6
CONTINUOUS
 62
3
 10
-459.078310324132640
 20
-236.686325752674460
 11
-460.676314066337230
 21
-236.606425565563480
  0
LINE
  8
0
  6
CONTINUOUS
 62
3
 10
-437.481803775274780
 20
-173.363098499688480
 11
-437.481803775274780
 21
-164.736207259913900
  0
LINE
  8
0
  6
CONTINUOUS
 62
3
 10
-322.981808480263450
 20
-113.157805435662680
 11
-325.981801352375210
 21
-111.425753477946610
  0
LINE
  8
0
  6
CONTINUOUS
 62
3
 10
-322.981797156673110
 20
-106.229610363528250
 11
-319.981806349325780
 21
-107.961660477777510
  0
LINE
  8
0
  6
CONTINUOUS
 62
3
 10
-319.981805663181150
 20
-111.425758652692650
 11
-322.981808239686980
 21
-113.157805625328990
  0
LINE
  8
0
  6
CONTINUOUS
 62
3
 10
-322.981797073553930
 20
-106.229610259978640
 11
-325.981801714826360
 21
-107.961655438208310
  0
LINE
  8
0
  6
CONTINUOUS
 62
3
 10
-319.981807113134100
 20
-107.961660306688310
 11
-319.981806159459780
 21
-111.425758283372880
  0
LINE
  8
0
  6
CONTINUOUS
 62
3
 10
-325.981800437415700
 20
-111.425753259465120
 11
-325.981801391090020
 21
-107.961655282780550
  0
CIRCLE
  8
0
  6
CONTINUOUS
 62
3
 10
-322.981803775274780
 20
-109.693707259913870
 40
6.500000000000000
  0
CIRCLE
  8
0
  6
CONTINUOUS
 62
3
 10
-322.981803775274780
 20
-109.693707259913870
 40
5.633955001831055
  0
LINE
  8
0
  6
CONTINUOUS
 62
3
 10
-362.481808480263450
 20
-103.157805435662680
 11
-365.481801352375210
 21
-101.425753477946610
  0
LINE
  8
0
  6
CONTINUOUS
 62
3
 10
-362.481797156673110
 20
-96.229610363528252
 11
-359.481806349325780
 21
-97.961660477777514
  0
LINE
  8
0
  6
CONTINUOUS
 62
3
 10
-359.481805663181150
 20
-101.425758652692650
 11
-362.481808239686980
 21
-103.157805625328990
  0
LINE
  8
0
  6
CONTINUOUS
 62
3
 10
-362.481797073553930
 20
-96.229610259978642
 11
-365.481801714826360
 21
-97.961655438208311
  0
LINE
  8
0
  6
CONTINUOUS
 62
3
 10
-359.481807113134100
 20
-97.961660306688316
 11
-359.481806159459780
 21
-101.425758283372880
  0
LINE
  8
0
  6
CONTINUOUS
 62
3
 10
-365.481800437415700
 20
-101.425753259465120
 11
-365.481801391090020
 21
-97.961655282780555
  0
CIRCLE
  8
0
  6
CONTINUOUS
 62
3
 10
-362.481803775274780
 20
-99.693707259913879
 40
6.500000000000000
  0
CIRCLE
  8
0
  6
CONTINUOUS
 62
3
 10
-362.481803775274780
 20
-99.693707259913879
 40
5.633955001831055
  0
LINE
  8
0
  6
CONTINUOUS
 62
3
 10
-383.481799070286120
 20
-103.157805435662680
 11
-380.481806198174350
 21
-101.425753477946610
  0
LINE
  8
0
  6
CONTINUOUS
 62
3
 10
-383.481810393876570
 20
-96.229610363528252
 11
-386.481801201223790
 21
-97.961660477777514
  0
LINE
  8
0
  6
CONTINUOUS
 62
3
 10
-386.481801887368420
 20
-101.425758652692650
 11
-383.481799310862580
 21
-103.157805625328990
  0
LINE
  8
0
  6
CONTINUOUS
 62
3
 10
-383.481810476995630
 20
-96.229610259978642
 11
-380.481805835723210
 21
-97.961655438208311
  0
LINE
  8
0
  6
CONTINUOUS
 62
3
 10
-386.481800437415470
 20
-97.961660306688316
 11
-386.481801391089790
 21
-101.425758283372880
  0
LINE
  8
0
  6
CONTINUOUS
 62
3
 10
-380.481807113133870
 20
-101.425753259465120
 11
-380.481806159459550
 21
-97.961655282780555
  0
CIRCLE
  8
0
  6
CONTINUOUS
 62
3
 10
-383.481803775274780
 20
-99.693707259913879
 40
6.500000000000000
  0
CIRCLE
  8
0
  6
CONTINUOUS
 62
3
 10
-383.481803775274780
 20
-99.693707259913879
 40
5.633955001831055
  0
LINE
  8
0
  6
CONTINUOUS
 62
3
 10
-422.981799070286120
 20
-113.157805435662900
 11
-419.981806198174350
 21
-111.425753477946840
  0
LINE
  8
0
  6
CONTINUOUS
 62
3
 10
-422.981810393876570
 20
-106.229610363528470
 11
-425.981801201223790
 21
-107.961660477777740
  0
LINE
  8
0
  6
CONTINUOUS
 62
3
 10
-425.981801887368420
 20
-111.425758652692870
 11
-422.981799310862580
 21
-113.157805625329210
  0
LINE
  8
0
  6
CONTINUOUS
 62
3
 10
-422.981810476995630
 20
-106.229610259978870
 11
-419.981805835723210
 21
-107.961655438208530
  0
LINE
  8
0
  6
CONTINUOUS
 62
3
 10
-425.981800437415470
 20
-107.961660306688540
 11
-425.981801391089790
 21
-111.425758283373110
  0
LINE
  8
0
  6
CONTINUOUS
 62
3
 10
-419.981807113133870
 20
-111.425753259465350
 11
-419.981806159459550
 21
-107.961655282780780
  0
CIRCLE
  8
0
  6
CONTINUOUS
 62
3
 10
-422.981803775274780
 20
-109.693707259914100
 40
6.500000000000000
  0
CIRCLE
  8
0
  6
CONTINUOUS
 62
3
 10
-422.981803775274780
 20
-109.693707259914100
 40
5.633955001831055
  0
LINE
  8
0
  6
CONTINUOUS
 62
3
 10
-424.981799070286120
 20
-277.157805435662910
 11
-421.981806198174350
 21
-275.425753477946840
  0
LINE
  8
0
  6
CONTINUOUS
 62
3
 10
-424.981810393876570
 20
-270.229610363528480
 11
-427.981801201223790
 21
-271.961660477777740
  0
LINE
  8
0
  6
CONTINUOUS
 62
3
 10
-427.981801887368420
 20
-275.425758652692880
 11
-424.981799310862580
 21
-277.157805625329220
  0
LINE
  8
0
  6
CONTINUOUS
 62
3
 10
-424.981810476995630
 20
-270.229610259978870
 11
-421.981805835723210
 21
-271.961655438208540
  0
LINE
  8
0
  6
CONTINUOUS
 62
3
 10
-427.981800437415470
 20
-271.961660306688540
 11
-427.981801391089790
 21
-275.425758283373110
  0
LINE
  8
0
  6
CONTINUOUS
 62
3
 10
-421.981807113133870
 20
-275.425753259465350
 11
-421.981806159459550
 21
-271.961655282780780
  0
CIRCLE
  8
0
  6
CONTINUOUS
 62
3
 10
-424.981803775274780
 20
-273.693707259914110
 40
6.500000000000000
  0
CIRCLE
  8
0
  6
CONTINUOUS
 62
3
 10
-424.981803775274780
 20
-273.693707259914110
 40
5.633955001831055
  0
LINE
  8
0
  6
CONTINUOUS
 62
3
 10
-320.981808480263680
 20
-277.157805435662680
 11
-323.981801352375440
 21
-275.425753477946610
  0
LINE
  8
0
  6
CONTINUOUS
 62
3
 10
-320.981797156673340
 20
-270.229610363528250
 11
-317.981806349326010
 21
-271.961660477777510
  0
LINE
  8
0
  6
CONTINUOUS
 62
3
 10
-317.981805663181380
 20
-275.425758652692650
 11
-320.981808239687210
 21
-277.157805625328990
  0
LINE
  8
0
  6
CONTINUOUS
 62
3
 10
-320.981797073554160
 20
-270.229610259978640
 11
-323.981801714826590
 21
-271.961655438208310
  0
LINE
  8
0
  6
CONTINUOUS
 62
3
 10
-317.981807113134320
 20
-271.961660306688320
 11
-317.981806159460010
 21
-275.425758283372890
  0
LINE
  8
0
  6
CONTINUOUS
 62
3
 10
-323.981800437415930
 20
-275.425753259465130
 11
-323.981801391090240
 21
-271.961655282780550
  0
CIRCLE
  8
0
  6
CONTINUOUS
 62
3
 10
-320.981803775275010
 20
-273.693707259913880
 40
6.500000000000000
  0
CIRCLE
  8
0
  6
CONTINUOUS
 62
3
 10
-320.981803775275010
 20
-273.693707259913880
 40
5.633955001831055
  0
LINE
  8
0
  6
CONTINUOUS
 62
3
 10
-278.981803775274780
 20
-225.590142856055540
 11
-278.981803775274780
 21
-226.693707259913880
  0
ARC
  8
0
  6
CONTINUOUS
 62
3
 10
-358.981803775274780
 20
-170.927105444095280
 40
80.000000000000000
 50
11.535170617278915
 51
85.339580615885211
  0
ARC
  8
0
  6
CONTINUOUS
 62
3
 10
-366.981803775274780
 20
-129.193707259913880
 40
3.000000000000000
 50
180.000000000000000
 51
210.428285803703010
  0
ARC
  8
0
  6
CONTINUOUS
 62
3
 10
-378.981803775274780
 20
-129.193707259913880
 40
2.999999999999921
 50
329.571714196296970
 51
0.000000000000000
  0
ARC
  8
0
  6
CONTINUOUS
 62
3
 10
-386.981803775275240
 20
-170.927105444095280
 40
80.000000000000028
 50
94.660419384114462
 51
162.857588701217080
  0
LINE
  8
0
  6
CONTINUOUS
 62
3
 10
-466.981803775275240
 20
-223.629327700963100
 11
-466.981803775275240
 21
-226.679815690807060
  0
ARC
  8
0
  6
CONTINUOUS
 62
3
 10
-411.776075975633830
 20
-218.960373926580300
 40
27.000000000000046
 50
161.248570830537150
 51
231.704372189437920
  0
ARC
  8
0
  6
CONTINUOUS
 62
3
 10
-358.762427055886290
 20
-229.234274267432230
 40
27.000000000000018
 50
232.608236715358540
 51
313.223998195751050
  0
LINE
  8
0
  6
DASHDOT
 62
4
 10
-249.488250757648530
 20
-190.693707259913880
 11
-498.483844005350870
 21
-190.693707259913880
  0
LINE
  8
0
  6
DASHDOT
 62
4
 10
-372.981803775274780
 20
-190.693707259913880
 11
-372.981803775274780
 21
-296.071273075915030
  0
LINE
  8
0
  6
DASHDOT
 62
4
 10
-372.981803775274780
 20
-34.590227444728896
 11
-372.981803775274780
 21
-160.693707259913880
  0
ARC
  8
0
  6
CONTINUOUS
 62
3
 10
232.653573537678200
 20
116.430132509847680
 40
0.400000000000091
 50
270.000000000000000
 51
0.000000000000000
  0
LINE
  8
0
  6
CONTINUOUS
 62
3
 10
233.053573537678290
 20
132.030132509848040
 11
233.053573537678290
 21
147.630132509847950
  0
ARC
  8
0
  6
CONTINUOUS
 62
3
 10
232.653573537678200
 20
147.630132509847500
 40
0.400000000000091
 50
0.000000000000000
 51
90.000000000000000
  0
LINE
  8
0
  6
CONTINUOUS
 62
3
 10
233.053573537678290
 20
132.030132509848040
 11
233.053573537678290
 21
113.030132509848040
  0
LINE
  8
0
  6
DASHDOT
 62
4
 10
188.690082897498430
 20
231.025081875964590
 11
149.694090708316140
 21
231.025081875964590
  0
LINE
  8
0
  6
DASHDOT
 62
4
 10
188.690082897498430
 20
33.035183143731047
 11
149.694090708316140
 21
33.035183143731047
  0
LINE
  8
0
  6
CONTINUOUS
 62
3
 10
173.053573537657140
 20
65.581559190534335
 11
169.053573537656920
 21
65.581559190534335
  0
LINE
  8
0
  6
CONTINUOUS
 62
3
 10
173.053573537657140
 20
40.743335945444869
 11
169.053573537656920
 21
40.743335945444869
  0
ARC
  8
0
  6
CONTINUOUS
 62
3
 10
169.053573537656920
 20
43.743335945444869
 40
3.000000000000000
 50
180.000000000000000
 51
270.000000000000000
  0
LINE
  8
0
  6
CONTINUOUS
 62
3
 10
166.053573537656920
 20
132.030132509848040
 11
166.053573537656920
 21
43.743335945444869
  0
ARC
  8
0
  6
CONTINUOUS
 62
3
 10
169.053573537656920
 20
68.581559190534335
 40
3.000000000000000
 50
180.000000000000000
 51
270.000000000000000
  0
LINE
  8
0
  6
CONTINUOUS
 62
3
 10
173.053573537657140
 20
198.478705829161750
 11
169.053573537656920
 21
198.478705829161750
  0
LINE
  8
0
  6
CONTINUOUS
 62
3
 10
173.053573537657140
 20
223.316929074251220
 11
169.053573537656920
 21
223.316929074251220
  0
ARC
  8
0
  6
CONTINUOUS
 62
3
 10
169.053573537656920
 20
220.316929074251220
 40
3.000000000000000
 50
90.000000000000000
 51
180.000000000000000
  0
LINE
  8
0
  6
CONTINUOUS
 62
3
 10
166.053573537656920
 20
132.030132509848040
 11
166.053573537656920
 21
220.316929074251220
  0
ARC
  8
0
  6
CONTINUOUS
 62
3
 10
169.053573537656920
 20
195.478705829161750
 40
3.000000000000000
 50
90.000000000000000
 51
180.000000000000000
  0
LINE
  8
0
  6
CONTINUOUS
 62
3
 10
173.053573537656920
 20
19.530132509848045
 11
159.053573537656920
 21
19.530132509848045
  0
LINE
  8
0
  6
CONTINUOUS
 62
3
 10
157.053573537656920
 20
21.530132509848045
 11
157.053573537656920
 21
242.530132509848040
  0
ARC
  8
0
  6
CONTINUOUS
 62
3
 10
159.053573537656920
 20
21.530132509848045
 40
2.000000000000000
 50
180.000000000000000
 51
270.000000000000000
  0
LINE
  8
0
  6
CONTINUOUS
 62
3
 10
177.053573537656920
 20
132.030132509848040
 11
177.053573537656920
 21
236.030132509848040
  0
ARC
  8
0
  6
CONTINUOUS
 62
3
 10
176.053573537656920
 20
177.183238809703200
 40
3.000000000000000
 50
0.000000000000000
 51
70.528779365509465
  0
ARC
  8
0
  6
CONTINUOUS
 62
3
 10
179.053573537656920
 20
81.680883592756800
 40
2.999999999999984
 50
120.000187270170780
 51
131.810314895779530
  0
LINE
  8
0
  6
CONTINUOUS
 62
3
 10
173.053573537656920
 20
132.030132509848040
 11
173.053573537656920
 21
19.530132509847590
  0
LINE
  8
0
  6
CONTINUOUS
 62
3
 10
177.053573537656920
 20
132.030132509848040
 11
177.053573537656920
 21
28.030132509848045
  0
LINE
  8
0
  6
CONTINUOUS
 62
3
 10
179.053573537656920
 20
132.030132509848040
 11
179.053573537656920
 21
86.877026209992437
  0
LINE
  8
0
  6
CONTINUOUS
 62
3
 10
173.053573537657140
 20
132.030132509848040
 11
173.053573537656920
 21
244.530132509848040
  0
LINE
  8
0
  6
CONTINUOUS
 62
3
 10
179.053573537656920
 20
132.030132509848040
 11
179.053573537656920
 21
177.183238809703200
  0
ARC
  8
0
  6
CONTINUOUS
 62
3
 10
159.053573537656920
 20
242.530132509848040
 40
2.000000000000000
 50
90.000000000000000
 51
180.000000000000000
  0
LINE
  8
0
  6
CONTINUOUS
 62
3
 10
159.053573537656920
 20
244.530132509848040
 11
173.053573537656920
 21
244.530132509848040
  0
ARC
  8
0
  6
CONTINUOUS
 62
3
 10
180.053573537656920
 20
166.530132509848040
 40
1.000000000000000
 50
180.000000000000000
 51
270.000000000000000
  0
ARC
  8
0
  6
CONTINUOUS
 62
3
 10
180.053573537656920
 20
97.530132509848045
 40
1.000000000000000
 50
90.000000000000000
 51
180.000000000000000
  0
ARC
  8
0
  6
CONTINUOUS
 62
3
 10
176.053556554147350
 20
86.877026209992437
 40
2.999999999999871
 50
300.000187270167030
 51
0.000000000000000
  0
LINE
  8
0
  6
CONTINUOUS
 62
3
 10
181.053573537656920
 20
98.530132509848045
 11
181.053573537656920
 21
165.530132509848040
  0
LINE
  8
0
  6
CONTINUOUS
 62
3
 10
180.053573537656920
 20
98.530132509848045
 11
181.053573537656920
 21
98.530132509848045
  0
LINE
  8
0
  6
CONTINUOUS
 62
3
 10
180.053573537656920
 20
165.530132509848040
 11
181.053573537656920
 21
165.530132509848040
  0
LINE
  8
0
  6
CONTINUOUS
 62
3
 10
173.053573537656920
 20
237.030132509848040
 11
176.053573537656920
 21
237.030132509848040
  0
LINE
  8
0
  6
CONTINUOUS
 62
3
 10
176.053573537656920
 20
237.030132509848040
 11
177.053573537656920
 21
236.030132509848040
  0
LINE
  8
0
  6
CONTINUOUS
 62
3
 10
176.053573537656920
 20
27.030132509848045
 11
173.053573537656920
 21
27.030132509848045
  0
LINE
  8
0
  6
CONTINUOUS
 62
3
 10
177.053573537656920
 20
28.030132509848045
 11
176.053573537656920
 21
27.030132509848045
  0
LINE
  8
0
  6
CONTINUOUS
 62
3
 10
166.007534137470770
 20
19.852701842510214
 11
166.007534137470770
 21
19.530132509848045
  0
LINE
  8
0
  6
CONTINUOUS
 62
3
 10
183.053573537678290
 20
115.230132509847860
 11
182.853573537678470
 21
115.030132509847590
  0
ARC
  8
0
  6
CONTINUOUS
 62
3
 10
183.853573537678470
 20
115.380132509847490
 40
0.800000000000182
 50
90.000000000000000
 51
176.296803365719710
  0
LINE
  8
0
  6
CONTINUOUS
 62
3
 10
183.053573537678290
 20
115.230132509847860
 11
183.053573537678290
 21
132.030132509847590
  0
LINE
  8
0
  6
CONTINUOUS
 62
3
 10
185.053573537678290
 20
116.180132509847680
 11
183.853573537678470
 21
116.180132509847680
  0
LINE
  8
0
  6
CONTINUOUS
 62
3
 10
232.653573537678200
 20
116.030132509847590
 11
185.613381158813700
 21
116.030132509847590
  0
LINE
  8
0
  6
CONTINUOUS
 62
3
 10
181.053573537656010
 20
115.030132509847130
 11
182.853573537678470
 21
115.030132509847590
  0
LINE
  8
0
  6
CONTINUOUS
 62
3
 10
185.053573537678290
 20
116.180132509847680
 11
185.613381158813700
 21
116.030132509847590
  0
LINE
  8
0
  6
CONTINUOUS
 62
3
 10
183.053573537678290
 20
148.830132509847770
 11
182.853573537678470
 21
149.030132509847590
  0
ARC
  8
0
  6
CONTINUOUS
 62
3
 10
183.853573537678470
 20
148.680132509847680
 40
0.800000000000237
 50
183.703196634280290
 51
270.000000000000000
  0
LINE
  8
0
  6
CONTINUOUS
 62
3
 10
183.053573537678290
 20
148.830132509847770
 11
183.053573537678290
 21
132.030132509847590
  0
LINE
  8
0
  6
CONTINUOUS
 62
3
 10
181.053573537656010
 20
149.030132509848040
 11
182.853573537678470
 21
149.030132509847590
  0
LINE
  8
0
  6
CONTINUOUS
 62
3
 10
185.053573537678290
 20
147.880132509847500
 11
183.853573537678470
 21
147.880132509847500
  0
LINE
  8
0
  6
CONTINUOUS
 62
3
 10
185.053573537678290
 20
147.880132509847500
 11
185.613381158813700
 21
148.030132509847590
  0
LINE
  8
0
  6
CONTINUOUS
 62
3
 10
188.053573537678290
 20
116.030132509848040
 11
188.053573537678290
 21
113.030132509848040
  0
LINE
  8
0
  6
CONTINUOUS
 62
3
 10
232.653573537678200
 20
148.030132509847590
 11
185.613381158813700
 21
148.030132509847590
  0
LINE
  8
0
  6
CONTINUOUS
 62
3
 10
233.053573537678290
 20
113.030132509848040
 11
188.053573537678290
 21
113.030132509848040
  0
LINE
  8
0
  6
CONTINUOUS
 62
3
 10
138.212786720466170
 20
135.030132509848040
 11
154.053573537656920
 21
135.030132509848040
  0
LINE
  8
0
  6
CONTINUOUS
 62
3
 10
138.212786720466170
 20
129.030132509848040
 11
154.053573537656920
 21
129.030132509848040
  0
ARC
  8
0
  6
CONTINUOUS
 62
3
 10
154.053573537656920
 20
138.030132509848040
 40
3.000000000000000
 50
270.000000000000000
 51
0.000000000000000
  0
ARC
  8
0
  6
CONTINUOUS
 62
3
 10
154.053573537656920
 20
126.030132509848040
 40
3.000000000000000
 50
0.000000000000000
 51
90.000000000000000
  0
ARC
  8
0
  6
CONTINUOUS
 62
3
 10
138.212786720466170
 20
126.030132509848040
 40
3.000000000000000
 50
90.000000000000000
 51
180.000000000000000
  0
ARC
  8
0
  6
CONTINUOUS
 62
3
 10
138.212786720466170
 20
138.030132509848500
 40
3.000000000000000
 50
180.000000000000000
 51
270.000000000000000
  0
LINE
  8
0
  6
CONTINUOUS
 62
3
 10
153.798272687240460
 20
186.539522168601710
 11
138.815557748152860
 21
186.539522168601710
  0
LINE
  8
0
  6
CONTINUOUS
 62
3
 10
136.113608959155160
 20
187.675814870734940
 11
156.404444675741050
 21
213.270574363457850
  0
ARC
  8
0
  6
CONTINUOUS
 62
3
 10
133.762737821070800
 20
189.539522168601710
 40
3.000000000000000
 50
270.000000000000000
 51
321.593567086411040
  0
ARC
  8
0
  6
CONTINUOUS
 62
3
 10
154.053573537656920
 20
215.134281661324620
 40
2.999999999999804
 50
321.593567086408370
 51
0.000000000000000
  0
ARC
  8
0
  6
CONTINUOUS
 62
3
 10
154.053573537656920
 20
220.619563035563260
 40
2.999999999999804
 50
321.593567086408370
 51
0.000000000000000
  0
LINE
  8
0
  6
CONTINUOUS
 62
3
 10
136.113608959155160
 20
193.161096244973580
 11
156.404444675741050
 21
218.755855737696490
  0
ARC
  8
0
  6
CONTINUOUS
 62
3
 10
133.762737821070800
 20
195.024803542840350
 40
3.000000000000000
 50
270.000000000000000
 51
321.593567086411040
  0
LINE
  8
0
  6
CONTINUOUS
 62
3
 10
153.798272687240460
 20
77.520742851094383
 11
138.815557748152860
 21
77.520742851094383
  0
ARC
  8
0
  6
CONTINUOUS
 62
3
 10
154.053573537656920
 20
43.440701984132829
 40
3.000000000000000
 50
0.000000000000000
 51
38.406432913591630
  0
LINE
  8
0
  6
CONTINUOUS
 62
3
 10
136.113608959155160
 20
70.899168774722511
 11
156.404444675741050
 21
45.304409281999597
  0
ARC
  8
0
  6
CONTINUOUS
 62
3
 10
133.762737821070800
 20
69.035461476855744
 40
2.999999999999982
 50
38.406432913588930
 51
90.000000000000000
  0
ARC
  8
0
  6
CONTINUOUS
 62
3
 10
154.053573537656920
 20
48.925983358371468
 40
3.000000000000000
 50
0.000000000000000
 51
38.406432913591630
  0
LINE
  8
0
  6
CONTINUOUS
 62
3
 10
136.113608959155160
 20
76.384450148961150
 11
156.404444675741050
 21
50.789690656238236
  0
ARC
  8
0
  6
CONTINUOUS
 62
3
 10
133.762737821070800
 20
74.520742851094383
 40
2.999999999999982
 50
38.406432913588930
 51
90.000000000000000
  0
LINE
  8
0
  6
CONTINUOUS
 62
3
 10
38.053573537659645
 20
149.030132509848950
 11
38.053573537662373
 21
191.530132509848950
  0
LINE
  8
0
  6
CONTINUOUS
 62
3
 10
38.053573537662373
 20
191.530132509848950
 11
57.710581406389906
 21
192.560312639597210
  0
ARC
  8
0
  6
CONTINUOUS
 62
3
 10
57.553573537661009
 20
195.556201243860870
 40
2.999999999999937
 50
273.000000000001360
 51
359.999999999991300
  0
LINE
  8
0
  6
CONTINUOUS
 62
3
 10
60.553573537658281
 20
155.530132509848040
 11
60.553573537662828
 21
224.030132509847590
  0
LINE
  8
0
  6
CONTINUOUS
 62
3
 10
58.553573537661869
 20
210.762183317416800
 11
58.553573537662828
 21
224.030132509847590
  0
LINE
  8
0
  6
CONTINUOUS
 62
3
 10
53.053574491336235
 20
209.530132509848040
 11
53.053574491336917
 21
222.530132509848040
  0
LINE
  8
0
  6
CONTINUOUS
 62
3
 10
53.053575755821953
 20
222.530132487147060
 11
52.553574805628728
 21
221.664202916078920
  0
LINE
  8
0
  6
CONTINUOUS
 62
3
 10
53.053575129193973
 20
209.530132485780090
 11
52.553575103046910
 21
210.396256625914250
  0
LINE
  8
0
  6
CONTINUOUS
 62
3
 10
58.553573537662722
 20
222.530132509847700
 11
53.053575445011234
 21
222.530132509848040
  0
LINE
  8
0
  6
CONTINUOUS
 62
3
 10
58.978120965361299
 20
209.530132509847680
 11
53.053574491336235
 21
209.530132509848040
  0
LINE
  8
0
  6
CONTINUOUS
 62
3
 10
52.553574491336235
 20
210.396256662985710
 11
52.553574491336917
 21
221.664202906271840
  0
ARC
  8
0
  6
CONTINUOUS
 62
3
 10
60.553573537662828
 20
224.030132509847590
 40
2.000000000000000
 50
90.000000000000000
 51
180.000000000000000
  0
LINE
  8
0
  6
CONTINUOUS
 62
3
 10
73.053573537656916
 20
226.030132509846680
 11
60.553573537662828
 21
226.030132509847590
  0
ARC
  8
0
  6
CONTINUOUS
 62
3
 10
60.553573537661919
 20
210.762183317416660
 40
2.000000000000000
 50
180.000000000000000
 51
239.999999999997070
  0
ARC
  8
0
  6
CONTINUOUS
 62
3
 10
58.553573537661691
 20
207.298081702278520
 40
2.000000000000000
 50
0.000000000000000
 51
60.000000000002721
  0
LINE
  8
0
  6
CONTINUOUS
 62
3
 10
38.053573537658735
 20
132.030132509848950
 11
38.053573537658963
 21
136.030132509848950
  0
LINE
  8
0
  6
CONTINUOUS
 62
3
 10
49.553573537663965
 20
152.530132509848500
 11
45.053573537663056
 21
152.530132509848500
  0
LINE
  8
0
  6
CONTINUOUS
 62
3
 10
49.553573537662828
 20
132.030132509848950
 11
49.553573537663965
 21
152.530132509848500
  0
LINE
  8
0
  6
CONTINUOUS
 62
3
 10
45.053573537661919
 20
132.030132509848500
 11
45.053573537663056
 21
152.530132509848500
  0
ARC
  8
0
  6
CONTINUOUS
 62
3
 10
57.553573537658281
 20
155.530132509848040
 40
3.000000000000000
 50
270.000000000000000
 51
359.999999999991300
  0
LINE
  8
0
  6
CONTINUOUS
 62
3
 10
57.553573537658053
 20
152.530132509848040
 11
52.553573537663965
 21
152.530132509848040
  0
ARC
  8
0
  6
CONTINUOUS
 62
3
 10
52.553573537663965
 20
149.530132509848040
 40
3.000000000000000
 50
90.000000000000000
 51
179.999999999991330
  0
ARC
  8
0
  6
CONTINUOUS
 62
3
 10
62.553573537662828
 20
224.030132509847590
 40
2.000000000000000
 50
90.000000000000000
 51
180.000000000000000
  0
LINE
  8
0
  6
CONTINUOUS
 62
3
 10
72.553573537656916
 20
132.030132509848040
 11
72.553573537662828
 21
226.030132509846680
  0
LINE
  8
0
  6
CONTINUOUS
 62
3
 10
38.053573537658735
 20
115.030132509848950
 11
38.053573537658735
 21
72.530132509848954
  0
LINE
  8
0
  6
CONTINUOUS
 62
3
 10
38.053573537658735
 20
72.530132509848954
 11
57.710581406386041
 21
71.499952380099785
  0
ARC
  8
0
  6
CONTINUOUS
 62
3
 10
57.553573537656916
 20
68.504063775836130
 40
3.000000000000000
 50
0.000000000000000
 51
86.999999999994344
  0
LINE
  8
0
  6
CONTINUOUS
 62
3
 10
60.553573537656916
 20
108.530132509848950
 11
60.553573537656916
 21
40.030132509848954
  0
LINE
  8
0
  6
CONTINUOUS
 62
3
 10
58.553573537656916
 20
53.298081702279887
 11
58.553573537656916
 21
40.030132509848954
  0
LINE
  8
0
  6
CONTINUOUS
 62
3
 10
53.053574491331233
 20
54.530132509848954
 11
53.053574491331233
 21
41.530132509848954
  0
LINE
  8
0
  6
CONTINUOUS
 62
3
 10
53.053575755816269
 20
41.530132532549942
 11
52.553574805623043
 21
42.396062103618533
  0
LINE
  8
0
  6
CONTINUOUS
 62
3
 10
53.053575129188971
 20
54.530132533916913
 11
52.553575103041908
 21
53.664008393783206
  0
LINE
  8
0
  6
CONTINUOUS
 62
3
 10
58.553573537656916
 20
41.530132509848954
 11
53.053575445005549
 21
41.530132509848954
  0
LINE
  8
0
  6
CONTINUOUS
 62
3
 10
58.978120965356368
 20
54.530132509848954
 11
53.053574491331233
 21
54.530132509848954
  0
LINE
  8
0
  6
CONTINUOUS
 62
3
 10
52.553574491331233
 20
53.664008356711747
 11
52.553574491331233
 21
42.396062113425614
  0
ARC
  8
0
  6
CONTINUOUS
 62
3
 10
60.553573537656916
 20
40.030132509848954
 40
2.000000000000000
 50
180.000000000000000
 51
270.000000000000000
  0
LINE
  8
0
  6
CONTINUOUS
 62
3
 10
73.053573537656916
 20
38.030132509848954
 11
60.553573537656916
 21
38.030132509848954
  0
ARC
  8
0
  6
CONTINUOUS
 62
3
 10
60.553573537656916
 20
53.298081702279887
 40
2.000000000000164
 50
119.999999999997270
 51
180.000000000000000
  0
ARC
  8
0
  6
CONTINUOUS
 62
3
 10
58.553573537656916
 20
56.762183317418021
 40
2.000000000000164
 50
299.999999999997270
 51
0.000000000000000
  0
LINE
  8
0
  6
CONTINUOUS
 62
3
 10
38.053573537658735
 20
132.030132509848950
 11
38.053573537658735
 21
128.030132509848950
  0
LINE
  8
0
  6
CONTINUOUS
 62
3
 10
49.553573537662828
 20
111.530132509848950
 11
45.053573537661919
 21
111.530132509848950
  0
LINE
  8
0
  6
CONTINUOUS
 62
3
 10
49.553573537662828
 20
132.030132509848500
 11
49.553573537662828
 21
111.530132509848950
  0
LINE
  8
0
  6
CONTINUOUS
 62
3
 10
45.053573537661919
 20
132.030132509848950
 11
45.053573537661919
 21
111.530132509848950
  0
ARC
  8
0
  6
CONTINUOUS
 62
3
 10
57.553573537656916
 20
108.530132509848950
 40
3.000000000000000
 50
0.000000000000000
 51
90.000000000000000
  0
LINE
  8
0
  6
CONTINUOUS
 62
3
 10
57.553573537656916
 20
111.530132509848950
 11
52.553573537662828
 21
111.530132509848950
  0
ARC
  8
0
  6
CONTINUOUS
 62
3
 10
52.553573537662828
 20
114.530132509848950
 40
3.000000000000000
 50
180.000000000000000
 51
270.000000000000000
  0
ARC
  8
0
  6
CONTINUOUS
 62
3
 10
62.553573537656916
 20
40.030132509848954
 40
2.000000000000000
 50
180.000000000000000
 51
270.000000000000000
  0
LINE
  8
0
  6
CONTINUOUS
 62
3
 10
72.553573537656916
 20
132.030132509847590
 11
72.553573537656916
 21
38.030132509848954
  0
ARC
  8
0
  6
CONTINUOUS
 62
3
 10
154.053573537656920
 20
231.860543471574600
 40
2.999999999999993
 50
271.999999999999320
 51
0.000000000000000
  0
LINE
  8
0
  6
CONTINUOUS
 62
3
 10
73.053573537656916
 20
226.030132509847140
 11
154.158272027764380
 21
228.862370990517320
  0
ARC
  8
0
  6
CONTINUOUS
 62
3
 10
154.053573537656920
 20
32.199721548121488
 40
3.000000000000000
 50
0.000000000000000
 51
88.000000000000682
  0
LINE
  8
0
  6
CONTINUOUS
 62
3
 10
73.053573537656916
 20
38.030132509848954
 11
154.158272027764380
 21
35.197894029178769
  0
LINE
  8
0
  6
CONTINUOUS
 62
3
 10
73.053573537656916
 20
38.030132509848954
 11
73.053573537656916
 21
226.030132509847590
  0
LINE
  8
0
  6
CONTINUOUS
 62
3
 10
-28.746426462341219
 20
73.530132509848045
 11
-110.946426462362410
 21
73.530132509848045
  0
LINE
  8
0
  6
CONTINUOUS
 62
3
 10
-28.746426462341219
 20
73.530132509848045
 11
-28.746426462341219
 21
35.530132509848045
  0
ARC
  8
0
  6
CONTINUOUS
 62
3
 10
-29.746426462341219
 20
35.530132509848045
 40
1.000000000000000
 50
270.000000000000000
 51
0.000000000000000
  0
LINE
  8
0
  6
CONTINUOUS
 62
3
 10
-117.746426462341210
 20
34.530132509848045
 11
-29.746426462341219
 21
34.530132509848045
  0
ARC
  8
0
  6
CONTINUOUS
 62
3
 10
-117.746426462341210
 20
35.530132509848045
 40
1.000000000000000
 50
180.000000000000000
 51
270.000000000000000
  0
LINE
  8
0
  6
CONTINUOUS
 62
3
 10
-111.746426462341210
 20
34.030132509848045
 11
-103.746426462341210
 21
34.030132509848045
  0
LINE
  8
0
  6
CONTINUOUS
 62
3
 10
-43.746426462341219
 20
34.030132509848045
 11
-35.746426462341219
 21
34.030132509848045
  0
LINE
  8
0
  6
CONTINUOUS
 62
3
 10
-43.746426462341219
 20
34.530132509848045
 11
-43.746426462341219
 21
34.030132509848045
  0
LINE
  8
0
  6
CONTINUOUS
 62
3
 10
-35.746426462341219
 20
34.530132509848045
 11
-35.746426462341219
 21
34.030132509848045
  0
LINE
  8
0
  6
CONTINUOUS
 62
3
 10
-103.746426462341210
 20
34.530132509848045
 11
-103.746426462341210
 21
34.030132509848045
  0
LINE
  8
0
  6
CONTINUOUS
 62
3
 10
-111.746426462341210
 20
34.530132509848045
 11
-111.746426462341210
 21
34.030132509848045
  0
LINE
  8
0
  6
CONTINUOUS
 62
3
 10
-118.746426462341210
 20
68.530132509848045
 11
-28.746426462341219
 21
68.530132509848045
  0
LINE
  8
0
  6
CONTINUOUS
 62
4
 10
-110.946426462341030
 20
81.714598323072323
 11
38.053573537658735
 21
81.714598323072323
  0
LINE
  8
0
  6
CONTINUOUS
 62
3
 10
-120.946426462341030
 20
67.030132509848045
 11
-120.946426462341030
 21
67.410911592975253
  0
LINE
  8
0
  6
CONTINUOUS
 62
3
 10
-110.946426462341030
 20
191.530132509847820
 11
38.053573537658735
 21
191.530132509847820
  0
LINE
  8
0
  6
CONTINUOUS
 62
3
 10
-203.111979411782500
 20
70.647091624068253
 11
-212.837725196803490
 21
77.457132137451481
  0
ARC
  8
0
  6
CONTINUOUS
 62
3
 10
-211.346426462290880
 20
79.586927452602595
 40
2.600000000000136
 50
180.000000000000000
 51
234.999999999998610
  0
LINE
  8
0
  6
CONTINUOUS
 62
3
 10
-120.946426462341030
 20
67.030132509848045
 11
-191.640450684761500
 21
67.030132509848045
  0
POLYLINE
  8
0
  6
CONTINUOUS
 62
3
 66
1
 70
1
  0
VERTEX
  8
0
  6
CONTINUOUS
 62
3
 10
-117.246426462340590
 20
80.106607477788202
  0
VERTEX
  8
0
  6
CONTINUOUS
 62
3
 10
-117.336735644445410
 20
80.809564443988563
  0
VERTEX
  8
0
  6
CONTINUOUS
 62
3
 10
-117.604192659537540
 20
81.485507168200655
  0
VERTEX
  8
0
  6
CONTINUOUS
 62
3
 10
-118.038519284518620
 20
82.108459550606057
  0
VERTEX
  8
0
  6
CONTINUOUS
 62
3
 10
-118.623024590763810
 20
82.654481880504633
  0
VERTEX
  8
0
  6
CONTINUOUS
 62
3
 10
-119.335246367148450
 20
83.102590825971248
  0
VERTEX
  8
0
  6
CONTINUOUS
 62
3
 10
-120.147814330224660
 20
83.435565811534019
  0
VERTEX
  8
0
  6
CONTINUOUS
 62
3
 10
-121.029501948864770
 20
83.640610795232263
  0
VERTEX
  8
0
  6
CONTINUOUS
 62
3
 10
-121.946426462340580
 20
83.709846013333035
  0
VERTEX
  8
0
  6
CONTINUOUS
 62
3
 10
-122.863350975816380
 20
83.640610795232263
  0
VERTEX
  8
0
  6
CONTINUOUS
 62
3
 10
-123.745038594456500
 20
83.435565811534019
  0
VERTEX
  8
0
  6
CONTINUOUS
 62
3
 10
-124.557606557532700
 20
83.102590825971248
  0
VERTEX
  8
0
  6
CONTINUOUS
 62
3
 10
-125.269828333917340
 20
82.654481880504633
  0
VERTEX
  8
0
  6
CONTINUOUS
 62
3
 10
-125.854333640162530
 20
82.108459550606057
  0
VERTEX
  8
0
  6
CONTINUOUS
 62
3
 10
-126.288660265143610
 20
81.485507168200655
  0
VERTEX
  8
0
  6
CONTINUOUS
 62
3
 10
-126.556117280235750
 20
80.809564443988563
  0
VERTEX
  8
0
  6
CONTINUOUS
 62
3
 10
-126.646426462340570
 20
80.106607477788202
  0
VERTEX
  8
0
  6
CONTINUOUS
 62
3
 10
-126.556117280235750
 20
79.403650511587841
  0
VERTEX
  8
0
  6
CONTINUOUS
 62
3
 10
-126.288660265143610
 20
78.727707787375749
  0
VERTEX
  8
0
  6
CONTINUOUS
 62
3
 10
-125.854333640162530
 20
78.104755404970348
  0
VERTEX
  8
0
  6
CONTINUOUS
 62
3
 10
-125.269828333917340
 20
77.558733075071771
  0
VERTEX
  8
0
  6
CONTINUOUS
 62
3
 10
-124.557606557532700
 20
77.110624129605156
  0
VERTEX
  8
0
  6
CONTINUOUS
 62
3
 10
-123.745038594456500
 20
76.777649144042385
  0
VERTEX
  8
0
  6
CONTINUOUS
 62
3
 10
-122.863350975816380
 20
76.572604160344142
  0
VERTEX
  8
0
  6
CONTINUOUS
 62
3
 10
-121.946426462340580
 20
76.503368942243370
  0
VERTEX
  8
0
  6
CONTINUOUS
 62
3
 10
-121.029501948864770
 20
76.572604160344142
  0
VERTEX
  8
0
  6
CONTINUOUS
 62
3
 10
-120.147814330224660
 20
76.777649144042385
  0
VERTEX
  8
0
  6
CONTINUOUS
 62
3
 10
-119.335246367148450
 20
77.110624129605156
  0
VERTEX
  8
0
  6
CONTINUOUS
 62
3
 10
-118.623024590763810
 20
77.558733075071771
  0
VERTEX
  8
0
  6
CONTINUOUS
 62
3
 10
-118.038519284518620
 20
78.104755404970348
  0
VERTEX
  8
0
  6
CONTINUOUS
 62
3
 10
-117.604192659537540
 20
78.727707787375749
  0
VERTEX
  8
0
  6
CONTINUOUS
 62
3
 10
-117.336735644445410
 20
79.403650511587841
  0
SEQEND
  8
0
  6
CONTINUOUS
 62
3
  0
LINE
  8
0
  6
CONTINUOUS
 62
3
 10
-123.946426462340580
 20
77.114231923787884
 11
-121.946426462340580
 21
78.290017409410211
  0
LINE
  8
0
  6
CONTINUOUS
 62
3
 10
-121.946426462340580
 20
78.290017409410211
 11
-119.946426462340580
 21
79.942659048533642
  0
ARC
  8
0
  6
CONTINUOUS
 62
3
 10
-191.640450684761500
 20
87.030132509848045
 40
20.000000000000007
 50
234.999999999999740
 51
270.000000000000000
  0
LINE
  8
0
  6
CONTINUOUS
 62
3
 10
-28.746426462341219
 20
72.530132509848045
 11
38.053573537658735
 21
72.530132509848045
  0
LINE
  8
0
  6
CONTINUOUS
 62
3
 10
-119.946426462340580
 20
77.114231923787884
 11
-121.946426462340580
 21
78.290017409410211
  0
LINE
  8
0
  6
CONTINUOUS
 62
3
 10
-121.946426462340580
 20
78.290017409410211
 11
-123.946426462340580
 21
79.942659048533642
  0
POLYLINE
  8
0
  6
CONTINUOUS
 62
3
 66
1
 70
1
  0
VERTEX
  8
0
  6
CONTINUOUS
 62
3
 10
-117.246426462340590
 20
183.953657541908110
  0
VERTEX
  8
0
  6
CONTINUOUS
 62
3
 10
-117.336735644445410
 20
184.656614508108480
  0
VERTEX
  8
0
  6
CONTINUOUS
 62
3
 10
-117.604192659537540
 20
185.332557232320570
  0
VERTEX
  8
0
  6
CONTINUOUS
 62
3
 10
-118.038519284518620
 20
185.955509614725970
  0
VERTEX
  8
0
  6
CONTINUOUS
 62
3
 10
-118.623024590763810
 20
186.501531944624560
  0
VERTEX
  8
0
  6
CONTINUOUS
 62
3
 10
-119.335246367148450
 20
186.949640890091190
  0
VERTEX
  8
0
  6
CONTINUOUS
 62
3
 10
-120.147814330224660
 20
187.282615875653930
  0
VERTEX
  8
0
  6
CONTINUOUS
 62
3
 10
-121.029501948864770
 20
187.487660859352190
  0
VERTEX
  8
0
  6
CONTINUOUS
 62
3
 10
-121.946426462340580
 20
187.556896077452960
  0
VERTEX
  8
0
  6
CONTINUOUS
 62
3
 10
-122.863350975816380
 20
187.487660859352190
  0
VERTEX
  8
0
  6
CONTINUOUS
 62
3
 10
-123.745038594456500
 20
187.282615875653930
  0
VERTEX
  8
0
  6
CONTINUOUS
 62
3
 10
-124.557606557532700
 20
186.949640890091190
  0
VERTEX
  8
0
  6
CONTINUOUS
 62
3
 10
-125.269828333917340
 20
186.501531944624560
  0
VERTEX
  8
0
  6
CONTINUOUS
 62
3
 10
-125.854333640162530
 20
185.955509614725970
  0
VERTEX
  8
0
  6
CONTINUOUS
 62
3
 10
-126.288660265143610
 20
185.332557232320570
  0
VERTEX
  8
0
  6
CONTINUOUS
 62
3
 10
-126.556117280235750
 20
184.656614508108480
  0
VERTEX
  8
0
  6
CONTINUOUS
 62
3
 10
-126.646426462340570
 20
183.953657541908110
  0
VERTEX
  8
0
  6
CONTINUOUS
 62
3
 10
-126.556117280235750
 20
183.250700575707750
  0
VERTEX
  8
0
  6
CONTINUOUS
 62
3
 10
-126.288660265143610
 20
182.574757851495660
  0
VERTEX
  8
0
  6
CONTINUOUS
 62
3
 10
-125.854333640162530
 20
181.951805469090260
  0
VERTEX
  8
0
  6
CONTINUOUS
 62
3
 10
-125.269828333917340
 20
181.405783139191670
  0
VERTEX
  8
0
  6
CONTINUOUS
 62
3
 10
-124.557606557532700
 20
180.957674193725040
  0
VERTEX
  8
0
  6
CONTINUOUS
 62
3
 10
-123.745038594456500
 20
180.624699208162300
  0
VERTEX
  8
0
  6
CONTINUOUS
 62
3
 10
-122.863350975816380
 20
180.419654224464040
  0
VERTEX
  8
0
  6
CONTINUOUS
 62
3
 10
-121.946426462340580
 20
180.350419006363270
  0
VERTEX
  8
0
  6
CONTINUOUS
 62
3
 10
-121.029501948864770
 20
180.419654224464040
  0
VERTEX
  8
0
  6
CONTINUOUS
 62
3
 10
-120.147814330224660
 20
180.624699208162300
  0
VERTEX
  8
0
  6
CONTINUOUS
 62
3
 10
-119.335246367148450
 20
180.957674193725040
  0
VERTEX
  8
0
  6
CONTINUOUS
 62
3
 10
-118.623024590763810
 20
181.405783139191670
  0
VERTEX
  8
0
  6
CONTINUOUS
 62
3
 10
-118.038519284518620
 20
181.951805469090260
  0
VERTEX
  8
0
  6
CONTINUOUS
 62
3
 10
-117.604192659537540
 20
182.574757851495660
  0
VERTEX
  8
0
  6
CONTINUOUS
 62
3
 10
-117.336735644445410
 20
183.250700575707750
  0
SEQEND
  8
0
  6
CONTINUOUS
 62
3
  0
LINE
  8
0
  6
CONTINUOUS
 62
3
 10
-123.946426462340580
 20
186.946033095908430
 11
-121.946426462340580
 21
185.770247610285650
  0
LINE
  8
0
  6
CONTINUOUS
 62
3
 10
-121.946426462340580
 20
185.770247610285650
 11
-119.946426462340580
 21
184.117605971162220
  0
LINE
  8
0
  6
CONTINUOUS
 62
3
 10
-119.946426462340580
 20
186.946033095908430
 11
-121.946426462340580
 21
185.770247610285650
  0
LINE
  8
0
  6
CONTINUOUS
 62
3
 10
-121.946426462340580
 20
185.770247610285650
 11
-123.946426462340580
 21
184.117605971162220
  0
LINE
  8
0
  6
CONTINUOUS
 62
4
 10
-110.946426462341030
 20
75.030132509848045
 11
38.053573537658735
 21
75.030132509848045
  0
LINE
  8
0
  6
CONTINUOUS
 62
4
 10
-110.946426462341030
 20
76.030132509848045
 11
38.053573537658735
 21
76.030132509848045
  0
LINE
  8
0
  6
CONTINUOUS
 62
4
 10
-110.946426462341030
 20
77.030132509848045
 11
38.053573537658735
 21
77.030132509848045
  0
LINE
  8
0
  6
CONTINUOUS
 62
4
 10
-110.946426462341030
 20
86.664345791378082
 11
38.053573537658735
 21
86.664345791378082
  0
LINE
  8
0
  6
CONTINUOUS
 62
4
 10
-110.946426462341030
 20
94.710947454112102
 11
38.053573537658735
 21
94.710947454112102
  0
LINE
  8
0
  6
CONTINUOUS
 62
4
 10
-110.946426462341030
 20
96.315595369674156
 11
38.053573537658735
 21
96.315595369674156
  0
LINE
  8
0
  6
CONTINUOUS
 62
4
 10
-110.946426462341030
 20
100.279340793473690
 11
38.053573537658735
 21
100.279340793473690
  0
LINE
  8
0
  6
CONTINUOUS
 62
4
 10
-110.946426462341030
 20
101.747698183278310
 11
38.053573537658735
 21
101.747698183278310
  0
LINE
  8
0
  6
CONTINUOUS
 62
4
 10
-110.946426462341030
 20
105.838198717368180
 11
38.053573537658735
 21
105.838198717368180
  0
LINE
  8
0
  6
CONTINUOUS
 62
4
 10
-110.946426462341030
 20
107.200079052717450
 11
38.053573537658735
 21
107.200079052717450
  0
LINE
  8
0
  6
CONTINUOUS
 62
4
 10
-110.946426462341030
 20
111.390632784259650
 11
38.053573537658735
 21
111.390632784259650
  0
LINE
  8
0
  6
CONTINUOUS
 62
4
 10
-110.946426462341030
 20
112.656870700346870
 11
38.053573537658735
 21
112.656870700346870
  0
LINE
  8
0
  6
CONTINUOUS
 62
4
 10
-110.946426462341030
 20
169.349317565583990
 11
38.053573537658735
 21
169.349317565583990
  0
LINE
  8
0
  6
CONTINUOUS
 62
4
 10
-110.946426462341030
 20
167.744669650021930
 11
38.053573537658735
 21
167.744669650021930
  0
LINE
  8
0
  6
CONTINUOUS
 62
4
 10
-110.946426462341030
 20
163.780924226222400
 11
38.053573537658735
 21
163.780924226222400
  0
LINE
  8
0
  6
CONTINUOUS
 62
4
 10
-110.946426462341030
 20
162.312566836417770
 11
38.053573537658735
 21
162.312566836417770
  0
LINE
  8
0
  6
CONTINUOUS
 62
4
 10
-110.946426462341030
 20
158.222066302327900
 11
38.053573537658735
 21
158.222066302327900
  0
LINE
  8
0
  6
CONTINUOUS
 62
4
 10
-110.946426462341030
 20
156.860185966978630
 11
38.053573537658735
 21
156.860185966978630
  0
LINE
  8
0
  6
CONTINUOUS
 62
4
 10
-110.946426462341030
 20
152.669632235436440
 11
38.053573537658735
 21
152.669632235436440
  0
LINE
  8
0
  6
CONTINUOUS
 62
4
 10
-110.946426462341030
 20
151.403394319349220
 11
38.053573537658735
 21
151.403394319349220
  0
LINE
  8
0
  6
CONTINUOUS
 62
4
 10
-110.946426462341030
 20
177.395919228318010
 11
38.053573537658735
 21
177.395919228318010
  0
LINE
  8
0
  6
CONTINUOUS
 62
4
 10
-110.946426462341030
 20
182.345666696623770
 11
38.053573537658735
 21
182.345666696623770
  0
LINE
  8
0
  6
CONTINUOUS
 62
3
 10
-110.946426462341030
 20
132.030132509848040
 11
-110.946426462341030
 21
197.030132509848040
  0
LINE
  8
0
  6
CONTINUOUS
 62
4
 10
-110.946426462341030
 20
187.030132509848040
 11
38.053573537658735
 21
187.030132509848040
  0
LINE
  8
0
  6
CONTINUOUS
 62
4
 10
-110.946426462341030
 20
188.030132509848040
 11
38.053573537658735
 21
188.030132509848040
  0
LINE
  8
0
  6
CONTINUOUS
 62
4
 10
-110.946426462341030
 20
189.030132509848040
 11
38.053573537658735
 21
189.030132509848040
  0
LINE
  8
0
  6
CONTINUOUS
 62
3
 10
-43.946426462341037
 20
191.530132509848040
 11
38.053573537658735
 21
191.530132509848040
  0
LINE
  8
0
  6
CONTINUOUS
 62
3
 10
-110.946426462341030
 20
197.030132509848040
 11
-191.640450684761500
 21
197.030132509848040
  0
LINE
  8
0
  6
CONTINUOUS
 62
3
 10
-213.946426462291020
 20
132.030132509848040
 11
-213.946426462291020
 21
184.473337567093490
  0
ARC
  8
0
  6
CONTINUOUS
 62
3
 10
-191.640450684761500
 20
177.030132509848040
 40
20.000000000000000
 50
90.000000000000000
 51
125.000000000000240
  0
LINE
  8
0
  6
CONTINUOUS
 62
3
 10
-203.111979411782500
 20
193.413173395627840
 11
-212.837725196803490
 21
186.603132882244610
  0
ARC
  8
0
  6
CONTINUOUS
 62
3
 10
-211.346426462290880
 20
184.473337567093490
 40
2.599999999999721
 50
125.000000000001370
 51
180.000000000000000
  0
ARC
  8
0
  6
CONTINUOUS
 62
3
 10
-113.946426462341030
 20
73.410911592975253
 40
3.000000000000000
 50
270.000000000000000
 51
0.000000000000000
  0
ARC
  8
0
  6
CONTINUOUS
 62
3
 10
-117.946426462341030
 20
67.410911592975253
 40
3.000000000000000
 50
90.000000000000000
 51
180.000000000000000
  0
LINE
  8
0
  6
CONTINUOUS
 62
3
 10
-110.946426462341030
 20
132.030132509848040
 11
-110.946426462341030
 21
73.410911592975253
  0
LINE
  8
0
  6
CONTINUOUS
 62
3
 10
-213.946426462291020
 20
132.030132509848040
 11
-213.946426462291020
 21
79.586927452602595
  0
LINE
  8
0
  6
CONTINUOUS
 62
3
 10
-117.946426462341030
 20
70.410911592975253
 11
-113.946426462341030
 21
70.410911592975253
  0
ARC
  8
0
  6
CONTINUOUS
 62
3
 10
14.553573537658735
 20
215.033002130428710
 40
2.000000000000000
 50
270.000000000000000
 51
0.000000000000000
  0
ARC
  8
0
  6
CONTINUOUS
 62
3
 10
14.553573537658735
 20
215.832004001547600
 40
2.000000000000000
 50
270.000000000000000
 51
0.000000000000000
  0
ARC
  8
0
  6
CONTINUOUS
 62
3
 10
14.553573537658735
 20
216.631005872632840
 40
2.000000000000000
 50
270.000000000000000
 51
0.000000000000000
  0
ARC
  8
0
  6
CONTINUOUS
 62
3
 10
14.553573537658735
 20
217.724642800910030
 40
2.000000000000000
 50
0.000000000000000
 51
90.000000000000000
  0
LINE
  8
0
  6
CONTINUOUS
 62
3
 10
13.553573537658735
 20
219.724642800910030
 11
14.553573537658735
 21
219.724642800910030
  0
LINE
  8
0
  6
CONTINUOUS
 62
3
 10
14.553573537658735
 20
213.033002130428710
 11
-111.446426462341260
 21
213.033002130428710
  0
LINE
  8
0
  6
CONTINUOUS
 62
3
 10
14.553573537658735
 20
213.832004001530780
 11
-111.446426462341260
 21
213.832004001530780
  0
LINE
  8
0
  6
CONTINUOUS
 62
3
 10
16.553573537658735
 20
217.724642800910030
 11
16.553573537658735
 21
215.033002130428710
  0
LINE
  8
0
  6
CONTINUOUS
 62
3
 10
13.553573537658735
 20
201.530132509847820
 11
13.553573537658735
 21
212.832004001547600
  0
LINE
  8
0
  6
CONTINUOUS
 62
3
 10
-105.446426462341260
 20
238.130132509847730
 11
8.553573537658735
 21
238.130132509847730
  0
ARC
  8
0
  6
CONTINUOUS
 62
3
 10
8.553573537658735
 20
233.130132509847730
 40
5.000000000000000
 50
0.000000000000000
 51
90.000000000000000
  0
LINE
  8
0
  6
CONTINUOUS
 62
3
 10
-110.446426462341260
 20
201.530132509847820
 11
-110.446426462341260
 21
213.033002130428710
  0
ARC
  8
0
  6
CONTINUOUS
 62
3
 10
-111.446426462341260
 20
215.033002130428710
 40
2.000000000000000
 50
180.000000000000000
 51
270.000000000000000
  0
LINE
  8
0
  6
CONTINUOUS
 62
3
 10
-113.446426462341260
 20
217.724642800910030
 11
-113.446426462341260
 21
215.033002130428710
  0
ARC
  8
0
  6
CONTINUOUS
 62
3
 10
-111.446426462341260
 20
215.832004001547600
 40
2.000000000000000
 50
180.000000000000000
 51
270.000000000000000
  0
ARC
  8
0
  6
CONTINUOUS
 62
3
 10
-111.446426462341260
 20
216.631005872632840
 40
2.000000000000000
 50
180.000000000000000
 51
270.000000000000000
  0
ARC
  8
0
  6
CONTINUOUS
 62
3
 10
-111.446426462341260
 20
217.724642800910030
 40
2.000000000000000
 50
90.000000000000000
 51
180.000000000000000
  0
ARC
  8
0
  6
CONTINUOUS
 62
3
 10
-105.446426462341260
 20
233.130132509847730
 40
5.000000000000000
 50
90.000000000000000
 51
180.000000000000000
  0
LINE
  8
0
  6
CONTINUOUS
 62
3
 10
14.553573537658735
 20
214.631005872632840
 11
-111.446426462341260
 21
214.631005872632840
  0
LINE
  8
0
  6
CONTINUOUS
 62
3
 10
-110.446426462341260
 20
219.724642800910030
 11
-111.446426462341260
 21
219.724642800910030
  0
LINE
  8
0
  6
CONTINUOUS
 62
3
 10
-110.446426462341260
 20
220.191157569534650
 11
-110.446426462341260
 21
233.130132509847730
  0
LINE
  8
0
  6
CONTINUOUS
 62
3
 10
13.553573537658735
 20
220.191157569534650
 11
13.553573537658735
 21
233.130132509847730
  0
POLYLINE
  8
0
  6
CONTINUOUS
 62
3
 66
1
  0
VERTEX
  8
0
  6
CONTINUOUS
 62
3
 10
-106.946426462341260
 20
214.880693957352610
  0
VERTEX
  8
0
  6
CONTINUOUS
 62
3
 10
-106.879174943752570
 20
214.846595747156610
  0
VERTEX
  8
0
  6
CONTINUOUS
 62
3
 10
-106.680004826130760
 20
214.813807912055980
  0
VERTEX
  8
0
  6
CONTINUOUS
 62
3
 10
-106.356570105400160
 20
214.783590470165960
  0
VERTEX
  8
0
  6
CONTINUOUS
 62
3
 10
-105.921300196494180
 20
214.757104660832250
  0
VERTEX
  8
0
  6
CONTINUOUS
 62
3
 10
-105.390922277909880
 20
214.735368318854170
  0
VERTEX
  8
0
  6
CONTINUOUS
 62
3
 10
-104.785818475619080
 20
214.719216759663990
  0
VERTEX
  8
0
  6
CONTINUOUS
 62
3
 10
-104.129242589397720
 20
214.709270678623540
  0
VERTEX
  8
0
  6
CONTINUOUS
 62
3
 10
-103.446426462341260
 20
214.705912298049380
  0
VERTEX
  8
0
  6
CONTINUOUS
 62
3
 10
-102.763610335284820
 20
214.709270678623540
  0
VERTEX
  8
0
  6
CONTINUOUS
 62
3
 10
-102.107034449063440
 20
214.719216759663990
  0
VERTEX
  8
0
  6
CONTINUOUS
 62
3
 10
-101.501930646772660
 20
214.735368318854170
  0
VERTEX
  8
0
  6
CONTINUOUS
 62
3
 10
-100.971552728188350
 20
214.757104660832250
  0
VERTEX
  8
0
  6
CONTINUOUS
 62
3
 10
-100.536282819282360
 20
214.783590470165960
  0
VERTEX
  8
0
  6
CONTINUOUS
 62
3
 10
-100.212848098551760
 20
214.813807912055980
  0
VERTEX
  8
0
  6
CONTINUOUS
 62
3
 10
-100.013677980929950
 20
214.846595747156610
  0
VERTEX
  8
0
  6
CONTINUOUS
 62
3
 10
-99.946426462341265
 20
214.880693957352610
  0
SEQEND
  8
0
  6
CONTINUOUS
 62
3
  0
ARC
  8
0
  6
CONTINUOUS
 62
3
 10
-101.246426462341440
 20
215.867703695276990
 40
1.300000000000182
 50
0.000000000000000
 51
73.398450400977637
  0
ARC
  8
0
  6
CONTINUOUS
 62
3
 10
-103.446426462341260
 20
208.488679369527520
 40
9.000000000000123
 50
73.398450400980877
 51
106.601549599019120
  0
ARC
  8
0
  6
CONTINUOUS
 62
3
 10
-105.646426462341080
 20
215.867703695276990
 40
1.300000000000019
 50
106.601549599022360
 51
180.000000000000000
  0
LINE
  8
0
  6
CONTINUOUS
 62
3
 10
-99.946426462341265
 20
215.867703695276990
 11
-99.946426462341265
 21
214.880693957352610
  0
LINE
  8
0
  6
CONTINUOUS
 62
3
 10
-106.946426462341260
 20
215.867703695276990
 11
-106.946426462341260
 21
214.880693957352610
  0
ARC
  8
0
  6
CONTINUOUS
 62
3
 10
-105.446426462341260
 20
220.191157569534650
 40
5.000000000000000
 50
180.000000000000000
 51
252.542396876278160
  0
LINE
  8
0
  6
CONTINUOUS
 62
3
 10
3.053573537658735
 20
215.867703695276990
 11
3.053573537658735
 21
214.880693957352610
  0
POLYLINE
  8
0
  6
CONTINUOUS
 62
3
 66
1
  0
VERTEX
  8
0
  6
CONTINUOUS
 62
3
 10
3.053573537658735
 20
214.880693957352610
  0
VERTEX
  8
0
  6
CONTINUOUS
 62
3
 10
3.120825056247429
 20
214.846595747156610
  0
VERTEX
  8
0
  6
CONTINUOUS
 62
3
 10
3.319995173869232
 20
214.813807912055980
  0
VERTEX
  8
0
  6
CONTINUOUS
 62
3
 10
3.643429894599827
 20
214.783590470165960
  0
VERTEX
  8
0
  6
CONTINUOUS
 62
3
 10
4.078699803505819
 20
214.757104660832250
  0
VERTEX
  8
0
  6
CONTINUOUS
 62
3
 10
4.609077722090127
 20
214.735368318854170
  0
VERTEX
  8
0
  6
CONTINUOUS
 62
3
 10
5.214181524380921
 20
214.719216759663990
  0
VERTEX
  8
0
  6
CONTINUOUS
 62
3
 10
5.870757410602286
 20
214.709270678623540
  0
VERTEX
  8
0
  6
CONTINUOUS
 62
3
 10
6.553573537658735
 20
214.705912298049380
  0
VERTEX
  8
0
  6
CONTINUOUS
 62
3
 10
7.236389664715183
 20
214.709270678623540
  0
VERTEX
  8
0
  6
CONTINUOUS
 62
3
 10
7.892965550936548
 20
214.719216759663990
  0
VERTEX
  8
0
  6
CONTINUOUS
 62
3
 10
8.498069353227342
 20
214.735368318854170
  0
VERTEX
  8
0
  6
CONTINUOUS
 62
3
 10
9.028447271811650
 20
214.757104660832250
  0
VERTEX
  8
0
  6
CONTINUOUS
 62
3
 10
9.463717180717641
 20
214.783590470165960
  0
VERTEX
  8
0
  6
CONTINUOUS
 62
3
 10
9.787151901448237
 20
214.813807912055980
  0
VERTEX
  8
0
  6
CONTINUOUS
 62
3
 10
9.986322019070039
 20
214.846595747156610
  0
VERTEX
  8
0
  6
CONTINUOUS
 62
3
 10
10.053573537658734
 20
214.880693957352610
  0
SEQEND
  8
0
  6
CONTINUOUS
 62
3
  0
LINE
  8
0
  6
CONTINUOUS
 62
3
 10
10.053573537658735
 20
215.867703695276990
 11
10.053573537658735
 21
214.880693957352610
  0
ARC
  8
0
  6
CONTINUOUS
 62
3
 10
4.353573537658917
 20
215.867703695276990
 40
1.300000000000019
 50
106.601549599022360
 51
180.000000000000000
  0
ARC
  8
0
  6
CONTINUOUS
 62
3
 10
6.553573537658735
 20
208.488679369527520
 40
9.000000000000123
 50
73.398450400980877
 51
106.601549599019120
  0
ARC
  8
0
  6
CONTINUOUS
 62
3
 10
8.753573537658554
 20
215.867703695276990
 40
1.300000000000182
 50
0.000000000000000
 51
73.398450400977637
  0
ARC
  8
0
  6
CONTINUOUS
 62
3
 10
8.553573537658735
 20
220.191157569534650
 40
5.000000000000072
 50
287.457603123721870
 51
0.000000000000000
  0
LINE
  8
0
  6
CONTINUOUS
 62
3
 10
3.053573537658735
 20
215.191157569534650
 11
-99.946426462341265
 21
215.191157569534650
  0
LINE
  8
0
  6
CONTINUOUS
 62
3
 10
-110.446426462341260
 20
196.530132509847820
 11
13.553573537658735
 21
196.530132509847820
  0
LINE
  8
0
  6
DASHDOT
 62
3
 10
13.553573537658735
 20
191.530132509847820
 11
13.553573537658735
 21
196.530132509847820
  0
ARC
  8
0
  6
CONTINUOUS
 62
3
 10
8.553573537658735
 20
201.530132509847820
 40
5.000000000000000
 50
270.000000000000000
 51
0.000000000000000
  0
LINE
  8
0
  6
DASHDOT
 62
3
 10
13.553573537658735
 20
191.530132509847820
 11
13.553573537658735
 21
196.530132509847820
  0
LINE
  8
0
  6
CONTINUOUS
 62
3
 10
-110.446426462341260
 20
191.530132509847820
 11
-110.446426462341260
 21
196.530132509847820
  0
ARC
  8
0
  6
CONTINUOUS
 62
3
 10
-105.446426462341260
 20
201.530132509847820
 40
5.000000000000000
 50
180.000000000000000
 51
270.000000000000000
  0
LINE
  8
0
  6
DASHDOT
 62
4
 10
-240.668944897085910
 20
132.030132509848040
 11
254.213399624565570
 21
132.030132509848040
  0
LINE
  8
0
  6
DASHDOT
 62
4
 10
-106.746426462341210
 20
39.530132509848045
 11
-106.746426462341210
 21
66.531731832397782
  0
LINE
  8
0
  6
DASHDOT
 62
4
 10
-97.746426462341219
 20
48.530132509848045
 11
-115.746426462341210
 21
48.530132509848045
  0
LINE
  8
0
  6
CONTINUOUS
 62
3
 10
-118.746426462341210
 20
70.302278051935446
 11
-118.746426462341210
 21
35.530132509848045
  0
CIRCLE
  8
0
  6
DASHED
 62
4
 10
-106.746426462341210
 20
48.530132509848045
 40
6.000000000000000
  0
ARC
  8
0
  6
DASHED
 62
4
 10
-106.746426462341210
 20
48.530132509848045
 40
7.000000000000000
 50
180.000000000000000
 51
0.000000000000000
  0
LINE
  8
0
  6
DASHED
 62
4
 10
-99.746426462341219
 20
68.530132509848045
 11
-99.746426462341219
 21
48.530132509848045
  0
LINE
  8
0
  6
DASHED
 62
4
 10
-113.746426462341210
 20
68.530132509848045
 11
-113.746426462341210
 21
48.530132509848045
  0
LINE
  8
0
  6
CONTINUOUS
 62
4
 10
-110.946426462341030
 20
147.030132509848040
 11
37.053574491337663
 21
147.030132509848040
  0
LINE
  8
0
  6
CONTINUOUS
 62
4
 10
-110.946426462341030
 20
117.030132509848040
 11
37.053574491336690
 21
117.030132509848040
  0
ARC
  8
0
  6
CONTINUOUS
 62
3
 10
291.164182764148790
 20
-50.193707259915300
 40
1.999999999999694
 50
45.000000000000000
 51
90.000000000000000
  0
ARC
  8
0
  6
CONTINUOUS
 62
3
 10
397.279406453298410
 20
-170.927105444096920
 40
77.139211988464112
 50
14.640477209921681
 51
88.089786828290116
  0
INSERT
  8
0
  2
SYM2
 10
470.724228659641540
 20
-231.612663871175760
 41
-1.000000000000000
 42
1.000000000000000
 43
1.000000000000000
 50
2.862405226113666
  0
LINE
  8
0
  6
DASHED
 62
3
 10
469.375913002156040
 20
-236.686325752675880
 11
470.973916744360620
 21
-236.606425565564900
  0
ARC
  8
0
  6
DASHED
 62
3
 10
472.505872284630410
 20
-227.195567581958810
 40
1.999999999999995
 50
99.916536608232732
 51
182.862405226112400
  0
ARC
  8
0
  6
DASHED
 62
3
 10
466.912859186914600
 20
-227.475218236844630
 40
1.999999999999927
 50
2.862405226112724
 51
85.808273843998350
  0
ARC
  8
0
  6
DASHED
 62
3
 10
468.579406453298130
 20
-204.736207259915320
 40
20.799999999999926
 50
334.359929784105190
 51
5.724810452223241
  0
ARC
  8
0
  6
DASHED
 62
3
 10
468.579406453298130
 20
-204.736207259915320
 40
20.800000000000040
 50
279.916536608230560
 51
334.359929784105190
  0
ARC
  8
0
  6
DASHED
 62
3
 10
468.579406453298130
 20
-204.736207259915320
 40
20.799999999999926
 50
334.359929784105190
 51
5.724810452223241
  0
ARC
  8
0
  6
DASHED
 62
3
 10
468.579406453298130
 20
-204.736207259915320
 40
20.799999999999894
 50
185.047316781012460
 51
265.808273843992540
  0
LINE
  8
0
  6
DASHED
 62
3
 10
464.282276073879070
 20
-134.813587187135110
 11
469.375913002156040
 21
-236.686325752675880
  0
LINE
  8
0
  6
DASHED
 62
3
 10
465.880279816083660
 20
-134.733687000024930
 11
470.973916744360620
 21
-236.606425565564900
  0
ARC
  8
0
  6
DASHED
 62
3
 10
466.997908917934180
 20
-137.481302596269760
 40
1.299999237060645
 50
19.463936333587132
 51
92.862405909348169
  0
ARC
  8
0
  6
DASHED
 62
3
 10
467.217634508686160
 20
-141.875814411307490
 40
1.299999237060550
 50
272.862387240019760
 51
346.260856815788600
  0
LINE
  8
0
  6
DASHED
 62
3
 10
465.955186241498950
 20
-136.231815508341580
 11
466.932990054006500
 21
-136.182925317716240
  0
LINE
  8
0
  6
DASHED
 62
3
 10
466.304749560106070
 20
-143.223081880486460
 11
467.282553372613850
 21
-143.174191689861120
  0
LINE
  8
0
  6
DASHED
 62
3
 10
465.955186241498950
 20
-136.231815508341580
 11
466.304749560106070
 21
-143.223081880486460
  0
LINE
  8
0
  6
DASHED
 62
3
 10
465.955186241498950
 20
-136.231815508341580
 11
466.304749560106070
 21
-143.223081880486460
  0
POINT
  8
0
  6
DASHED
 62
3
 10
466.129967900802510
 20
-139.727448694413970
  0
ARC
  8
0
  6
DASHED
 62
3
 10
459.737953312978110
 20
-140.047049423805220
 40
8.999999999999948
 50
346.260856815786500
 51
19.463936333592187
  0
LINE
  8
0
  6
DASHED
 62
3
 10
465.880279816083660
 20
-134.733687000024930
 11
464.282276073879070
 21
-134.813587187135110
  0
ARC
  8
0
  6
DASHED
 62
3
 10
466.579406453298130
 20
-164.736207259915320
 40
18.799999999999837
 50
5.724810452223617
 51
35.808626813495749
  0
ARC
  8
0
  6
DASHED
 62
3
 10
466.579406453298130
 20
-164.736207259915320
 40
18.799999999999933
 50
35.808626813495749
 51
85.126025186157264
  0
LINE
  8
0
  6
DASHED
 62
3
 10
489.275665804919070
 20
-202.661394292334360
 11
485.285640867263060
 21
-162.860895539217040
  0
LINE
  8
0
  6
DASHED
 62
3
 10
465.081277944981370
 20
-134.773637093580080
 11
470.174914873258330
 21
-236.646375659120170
  0
ARC
  8
0
  6
DASHED
 62
3
 10
468.346664916927010
 20
-144.011420227891790
 40
1.999999999999927
 50
182.862405226112710
 51
265.126025186159040
  0
ARC
  8
0
  6
DASHED
 62
3
 10
462.753651819211200
 20
-144.291070882777600
 40
1.999999999999958
 50
280.598785266065990
 51
2.862405226112724
  0
ARC
  8
0
  6
DASHED
 62
3
 10
466.579406453298130
 20
-164.736207259915320
 40
18.799999999999983
 50
100.598785266066050
 51
180.000000000000000
  0
LINE
  8
0
  6
DASHED
 62
3
 10
447.779406453298180
 20
-206.566158063278580
 11
447.779406453298180
 21
-164.736207259915320
  0
LINE
  8
0
  6
CONTINUOUS
 62
4
 10
-110.946426462344780
 20
-245.693707259913880
 11
38.053573537655097
 21
-245.693707259913880
  0
LINE
  8
0
  6
CONTINUOUS
 62
4
 10
-110.946426462344780
 20
-246.693707259913880
 11
38.053573537655097
 21
-246.693707259913880
  0
LINE
  8
0
  6
CONTINUOUS
 62
4
 10
-110.946426462344780
 20
-247.693707259913880
 11
38.053573537655097
 21
-247.693707259913880
  0
LINE
  8
0
  6
CONTINUOUS
 62
4
 10
-110.946426462344780
 20
-248.193707259913880
 11
38.053573537655097
 21
-248.193707259913880
  0
LINE
  8
0
  6
CONTINUOUS
 62
4
 10
-110.946426462344780
 20
-241.009241446689370
 11
38.053573537655097
 21
-241.009241446689370
  0
LINE
  8
0
  6
CONTINUOUS
 62
4
 10
-29.046828952835313
 20
-226.408244400087770
 11
38.053573537655097
 21
-226.408244400087770
  0
LINE
  8
0
  6
CONTINUOUS
 62
4
 10
-28.746426462344971
 20
-216.885641052393510
 11
38.053573537655097
 21
-216.885641052393510
  0
LINE
  8
0
  6
CONTINUOUS
 62
4
 10
-28.746426462344971
 20
-210.693707259913880
 11
38.053573537655097
 21
-210.693707259913880
  0
LINE
  8
0
  6
CONTINUOUS
 62
4
 10
-28.746426462344971
 20
-220.976141586483150
 11
38.053573537655097
 21
-220.976141586483150
  0
LINE
  8
0
  6
CONTINUOUS
 62
4
 10
-28.746426462344971
 20
-215.523760717044240
 11
38.053573537655097
 21
-215.523760717044240
  0
LINE
  8
0
  6
CONTINUOUS
 62
4
 10
-28.746426462344971
 20
-222.444498976288230
 11
38.053573537655097
 21
-222.444498976288230
  0
LINE
  8
0
  6
CONTINUOUS
 62
4
 10
-119.849419020724890
 20
-228.012892315649820
 11
38.053573537655097
 21
-228.012892315649820
  0
LINE
  8
0
  6
CONTINUOUS
 62
4
 10
-110.946426462344780
 20
-236.059493978383610
 11
38.053573537655097
 21
-236.059493978383610
  0
LINE
  8
0
  6
CONTINUOUS
 62
4
 10
-110.946426462344780
 20
-135.693707259913880
 11
38.053573537655097
 21
-135.693707259913880
  0
LINE
  8
0
  6
CONTINUOUS
 62
4
 10
-110.946426462344780
 20
-134.693707259913880
 11
38.053573537655097
 21
-134.693707259913880
  0
LINE
  8
0
  6
CONTINUOUS
 62
4
 10
-110.946426462344780
 20
-133.693707259913880
 11
38.053573537655097
 21
-133.693707259913880
  0
LINE
  8
0
  6
CONTINUOUS
 62
4
 10
-110.946426462344780
 20
-133.193707259913880
 11
38.053573537655097
 21
-133.193707259913880
  0
LINE
  8
0
  6
CONTINUOUS
 62
4
 10
-29.046828952835085
 20
-154.979170119739990
 11
38.053573537655097
 21
-154.979170119739990
  0
LINE
  8
0
  6
CONTINUOUS
 62
4
 10
-28.746426462344971
 20
-158.942915543539530
 11
38.053573537655097
 21
-158.942915543539530
  0
LINE
  8
0
  6
CONTINUOUS
 62
4
 10
-119.849419020724890
 20
-153.374522204177940
 11
38.053573537655097
 21
-153.374522204177940
  0
LINE
  8
0
  6
CONTINUOUS
 62
4
 10
-110.946426462344780
 20
-145.327920541444140
 11
38.053573537655097
 21
-145.327920541444140
  0
LINE
  8
0
  6
CONTINUOUS
 62
4
 10
-110.946426462344780
 20
-140.378173073138380
 11
38.053573537655097
 21
-140.378173073138380
  0
LINE
  8
0
  6
CONTINUOUS
 62
4
 10
-28.746426462344971
 20
-170.693707259913880
 11
38.053573537655097
 21
-170.693707259913880
  0
LINE
  8
0
  6
CONTINUOUS
 62
4
 10
-28.746426462344971
 20
-164.501773467434250
 11
38.053573537655097
 21
-164.501773467434250
  0
LINE
  8
0
  6
CONTINUOUS
 62
4
 10
-28.746426462344971
 20
-165.863653802783520
 11
38.053573537655097
 21
-165.863653802783520
  0
LINE
  8
0
  6
CONTINUOUS
 62
4
 10
-28.746426462344971
 20
-160.411272933344610
 11
38.053573537655097
 21
-160.411272933344610
  0
LINE
  8
0
  6
CONTINUOUS
 62
3
 10
38.053573537655097
 20
-132.193707259913880
 11
-110.946426462344780
 21
-132.193707259913880
  0
LINE
  8
0
  6
DASHDOT
 62
4
 10
88.201228392169810
 20
-190.693707259913880
 11
-233.209449987206090
 21
-190.693707259913880
  0
LINE
  8
0
  6
CONTINUOUS
 62
3
 10
38.053573537655097
 20
-249.193707259913880
 11
-110.946426462344780
 21
-249.193707259913880
  0
POLYLINE
  8
0
  6
CONTINUOUS
 62
3
 66
1
 70
1
  0
VERTEX
  8
0
  6
CONTINUOUS
 62
3
 10
-117.246426462344230
 20
-242.617232291973720
  0
VERTEX
  8
0
  6
CONTINUOUS
 62
3
 10
-117.336735644449050
 20
-241.914275325773360
  0
VERTEX
  8
0
  6
CONTINUOUS
 62
3
 10
-117.604192659541180
 20
-241.238332601561270
  0
VERTEX
  8
0
  6
CONTINUOUS
 62
3
 10
-118.038519284522260
 20
-240.615380219155870
  0
VERTEX
  8
0
  6
CONTINUOUS
 62
3
 10
-118.623024590767450
 20
-240.069357889257280
  0
VERTEX
  8
0
  6
CONTINUOUS
 62
3
 10
-119.335246367152090
 20
-239.621248943790650
  0
VERTEX
  8
0
  6
CONTINUOUS
 62
3
 10
-120.147814330228300
 20
-239.288273958227900
  0
VERTEX
  8
0
  6
CONTINUOUS
 62
3
 10
-121.029501948868410
 20
-239.083228974529650
  0
VERTEX
  8
0
  6
CONTINUOUS
 62
3
 10
-121.946426462344220
 20
-239.013993756428870
  0
VERTEX
  8
0
  6
CONTINUOUS
 62
3
 10
-122.863350975820020
 20
-239.083228974529650
  0
VERTEX
  8
0
  6
CONTINUOUS
 62
3
 10
-123.745038594460140
 20
-239.288273958227900
  0
VERTEX
  8
0
  6
CONTINUOUS
 62
3
 10
-124.557606557536340
 20
-239.621248943790650
  0
VERTEX
  8
0
  6
CONTINUOUS
 62
3
 10
-125.269828333920980
 20
-240.069357889257280
  0
VERTEX
  8
0
  6
CONTINUOUS
 62
3
 10
-125.854333640166170
 20
-240.615380219155870
  0
VERTEX
  8
0
  6
CONTINUOUS
 62
3
 10
-126.288660265147250
 20
-241.238332601561270
  0
VERTEX
  8
0
  6
CONTINUOUS
 62
3
 10
-126.556117280239390
 20
-241.914275325773360
  0
VERTEX
  8
0
  6
CONTINUOUS
 62
3
 10
-126.646426462344200
 20
-242.617232291973720
  0
VERTEX
  8
0
  6
CONTINUOUS
 62
3
 10
-126.556117280239390
 20
-243.320189258174080
  0
VERTEX
  8
0
  6
CONTINUOUS
 62
3
 10
-126.288660265147250
 20
-243.996131982386170
  0
VERTEX
  8
0
  6
CONTINUOUS
 62
3
 10
-125.854333640166170
 20
-244.619084364791580
  0
VERTEX
  8
0
  6
CONTINUOUS
 62
3
 10
-125.269828333920980
 20
-245.165106694690170
  0
VERTEX
  8
0
  6
CONTINUOUS
 62
3
 10
-124.557606557536340
 20
-245.613215640156800
  0
VERTEX
  8
0
  6
CONTINUOUS
 62
3
 10
-123.745038594460140
 20
-245.946190625719540
  0
VERTEX
  8
0
  6
CONTINUOUS
 62
3
 10
-122.863350975820020
 20
-246.151235609417800
  0
VERTEX
  8
0
  6
CONTINUOUS
 62
3
 10
-121.946426462344220
 20
-246.220470827518570
  0
VERTEX
  8
0
  6
CONTINUOUS
 62
3
 10
-121.029501948868410
 20
-246.151235609417800
  0
VERTEX
  8
0
  6
CONTINUOUS
 62
3
 10
-120.147814330228300
 20
-245.946190625719540
  0
VERTEX
  8
0
  6
CONTINUOUS
 62
3
 10
-119.335246367152090
 20
-245.613215640156800
  0
VERTEX
  8
0
  6
CONTINUOUS
 62
3
 10
-118.623024590767450
 20
-245.165106694690170
  0
VERTEX
  8
0
  6
CONTINUOUS
 62
3
 10
-118.038519284522260
 20
-244.619084364791580
  0
VERTEX
  8
0
  6
CONTINUOUS
 62
3
 10
-117.604192659541180
 20
-243.996131982386170
  0
VERTEX
  8
0
  6
CONTINUOUS
 62
3
 10
-117.336735644449050
 20
-243.320189258174080
  0
SEQEND
  8
0
  6
CONTINUOUS
 62
3
  0
LINE
  8
0
  6
CONTINUOUS
 62
3
 10
-123.946426462344220
 20
-245.609607845974040
 11
-121.946426462344220
 21
-244.433822360351710
  0
LINE
  8
0
  6
CONTINUOUS
 62
3
 10
-121.946426462344220
 20
-244.433822360351710
 11
-119.946426462344220
 21
-242.781180721228280
  0
LINE
  8
0
  6
CONTINUOUS
 62
3
 10
-119.946426462344220
 20
-245.609607845974040
 11
-121.946426462344220
 21
-244.433822360351710
  0
LINE
  8
0
  6
CONTINUOUS
 62
3
 10
-121.946426462344220
 20
-244.433822360351710
 11
-123.946426462344220
 21
-242.781180721228280
  0
LINE
  8
0
  6
CONTINUOUS
 62
3
 10
-110.946426462344780
 20
-250.693707259913880
 11
-191.640450684765140
 21
-250.693707259913880
  0
LINE
  8
0
  6
CONTINUOUS
 62
3
 10
-213.946426462294650
 20
-190.693707259913880
 11
-213.946426462294650
 21
-238.136912317159330
  0
ARC
  8
0
  6
CONTINUOUS
 62
3
 10
-191.640450684765140
 20
-230.693707259913880
 40
20.000000000000007
 50
234.999999999999740
 51
270.000000000000000
  0
LINE
  8
0
  6
CONTINUOUS
 62
3
 10
-203.111979411786140
 20
-247.076748145693670
 11
-212.837725196807130
 21
-240.266707632310440
  0
ARC
  8
0
  6
CONTINUOUS
 62
3
 10
-211.346426462294520
 20
-238.136912317159330
 40
2.600000000000136
 50
180.000000000000000
 51
234.999999999998610
  0
LINE
  8
0
  6
CONTINUOUS
 62
3
 10
-110.946426462344780
 20
-231.693707259913880
 11
-110.946426462344780
 21
-250.693707259913880
  0
ARC
  8
0
  6
CONTINUOUS
 62
3
 10
-117.946426462344670
 20
-225.693707259913880
 40
3.000000000000000
 50
180.000000000000000
 51
270.000000000000000
  0
LINE
  8
0
  6
CONTINUOUS
 62
3
 10
-113.946426462344780
 20
-228.693707259913880
 11
-117.946426462344670
 21
-228.693707259913880
  0
ARC
  8
0
  6
CONTINUOUS
 62
3
 10
-113.946426462344780
 20
-231.693707259913880
 40
3.000000000000000
 50
0.000000000000000
 51
90.000000000000000
  0
LINE
  8
0
  6
CONTINUOUS
 62
3
 10
-120.946426462344670
 20
-225.693707259913880
 11
-120.946426462344670
 21
-190.693707259913880
  0
LINE
  8
0
  6
CONTINUOUS
 62
4
 10
-120.860090251341600
 20
-226.408244400087770
 11
-118.446023971854620
 21
-226.408244400087770
  0
LINE
  8
0
  6
CONTINUOUS
 62
4
 10
-120.946426462344670
 20
-220.976141586483150
 11
-118.746426462344970
 21
-220.976141586483150
  0
LINE
  8
0
  6
CONTINUOUS
 62
4
 10
-120.946426462344670
 20
-216.885641052393510
 11
-118.746426462344970
 21
-216.885641052393510
  0
LINE
  8
0
  6
CONTINUOUS
 62
4
 10
-120.946426462344670
 20
-215.523760717044240
 11
-118.746426462344970
 21
-215.523760717044240
  0
LINE
  8
0
  6
CONTINUOUS
 62
4
 10
-120.946426462344670
 20
-210.693707259913880
 11
-118.746426462344970
 21
-210.693707259913880
  0
LINE
  8
0
  6
CONTINUOUS
 62
4
 10
-120.946426462344670
 20
-160.411272933344610
 11
-118.746426462344970
 21
-160.411272933344610
  0
LINE
  8
0
  6
CONTINUOUS
 62
4
 10
-120.946426462344670
 20
-165.863653802783520
 11
-118.746426462344970
 21
-165.863653802783520
  0
LINE
  8
0
  6
CONTINUOUS
 62
4
 10
-120.946426462344670
 20
-164.501773467434250
 11
-118.746426462344970
 21
-164.501773467434250
  0
LINE
  8
0
  6
CONTINUOUS
 62
4
 10
-120.946426462344670
 20
-170.693707259913880
 11
-118.746426462344970
 21
-170.693707259913880
  0
LINE
  8
0
  6
CONTINUOUS
 62
4
 10
-120.860090251341600
 20
-154.979170119739990
 11
-118.446023971854620
 21
-154.979170119739990
  0
LINE
  8
0
  6
CONTINUOUS
 62
4
 10
-120.946426462344670
 20
-158.942915543539530
 11
-118.746426462344970
 21
-158.942915543539530
  0
LINE
  8
0
  6
CONTINUOUS
 62
3
 10
-110.946426462344780
 20
-149.693707259913880
 11
-110.946426462344780
 21
-130.693707259913880
  0
ARC
  8
0
  6
CONTINUOUS
 62
3
 10
-117.946426462344670
 20
-155.693707259913880
 40
3.000000000000000
 50
90.000000000000000
 51
180.000000000000000
  0
LINE
  8
0
  6
CONTINUOUS
 62
3
 10
-113.946426462344780
 20
-152.693707259913880
 11
-117.946426462344670
 21
-152.693707259913880
  0
ARC
  8
0
  6
CONTINUOUS
 62
3
 10
-113.946426462344780
 20
-149.693707259913880
 40
3.000000000000000
 50
270.000000000000000
 51
0.000000000000000
  0
LINE
  8
0
  6
CONTINUOUS
 62
3
 10
-120.946426462344670
 20
-155.693707259913880
 11
-120.946426462344670
 21
-190.693707259913880
  0
LINE
  8
0
  6
CONTINUOUS
 62
3
 10
-110.946426462344780
 20
-130.693707259913880
 11
-191.640450684765140
 21
-130.693707259913880
  0
LINE
  8
0
  6
CONTINUOUS
 62
3
 10
-213.946426462294650
 20
-190.693707259913880
 11
-213.946426462294650
 21
-143.250502202668430
  0
ARC
  8
0
  6
CONTINUOUS
 62
3
 10
-191.640450684765140
 20
-150.693707259913880
 40
20.000000000000000
 50
90.000000000000000
 51
125.000000000000240
  0
LINE
  8
0
  6
CONTINUOUS
 62
3
 10
-203.111979411786140
 20
-134.310666374134090
 11
-212.837725196807130
 21
-141.120706887517310
  0
ARC
  8
0
  6
CONTINUOUS
 62
3
 10
-211.346426462294520
 20
-143.250502202668430
 40
2.599999999999721
 50
125.000000000001370
 51
180.000000000000000
  0
POLYLINE
  8
0
  6
CONTINUOUS
 62
3
 66
1
 70
1
  0
VERTEX
  8
0
  6
CONTINUOUS
 62
3
 10
-117.246426462344230
 20
-138.770182227853810
  0
VERTEX
  8
0
  6
CONTINUOUS
 62
3
 10
-117.336735644449050
 20
-138.067225261653450
  0
VERTEX
  8
0
  6
CONTINUOUS
 62
3
 10
-117.604192659541180
 20
-137.391282537441360
  0
VERTEX
  8
0
  6
CONTINUOUS
 62
3
 10
-118.038519284522260
 20
-136.768330155035950
  0
VERTEX
  8
0
  6
CONTINUOUS
 62
3
 10
-118.623024590767450
 20
-136.222307825137360
  0
VERTEX
  8
0
  6
CONTINUOUS
 62
3
 10
-119.335246367152090
 20
-135.774198879670730
  0
VERTEX
  8
0
  6
CONTINUOUS
 62
3
 10
-120.147814330228300
 20
-135.441223894107990
  0
VERTEX
  8
0
  6
CONTINUOUS
 62
3
 10
-121.029501948868410
 20
-135.236178910409730
  0
VERTEX
  8
0
  6
CONTINUOUS
 62
3
 10
-121.946426462344220
 20
-135.166943692308960
  0
VERTEX
  8
0
  6
CONTINUOUS
 62
3
 10
-122.863350975820020
 20
-135.236178910409730
  0
VERTEX
  8
0
  6
CONTINUOUS
 62
3
 10
-123.745038594460140
 20
-135.441223894107990
  0
VERTEX
  8
0
  6
CONTINUOUS
 62
3
 10
-124.557606557536340
 20
-135.774198879670730
  0
VERTEX
  8
0
  6
CONTINUOUS
 62
3
 10
-125.269828333920980
 20
-136.222307825137360
  0
VERTEX
  8
0
  6
CONTINUOUS
 62
3
 10
-125.854333640166170
 20
-136.768330155035950
  0
VERTEX
  8
0
  6
CONTINUOUS
 62
3
 10
-126.288660265147250
 20
-137.391282537441360
  0
VERTEX
  8
0
  6
CONTINUOUS
 62
3
 10
-126.556117280239390
 20
-138.067225261653450
  0
VERTEX
  8
0
  6
CONTINUOUS
 62
3
 10
-126.646426462344200
 20
-138.770182227853810
  0
VERTEX
  8
0
  6
CONTINUOUS
 62
3
 10
-126.556117280239390
 20
-139.473139194054170
  0
VERTEX
  8
0
  6
CONTINUOUS
 62
3
 10
-126.288660265147250
 20
-140.149081918266260
  0
VERTEX
  8
0
  6
CONTINUOUS
 62
3
 10
-125.854333640166170
 20
-140.772034300671660
  0
VERTEX
  8
0
  6
CONTINUOUS
 62
3
 10
-125.269828333920980
 20
-141.318056630570250
  0
VERTEX
  8
0
  6
CONTINUOUS
 62
3
 10
-124.557606557536340
 20
-141.766165576036880
  0
VERTEX
  8
0
  6
CONTINUOUS
 62
3
 10
-123.745038594460140
 20
-142.099140561599630
  0
VERTEX
  8
0
  6
CONTINUOUS
 62
3
 10
-122.863350975820020
 20
-142.304185545297880
  0
VERTEX
  8
0
  6
CONTINUOUS
 62
3
 10
-121.946426462344220
 20
-142.373420763398660
  0
VERTEX
  8
0
  6
CONTINUOUS
 62
3
 10
-121.029501948868410
 20
-142.304185545297880
  0
VERTEX
  8
0
  6
CONTINUOUS
 62
3
 10
-120.147814330228300
 20
-142.099140561599630
  0
VERTEX
  8
0
  6
CONTINUOUS
 62
3
 10
-119.335246367152090
 20
-141.766165576036880
  0
VERTEX
  8
0
  6
CONTINUOUS
 62
3
 10
-118.623024590767450
 20
-141.318056630570250
  0
VERTEX
  8
0
  6
CONTINUOUS
 62
3
 10
-118.038519284522260
 20
-140.772034300671660
  0
VERTEX
  8
0
  6
CONTINUOUS
 62
3
 10
-117.604192659541180
 20
-140.149081918266260
  0
VERTEX
  8
0
  6
CONTINUOUS
 62
3
 10
-117.336735644449050
 20
-139.473139194054170
  0
SEQEND
  8
0
  6
CONTINUOUS
 62
3
  0
LINE
  8
0
  6
CONTINUOUS
 62
3
 10
-123.946426462344220
 20
-135.777806673853490
 11
-121.946426462344220
 21
-136.953592159476270
  0
LINE
  8
0
  6
CONTINUOUS
 62
3
 10
-121.946426462344220
 20
-136.953592159476270
 11
-119.946426462344220
 21
-138.606233798599700
  0
LINE
  8
0
  6
CONTINUOUS
 62
3
 10
-119.946426462344220
 20
-135.777806673853490
 11
-121.946426462344220
 21
-136.953592159476270
  0
LINE
  8
0
  6
CONTINUOUS
 62
3
 10
-121.946426462344220
 20
-136.953592159476270
 11
-123.946426462344220
 21
-138.606233798599700
  0
ARC
  8
0
  6
CONTINUOUS
 62
3
 10
-29.746426462344971
 20
-225.693707259913880
 40
1.000000000000000
 50
270.000000000000000
 51
0.000000000000000
  0
ARC
  8
0
  6
CONTINUOUS
 62
3
 10
-29.746426462344971
 20
-155.693707259913880
 40
1.000000000000000
 50
0.000000000000000
 51
90.000000000000000
  0
LINE
  8
0
  6
CONTINUOUS
 62
3
 10
-28.746426462344971
 20
-155.693707259913880
 11
-28.746426462344971
 21
-225.693707259913880
  0
ARC
  8
0
  6
CONTINUOUS
 62
3
 10
-117.746426462344970
 20
-155.693707259913880
 40
1.000000000000000
 50
90.000000000000000
 51
180.000000000000000
  0
ARC
  8
0
  6
CONTINUOUS
 62
3
 10
-117.746426462344970
 20
-225.693707259913880
 40
1.000000000000000
 50
180.000000000000000
 51
270.000000000000000
  0
LINE
  8
0
  6
CONTINUOUS
 62
3
 10
-118.746426462344970
 20
-155.693707259913880
 11
-118.746426462344970
 21
-225.693707259913880
  0
LINE
  8
0
  6
CONTINUOUS
 62
3
 10
-29.746426462344971
 20
-154.693707259913880
 11
-117.746426462344970
 21
-154.693707259913880
  0
LINE
  8
0
  6
CONTINUOUS
 62
3
 10
-29.746426462344971
 20
-226.693707259913880
 11
-117.746426462344970
 21
-226.693707259913880
  0
LINE
  8
0
  6
CONTINUOUS
 62
3
 10
60.553573537653278
 20
-175.157808875052980
 11
60.553573537653278
 21
-281.693707259915300
  0
LINE
  8
0
  6
CONTINUOUS
 62
3
 10
49.553573537658735
 20
-108.693707259915300
 11
49.553573537659645
 21
-93.693707259913481
  0
LINE
  8
0
  6
CONTINUOUS
 62
3
 10
72.553573537659645
 20
-90.693707259915300
 11
52.553573537659645
 21
-90.693707259913936
  0
LINE
  8
0
  6
CONTINUOUS
 62
3
 10
72.553573537653278
 20
-283.693707259915300
 11
62.553573537653278
 21
-283.693707259915300
  0
LINE
  8
0
  6
CONTINUOUS
 62
3
 10
38.053573537655097
 20
-252.186601506999520
 11
57.710581406382403
 21
-253.216781636748690
  0
ARC
  8
0
  6
DASHED
 62
3
 10
63.553573537659645
 20
-93.693707259914390
 40
3.000000000000000
 50
90.000000000000000
 51
180.000000000000000
  0
ARC
  8
0
  6
CONTINUOUS
 62
3
 10
52.553573537659645
 20
-93.693707259913936
 40
3.000000000000000
 50
90.000000000000000
 51
179.999999999991330
  0
ARC
  8
0
  6
CONTINUOUS
 62
3
 10
49.553573537657826
 20
-128.586900760165460
 40
2.999999999999901
 50
272.999999999988290
 51
0.000000000000000
  0
ARC
  8
0
  6
CONTINUOUS
 62
3
 10
57.553573537653278
 20
-256.212670241012350
 40
3.000000000000000
 50
0.000000000000000
 51
86.999999999994344
  0
ARC
  8
0
  6
CONTINUOUS
 62
3
 10
62.553573537653278
 20
-281.693707259915300
 40
2.000000000000000
 50
180.000000000000000
 51
270.000000000000000
  0
LINE
  8
0
  6
CONTINUOUS
 62
3
 10
57.710581406386950
 20
-131.163527130164770
 11
38.053573537655097
 21
-132.193707259914390
  0
LINE
  8
0
  6
CONTINUOUS
 62
3
 10
72.553573537653278
 20
-190.693707259915300
 11
72.553573537653278
 21
-283.693707259915300
  0
LINE
  8
0
  6
CONTINUOUS
 62
3
 10
72.553573537655097
 20
-190.693707259915300
 11
72.553573537659645
 21
-90.693707259915300
  0
LINE
  8
0
  6
CONTINUOUS
 62
3
 10
60.553573537653278
 20
-93.693707259914390
 11
60.553573537653278
 21
-156.229605644777620
  0
ARC
  8
0
  6
CONTINUOUS
 62
3
 10
57.553573537657826
 20
-128.167638525901110
 40
2.999999999999901
 50
272.999999999988290
 51
0.000000000000000
  0
LINE
  8
0
  6
CONTINUOUS
 62
3
 10
58.553573537653278
 20
-159.693707259915300
 11
58.553573537653278
 21
-171.693707259915300
  0
ARC
  8
0
  6
CONTINUOUS
 62
3
 10
60.553573537653278
 20
-171.693707259915300
 40
2.000000000000000
 50
180.000000000000000
 51
240.000000000002730
  0
ARC
  8
0
  6
CONTINUOUS
 62
3
 10
58.553573537653278
 20
-175.157808875052980
 40
2.000000000000000
 50
0.000000000000000
 51
59.999999999996206
  0
ARC
  8
0
  6
CONTINUOUS
 62
3
 10
60.553573537653278
 20
-159.693707259915300
 40
2.000000000000164
 50
119.999999999997270
 51
180.000000000000000
  0
ARC
  8
0
  6
CONTINUOUS
 62
3
 10
58.553573537653278
 20
-156.229605644777620
 40
1.999999999999770
 50
300.000000000003810
 51
0.000000000000000
  0
LINE
  8
0
  6
CONTINUOUS
 62
3
 10
38.053573537655097
 20
-170.693707259915300
 11
58.553573537653278
 21
-170.693707259915300
  0
LINE
  8
0
  6
CONTINUOUS
 62
3
 10
38.053573537655097
 20
-210.693707259915300
 11
60.553573537653278
 21
-210.693707259915300
  0
ARC
  8
0
  6
CONTINUOUS
 62
3
 10
52.553573537658735
 20
-108.693707259915300
 40
3.000000000000000
 50
180.000000000000000
 51
240.000010515703510
  0
LINE
  8
0
  6
CONTINUOUS
 62
3
 10
52.553573537657826
 20
-128.586900760165460
 11
52.553573537659986
 21
-113.887468161998580
  0
LINE
  8
0
  6
CONTINUOUS
 62
3
 10
45.053573537656007
 20
-109.693707259915300
 11
49.553573537656007
 21
-109.693707259915300
  0
LINE
  8
0
  6
CONTINUOUS
 62
3
 10
45.053573537656007
 20
-109.693707259915300
 11
45.053573537659645
 21
-55.693707259915300
  0
LINE
  8
0
  6
CONTINUOUS
 62
3
 10
49.553573537659645
 20
-55.693707259915300
 11
49.553573537659645
 21
-109.693707259915300
  0
LINE
  8
0
  6
DASHDOT
 62
4
 10
39.323326136843093
 20
-75.693707259915300
 11
57.422592152134598
 21
-75.693707259915300
  0
LINE
  8
0
  6
CONTINUOUS
 62
3
 10
45.053573537659645
 20
-55.693707259915300
 11
49.553573537659645
 21
-55.693707259915300
  0
ARC
  8
0
  6
CONTINUOUS
 62
3
 10
180.053573537656460
 20
-126.193707259915300
 40
1.000000000000000
 50
180.000000000000000
 51
270.000000000000000
  0
ARC
  8
0
  6
CONTINUOUS
 62
3
 10
176.053573537656460
 20
-115.540600960060140
 40
3.000000000000000
 50
0.000000000000000
 51
70.528779365509465
  0
ARC
  8
0
  6
CONTINUOUS
 62
3
 10
180.053573537656460
 20
-195.193707259915300
 40
1.000000000000000
 50
90.000000000000000
 51
180.000000000000000
  0
ARC
  8
0
  6
CONTINUOUS
 62
3
 10
159.053573537656460
 20
-50.193707259915300
 40
2.000000000000000
 50
90.000000000000000
 51
180.000000000000000
  0
ARC
  8
0
  6
CONTINUOUS
 62
3
 10
159.053573537656460
 20
-283.137928433961410
 40
2.999999999999903
 50
268.371217566509590
 51
0.000000000000000
  0
ARC
  8
0
  6
CONTINUOUS
 62
3
 10
165.053573537656460
 20
-276.193707259915300
 40
3.000000000000000
 50
90.000000000000000
 51
180.000000000000000
  0
ARC
  8
0
  6
CONTINUOUS
 62
3
 10
133.446174086291530
 20
-85.582922544253051
 40
3.000000000000001
 50
272.000000000003640
 51
330.000000000000570
  0
ARC
  8
0
  6
CONTINUOUS
 62
3
 10
176.053556554146890
 20
-205.846813559770910
 40
2.999999999999871
 50
300.000187270167030
 51
0.000000000000000
  0
ARC
  8
0
  6
CONTINUOUS
 62
3
 10
179.053573537656460
 20
-211.042956177006540
 40
2.999999999999984
 50
120.000187270170780
 51
131.810314895779530
  0
LINE
  8
0
  6
CONTINUOUS
 62
3
 10
173.053573537656460
 20
-160.693707259915300
 11
173.053573537656460
 21
-273.193707259915750
  0
LINE
  8
0
  6
CONTINUOUS
 62
3
 10
179.053573537656460
 20
-160.693707259915300
 11
179.053573537656460
 21
-115.540600960060140
  0
LINE
  8
0
  6
CONTINUOUS
 62
3
 10
179.053573537656460
 20
-160.693707259915300
 11
179.053573537656460
 21
-205.846813559770910
  0
LINE
  8
0
  6
CONTINUOUS
 62
3
 10
173.053573537656460
 20
-273.193707259915300
 11
159.053573537656460
 21
-273.193707259915300
  0
LINE
  8
0
  6
CONTINUOUS
 62
3
 10
73.053573537656462
 20
-283.693707259915300
 11
73.053573537656462
 21
-90.693707259915300
  0
LINE
  8
0
  6
CONTINUOUS
 62
3
 10
173.053573537656690
 20
-160.693707259915300
 11
173.053573537656460
 21
-48.193707259915300
  0
LINE
  8
0
  6
CONTINUOUS
 62
3
 10
181.053573537656460
 20
-194.193707259915300
 11
181.053573537656460
 21
-127.193707259915300
  0
LINE
  8
0
  6
DASHDOT
 62
4
 10
113.844575330511700
 20
-160.693707259915300
 11
243.388992066540030
 21
-160.693707259915300
  0
LINE
  8
0
  6
CONTINUOUS
 62
3
 10
180.053573537656460
 20
-194.193707259915300
 11
181.053573537656460
 21
-194.193707259915300
  0
LINE
  8
0
  6
CONTINUOUS
 62
3
 10
180.053573537656460
 20
-127.193707259915300
 11
181.053573537656460
 21
-127.193707259915300
  0
LINE
  8
0
  6
CONTINUOUS
 62
3
 10
159.053573537656460
 20
-48.193707259915300
 11
173.053573537656460
 21
-48.193707259915300
  0
LINE
  8
0
  6
CONTINUOUS
 62
3
 10
162.053573537656460
 20
-276.193707259915300
 11
162.053573537656460
 21
-283.137928433961410
  0
LINE
  8
0
  6
CONTINUOUS
 62
3
 10
73.053573537656462
 20
-283.693707259915300
 11
158.968302174998940
 21
-286.136716321543640
  0
LINE
  8
0
  6
CONTINUOUS
 62
3
 10
157.053573537656460
 20
-271.193707259915300
 11
157.053573537656460
 21
-50.193707259915300
  0
LINE
  8
0
  6
CONTINUOUS
 62
3
 10
136.044250297644910
 20
-87.082922544253051
 11
156.662016199281310
 21
-51.371904464057479
  0
LINE
  8
0
  6
CONTINUOUS
 62
3
 10
73.053573537656462
 20
-90.693707259915300
 11
144.711425036009930
 21
-88.191359945467866
  0
LINE
  8
0
  6
CONTINUOUS
 62
3
 10
177.053573537656460
 20
-160.693707259915300
 11
177.053573537656460
 21
-56.693707259915300
  0
LINE
  8
0
  6
CONTINUOUS
 62
3
 10
173.053573537656460
 20
-55.693707259915300
 11
176.053573537656460
 21
-55.693707259915300
  0
LINE
  8
0
  6
CONTINUOUS
 62
3
 10
176.053573537656460
 20
-55.693707259915300
 11
177.053573537656460
 21
-56.693707259915300
  0
LINE
  8
0
  6
CONTINUOUS
 62
3
 10
176.053573537656460
 20
-265.693707259915300
 11
173.053573537656460
 21
-265.693707259915300
  0
LINE
  8
0
  6
CONTINUOUS
 62
3
 10
177.053573537656460
 20
-264.693707259915300
 11
176.053573537656460
 21
-265.693707259915300
  0
LINE
  8
0
  6
CONTINUOUS
 62
3
 10
166.007534137470320
 20
-272.871137927253130
 11
166.007534137470320
 21
-273.193707259915300
  0
LINE
  8
0
  6
CONTINUOUS
 62
3
 10
177.053573537656460
 20
-160.693707259915300
 11
177.053573537656460
 21
-264.693707259915300
  0
ARC
  8
0
  6
CONTINUOUS
 62
3
 10
154.063939987927710
 20
-49.871904464057479
 40
3.000000000000246
 50
330.000000000002730
 51
356.309860996867310
  0
ARC
  8
0
  6
CONTINUOUS
 62
3
 10
159.053573537656460
 20
-271.193707259915300
 40
2.000000000000000
 50
180.000000000000000
 51
270.000000000000000
  0
LINE
  8
0
  6
CONTINUOUS
 62
3
 10
166.053573537656460
 20
-152.693707259915300
 11
166.053573537656460
 21
-72.406910695512124
  0
LINE
  8
0
  6
CONTINUOUS
 62
3
 10
173.053573537656690
 20
-69.406910695512124
 11
169.053573537656460
 21
-69.406910695512124
  0
LINE
  8
0
  6
CONTINUOUS
 62
3
 10
173.053573537656690
 20
-94.245133940601590
 11
169.053573537656460
 21
-94.245133940601590
  0
LINE
  8
0
  6
CONTINUOUS
 62
3
 10
169.053573537656460
 20
-155.693707259915300
 11
173.053573537656690
 21
-155.693707259915300
  0
ARC
  8
0
  6
CONTINUOUS
 62
3
 10
169.053573537656460
 20
-152.693707259915300
 40
3.000000000000000
 50
180.000000000000000
 51
270.000000000000000
  0
ARC
  8
0
  6
CONTINUOUS
 62
3
 10
169.053573537656460
 20
-97.245133940601590
 40
3.000000000000000
 50
90.000000000000000
 51
180.000000000000000
  0
ARC
  8
0
  6
CONTINUOUS
 62
3
 10
169.053573537656460
 20
-72.406910695512124
 40
3.000000000000000
 50
90.000000000000000
 51
180.000000000000000
  0
LINE
  8
0
  6
CONTINUOUS
 62
3
 10
169.053573537656460
 20
-165.693707259915300
 11
173.053573537656690
 21
-165.693707259915300
  0
LINE
  8
0
  6
CONTINUOUS
 62
3
 10
173.053573537656690
 20
-227.142280579229010
 11
169.053573537656460
 21
-227.142280579229010
  0
LINE
  8
0
  6
CONTINUOUS
 62
3
 10
173.053573537656690
 20
-251.980503824318480
 11
169.053573537656460
 21
-251.980503824318480
  0
ARC
  8
0
  6
CONTINUOUS
 62
3
 10
169.053573537656460
 20
-248.980503824318480
 40
3.000000000000000
 50
180.000000000000000
 51
270.000000000000000
  0
LINE
  8
0
  6
CONTINUOUS
 62
3
 10
166.053573537656460
 20
-168.693707259915300
 11
166.053573537656460
 21
-248.980503824318480
  0
ARC
  8
0
  6
CONTINUOUS
 62
3
 10
169.053573537656460
 20
-224.142280579229010
 40
3.000000000000000
 50
180.000000000000000
 51
270.000000000000000
  0
ARC
  8
0
  6
CONTINUOUS
 62
3
 10
169.053573537656460
 20
-168.693707259915300
 40
3.000000000000000
 50
90.000000000000000
 51
180.000000000000000
  0
LINE
  8
0
  6
DASHDOT
 62
4
 10
188.690082897497970
 20
-61.698757893798756
 11
149.694090708315680
 21
-61.698757893798756
  0
LINE
  8
0
  6
DASHDOT
 62
4
 10
188.690082897497970
 20
-259.688656626032300
 11
149.694090708315680
 21
-259.688656626032300
  0
ARC
  8
0
  6
CONTINUOUS
 62
3
 10
193.053573537679200
 20
-160.693707259915300
 40
5.000000000000000
 50
90.000000000000000
 51
270.000000000000000
  0
LINE
  8
0
  6
CONTINUOUS
 62
3
 10
233.053573537678290
 20
-165.693707259915300
 11
193.053573537679200
 21
-165.693707259915300
  0
LINE
  8
0
  6
CONTINUOUS
 62
3
 10
233.053573537678290
 20
-155.693707259915300
 11
193.053573537679200
 21
-155.693707259915300
  0
ARC
  8
0
  6
CONTINUOUS
 62
3
 10
232.653573537678200
 20
-176.293707259915210
 40
0.400000000000091
 50
270.000000000000000
 51
0.000000000000000
  0
LINE
  8
0
  6
CONTINUOUS
 62
3
 10
183.053573537678290
 20
-177.493707259915030
 11
182.853573537678470
 21
-177.693707259915300
  0
ARC
  8
0
  6
CONTINUOUS
 62
3
 10
183.853573537678470
 20
-177.343707259914940
 40
0.799999999999727
 50
90.000000000000000
 51
176.296803365752200
  0
LINE
  8
0
  6
CONTINUOUS
 62
3
 10
183.053573537678290
 20
-177.493707259915030
 11
183.053573537678290
 21
-160.693707259915300
  0
LINE
  8
0
  6
CONTINUOUS
 62
3
 10
185.053573537678290
 20
-176.543707259915210
 11
183.853573537678470
 21
-176.543707259915210
  0
LINE
  8
0
  6
CONTINUOUS
 62
3
 10
232.653573537678200
 20
-176.693707259915300
 11
185.613381158813700
 21
-176.693707259915300
  0
LINE
  8
0
  6
CONTINUOUS
 62
3
 10
181.053573537656460
 20
-177.693707259915300
 11
182.853573537678470
 21
-177.693707259915300
  0
LINE
  8
0
  6
CONTINUOUS
 62
3
 10
185.053573537678290
 20
-176.543707259915210
 11
185.613381158813700
 21
-176.693707259915300
  0
LINE
  8
0
  6
CONTINUOUS
 62
3
 10
183.053573537678290
 20
-143.893707259915120
 11
182.853573537678470
 21
-143.693707259915300
  0
ARC
  8
0
  6
CONTINUOUS
 62
3
 10
183.853573537678470
 20
-144.043707259915210
 40
0.800000000000237
 50
183.703196634280290
 51
270.000000000000000
  0
LINE
  8
0
  6
CONTINUOUS
 62
3
 10
183.053573537678290
 20
-143.893707259915120
 11
183.053573537678290
 21
-160.693707259915300
  0
LINE
  8
0
  6
CONTINUOUS
 62
3
 10
181.053573537656460
 20
-143.693707259915300
 11
182.853573537678470
 21
-143.693707259915300
  0
LINE
  8
0
  6
CONTINUOUS
 62
3
 10
185.053573537678290
 20
-144.843707259914940
 11
183.853573537678470
 21
-144.843707259914940
  0
LINE
  8
0
  6
CONTINUOUS
 62
3
 10
185.053573537678290
 20
-144.843707259914940
 11
185.613381158813700
 21
-144.693707259915300
  0
LINE
  8
0
  6
CONTINUOUS
 62
3
 10
232.653573537678200
 20
-144.693707259915300
 11
185.613381158813700
 21
-144.693707259915300
  0
ARC
  8
0
  6
CONTINUOUS
 62
3
 10
232.653573537678200
 20
-145.093707259914940
 40
0.400000000000091
 50
0.000000000000000
 51
90.000000000000000
  0
LINE
  8
0
  6
CONTINUOUS
 62
3
 10
233.053573537678290
 20
-176.293707259915210
 11
233.053573537678290
 21
-145.093707259914940
  0
LINE
  8
0
  6
CONTINUOUS
 62
3
 10
154.072558259348060
 20
-105.253253263965680
 11
137.323119375946020
 21
-105.253253263965680
  0
LINE
  8
0
  6
CONTINUOUS
 62
3
 10
136.112930863260200
 20
-104.156188707041110
 11
156.372805457815840
 21
-79.464154077537387
  0
ARC
  8
0
  6
CONTINUOUS
 62
3
 10
133.793698943100370
 20
-102.253253263965680
 40
3.000000000000000
 50
270.000000000000000
 51
320.631038306637150
  0
ARC
  8
0
  6
CONTINUOUS
 62
3
 10
154.053573537656460
 20
-77.561218634462421
 40
2.999999999999515
 50
320.631038306638350
 51
0.000000000000000
  0
ARC
  8
0
  6
CONTINUOUS
 62
3
 10
154.053573537656460
 20
-72.075937260224237
 40
2.999999999999515
 50
320.631038306638350
 51
0.000000000000000
  0
LINE
  8
0
  6
CONTINUOUS
 62
3
 10
136.112930863260200
 20
-98.670907332802926
 11
156.372805457815840
 21
-73.978872703299203
  0
ARC
  8
0
  6
CONTINUOUS
 62
3
 10
133.793698943100370
 20
-96.767971889727505
 40
3.000000000000000
 50
270.000000000000000
 51
320.631038306637150
  0
ARC
  8
0
  6
CONTINUOUS
 62
3
 10
332.633577404895960
 20
-166.693707259915300
 40
2.999999999999939
 50
6.756327030581794
 51
90.000000000000000
  0
LINE
  8
0
  6
CONTINUOUS
 62
3
 10
287.467089917270410
 20
-157.693707259915300
 11
332.633577404895960
 21
-157.693707259915300
  0
LINE
  8
0
  6
CONTINUOUS
 62
3
 10
287.467089917270410
 20
-163.693707259915300
 11
332.633577404895960
 21
-163.693707259915300
  0
ARC
  8
0
  6
CONTINUOUS
 62
3
 10
287.467089917270410
 20
-166.693707259915300
 40
3.000000000000000
 50
90.000000000000000
 51
183.583321698471880
  0
ARC
  8
0
  6
CONTINUOUS
 62
3
 10
273.779406453298180
 20
-162.693707259915750
 40
3.000000000000000
 50
180.000000000000000
 51
236.843785530306350
  0
ARC
  8
0
  6
CONTINUOUS
 62
3
 10
270.497864811414500
 20
-167.716802366777760
 40
2.999999999999995
 50
3.563302831523953
 51
56.843785530307450
  0
ARC
  8
0
  6
CONTINUOUS
 62
3
 10
383.279406453298180
 20
-160.693707259915300
 40
109.999999999999900
 50
183.563302831523370
 51
212.975300819434320
  0
ARC
  8
0
  6
CONTINUOUS
 62
3
 10
272.779406453298180
 20
-157.693707259915750
 40
2.000000000000098
 50
116.785437820008410
 51
180.000000000000000
  0
ARC
  8
0
  6
CONTINUOUS
 62
3
 10
270.526153111725990
 20
-153.230205341164490
 40
3.000000000000147
 50
296.785437820008440
 51
356.212931966127880
  0
ARC
  8
0
  6
CONTINUOUS
 62
3
 10
299.482493219447410
 20
-152.693707259915300
 40
4.999999999999902
 50
165.359522790080040
 51
270.000000000000000
  0
ARC
  8
0
  6
CONTINUOUS
 62
3
 10
287.467089917270410
 20
-154.693707259915300
 40
3.000000000000075
 50
176.416678301528120
 51
270.000000000000000
  0
ARC
  8
0
  6
CONTINUOUS
 62
3
 10
332.633577404895960
 20
-154.693707259915300
 40
3.000000000000000
 50
270.000000000000000
 51
353.243672969409600
  0
CIRCLE
  8
0
  6
CONTINUOUS
 62
3
 10
284.284457087181640
 20
-61.698757893798756
 40
7.500000000000000
  0
ARC
  8
0
  6
DASHDOT
 62
4
 10
383.279406453298180
 20
-160.693707259915300
 40
140.000000000000030
 50
129.903202530482840
 51
140.181689371394210
  0
ARC
  8
0
  6
CONTINUOUS
 62
3
 10
272.779406453298180
 20
-68.578483570765911
 40
2.000000000000000
 50
180.000000000000000
 51
225.000000000000000
  0
ARC
  8
0
  6
CONTINUOUS
 62
3
 10
317.966112619472820
 20
-60.025074366762510
 40
10.000000000000082
 50
225.000000000001850
 51
302.975300819434380
  0
ARC
  8
0
  6
CONTINUOUS
 62
3
 10
282.610773560145390
 20
-95.380413426089945
 40
10.000000000000284
 50
327.024699180565620
 51
44.999999999999083
  0
ARC
  8
0
  6
CONTINUOUS
 62
3
 10
278.779406453298180
 20
-56.193707259915300
 40
8.000000000000000
 50
90.000000000000000
 51
180.000000000000000
  0
ARC
  8
0
  6
CONTINUOUS
 62
3
 10
383.279406453298180
 20
-160.693707259915300
 40
109.999999999999600
 50
147.024699180565850
 51
176.212931966134700
  0
LINE
  8
0
  6
CONTINUOUS
 62
3
 10
292.578396326521670
 20
-48.779493697542421
 11
310.895044807607520
 21
-67.096142178628270
  0
LINE
  8
0
  6
CONTINUOUS
 62
3
 10
271.365192890925300
 20
-69.992697133138790
 11
289.681841372010920
 21
-88.309345614224640
  0
LINE
  8
0
  6
DASHDOT
 62
4
 10
274.388418816369040
 20
-51.802719622986160
 11
293.536190920777470
 21
-70.950491727394592
  0
ARC
  8
0
  6
CONTINUOUS
 62
3
 10
291.164182764148560
 20
-271.193707259915300
 40
2.000000000000000
 50
270.000000000000000
 51
314.999999999995400
  0
CIRCLE
  8
0
  6
CONTINUOUS
 62
3
 10
284.284457087181640
 20
-259.688656626031840
 40
7.500000000000000
  0
ARC
  8
0
  6
DASHDOT
 62
4
 10
383.279406453298180
 20
-160.693707259915300
 40
140.000000000000030
 50
219.631952542387980
 51
230.565466064927790
  0
ARC
  8
0
  6
CONTINUOUS
 62
3
 10
272.779406453298180
 20
-252.808930949065140
 40
1.999999999999694
 50
135.000000000000000
 51
180.000000000000000
  0
ARC
  8
0
  6
CONTINUOUS
 62
3
 10
317.966112619472820
 20
-261.362340153068090
 40
9.999999999999902
 50
57.024699180564248
 51
135.000000000000000
  0
ARC
  8
0
  6
CONTINUOUS
 62
3
 10
278.779406453298180
 20
-265.193707259915300
 40
8.000000000000000
 50
180.000000000000000
 51
270.000000000000000
  0
ARC
  8
0
  6
CONTINUOUS
 62
3
 10
331.279406453298630
 20
-273.693707259915300
 40
12.530739605810000
 50
181.781769897913190
 51
270.000000000000000
  0
ARC
  8
0
  6
CONTINUOUS
 62
3
 10
313.288109383087430
 20
-274.253376565325650
 40
5.469260394190242
 50
1.781769897912350
 51
11.246070515048286
  0
LINE
  8
0
  6
CONTINUOUS
 62
3
 10
292.578396326521670
 20
-272.607920822288630
 11
310.895044807607520
 21
-254.291272341202780
  0
LINE
  8
0
  6
CONTINUOUS
 62
3
 10
270.779406453298180
 20
-56.193707259915300
 11
270.779406453298180
 21
-265.193707259915300
  0
LINE
  8
0
  6
DASHDOT
 62
4
 10
274.047697912189510
 20
-269.925415801024430
 11
294.829332740765490
 21
-249.143780972448440
  0
LINE
  8
0
  6
CONTINUOUS
 62
3
 10
271.365192890925300
 20
-251.394717386692260
 11
289.681841372010920
 21
-233.078068905606410
  0
ARC
  8
0
  6
CONTINUOUS
 62
3
 10
327.704764291043380
 20
-236.505705970787860
 40
4.999999999999974
 50
233.756397618482510
 51
9.449699705361777
  0
ARC
  8
0
  6
CONTINUOUS
 62
3
 10
282.610773560145390
 20
-226.007001093741110
 40
9.999999999999920
 50
315.000000000000910
 51
32.975300819434352
  0
CIRCLE
  8
0
  6
CONTINUOUS
 62
3
 10
383.279406453298630
 20
-160.693707259915300
 40
23.500000000000000
  0
CIRCLE
  8
0
  6
CONTINUOUS
 62
3
 10
383.279406453298180
 20
-160.693707259915300
 40
48.000000000000000
  0
ARC
  8
0
  6
CONTINUOUS
 62
3
 10
475.394630142448020
 20
-271.193707259915300
 40
2.000000000000016
 50
225.000000000009210
 51
270.000000000000000
  0
CIRCLE
  8
0
  6
CONTINUOUS
 62
3
 10
482.274355819415180
 20
-259.688656626031840
 40
7.500000000000000
  0
ARC
  8
0
  6
DASHDOT
 62
4
 10
383.279406453298180
 20
-160.693707259915300
 40
140.000000000000000
 50
309.675311540691890
 51
320.447978627925410
  0
ARC
  8
0
  6
CONTINUOUS
 62
3
 10
493.779406453298180
 20
-252.808930949065140
 40
2.000000000000000
 50
0.000000000000000
 51
44.999999999990798
  0
ARC
  8
0
  6
CONTINUOUS
 62
3
 10
448.592700287123990
 20
-261.362340153068090
 40
9.999999999999758
 50
45.000000000000000
 51
122.975300819435740
  0
ARC
  8
0
  6
CONTINUOUS
 62
3
 10
383.279406453298180
 20
-160.693707259915300
 40
110.000000000000000
 50
270.000000000000000
 51
302.975300819434150
  0
ARC
  8
0
  6
CONTINUOUS
 62
3
 10
483.948039346450970
 20
-226.007001093741110
 40
9.999999999999902
 50
147.024699180564230
 51
225.000000000000000
  0
ARC
  8
0
  6
CONTINUOUS
 62
3
 10
383.279406453298180
 20
-160.693707259915300
 40
109.999999999999980
 50
237.024699180566050
 51
270.000000000000000
  0
ARC
  8
0
  6
CONTINUOUS
 62
3
 10
383.279406453298180
 20
-160.693707259915300
 40
110.000000000000000
 50
90.000000000000000
 51
122.975300819434110
  0
ARC
  8
0
  6
CONTINUOUS
 62
3
 10
487.779406453298180
 20
-265.193707259915300
 40
8.000000000000000
 50
270.000000000000000
 51
0.000000000000000
  0
ARC
  8
0
  6
CONTINUOUS
 62
3
 10
493.779406453298180
 20
-68.578483570765911
 40
2.000000000000016
 50
315.000000000009210
 51
0.000000000000000
  0
ARC
  8
0
  6
CONTINUOUS
 62
3
 10
475.394630142448020
 20
-50.193707259915300
 40
2.000000000000000
 50
90.000000000000000
 51
135.000000000000000
  0
CIRCLE
  8
0
  6
CONTINUOUS
 62
3
 10
482.274355819415180
 20
-61.698757893798756
 40
7.500000000000000
  0
ARC
  8
0
  6
DASHDOT
 62
4
 10
383.279406453298180
 20
-160.693707259915300
 40
139.999999999999910
 50
39.833380666744844
 51
50.487904586889194
  0
ARC
  8
0
  6
CONTINUOUS
 62
3
 10
487.779406453298180
 20
-56.193707259915300
 40
8.000000000000000
 50
0.000000000000000
 51
90.000000000000000
  0
ARC
  8
0
  6
CONTINUOUS
 62
3
 10
483.948039346450970
 20
-95.380413426089945
 40
9.999999999999758
 50
135.000000000000000
 51
212.975300819435770
  0
ARC
  8
0
  6
CONTINUOUS
 62
3
 10
448.592700287123990
 20
-60.025074366762510
 40
10.000000000000284
 50
237.024699180565620
 51
314.999999999998120
  0
ARC
  8
0
  6
CONTINUOUS
 62
3
 10
383.279406453298180
 20
-160.693707259915300
 40
109.999999999999850
 50
57.024699180565683
 51
90.000000000000000
  0
ARC
  8
0
  6
CONTINUOUS
 62
3
 10
435.279406453298180
 20
-273.693707259915300
 40
12.566440900597172
 50
270.000000000000000
 51
358.218230102087600
  0
ARC
  8
0
  6
CONTINUOUS
 62
3
 10
453.270703523509380
 20
-274.253376565325650
 40
5.433559099403096
 50
168.753929484950930
 51
178.218230102085810
  0
CIRCLE
  8
0
  6
CONTINUOUS
 62
3
 10
383.279406453298630
 20
-160.693707259915300
 40
33.500000000000000
  0
ARC
  8
0
  6
CONTINUOUS
 62
3
 10
469.418618441762650
 20
-198.323963145391190
 40
5.000000000000139
 50
336.401698263638880
 51
0.000000000000000
  0
ARC
  8
0
  6
CONTINUOUS
 62
3
 10
347.722230367035760
 20
-199.996216451702820
 40
4.999999999999726
 50
307.256131004969010
 51
47.864198486307934
  0
ARC
  8
0
  6
CONTINUOUS
 62
3
 10
370.121259351608840
 20
-229.445893878598780
 40
31.999999999999872
 50
127.256131004967170
 51
198.872128672720690
  0
ARC
  8
0
  6
CONTINUOUS
 62
3
 10
335.110275183429170
 20
-241.413808800400150
 40
4.999999999999703
 50
239.173668330593100
 51
18.872128672724504
  0
ARC
  8
0
  6
CONTINUOUS
 62
3
 10
422.073678653657230
 20
-218.960373926581720
 40
27.000000000000107
 50
353.114296223340200
 51
77.708022749951269
  0
ARC
  8
0
  6
CONTINUOUS
 62
3
 10
428.886273051803300
 20
-187.693961315501380
 40
5.000000000000131
 50
149.373547225009280
 51
257.708022749950660
  0
ARC
  8
0
  6
CONTINUOUS
 62
3
 10
453.842871841148050
 20
-222.796825961456760
 40
5.000000000000110
 50
173.114296223340490
 51
318.648896542795460
  0
ARC
  8
0
  6
CONTINUOUS
 62
3
 10
431.717854258756690
 20
-182.204559734837860
 40
4.999999999999789
 50
156.054647304130040
 51
255.297858639474210
  0
ARC
  8
0
  6
CONTINUOUS
 62
3
 10
422.073678653657230
 20
-218.960373926581720
 40
33.000000000000149
 50
5.724045726881005
 51
75.297858639473745
  0
ARC
  8
0
  6
CONTINUOUS
 62
3
 10
459.884203057776180
 20
-215.170354891598890
 40
4.999999999999943
 50
185.724045726879840
 51
324.581888853422470
  0
ARC
  8
0
  6
CONTINUOUS
 62
3
 10
343.479690980740090
 20
-195.693459377657750
 40
4.999999999999969
 50
308.284839477505780
 51
41.328301793388754
  0
ARC
  8
0
  6
CONTINUOUS
 62
3
 10
469.384037642061230
 20
-168.693707259915300
 40
4.999999999999986
 50
1.774135555318083
 51
90.000000000000000
  0
ARC
  8
0
  6
CONTINUOUS
 62
3
 10
467.076319687149180
 20
-152.693707259915300
 40
5.000000000000000
 50
270.000000000000000
 51
14.640477209919299
  0
ARC
  8
0
  6
CONTINUOUS
 62
3
 10
479.091722989326170
 20
-166.693707259915300
 40
3.000000000000075
 50
356.416678301528120
 51
90.000000000000000
  0
ARC
  8
0
  6
CONTINUOUS
 62
3
 10
479.091722989326170
 20
-154.693707259915300
 40
3.000000000000000
 50
270.000000000000000
 51
3.583321698471884
  0
ARC
  8
0
  6
CONTINUOUS
 62
3
 10
433.925235501700630
 20
-154.693707259915300
 40
2.999999999999992
 50
186.756327030590430
 51
270.000000000000000
  0
ARC
  8
0
  6
CONTINUOUS
 62
3
 10
433.925235501700630
 20
-166.693707259915300
 40
3.000000000000000
 50
90.000000000000000
 51
173.243672969418210
  0
ARC
  8
0
  6
CONTINUOUS
 62
3
 10
397.279406453298630
 20
-170.927105444096920
 40
77.139211988464112
 50
14.640477209921681
 51
31.372166333680646
  0
ARC
  8
0
  6
CONTINUOUS
 62
3
 10
397.279406453298630
 20
-170.927105444096920
 40
77.139211988464012
 50
0.000000000000000
 51
1.774135555319842
  0
ARC
  8
0
  6
CONTINUOUS
 62
3
 10
377.279406453298180
 20
-110.047878211512850
 40
3.000000000000444
 50
276.756327030589380
 51
0.000000000000000
  0
ARC
  8
0
  6
CONTINUOUS
 62
3
 10
389.279406453298180
 20
-110.047878211512850
 40
3.000000000000000
 50
180.000000000000000
 51
263.243672969414940
  0
ARC
  8
0
  6
CONTINUOUS
 62
3
 10
389.279406453298410
 20
-64.881390723887762
 40
3.000000000000075
 50
86.416678301528108
 51
180.000000000000000
  0
ARC
  8
0
  6
CONTINUOUS
 62
3
 10
377.279406453298410
 20
-64.881390723887762
 40
3.000000000000000
 50
0.000000000000000
 51
93.583321698471892
  0
ARC
  8
0
  6
CONTINUOUS
 62
3
 10
383.279406453298180
 20
-590.693707259915300
 40
497.139211988463840
 50
88.089786828290016
 51
89.304278800861709
  0
ARC
  8
0
  6
CONTINUOUS
 62
3
 10
389.279406453298410
 20
-96.590923595847926
 40
2.999999999999991
 50
89.304278800864978
 51
180.000000000000000
  0
ARC
  8
0
  6
CONTINUOUS
 62
3
 10
383.279406453298410
 20
-590.693707259915300
 40
497.139211988464010
 50
90.695721199138291
 51
91.910213171709984
  0
ARC
  8
0
  6
CONTINUOUS
 62
3
 10
377.279406453298410
 20
-96.590923595847926
 40
2.999999999999773
 50
0.000000000000000
 51
90.695721199139356
  0
ARC
  8
0
  6
CONTINUOUS
 62
3
 10
493.779406453298180
 20
-157.693707259915300
 40
2.000000000000000
 50
0.000000000000000
 51
63.214562179979900
  0
ARC
  8
0
  6
CONTINUOUS
 62
3
 10
496.032659794870600
 20
-153.230205341164490
 40
2.999999999999937
 50
183.787068033872120
 51
243.214562179991560
  0
ARC
  8
0
  6
CONTINUOUS
 62
3
 10
492.779406453298180
 20
-162.693707259915300
 40
3.000000000000153
 50
303.156214469692540
 51
0.000000000000000
  0
ARC
  8
0
  6
CONTINUOUS
 62
3
 10
496.060948095182080
 20
-167.716802366777760
 40
3.000000000000153
 50
123.156214469692540
 51
176.436697168476060
  0
ARC
  8
0
  6
CONTINUOUS
 62
3
 10
383.279406453298180
 20
-160.693707259915300
 40
110.000000000000090
 50
3.787068033865307
 51
32.975300819434004
  0
ARC
  8
0
  6
CONTINUOUS
 62
3
 10
383.279406453298180
 20
-160.693707259915300
 40
110.000000000000220
 50
327.024699180565790
 51
356.436697168476600
  0
LINE
  8
0
  6
DASHDOT
 62
4
 10
507.997139132770370
 20
-160.693707259915300
 11
383.279406453298180
 21
-160.693707259915300
  0
LINE
  8
0
  6
DASHDOT
 62
4
 10
383.279406453298180
 20
-39.381086303340908
 11
383.279406453298180
 21
-299.307301196895420
  0
LINE
  8
0
  6
CONTINUOUS
 62
3
 10
473.980416580075140
 20
-272.607920822288630
 11
455.663768098989290
 21
-254.291272341202780
  0
LINE
  8
0
  6
CONTINUOUS
 62
3
 10
495.193620015671510
 20
-251.394717386692260
 11
476.876971534585660
 21
-233.078068905606410
  0
LINE
  8
0
  6
DASHDOT
 62
4
 10
492.544313968922320
 20
-269.958614775539050
 11
471.555762599685070
 21
-248.970063406302160
  0
LINE
  8
0
  6
CONTINUOUS
 62
3
 10
278.779406453298180
 20
-48.193707259915300
 11
487.779406453298180
 21
-48.193707259915300
  0
LINE
  8
0
  6
CONTINUOUS
 62
3
 10
278.779406453298180
 20
-273.193707259915300
 11
487.779406453298180
 21
-273.193707259915300
  0
LINE
  8
0
  6
CONTINUOUS
 62
3
 10
495.193620015671510
 20
-69.992697133138790
 11
476.876971534585660
 21
-88.309345614224640
  0
LINE
  8
0
  6
CONTINUOUS
 62
3
 10
473.980416580075140
 20
-48.779493697542421
 11
455.663768098989290
 21
-67.096142178628270
  0
LINE
  8
0
  6
DASHDOT
 62
4
 10
492.627809020938910
 20
-51.345304692275022
 11
471.256403925771340
 21
-72.716709787442596
  0
LINE
  8
0
  6
CONTINUOUS
 62
3
 10
435.279406453298180
 20
-286.193707259915300
 11
383.279406453298630
 21
-286.193707259915300
  0
LINE
  8
0
  6
CONTINUOUS
 62
3
 10
331.279406453298630
 20
-286.193707259915300
 11
383.279406453298630
 21
-286.193707259915300
  0
LINE
  8
0
  6
CONTINUOUS
 62
3
 10
474.418618441762650
 20
-170.927105444096920
 11
474.418618441762650
 21
-198.323963145391190
  0
LINE
  8
0
  6
DASHDOT
 62
4
 10
414.463657187384800
 20
-190.693707259915300
 11
354.451385211762950
 21
-190.693707259915300
  0
LINE
  8
0
  6
CONTINUOUS
 62
3
 10
479.091722989326170
 20
-163.693707259915300
 11
433.925235501700630
 21
-163.693707259915300
  0
LINE
  8
0
  6
CONTINUOUS
 62
3
 10
479.091722989326170
 20
-157.693707259915300
 11
433.925235501700630
 21
-157.693707259915300
  0
LINE
  8
0
  6
CONTINUOUS
 62
3
 10
386.279406453298410
 20
-64.881390723887762
 11
386.279406453298180
 21
-110.047878211512850
  0
LINE
  8
0
  6
CONTINUOUS
 62
3
 10
380.279406453298410
 20
-64.881390723887762
 11
380.279406453298180
 21
-110.047878211512850
  0
LINE
  8
0
  6
CONTINUOUS
 62
3
 10
495.779406453298180
 20
-56.193707259915300
 11
495.779406453298180
 21
-155.693707259915300
  0
LINE
  8
0
  6
CONTINUOUS
 62
3
 10
495.779406453298180
 20
-155.693707259915300
 11
495.779406453298180
 21
-165.693707259915300
  0
LINE
  8
0
  6
CONTINUOUS
 62
3
 10
495.779406453298180
 20
-165.693707259915300
 11
495.779406453298180
 21
-265.193707259915300
  0
CIRCLE
  8
0
  6
CONTINUOUS
 62
4
 10
383.279406453298630
 20
-160.693707259915300
 40
4.000000000000000
  0
CIRCLE
  8
0
  6
CONTINUOUS
 62
3
 10
383.279406453298630
 20
-160.693707259915300
 40
3.323500000000024
  0
LINE
  8
0
  6
CONTINUOUS
 62
3
 10
364.279406453297720
 20
-155.693707259915300
 11
372.279406453297720
 21
-155.693707259915300
  0
LINE
  8
0
  6
CONTINUOUS
 62
3
 10
364.279406453297720
 20
-165.693707259915300
 11
364.279406453297720
 21
-155.693707259915300
  0
ARC
  8
0
  6
CONTINUOUS
 62
3
 10
383.279406453297720
 20
-160.693707259915300
 40
16.000000000000192
 50
198.209956864282790
 51
161.790043135717210
  0
LINE
  8
0
  6
CONTINUOUS
 62
3
 10
372.279406453297720
 20
-165.693707259915300
 11
372.279406453297720
 21
-155.693707259915300
  0
LINE
  8
0
  6
CONTINUOUS
 62
3
 10
364.279406453297720
 20
-165.693707259915300
 11
372.279406453297720
 21
-165.693707259915300
  0
CIRCLE
  8
0
  6
CONTINUOUS
 62
3
 10
383.279406453298180
 20
-160.693707259915300
 40
105.000000000000000
  0
LINE
  8
0
  6
DASHDOT
 62
4
 10
257.812493633126450
 20
-160.693707259915300
 11
383.279406453298180
 21
-160.693707259915300
  0
ARC
  8
0
  6
CONTINUOUS
 62
3
 10
369.279406453297950
 20
-170.927105444096920
 40
77.139211988464083
 50
91.910213171709884
 51
165.359522790078330
  0
ARC
  8
0
  6
CONTINUOUS
 62
3
 10
370.121259351608840
 20
-229.445893878598780
 40
37.999999999999908
 50
128.284839477505610
 51
189.449699705365900
  0
CIRCLE
  8
0
  6
CONTINUOUS
 62
3
 10
383.279406453298180
 20
-160.693707259915300
 40
99.000000000000000
  0
ARC
  8
0
  6
CONTINUOUS
 62
3
 10
397.279406453298630
 20
-170.927105444096920
 40
77.139211988464155
 50
58.529969569331058
 51
88.089786828290116
  0
ARC
  8
0
  6
DASHED
 62
3
 10
585.779406453298180
 20
-190.693707259915410
 40
300.000000000000060
 50
173.967950853630190
 51
186.032049146369790
  0
ARC
  8
0
  6
DASHED
 62
3
 10
292.412741680355790
 20
-221.693707259915270
 40
5.000000000000143
 50
186.032049146370330
 51
231.195350974325980
  0
ARC
  8
0
  6
DASHED
 62
3
 10
292.412741680355790
 20
-159.693707259915300
 40
5.000000000000000
 50
90.000000000000000
 51
107.668019757175740
  0
ARC
  8
0
  6
DASHED
 62
3
 10
618.879406453298090
 20
-190.693707259915300
 40
300.600000000000020
 50
174.273760190204290
 51
186.051985358668500
  0
ARC
  8
0
  6
DASHED
 62
3
 10
292.412741680355790
 20
-159.693707259915300
 40
5.000000000000011
 50
107.668019757175740
 51
173.967950853630950
  0
ARC
  8
0
  6
DASHED
 62
3
 10
292.412741680355790
 20
-221.693707259915270
 40
4.999999999999998
 50
231.195350974325980
 51
270.000000000000000
  0
LINE
  8
0
  6
CONTINUOUS
 62
3
 10
38.053573537655097
 20
-190.693707259913940
 11
38.053573537655097
 21
-132.193707259913940
  0
LINE
  8
0
  6
CONTINUOUS
 62
3
 10
285.789823300815900
 20
-193.193707259915300
 11
285.279406453298180
 21
-193.193707259915300
  0
LINE
  8
0
  6
CONTINUOUS
 62
3
 10
285.779408310495910
 20
-188.193707259915300
 11
285.279406453298180
 21
-188.193707259915300
  0
LINE
  8
0
  6
CONTINUOUS
 62
3
 10
285.279406453298180
 20
-193.193707259915300
 11
285.279406453298180
 21
-188.193707259915300
  0
LINE
  8
0
  6
DASHED
 62
3
 10
319.779406453298180
 20
-226.693707259915270
 11
292.412741680355790
 21
-226.693707259915270
  0
LINE
  8
0
  6
DASHED
 62
3
 10
319.779406453298180
 20
-154.693707259915240
 11
292.412741680355790
 21
-154.693707259915300
  0
LINE
  8
0
  6
DASHED
 62
3
 10
319.779406453298180
 20
-220.686206322182070
 11
319.779406453298180
 21
-226.693707259915270
  0
LINE
  8
0
  6
DASHED
 62
3
 10
319.779406453298180
 20
-160.701208197648500
 11
319.779406453298180
 21
-154.693707259915300
  0
LINE
  8
0
  6
CONTINUOUS
 62
3
 10
38.053573537655097
 20
-132.193707259913940
 11
38.053573537655097
 21
-190.693707259913940
  0
LINE
  8
0
  6
CONTINUOUS
 62
3
 10
38.053573537655097
 20
-252.186601506999520
 11
38.053573537655097
 21
-190.693707259913940
  0
ENDSEC
  0
EOF
