  0
SECTION
  2
HEADER
  9
$FILLMODE
 70
1
  9
$TEXTSTYLE
  7
STANDARD1
  9
$ACADVER
  1
AC1009
  9
$DIMASZ
 40
1.931851648807023
  9
$DIMEXE
 40
2.000000000000000
  9
$DIMEXO
 40
1.000000000000000
  9
$DIMLFAC
 40
1.000000000000000
  9
$DIMSCALE
 40
1.000000000000000
  9
$DIMTAD
 70
1
  9
$DIMTFAC
 40
0.714285731315613
  9
$DIMTXT
 40
3.200000047683716
  9
$LUPREC
 70
3
  9
$TEXTSIZE
 40
2.799999952316284
  9
$REGENMODE
 70
1
  0
ENDSEC
  0
SECTION
  2
TABLES
  0
TABLE
  2
LTYPE
 70
4
  0
LTYPE
  2
CONTINUOUS
 70
64
  3
Solid line
 72
65
 73
0
 40
0.0
  0
LTYPE
  2
DASHED
 70
64
  3
-- -- -- -- -- -- -- -- -- -- -- -- -- -- --
 72
65
 73
2
 40
0.75
 49
0.5
 49
-0.25
  0
LTYPE
  2
DASHDOT
 70
64
  3
__ . __ . __ . __ . __ . __ . __ . __ . __ . __
 72
65
 73
4
 40
1.0
 49
0.5
 49
-0.25
 49
0.0
 49
-0.25
  0
LTYPE
  2
DIVIDE
 70
64
  3
__ . . __ . . __ . . __ . . __ . . __ . . __
 72
65
 73
6
 40
1.25
 49
0.5
 49
-0.25
 49
0.0
 49
-0.25
 49
0.0
 49
-0.25
  0
ENDTAB
  0
TABLE
  2
LAYER
 70
1
  0
LAYER
  2
0
 70
64
 62
2
  6
CONTINUOUS
  0
ENDTAB
  0
TABLE
  2
STYLE
 70
4
  0
STYLE
  2
STANDARD1
 70
64
 40
0.0
 41
1.0
 50
0.0
 71
0
 42
2.799999952316284
  3
MONOTXT
  4
BIGFONT
  0
STYLE
  2
STANDARD2
 70
68
 40
0.0
 41
1.0
 50
0.0
 71
0
 42
2.799999952316284
  3
MONOTXT
  4
BIGFONT
  0
STYLE
  2
STANDARD3
 70
64
 40
0.0
 41
1.0
 50
0.0
 71
0
 42
2.799999952316284
  3
MONOTXT
  4

  0
STYLE
  2
STANDARD4
 70
68
 40
0.0
 41
1.0
 50
0.0
 71
0
 42
2.799999952316284
  3
MONOTXT
  4

  0
ENDTAB
  0
TABLE
  2
VIEW
 70
0
  0
ENDTAB
  0
ENDSEC
  0
SECTION
  2
BLOCKS
  0
BLOCK
  8
0
  2
SYM1
 70
64
 10
0.000000000000000
 20
0.000000000000000
  0
ARC
  8
0
  6
CONTINUOUS
 62
3
 10
1.981662750244141
 20
-0.000008163610801
 40
5.981661796569824
 50
150.999363302540700
 51
209.000072979481700
  0
ARC
  8
0
  6
CONTINUOUS
 62
3
 10
-2.269982337951660
 20
4.325008392333984
 40
1.729999542236328
 50
179.999745461767870
 51
235.499786279783790
  0
ARC
  8
0
  6
CONTINUOUS
 62
3
 10
-2.270017623901367
 20
-4.324990272521973
 40
1.729999542236328
 50
124.499759285265280
 51
179.999745461767870
  0
LINE
  8
0
  6
CONTINUOUS
 62
3
 10
-3.249984168999890
 20
2.900012016287064
 11
0.000013133145058
 21
2.899999618522375
  0
LINE
  8
0
  6
CONTINUOUS
 62
3
 10
-3.250009052584916
 20
-2.899986267083180
 11
-0.000013285950788
 21
-2.899999618524636
  0
LINE
  8
0
  6
CONTINUOUS
 62
3
 10
0.000023687533422
 20
5.749999046325684
 11
-0.000023687533422
 21
-5.749999046325684
  0
LINE
  8
0
  6
CONTINUOUS
 62
3
 10
-3.249972343459831
 20
5.750005722029982
 11
0.000027906669402
 21
5.749993324257003
  0
LINE
  8
0
  6
CONTINUOUS
 62
3
 10
-3.999972830514309
 20
4.900008662670757
 11
-3.249970339875063
 21
5.750006850331147
  0
LINE
  8
0
  6
CONTINUOUS
 62
3
 10
-4.000014781949545
 20
-4.899978112209579
 11
-3.999973773958658
 21
4.900011588107803
  0
LINE
  8
0
  6
CONTINUOUS
 62
3
 10
-3.250024308998832
 20
-5.749987011620533
 11
-4.000020133420207
 21
-4.899982163000686
  0
LINE
  8
0
  6
CONTINUOUS
 62
3
 10
-0.000027060931608
 20
-5.749995231614290
 11
-3.250020760774497
 21
-5.749981880178368
  0
POINT
  8
0
  6
CONTINUOUS
 62
3
 10
0.000000000000000
 20
0.000000000000000
  0
ENDBLK
  8
0
  0
BLOCK
  8
0
  2
SYM2
 70
64
 10
0.000000000000000
 20
0.000000000000000
  0
POINT
  8
0
  6
CONTINUOUS
 62
3
 10
0.000000000000000
 20
0.000000000000000
  0
LINE
  8
0
  6
CONTINUOUS
 62
3
 10
0.000000000000000
 20
-6.500000000000000
 11
-0.000000000000000
 21
6.500000000000000
  0
LINE
  8
0
  6
CONTINUOUS
 62
3
 10
-7.999999046325684
 20
5.633875846862793
 11
-7.999999046325684
 21
-5.634070396423340
  0
LINE
  8
0
  6
CONTINUOUS
 62
3
 10
0.000000000000000
 20
6.500000000000000
 11
-7.499999046325684
 21
6.500000000000000
  0
LINE
  8
0
  6
CONTINUOUS
 62
3
 10
-0.000000000000000
 20
-6.500000000000000
 11
-7.499998092651367
 21
-6.500000000000000
  0
LINE
  8
0
  6
CONTINUOUS
 62
3
 10
-7.499999203818277
 20
6.499999909101064
 11
-7.999999021366804
 21
5.633876130311293
  0
LINE
  8
0
  6
CONTINUOUS
 62
3
 10
-7.499997911632022
 20
-6.499999445138201
 11
-7.999998623386432
 21
-5.634070287011241
  0
LINE
  8
0
  6
CONTINUOUS
 62
3
 10
-7.499999046325684
 20
6.500000000000000
 11
-7.499999046325684
 21
-6.500000000000000
  0
ENDBLK
  8
0
  0
BLOCK
  8
0
  2
SYM3
 70
64
 10
0.000000000000000
 20
0.000000000000000
  0
ARC
  8
0
  6
CONTINUOUS
 62
3
 10
-0.979025304317474
 20
-2.200000762939453
 40
1.299999237060547
 50
196.601531107481040
 51
270.000000000000000
  0
ARC
  8
0
  6
CONTINUOUS
 62
3
 10
-0.979025304317474
 20
2.200000762939453
 40
1.299999237060547
 50
90.000000000000000
 51
163.398451589674950
  0
LINE
  8
0
  6
CONTINUOUS
 62
3
 10
-0.000000000000000
 20
-3.500000000000000
 11
-0.979025304317474
 21
-3.500000000000000
  0
LINE
  8
0
  6
CONTINUOUS
 62
3
 10
0.000000000000000
 20
3.500000000000000
 11
-0.979025304317474
 21
3.500000000000000
  0
LINE
  8
0
  6
CONTINUOUS
 62
3
 10
0.000000000000000
 20
-3.500000000000000
 11
-0.000000000000000
 21
3.500000000000000
  0
LINE
  8
0
  6
CONTINUOUS
 62
3
 10
0.000000000000000
 20
-3.500000000000000
 11
-0.000000000000000
 21
3.500000000000000
  0
POINT
  8
0
  6
CONTINUOUS
 62
3
 10
0.000000000000000
 20
0.000000000000000
  0
ARC
  8
0
  6
CONTINUOUS
 62
3
 10
6.399999618530273
 20
0.000000000000000
 40
9.000000000000000
 50
163.398451589674950
 51
196.601531107481040
  0
ENDBLK
  8
0
  0
BLOCK
  8
0
  2
SYM4
 70
64
 10
0.000000000000000
 20
0.000000000000000
  0
CIRCLE
  8
0
  6
CONTINUOUS
 62
3
 10
0.000000000000000
 20
0.000000000000000
 40
5.633955001831055
  0
CIRCLE
  8
0
  6
CONTINUOUS
 62
3
 10
0.000000000000000
 20
0.000000000000000
 40
6.500000000000000
  0
POINT
  8
0
  6
CONTINUOUS
 62
3
 10
0.000000000000000
 20
0.000000000000000
  0
LINE
  8
0
  6
CONTINUOUS
 62
3
 10
-2.999996662140960
 20
-1.732045999551255
 11
-2.999997615815242
 21
1.732051977133316
  0
LINE
  8
0
  6
CONTINUOUS
 62
3
 10
2.999996662140697
 20
1.732046953225571
 11
2.999997615814979
 21
-1.732051023458999
  0
LINE
  8
0
  6
CONTINUOUS
 62
3
 10
0.000006701720849
 20
3.464096999935236
 11
-2.999997939551520
 21
1.732051821705568
  0
LINE
  8
0
  6
CONTINUOUS
 62
3
 10
2.999998112093635
 20
-1.732051392778772
 11
-0.000004464412200
 21
-3.464098365415111
  0
LINE
  8
0
  6
CONTINUOUS
 62
3
 10
0.000006618601731
 20
3.464096896385627
 11
2.999997425948948
 21
1.732046782136365
  0
LINE
  8
0
  6
CONTINUOUS
 62
3
 10
-0.000004704988612
 20
-3.464098175748802
 11
-2.999997577100373
 21
-1.732046218032735
  0
POINT
  8
0
  6
CONTINUOUS
 62
3
 10
0.500000119209290
 20
6.500000000000000
  0
POINT
  8
0
  6
CONTINUOUS
 62
3
 10
0.000000000000000
 20
5.633955001831055
  0
ENDBLK
  8
0
  0
BLOCK
  8
0
  2
SYM5
 70
64
 10
0.000000000000000
 20
0.000000000000000
  0
CIRCLE
  8
0
  6
CONTINUOUS
 62
3
 10
0.000000000000000
 20
0.000000000000000
 40
5.633955001831055
  0
CIRCLE
  8
0
  6
CONTINUOUS
 62
3
 10
0.000000000000000
 20
0.000000000000000
 40
6.500000000000000
  0
POINT
  8
0
  6
CONTINUOUS
 62
3
 10
0.000000000000000
 20
0.000000000000000
  0
LINE
  8
0
  6
CONTINUOUS
 62
3
 10
-2.999996662140960
 20
-1.732045999551255
 11
-2.999997615815242
 21
1.732051977133316
  0
LINE
  8
0
  6
CONTINUOUS
 62
3
 10
2.999996662140697
 20
1.732046953225571
 11
2.999997615814979
 21
-1.732051023458999
  0
LINE
  8
0
  6
CONTINUOUS
 62
3
 10
0.000006701720849
 20
3.464096999935236
 11
-2.999997939551520
 21
1.732051821705568
  0
LINE
  8
0
  6
CONTINUOUS
 62
3
 10
2.999998112093635
 20
-1.732051392778772
 11
-0.000004464412200
 21
-3.464098365415111
  0
LINE
  8
0
  6
CONTINUOUS
 62
3
 10
0.000006618601731
 20
3.464096896385627
 11
2.999997425948948
 21
1.732046782136365
  0
LINE
  8
0
  6
CONTINUOUS
 62
3
 10
-0.000004704988612
 20
-3.464098175748802
 11
-2.999997577100373
 21
-1.732046218032735
  0
POINT
  8
0
  6
CONTINUOUS
 62
3
 10
0.500000119209290
 20
6.500000000000000
  0
POINT
  8
0
  6
CONTINUOUS
 62
3
 10
0.000000000000000
 20
5.633955001831055
  0
ENDBLK
  8
0
  0
BLOCK
  8
0
  2
SYM6
 70
64
 10
0.000000000000000
 20
0.000000000000000
  0
CIRCLE
  8
0
  6
CONTINUOUS
 62
3
 10
0.000000000000000
 20
0.000000000000000
 40
5.633955001831055
  0
CIRCLE
  8
0
  6
CONTINUOUS
 62
3
 10
0.000000000000000
 20
0.000000000000000
 40
6.500000000000000
  0
POINT
  8
0
  6
CONTINUOUS
 62
3
 10
0.000000000000000
 20
0.000000000000000
  0
LINE
  8
0
  6
CONTINUOUS
 62
3
 10
-2.999996662140960
 20
-1.732045999551255
 11
-2.999997615815242
 21
1.732051977133316
  0
LINE
  8
0
  6
CONTINUOUS
 62
3
 10
2.999996662140697
 20
1.732046953225571
 11
2.999997615814979
 21
-1.732051023458999
  0
LINE
  8
0
  6
CONTINUOUS
 62
3
 10
0.000006701720849
 20
3.464096999935236
 11
-2.999997939551520
 21
1.732051821705568
  0
LINE
  8
0
  6
CONTINUOUS
 62
3
 10
2.999998112093635
 20
-1.732051392778772
 11
-0.000004464412200
 21
-3.464098365415111
  0
LINE
  8
0
  6
CONTINUOUS
 62
3
 10
0.000006618601731
 20
3.464096896385627
 11
2.999997425948948
 21
1.732046782136365
  0
LINE
  8
0
  6
CONTINUOUS
 62
3
 10
-0.000004704988612
 20
-3.464098175748802
 11
-2.999997577100373
 21
-1.732046218032735
  0
POINT
  8
0
  6
CONTINUOUS
 62
3
 10
0.500000119209290
 20
6.500000000000000
  0
POINT
  8
0
  6
CONTINUOUS
 62
3
 10
0.000000000000000
 20
5.633955001831055
  0
ENDBLK
  8
0
  0
BLOCK
  8
0
  2
SYM7
 70
64
 10
0.000000000000000
 20
0.000000000000000
  0
CIRCLE
  8
0
  6
CONTINUOUS
 62
3
 10
0.000000000000000
 20
0.000000000000000
 40
5.633955001831055
  0
CIRCLE
  8
0
  6
CONTINUOUS
 62
3
 10
0.000000000000000
 20
0.000000000000000
 40
6.500000000000000
  0
POINT
  8
0
  6
CONTINUOUS
 62
3
 10
0.000000000000000
 20
0.000000000000000
  0
LINE
  8
0
  6
CONTINUOUS
 62
3
 10
-2.999996662140960
 20
-1.732045999551255
 11
-2.999997615815242
 21
1.732051977133316
  0
LINE
  8
0
  6
CONTINUOUS
 62
3
 10
2.999996662140697
 20
1.732046953225571
 11
2.999997615814979
 21
-1.732051023458999
  0
LINE
  8
0
  6
CONTINUOUS
 62
3
 10
0.000006701720849
 20
3.464096999935236
 11
-2.999997939551520
 21
1.732051821705568
  0
LINE
  8
0
  6
CONTINUOUS
 62
3
 10
2.999998112093635
 20
-1.732051392778772
 11
-0.000004464412200
 21
-3.464098365415111
  0
LINE
  8
0
  6
CONTINUOUS
 62
3
 10
0.000006618601731
 20
3.464096896385627
 11
2.999997425948948
 21
1.732046782136365
  0
LINE
  8
0
  6
CONTINUOUS
 62
3
 10
-0.000004704988612
 20
-3.464098175748802
 11
-2.999997577100373
 21
-1.732046218032735
  0
POINT
  8
0
  6
CONTINUOUS
 62
3
 10
0.500000119209290
 20
6.500000000000000
  0
POINT
  8
0
  6
CONTINUOUS
 62
3
 10
0.000000000000000
 20
5.633955001831055
  0
ENDBLK
  8
0
  0
BLOCK
  8
0
  2
SYM8
 70
64
 10
0.000000000000000
 20
0.000000000000000
  0
CIRCLE
  8
0
  6
CONTINUOUS
 62
3
 10
0.000000000000000
 20
0.000000000000000
 40
5.633955001831055
  0
CIRCLE
  8
0
  6
CONTINUOUS
 62
3
 10
0.000000000000000
 20
0.000000000000000
 40
6.500000000000000
  0
POINT
  8
0
  6
CONTINUOUS
 62
3
 10
0.000000000000000
 20
0.000000000000000
  0
LINE
  8
0
  6
CONTINUOUS
 62
3
 10
-2.999996662140960
 20
-1.732045999551255
 11
-2.999997615815242
 21
1.732051977133316
  0
LINE
  8
0
  6
CONTINUOUS
 62
3
 10
2.999996662140697
 20
1.732046953225571
 11
2.999997615814979
 21
-1.732051023458999
  0
LINE
  8
0
  6
CONTINUOUS
 62
3
 10
0.000006701720849
 20
3.464096999935236
 11
-2.999997939551520
 21
1.732051821705568
  0
LINE
  8
0
  6
CONTINUOUS
 62
3
 10
2.999998112093635
 20
-1.732051392778772
 11
-0.000004464412200
 21
-3.464098365415111
  0
LINE
  8
0
  6
CONTINUOUS
 62
3
 10
0.000006618601731
 20
3.464096896385627
 11
2.999997425948948
 21
1.732046782136365
  0
LINE
  8
0
  6
CONTINUOUS
 62
3
 10
-0.000004704988612
 20
-3.464098175748802
 11
-2.999997577100373
 21
-1.732046218032735
  0
POINT
  8
0
  6
CONTINUOUS
 62
3
 10
0.500000119209290
 20
6.500000000000000
  0
POINT
  8
0
  6
CONTINUOUS
 62
3
 10
0.000000000000000
 20
5.633955001831055
  0
ENDBLK
  8
0
  0
BLOCK
  8
0
  2
SYM9
 70
64
 10
0.000000000000000
 20
0.000000000000000
  0
CIRCLE
  8
0
  6
CONTINUOUS
 62
3
 10
0.000000000000000
 20
0.000000000000000
 40
5.633955001831055
  0
CIRCLE
  8
0
  6
CONTINUOUS
 62
3
 10
0.000000000000000
 20
0.000000000000000
 40
6.500000000000000
  0
POINT
  8
0
  6
CONTINUOUS
 62
3
 10
0.000000000000000
 20
0.000000000000000
  0
LINE
  8
0
  6
CONTINUOUS
 62
3
 10
-2.999996662140960
 20
-1.732045999551255
 11
-2.999997615815242
 21
1.732051977133316
  0
LINE
  8
0
  6
CONTINUOUS
 62
3
 10
2.999996662140697
 20
1.732046953225571
 11
2.999997615814979
 21
-1.732051023458999
  0
LINE
  8
0
  6
CONTINUOUS
 62
3
 10
0.000006701720849
 20
3.464096999935236
 11
-2.999997939551520
 21
1.732051821705568
  0
LINE
  8
0
  6
CONTINUOUS
 62
3
 10
2.999998112093635
 20
-1.732051392778772
 11
-0.000004464412200
 21
-3.464098365415111
  0
LINE
  8
0
  6
CONTINUOUS
 62
3
 10
0.000006618601731
 20
3.464096896385627
 11
2.999997425948948
 21
1.732046782136365
  0
LINE
  8
0
  6
CONTINUOUS
 62
3
 10
-0.000004704988612
 20
-3.464098175748802
 11
-2.999997577100373
 21
-1.732046218032735
  0
POINT
  8
0
  6
CONTINUOUS
 62
3
 10
0.500000119209290
 20
6.500000000000000
  0
POINT
  8
0
  6
CONTINUOUS
 62
3
 10
0.000000000000000
 20
5.633955001831055
  0
ENDBLK
  8
0
  0
BLOCK
  8
0
  2
SYM10
 70
64
 10
0.000000000000000
 20
0.000000000000000
  0
CIRCLE
  8
0
  6
CONTINUOUS
 62
3
 10
0.000000000000000
 20
0.000000000000000
 40
5.633955001831055
  0
CIRCLE
  8
0
  6
CONTINUOUS
 62
3
 10
0.000000000000000
 20
0.000000000000000
 40
6.500000000000000
  0
POINT
  8
0
  6
CONTINUOUS
 62
3
 10
0.000000000000000
 20
0.000000000000000
  0
LINE
  8
0
  6
CONTINUOUS
 62
3
 10
-2.999996662140960
 20
-1.732045999551255
 11
-2.999997615815242
 21
1.732051977133316
  0
LINE
  8
0
  6
CONTINUOUS
 62
3
 10
2.999996662140697
 20
1.732046953225571
 11
2.999997615814979
 21
-1.732051023458999
  0
LINE
  8
0
  6
CONTINUOUS
 62
3
 10
0.000006701720849
 20
3.464096999935236
 11
-2.999997939551520
 21
1.732051821705568
  0
LINE
  8
0
  6
CONTINUOUS
 62
3
 10
2.999998112093635
 20
-1.732051392778772
 11
-0.000004464412200
 21
-3.464098365415111
  0
LINE
  8
0
  6
CONTINUOUS
 62
3
 10
0.000006618601731
 20
3.464096896385627
 11
2.999997425948948
 21
1.732046782136365
  0
LINE
  8
0
  6
CONTINUOUS
 62
3
 10
-0.000004704988612
 20
-3.464098175748802
 11
-2.999997577100373
 21
-1.732046218032735
  0
POINT
  8
0
  6
CONTINUOUS
 62
3
 10
0.500000119209290
 20
6.500000000000000
  0
POINT
  8
0
  6
CONTINUOUS
 62
3
 10
0.000000000000000
 20
5.633955001831055
  0
ENDBLK
  8
0
  0
BLOCK
  8
0
  2
SYM11
 70
64
 10
0.000000000000000
 20
0.000000000000000
  0
CIRCLE
  8
0
  6
CONTINUOUS
 62
3
 10
0.000000000000000
 20
0.000000000000000
 40
5.633955001831055
  0
CIRCLE
  8
0
  6
CONTINUOUS
 62
3
 10
0.000000000000000
 20
0.000000000000000
 40
6.500000000000000
  0
POINT
  8
0
  6
CONTINUOUS
 62
3
 10
0.000000000000000
 20
0.000000000000000
  0
LINE
  8
0
  6
CONTINUOUS
 62
3
 10
-2.999996662140960
 20
-1.732045999551255
 11
-2.999997615815242
 21
1.732051977133316
  0
LINE
  8
0
  6
CONTINUOUS
 62
3
 10
2.999996662140697
 20
1.732046953225571
 11
2.999997615814979
 21
-1.732051023458999
  0
LINE
  8
0
  6
CONTINUOUS
 62
3
 10
0.000006701720849
 20
3.464096999935236
 11
-2.999997939551520
 21
1.732051821705568
  0
LINE
  8
0
  6
CONTINUOUS
 62
3
 10
2.999998112093635
 20
-1.732051392778772
 11
-0.000004464412200
 21
-3.464098365415111
  0
LINE
  8
0
  6
CONTINUOUS
 62
3
 10
0.000006618601731
 20
3.464096896385627
 11
2.999997425948948
 21
1.732046782136365
  0
LINE
  8
0
  6
CONTINUOUS
 62
3
 10
-0.000004704988612
 20
-3.464098175748802
 11
-2.999997577100373
 21
-1.732046218032735
  0
POINT
  8
0
  6
CONTINUOUS
 62
3
 10
0.500000119209290
 20
6.500000000000000
  0
POINT
  8
0
  6
CONTINUOUS
 62
3
 10
0.000000000000000
 20
5.633955001831055
  0
ENDBLK
  8
0
  0
BLOCK
  8
0
  2
SYM12
 70
64
 10
0.000000000000000
 20
0.000000000000000
  0
CIRCLE
  8
0
  6
CONTINUOUS
 62
3
 10
0.000000000000000
 20
0.000000000000000
 40
5.633955001831055
  0
CIRCLE
  8
0
  6
CONTINUOUS
 62
3
 10
0.000000000000000
 20
0.000000000000000
 40
6.500000000000000
  0
POINT
  8
0
  6
CONTINUOUS
 62
3
 10
0.000000000000000
 20
0.000000000000000
  0
LINE
  8
0
  6
CONTINUOUS
 62
3
 10
-2.999996662140960
 20
-1.732045999551255
 11
-2.999997615815242
 21
1.732051977133316
  0
LINE
  8
0
  6
CONTINUOUS
 62
3
 10
2.999996662140697
 20
1.732046953225571
 11
2.999997615814979
 21
-1.732051023458999
  0
LINE
  8
0
  6
CONTINUOUS
 62
3
 10
0.000006701720849
 20
3.464096999935236
 11
-2.999997939551520
 21
1.732051821705568
  0
LINE
  8
0
  6
CONTINUOUS
 62
3
 10
2.999998112093635
 20
-1.732051392778772
 11
-0.000004464412200
 21
-3.464098365415111
  0
LINE
  8
0
  6
CONTINUOUS
 62
3
 10
0.000006618601731
 20
3.464096896385627
 11
2.999997425948948
 21
1.732046782136365
  0
LINE
  8
0
  6
CONTINUOUS
 62
3
 10
-0.000004704988612
 20
-3.464098175748802
 11
-2.999997577100373
 21
-1.732046218032735
  0
POINT
  8
0
  6
CONTINUOUS
 62
3
 10
0.500000119209290
 20
6.500000000000000
  0
POINT
  8
0
  6
CONTINUOUS
 62
3
 10
0.000000000000000
 20
5.633955001831055
  0
ENDBLK
  8
0
  0
BLOCK
  8
0
  2
SYM13
 70
64
 10
0.000000000000000
 20
0.000000000000000
  0
CIRCLE
  8
0
  6
CONTINUOUS
 62
3
 10
0.000000000000000
 20
0.000000000000000
 40
5.633955001831055
  0
CIRCLE
  8
0
  6
CONTINUOUS
 62
3
 10
0.000000000000000
 20
0.000000000000000
 40
6.500000000000000
  0
POINT
  8
0
  6
CONTINUOUS
 62
3
 10
0.000000000000000
 20
0.000000000000000
  0
LINE
  8
0
  6
CONTINUOUS
 62
3
 10
-2.999996662140960
 20
-1.732045999551255
 11
-2.999997615815242
 21
1.732051977133316
  0
LINE
  8
0
  6
CONTINUOUS
 62
3
 10
2.999996662140697
 20
1.732046953225571
 11
2.999997615814979
 21
-1.732051023458999
  0
LINE
  8
0
  6
CONTINUOUS
 62
3
 10
0.000006701720849
 20
3.464096999935236
 11
-2.999997939551520
 21
1.732051821705568
  0
LINE
  8
0
  6
CONTINUOUS
 62
3
 10
2.999998112093635
 20
-1.732051392778772
 11
-0.000004464412200
 21
-3.464098365415111
  0
LINE
  8
0
  6
CONTINUOUS
 62
3
 10
0.000006618601731
 20
3.464096896385627
 11
2.999997425948948
 21
1.732046782136365
  0
LINE
  8
0
  6
CONTINUOUS
 62
3
 10
-0.000004704988612
 20
-3.464098175748802
 11
-2.999997577100373
 21
-1.732046218032735
  0
POINT
  8
0
  6
CONTINUOUS
 62
3
 10
0.500000119209290
 20
6.500000000000000
  0
POINT
  8
0
  6
CONTINUOUS
 62
3
 10
0.000000000000000
 20
5.633955001831055
  0
ENDBLK
  8
0
  0
BLOCK
  8
0
  2
SYM14
 70
64
 10
0.000000000000000
 20
0.000000000000000
  0
CIRCLE
  8
0
  6
CONTINUOUS
 62
3
 10
0.000000000000000
 20
0.000000000000000
 40
5.633955001831055
  0
CIRCLE
  8
0
  6
CONTINUOUS
 62
3
 10
0.000000000000000
 20
0.000000000000000
 40
6.500000000000000
  0
POINT
  8
0
  6
CONTINUOUS
 62
3
 10
0.000000000000000
 20
0.000000000000000
  0
LINE
  8
0
  6
CONTINUOUS
 62
3
 10
-2.999996662140960
 20
-1.732045999551255
 11
-2.999997615815242
 21
1.732051977133316
  0
LINE
  8
0
  6
CONTINUOUS
 62
3
 10
2.999996662140697
 20
1.732046953225571
 11
2.999997615814979
 21
-1.732051023458999
  0
LINE
  8
0
  6
CONTINUOUS
 62
3
 10
0.000006701720849
 20
3.464096999935236
 11
-2.999997939551520
 21
1.732051821705568
  0
LINE
  8
0
  6
CONTINUOUS
 62
3
 10
2.999998112093635
 20
-1.732051392778772
 11
-0.000004464412200
 21
-3.464098365415111
  0
LINE
  8
0
  6
CONTINUOUS
 62
3
 10
0.000006618601731
 20
3.464096896385627
 11
2.999997425948948
 21
1.732046782136365
  0
LINE
  8
0
  6
CONTINUOUS
 62
3
 10
-0.000004704988612
 20
-3.464098175748802
 11
-2.999997577100373
 21
-1.732046218032735
  0
POINT
  8
0
  6
CONTINUOUS
 62
3
 10
0.500000119209290
 20
6.500000000000000
  0
POINT
  8
0
  6
CONTINUOUS
 62
3
 10
0.000000000000000
 20
5.633955001831055
  0
ENDBLK
  8
0
  0
BLOCK
  8
0
  2
SYM15
 70
64
 10
0.000000000000000
 20
0.000000000000000
  0
CIRCLE
  8
0
  6
CONTINUOUS
 62
3
 10
0.000000000000000
 20
0.000000000000000
 40
5.000000000000000
  0
LINE
  8
0
  6
CONTINUOUS
 62
3
 10
4.989816965891634
 20
-2.892629271321994
 11
0.010171343047148
 21
-5.767622431692701
  0
LINE
  8
0
  6
CONTINUOUS
 62
3
 10
4.979648434603448
 20
2.874994693650046
 11
4.989821279270270
 21
-2.892629961559101
  0
LINE
  8
0
  6
CONTINUOUS
 62
3
 10
-0.010171198458579
 20
5.767622839547471
 11
4.979645433681753
 21
2.874994469174567
  0
LINE
  8
0
  6
CONTINUOUS
 62
3
 10
-4.989816965891634
 20
2.892629271321994
 11
-0.010171343047148
 21
5.767622431692701
  0
LINE
  8
0
  6
CONTINUOUS
 62
3
 10
-4.979648434603448
 20
-2.874994693650046
 11
-4.989821279270270
 21
2.892629961559101
  0
LINE
  8
0
  6
CONTINUOUS
 62
3
 10
0.010171198458579
 20
-5.767622839547471
 11
-4.979645433681753
 21
-2.874994469174567
  0
POINT
  8
0
  6
CONTINUOUS
 62
3
 10
0.000000000000000
 20
0.000000000000000
  0
ENDBLK
  8
0
  0
BLOCK
  8
0
  2
SYM16
 70
64
 10
0.000000000000000
 20
0.000000000000000
  0
CIRCLE
  8
0
  6
CONTINUOUS
 62
3
 10
0.000000000000000
 20
0.000000000000000
 40
5.000000000000000
  0
LINE
  8
0
  6
CONTINUOUS
 62
3
 10
4.989816965891634
 20
-2.892629271321994
 11
0.010171343047148
 21
-5.767622431692701
  0
LINE
  8
0
  6
CONTINUOUS
 62
3
 10
4.979648434603448
 20
2.874994693650046
 11
4.989821279270270
 21
-2.892629961559101
  0
LINE
  8
0
  6
CONTINUOUS
 62
3
 10
-0.010171198458579
 20
5.767622839547471
 11
4.979645433681753
 21
2.874994469174567
  0
LINE
  8
0
  6
CONTINUOUS
 62
3
 10
-4.989816965891634
 20
2.892629271321994
 11
-0.010171343047148
 21
5.767622431692701
  0
LINE
  8
0
  6
CONTINUOUS
 62
3
 10
-4.979648434603448
 20
-2.874994693650046
 11
-4.989821279270270
 21
2.892629961559101
  0
LINE
  8
0
  6
CONTINUOUS
 62
3
 10
0.010171198458579
 20
-5.767622839547471
 11
-4.979645433681753
 21
-2.874994469174567
  0
POINT
  8
0
  6
CONTINUOUS
 62
3
 10
0.000000000000000
 20
0.000000000000000
  0
ENDBLK
  8
0
  0
BLOCK
  8
0
  2
SYM17
 70
64
 10
0.000000000000000
 20
0.000000000000000
  0
POINT
  8
0
  6
CONTINUOUS
 62
3
 10
0.000000000000000
 20
0.000000000000000
  0
LINE
  8
0
  6
CONTINUOUS
 62
3
 10
0.000000000000000
 20
-6.500000000000000
 11
-0.000000000000000
 21
6.500000000000000
  0
LINE
  8
0
  6
CONTINUOUS
 62
3
 10
-7.999999046325684
 20
5.633875846862793
 11
-7.999999046325684
 21
-5.634070396423340
  0
LINE
  8
0
  6
CONTINUOUS
 62
3
 10
0.000000000000000
 20
6.500000000000000
 11
-7.499999046325684
 21
6.500000000000000
  0
LINE
  8
0
  6
CONTINUOUS
 62
3
 10
-0.000000000000000
 20
-6.500000000000000
 11
-7.499998092651367
 21
-6.500000000000000
  0
LINE
  8
0
  6
CONTINUOUS
 62
3
 10
-7.499999203818277
 20
6.499999909101064
 11
-7.999999021366804
 21
5.633876130311293
  0
LINE
  8
0
  6
CONTINUOUS
 62
3
 10
-7.499997911632022
 20
-6.499999445138201
 11
-7.999998623386432
 21
-5.634070287011241
  0
LINE
  8
0
  6
CONTINUOUS
 62
3
 10
-7.499999046325684
 20
6.500000000000000
 11
-7.499999046325684
 21
-6.500000000000000
  0
ENDBLK
  8
0
  0
BLOCK
  8
0
  2
SYM18
 70
64
 10
0.000000000000000
 20
0.000000000000000
  0
POINT
  8
0
  6
CONTINUOUS
 62
3
 10
0.000000000000000
 20
0.000000000000000
  0
LINE
  8
0
  6
CONTINUOUS
 62
3
 10
0.000000000000000
 20
-6.500000000000000
 11
-0.000000000000000
 21
6.500000000000000
  0
LINE
  8
0
  6
CONTINUOUS
 62
3
 10
-7.999999046325684
 20
5.633875846862793
 11
-7.999999046325684
 21
-5.634070396423340
  0
LINE
  8
0
  6
CONTINUOUS
 62
3
 10
0.000000000000000
 20
6.500000000000000
 11
-7.499999046325684
 21
6.500000000000000
  0
LINE
  8
0
  6
CONTINUOUS
 62
3
 10
-0.000000000000000
 20
-6.500000000000000
 11
-7.499998092651367
 21
-6.500000000000000
  0
LINE
  8
0
  6
CONTINUOUS
 62
3
 10
-7.499999203818277
 20
6.499999909101064
 11
-7.999999021366804
 21
5.633876130311293
  0
LINE
  8
0
  6
CONTINUOUS
 62
3
 10
-7.499997911632022
 20
-6.499999445138201
 11
-7.999998623386432
 21
-5.634070287011241
  0
LINE
  8
0
  6
CONTINUOUS
 62
3
 10
-7.499999046325684
 20
6.500000000000000
 11
-7.499999046325684
 21
-6.500000000000000
  0
ENDBLK
  8
0
  0
BLOCK
  8
0
  2
SYM19
 70
64
 10
0.000000000000000
 20
0.000000000000000
  0
POINT
  8
0
  6
CONTINUOUS
 62
3
 10
0.000000000000000
 20
0.000000000000000
  0
LINE
  8
0
  6
CONTINUOUS
 62
3
 10
0.000000000000000
 20
-6.500000000000000
 11
-0.000000000000000
 21
6.500000000000000
  0
LINE
  8
0
  6
CONTINUOUS
 62
3
 10
-7.999999046325684
 20
5.633875846862793
 11
-7.999999046325684
 21
-5.634070396423340
  0
LINE
  8
0
  6
CONTINUOUS
 62
3
 10
0.000000000000000
 20
6.500000000000000
 11
-7.499999046325684
 21
6.500000000000000
  0
LINE
  8
0
  6
CONTINUOUS
 62
3
 10
-0.000000000000000
 20
-6.500000000000000
 11
-7.499998092651367
 21
-6.500000000000000
  0
LINE
  8
0
  6
CONTINUOUS
 62
3
 10
-7.499999203818277
 20
6.499999909101064
 11
-7.999999021366804
 21
5.633876130311293
  0
LINE
  8
0
  6
CONTINUOUS
 62
3
 10
-7.499997911632022
 20
-6.499999445138201
 11
-7.999998623386432
 21
-5.634070287011241
  0
LINE
  8
0
  6
CONTINUOUS
 62
3
 10
-7.499999046325684
 20
6.500000000000000
 11
-7.499999046325684
 21
-6.500000000000000
  0
ENDBLK
  8
0
  0
BLOCK
  8
0
  2
SYM20
 70
64
 10
0.000000000000000
 20
0.000000000000000
  0
POINT
  8
0
  6
CONTINUOUS
 62
3
 10
0.000000000000000
 20
0.000000000000000
  0
LINE
  8
0
  6
CONTINUOUS
 62
3
 10
0.000000000000000
 20
-6.500000000000000
 11
-0.000000000000000
 21
6.500000000000000
  0
LINE
  8
0
  6
CONTINUOUS
 62
3
 10
-7.999999046325684
 20
5.633875846862793
 11
-7.999999046325684
 21
-5.634070396423340
  0
LINE
  8
0
  6
CONTINUOUS
 62
3
 10
0.000000000000000
 20
6.500000000000000
 11
-7.499999046325684
 21
6.500000000000000
  0
LINE
  8
0
  6
CONTINUOUS
 62
3
 10
-0.000000000000000
 20
-6.500000000000000
 11
-7.499998092651367
 21
-6.500000000000000
  0
LINE
  8
0
  6
CONTINUOUS
 62
3
 10
-7.499999203818277
 20
6.499999909101064
 11
-7.999999021366804
 21
5.633876130311293
  0
LINE
  8
0
  6
CONTINUOUS
 62
3
 10
-7.499997911632022
 20
-6.499999445138201
 11
-7.999998623386432
 21
-5.634070287011241
  0
LINE
  8
0
  6
CONTINUOUS
 62
3
 10
-7.499999046325684
 20
6.500000000000000
 11
-7.499999046325684
 21
-6.500000000000000
  0
ENDBLK
  8
0
  0
BLOCK
  8
0
  2
SYM21
 70
64
 10
0.000000000000000
 20
0.000000000000000
  0
POINT
  8
0
  6
CONTINUOUS
 62
3
 10
0.000000000000000
 20
0.000000000000000
  0
LINE
  8
0
  6
CONTINUOUS
 62
3
 10
0.000000000000000
 20
-6.500000000000000
 11
-0.000000000000000
 21
6.500000000000000
  0
LINE
  8
0
  6
CONTINUOUS
 62
3
 10
-7.999999046325684
 20
5.633875846862793
 11
-7.999999046325684
 21
-5.634070396423340
  0
LINE
  8
0
  6
CONTINUOUS
 62
3
 10
0.000000000000000
 20
6.500000000000000
 11
-7.499999046325684
 21
6.500000000000000
  0
LINE
  8
0
  6
CONTINUOUS
 62
3
 10
-0.000000000000000
 20
-6.500000000000000
 11
-7.499998092651367
 21
-6.500000000000000
  0
LINE
  8
0
  6
CONTINUOUS
 62
3
 10
-7.499999203818277
 20
6.499999909101064
 11
-7.999999021366804
 21
5.633876130311293
  0
LINE
  8
0
  6
CONTINUOUS
 62
3
 10
-7.499997911632022
 20
-6.499999445138201
 11
-7.999998623386432
 21
-5.634070287011241
  0
LINE
  8
0
  6
CONTINUOUS
 62
3
 10
-7.499999046325684
 20
6.500000000000000
 11
-7.499999046325684
 21
-6.500000000000000
  0
ENDBLK
  8
0
  0
BLOCK
  8
0
  2
SYM22
 70
64
 10
0.000000000000000
 20
0.000000000000000
  0
POINT
  8
0
  6
CONTINUOUS
 62
3
 10
0.000000000000000
 20
0.000000000000000
  0
LINE
  8
0
  6
CONTINUOUS
 62
3
 10
0.000000000000000
 20
-6.500000000000000
 11
-0.000000000000000
 21
6.500000000000000
  0
LINE
  8
0
  6
CONTINUOUS
 62
3
 10
-7.999999046325684
 20
5.633875846862793
 11
-7.999999046325684
 21
-5.634070396423340
  0
LINE
  8
0
  6
CONTINUOUS
 62
3
 10
0.000000000000000
 20
6.500000000000000
 11
-7.499999046325684
 21
6.500000000000000
  0
LINE
  8
0
  6
CONTINUOUS
 62
3
 10
-0.000000000000000
 20
-6.500000000000000
 11
-7.499998092651367
 21
-6.500000000000000
  0
LINE
  8
0
  6
CONTINUOUS
 62
3
 10
-7.499999203818277
 20
6.499999909101064
 11
-7.999999021366804
 21
5.633876130311293
  0
LINE
  8
0
  6
CONTINUOUS
 62
3
 10
-7.499997911632022
 20
-6.499999445138201
 11
-7.999998623386432
 21
-5.634070287011241
  0
LINE
  8
0
  6
CONTINUOUS
 62
3
 10
-7.499999046325684
 20
6.500000000000000
 11
-7.499999046325684
 21
-6.500000000000000
  0
ENDBLK
  8
0
  0
BLOCK
  8
0
  2
SYM23
 70
64
 10
0.000000000000000
 20
0.000000000000000
  0
ARC
  8
0
  6
CONTINUOUS
 62
3
 10
1.981662750244141
 20
-0.000008163610801
 40
5.981661796569824
 50
150.999363302540700
 51
209.000072979481700
  0
ARC
  8
0
  6
CONTINUOUS
 62
3
 10
-2.269982337951660
 20
4.325008392333984
 40
1.729999542236328
 50
179.999745461767870
 51
235.499786279783790
  0
ARC
  8
0
  6
CONTINUOUS
 62
3
 10
-2.270017623901367
 20
-4.324990272521973
 40
1.729999542236328
 50
124.499759285265280
 51
179.999745461767870
  0
LINE
  8
0
  6
CONTINUOUS
 62
3
 10
-3.249984168999890
 20
2.900012016287064
 11
0.000013133145058
 21
2.899999618522375
  0
LINE
  8
0
  6
CONTINUOUS
 62
3
 10
-3.250009052584916
 20
-2.899986267083180
 11
-0.000013285950788
 21
-2.899999618524636
  0
LINE
  8
0
  6
CONTINUOUS
 62
3
 10
0.000023687533422
 20
5.749999046325684
 11
-0.000023687533422
 21
-5.749999046325684
  0
LINE
  8
0
  6
CONTINUOUS
 62
3
 10
-3.249972343459831
 20
5.750005722029982
 11
0.000027906669402
 21
5.749993324257003
  0
LINE
  8
0
  6
CONTINUOUS
 62
3
 10
-3.999972830514309
 20
4.900008662670757
 11
-3.249970339875063
 21
5.750006850331147
  0
LINE
  8
0
  6
CONTINUOUS
 62
3
 10
-4.000014781949545
 20
-4.899978112209579
 11
-3.999973773958658
 21
4.900011588107803
  0
LINE
  8
0
  6
CONTINUOUS
 62
3
 10
-3.250024308998832
 20
-5.749987011620533
 11
-4.000020133420207
 21
-4.899982163000686
  0
LINE
  8
0
  6
CONTINUOUS
 62
3
 10
-0.000027060931608
 20
-5.749995231614290
 11
-3.250020760774497
 21
-5.749981880178368
  0
POINT
  8
0
  6
CONTINUOUS
 62
3
 10
0.000000000000000
 20
0.000000000000000
  0
ENDBLK
  8
0
  0
BLOCK
  8
0
  2
SYM24
 70
64
 10
0.000000000000000
 20
0.000000000000000
  0
POINT
  8
0
  6
CONTINUOUS
 62
3
 10
0.000000000000000
 20
0.000000000000000
  0
LINE
  8
0
  6
CONTINUOUS
 62
3
 10
0.000000000000000
 20
-6.500000000000000
 11
-0.000000000000000
 21
6.500000000000000
  0
LINE
  8
0
  6
CONTINUOUS
 62
3
 10
-7.999999046325684
 20
5.633875846862793
 11
-7.999999046325684
 21
-5.634070396423340
  0
LINE
  8
0
  6
CONTINUOUS
 62
3
 10
0.000000000000000
 20
6.500000000000000
 11
-7.499999046325684
 21
6.500000000000000
  0
LINE
  8
0
  6
CONTINUOUS
 62
3
 10
-0.000000000000000
 20
-6.500000000000000
 11
-7.499998092651367
 21
-6.500000000000000
  0
LINE
  8
0
  6
CONTINUOUS
 62
3
 10
-7.499999203818277
 20
6.499999909101064
 11
-7.999999021366804
 21
5.633876130311293
  0
LINE
  8
0
  6
CONTINUOUS
 62
3
 10
-7.499997911632022
 20
-6.499999445138201
 11
-7.999998623386432
 21
-5.634070287011241
  0
LINE
  8
0
  6
CONTINUOUS
 62
3
 10
-7.499999046325684
 20
6.500000000000000
 11
-7.499999046325684
 21
-6.500000000000000
  0
ENDBLK
  8
0
  0
BLOCK
  8
0
  2
SYM25
 70
64
 10
0.000000000000000
 20
0.000000000000000
  0
POINT
  8
0
  6
CONTINUOUS
 62
3
 10
0.000000000000000
 20
0.000000000000000
  0
LINE
  8
0
  6
CONTINUOUS
 62
3
 10
0.000000000000000
 20
-6.500000000000000
 11
-0.000000000000000
 21
6.500000000000000
  0
LINE
  8
0
  6
CONTINUOUS
 62
3
 10
-7.999999046325684
 20
5.633875846862793
 11
-7.999999046325684
 21
-5.634070396423340
  0
LINE
  8
0
  6
CONTINUOUS
 62
3
 10
0.000000000000000
 20
6.500000000000000
 11
-7.499999046325684
 21
6.500000000000000
  0
LINE
  8
0
  6
CONTINUOUS
 62
3
 10
-0.000000000000000
 20
-6.500000000000000
 11
-7.499998092651367
 21
-6.500000000000000
  0
LINE
  8
0
  6
CONTINUOUS
 62
3
 10
-7.499999203818277
 20
6.499999909101064
 11
-7.999999021366804
 21
5.633876130311293
  0
LINE
  8
0
  6
CONTINUOUS
 62
3
 10
-7.499997911632022
 20
-6.499999445138201
 11
-7.999998623386432
 21
-5.634070287011241
  0
LINE
  8
0
  6
CONTINUOUS
 62
3
 10
-7.499999046325684
 20
6.500000000000000
 11
-7.499999046325684
 21
-6.500000000000000
  0
ENDBLK
  8
0
  0
BLOCK
  8
0
  2
SYM26
 70
64
 10
0.000000000000000
 20
0.000000000000000
  0
POINT
  8
0
  6
CONTINUOUS
 62
3
 10
0.000000000000000
 20
0.000000000000000
  0
LINE
  8
0
  6
CONTINUOUS
 62
3
 10
0.000000000000000
 20
-6.500000000000000
 11
-0.000000000000000
 21
6.500000000000000
  0
LINE
  8
0
  6
CONTINUOUS
 62
3
 10
-7.999999046325684
 20
5.633875846862793
 11
-7.999999046325684
 21
-5.634070396423340
  0
LINE
  8
0
  6
CONTINUOUS
 62
3
 10
0.000000000000000
 20
6.500000000000000
 11
-7.499999046325684
 21
6.500000000000000
  0
LINE
  8
0
  6
CONTINUOUS
 62
3
 10
-0.000000000000000
 20
-6.500000000000000
 11
-7.499998092651367
 21
-6.500000000000000
  0
LINE
  8
0
  6
CONTINUOUS
 62
3
 10
-7.499999203818277
 20
6.499999909101064
 11
-7.999999021366804
 21
5.633876130311293
  0
LINE
  8
0
  6
CONTINUOUS
 62
3
 10
-7.499997911632022
 20
-6.499999445138201
 11
-7.999998623386432
 21
-5.634070287011241
  0
LINE
  8
0
  6
CONTINUOUS
 62
3
 10
-7.499999046325684
 20
6.500000000000000
 11
-7.499999046325684
 21
-6.500000000000000
  0
ENDBLK
  8
0
  0
BLOCK
  8
0
  2
SYM27
 70
64
 10
0.000000000000000
 20
0.000000000000000
  0
POINT
  8
0
  6
CONTINUOUS
 62
3
 10
0.000000000000000
 20
0.000000000000000
  0
LINE
  8
0
  6
CONTINUOUS
 62
3
 10
0.000000000000000
 20
-6.500000000000000
 11
-0.000000000000000
 21
6.500000000000000
  0
LINE
  8
0
  6
CONTINUOUS
 62
3
 10
-7.999999046325684
 20
5.633875846862793
 11
-7.999999046325684
 21
-5.634070396423340
  0
LINE
  8
0
  6
CONTINUOUS
 62
3
 10
0.000000000000000
 20
6.500000000000000
 11
-7.499999046325684
 21
6.500000000000000
  0
LINE
  8
0
  6
CONTINUOUS
 62
3
 10
-0.000000000000000
 20
-6.500000000000000
 11
-7.499998092651367
 21
-6.500000000000000
  0
LINE
  8
0
  6
CONTINUOUS
 62
3
 10
-7.499999203818277
 20
6.499999909101064
 11
-7.999999021366804
 21
5.633876130311293
  0
LINE
  8
0
  6
CONTINUOUS
 62
3
 10
-7.499997911632022
 20
-6.499999445138201
 11
-7.999998623386432
 21
-5.634070287011241
  0
LINE
  8
0
  6
CONTINUOUS
 62
3
 10
-7.499999046325684
 20
6.500000000000000
 11
-7.499999046325684
 21
-6.500000000000000
  0
ENDBLK
  8
0
  0
ENDSEC
  0
SECTION
  2
ENTITIES
  0
LINE
  8
0
  6
CONTINUOUS
 62
3
 10
-539.253679916974080
 20
-127.448185628343150
 11
-539.740483308679700
 21
-126.961382236637530
  0
LINE
  8
0
  6
CONTINUOUS
 62
3
 10
-532.606876443560400
 20
-120.801382154929440
 11
-533.093679835266020
 21
-120.314578763223820
  0
LINE
  8
0
  6
CONTINUOUS
 62
3
 10
-539.566818525942840
 20
-127.195638677492780
 11
-532.889719223469910
 21
-120.518539375019870
  0
LINE
  8
0
  6
CONTINUOUS
 62
3
 10
-539.253679916974080
 20
-127.448185628343150
 11
-532.606876443560400
 21
-120.801382154929440
  0
POINT
  8
0
  6
CONTINUOUS
 62
3
 10
-535.930278180267240
 20
-124.124783891636290
  0
ARC
  8
0
  6
CONTINUOUS
 62
3
 10
-533.667536615340170
 20
-126.387525456563330
 40
6.099999427795408
 50
84.601927898109551
 51
185.398089404735120
  0
LINE
  8
0
  6
CONTINUOUS
 62
3
 10
-539.253679916974080
 20
-224.180393564402810
 11
-539.740483308679700
 21
-224.667196956108430
  0
LINE
  8
0
  6
CONTINUOUS
 62
3
 10
-532.606876443560400
 20
-230.827197037816550
 11
-533.093679835266020
 21
-231.314000429522140
  0
LINE
  8
0
  6
CONTINUOUS
 62
3
 10
-539.566818525942840
 20
-224.432940515253190
 11
-532.889719223469910
 21
-231.110039817726120
  0
LINE
  8
0
  6
CONTINUOUS
 62
3
 10
-539.253679916974080
 20
-224.180393564402810
 11
-532.606876443560400
 21
-230.827197037816550
  0
POINT
  8
0
  6
CONTINUOUS
 62
3
 10
-535.930278180267240
 20
-227.503795301109680
  0
ARC
  8
0
  6
CONTINUOUS
 62
3
 10
-533.667536615340170
 20
-225.241053736182640
 40
6.099999427795398
 50
174.601910595264880
 51
275.398072101890420
  0
LINE
  8
0
  6
CONTINUOUS
 62
3
 10
-429.227865034087240
 20
-224.180393564402810
 11
-428.741061642381620
 21
-224.667196956108430
  0
LINE
  8
0
  6
CONTINUOUS
 62
3
 10
-435.874668507500930
 20
-230.827197037816550
 11
-435.387865115795310
 21
-231.314000429522140
  0
LINE
  8
0
  6
CONTINUOUS
 62
3
 10
-428.914726425118430
 20
-224.432940515253190
 11
-435.591825727591360
 21
-231.110039817726120
  0
LINE
  8
0
  6
CONTINUOUS
 62
3
 10
-429.227865034087240
 20
-224.180393564402810
 11
-435.874668507500930
 21
-230.827197037816550
  0
POINT
  8
0
  6
CONTINUOUS
 62
3
 10
-432.551266770794090
 20
-227.503795301109680
  0
ARC
  8
0
  6
CONTINUOUS
 62
3
 10
-434.814008335721100
 20
-225.241053736182640
 40
6.099999427795406
 50
264.601927898108500
 51
5.398089404735109
  0
LINE
  8
0
  6
CONTINUOUS
 62
3
 10
-429.227865034087240
 20
-127.448185628343150
 11
-428.741061642381620
 21
-126.961382236637530
  0
LINE
  8
0
  6
CONTINUOUS
 62
3
 10
-435.874668507500930
 20
-120.801382154929440
 11
-435.387865115795310
 21
-120.314578763223820
  0
LINE
  8
0
  6
CONTINUOUS
 62
3
 10
-428.914726425118430
 20
-127.195638677492780
 11
-435.591825727591360
 21
-120.518539375019870
  0
LINE
  8
0
  6
CONTINUOUS
 62
3
 10
-429.227865034087240
 20
-127.448185628343150
 11
-435.874668507500930
 21
-120.801382154929440
  0
POINT
  8
0
  6
CONTINUOUS
 62
3
 10
-432.551266770794090
 20
-124.124783891636290
  0
ARC
  8
0
  6
CONTINUOUS
 62
3
 10
-434.814008335721100
 20
-126.387525456563330
 40
6.099999427795398
 50
354.601910595264880
 51
95.398072101891515
  0
INSERT
  8
0
  2
SYM1
 10
36.794624596476979
 20
-261.115065138330920
  0
INSERT
  8
0
  2
SYM1
 10
36.794624596476979
 20
-151.513514054416220
  0
INSERT
  8
0
  2
SYM2
 10
51.794624596490166
 20
-74.314289596374465
  0
LINE
  8
0
  6
DASHDOT
 62
4
 10
58.991113884079823
 20
-74.314289596374465
 11
34.721912555665767
 21
-74.314289596374465
  0
LINE
  8
0
  6
CONTINUOUS
 62
3
 10
-173.705375403524270
 20
-216.814289596372870
 11
-173.705375403524270
 21
-235.814289596372870
  0
ARC
  8
0
  6
CONTINUOUS
 62
3
 10
-180.705375403524160
 20
-210.814289596372870
 40
3.000000000000000
 50
180.000000000000000
 51
270.000000000000000
  0
LINE
  8
0
  6
CONTINUOUS
 62
3
 10
-176.705375403524270
 20
-213.814289596372870
 11
-180.705375403524160
 21
-213.814289596372870
  0
ARC
  8
0
  6
CONTINUOUS
 62
3
 10
-176.705375403524270
 20
-216.814289596372870
 40
3.000000000000000
 50
0.000000000000000
 51
90.000000000000000
  0
LINE
  8
0
  6
CONTINUOUS
 62
3
 10
-183.705375403524160
 20
-210.814289596372870
 11
-183.705375403524160
 21
-175.814289596372870
  0
LINE
  8
0
  6
CONTINUOUS
 62
4
 10
-183.619039192521090
 20
-211.528826736546760
 11
-181.204972913034110
 21
-211.528826736546760
  0
LINE
  8
0
  6
CONTINUOUS
 62
4
 10
-183.705375403524160
 20
-206.096723922942150
 11
-181.505375403524450
 21
-206.096723922942150
  0
LINE
  8
0
  6
CONTINUOUS
 62
4
 10
-183.705375403524160
 20
-202.006223388852500
 11
-181.505375403524450
 21
-202.006223388852500
  0
LINE
  8
0
  6
CONTINUOUS
 62
4
 10
-183.705375403524160
 20
-200.644343053503230
 11
-181.505375403524450
 21
-200.644343053503230
  0
LINE
  8
0
  6
CONTINUOUS
 62
4
 10
-183.705375403524160
 20
-195.814289596372870
 11
-181.505375403524450
 21
-195.814289596372870
  0
LINE
  8
0
  6
CONTINUOUS
 62
4
 10
-183.705375403524160
 20
-145.531855269803600
 11
-181.505375403524450
 21
-145.531855269803600
  0
LINE
  8
0
  6
CONTINUOUS
 62
4
 10
-183.705375403524160
 20
-150.984236139242510
 11
-181.505375403524450
 21
-150.984236139242510
  0
LINE
  8
0
  6
CONTINUOUS
 62
4
 10
-183.705375403524160
 20
-149.622355803893240
 11
-181.505375403524450
 21
-149.622355803893240
  0
LINE
  8
0
  6
CONTINUOUS
 62
4
 10
-183.705375403524160
 20
-155.814289596372870
 11
-181.505375403524450
 21
-155.814289596372870
  0
LINE
  8
0
  6
CONTINUOUS
 62
4
 10
-183.619039192521090
 20
-140.099752456198980
 11
-181.204972913034110
 21
-140.099752456198980
  0
LINE
  8
0
  6
CONTINUOUS
 62
4
 10
-183.705375403524160
 20
-144.063497879998520
 11
-181.505375403524450
 21
-144.063497879998520
  0
LINE
  8
0
  6
CONTINUOUS
 62
3
 10
-173.705375403524270
 20
-134.814289596372870
 11
-173.705375403524270
 21
-115.814289596372870
  0
ARC
  8
0
  6
CONTINUOUS
 62
3
 10
-180.705375403524160
 20
-140.814289596372870
 40
3.000000000000000
 50
90.000000000000000
 51
180.000000000000000
  0
LINE
  8
0
  6
CONTINUOUS
 62
3
 10
-176.705375403524270
 20
-137.814289596372870
 11
-180.705375403524160
 21
-137.814289596372870
  0
ARC
  8
0
  6
CONTINUOUS
 62
3
 10
-176.705375403524270
 20
-134.814289596372870
 40
3.000000000000000
 50
270.000000000000000
 51
0.000000000000000
  0
LINE
  8
0
  6
CONTINUOUS
 62
3
 10
-183.705375403524160
 20
-140.814289596372870
 11
-183.705375403524160
 21
-175.814289596372870
  0
ARC
  8
0
  6
CONTINUOUS
 62
3
 10
-180.505375403524450
 20
-140.814289596372870
 40
1.000000000000000
 50
90.000000000000000
 51
180.000000000000000
  0
LINE
  8
0
  6
CONTINUOUS
 62
3
 10
-92.505375403524454
 20
-139.814289596372870
 11
-180.505375403524450
 21
-139.814289596372870
  0
LINE
  8
0
  6
CONTINUOUS
 62
3
 10
-181.505375403524450
 20
-140.814289596372870
 11
-181.505375403524450
 21
-210.814289596372870
  0
ARC
  8
0
  6
CONTINUOUS
 62
3
 10
-180.505375403524450
 20
-210.814289596372870
 40
1.000000000000000
 50
180.000000000000000
 51
270.000000000000000
  0
LINE
  8
0
  6
CONTINUOUS
 62
3
 10
-92.505375403524454
 20
-211.814289596372870
 11
-180.505375403524450
 21
-211.814289596372870
  0
ARC
  8
0
  6
CONTINUOUS
 62
3
 10
-92.505375403524454
 20
-210.814289596372870
 40
1.000000000000000
 50
270.000000000000000
 51
0.000000000000000
  0
LINE
  8
0
  6
CONTINUOUS
 62
3
 10
-91.505375403524454
 20
-140.814289596372870
 11
-91.505375403524454
 21
-210.814289596372870
  0
ARC
  8
0
  6
CONTINUOUS
 62
3
 10
-92.505375403524454
 20
-140.814289596372870
 40
1.000000000000000
 50
0.000000000000000
 51
90.000000000000000
  0
LINE
  8
0
  6
CONTINUOUS
 62
4
 10
-173.705375403524270
 20
-221.180076314842610
 11
-24.705375403524386
 21
-221.180076314842610
  0
LINE
  8
0
  6
CONTINUOUS
 62
4
 10
-182.608367961904380
 20
-213.133474652108820
 11
-24.705375403524386
 21
-213.133474652108820
  0
LINE
  8
0
  6
CONTINUOUS
 62
4
 10
-91.505375403524454
 20
-207.565081312747220
 11
-24.705375403524386
 21
-207.565081312747220
  0
LINE
  8
0
  6
CONTINUOUS
 62
4
 10
-91.505375403524454
 20
-145.531855269803600
 11
-24.705375403524386
 21
-145.531855269803600
  0
LINE
  8
0
  6
CONTINUOUS
 62
4
 10
-91.505375403524454
 20
-200.644343053503230
 11
-24.705375403524386
 21
-200.644343053503230
  0
LINE
  8
0
  6
CONTINUOUS
 62
4
 10
-91.505375403524454
 20
-206.096723922942150
 11
-24.705375403524386
 21
-206.096723922942150
  0
LINE
  8
0
  6
CONTINUOUS
 62
4
 10
-91.505375403524454
 20
-150.984236139242510
 11
-24.705375403524386
 21
-150.984236139242510
  0
LINE
  8
0
  6
CONTINUOUS
 62
4
 10
-91.505375403524454
 20
-195.814289596372870
 11
-24.705375403524386
 21
-195.814289596372870
  0
LINE
  8
0
  6
CONTINUOUS
 62
4
 10
-91.505375403524454
 20
-202.006223388852500
 11
-24.705375403524386
 21
-202.006223388852500
  0
LINE
  8
0
  6
CONTINUOUS
 62
4
 10
-91.505375403524454
 20
-149.622355803893240
 11
-24.705375403524386
 21
-149.622355803893240
  0
LINE
  8
0
  6
CONTINUOUS
 62
4
 10
-91.505375403524454
 20
-155.814289596372870
 11
-24.705375403524386
 21
-155.814289596372870
  0
LINE
  8
0
  6
CONTINUOUS
 62
4
 10
-182.608367961904380
 20
-138.495104540636930
 11
-24.705375403524386
 21
-138.495104540636930
  0
LINE
  8
0
  6
DASHDOT
 62
4
 10
-10.111660532582391
 20
-175.814289596372870
 11
-286.634587941870900
 21
-175.814289596372870
  0
LINE
  8
0
  6
CONTINUOUS
 62
4
 10
-91.505375403524454
 20
-144.063497879998520
 11
-24.705375403524386
 21
-144.063497879998520
  0
LINE
  8
0
  6
CONTINUOUS
 62
4
 10
-91.805777894014568
 20
-140.099752456198980
 11
-24.705375403524386
 21
-140.099752456198980
  0
LINE
  8
0
  6
CONTINUOUS
 62
4
 10
-91.805777894014795
 20
-211.528826736546760
 11
-24.705375403524386
 21
-211.528826736546760
  0
ARC
  8
0
  6
CONTINUOUS
 62
3
 10
-470.740772475531120
 20
-219.814289596371050
 40
70.000000000000000
 50
270.000000000000000
 51
0.000000000000000
  0
LINE
  8
0
  6
CONTINUOUS
 62
3
 10
-400.740772475531230
 20
-211.814289596372870
 11
-400.740772475531120
 21
-219.814289596371050
  0
LINE
  8
0
  6
CONTINUOUS
 62
3
 10
-420.524328139245770
 20
-137.648097791781310
 11
-382.800424202308360
 21
-99.924193854844361
  0
LINE
  8
0
  6
CONTINUOUS
 62
3
 10
-412.791025007225930
 20
-139.814289596372870
 11
-378.612570368913910
 21
-105.635834958061420
  0
ARC
  8
0
  6
CONTINUOUS
 62
3
 10
-424.059862045178650
 20
-134.112563885848430
 40
5.000000000000013
 50
293.429622538530400
 51
315.000000000000000
  0
ARC
  8
0
  6
CONTINUOUS
 62
3
 10
-447.367871550320050
 20
-204.702319321511140
 40
26.599999999999955
 50
315.000000000001020
 51
353.948014641331380
  0
ARC
  8
0
  6
CONTINUOUS
 62
3
 10
-447.367871550320270
 20
-146.926259871234610
 40
26.600000000000193
 50
6.051985358668552
 51
45.000000000000000
  0
ARC
  8
0
  6
CONTINUOUS
 62
3
 10
-719.840772475530570
 20
-175.814289596372870
 40
300.600000000000080
 50
353.948014641331500
 51
6.051985358668499
  0
LINE
  8
0
  6
CONTINUOUS
 62
3
 10
-420.895777534989630
 20
-144.314289596372650
 11
-420.740772475530660
 21
-144.314289596372650
  0
LINE
  8
0
  6
CONTINUOUS
 62
3
 10
-420.740772475530660
 20
-207.314289596372870
 11
-420.740772475530660
 21
-205.806788658639560
  0
LINE
  8
0
  6
CONTINUOUS
 62
3
 10
-420.740772475530660
 20
-145.821790534105960
 11
-420.740772475530660
 21
-144.314289596372650
  0
LINE
  8
0
  6
CONTINUOUS
 62
3
 10
-420.895777534989630
 20
-207.314289596372870
 11
-420.740772475530660
 21
-207.314289596372870
  0
LINE
  8
0
  6
DASHDOT
 62
4
 10
-657.530946174500400
 20
-175.814289596372870
 11
-312.029701558274950
 21
-175.814289596372870
  0
LINE
  8
0
  6
CONTINUOUS
 62
3
 10
-420.740772475530550
 20
-145.821790534106070
 11
-420.740772475530550
 21
-139.814289596372870
  0
LINE
  8
0
  6
CONTINUOUS
 62
3
 10
-420.740772475530550
 20
-205.806788658639680
 11
-420.740772475530550
 21
-211.814289596372870
  0
ARC
  8
0
  6
CONTINUOUS
 62
3
 10
-393.374107702588160
 20
-144.814289596372870
 40
5.000000000000131
 50
6.032049146369048
 51
90.000000000000000
  0
LINE
  8
0
  6
CONTINUOUS
 62
3
 10
-421.934468966609980
 20
-139.814289596372870
 11
-393.374107702588160
 21
-139.814289596372870
  0
LINE
  8
0
  6
CONTINUOUS
 62
3
 10
-421.934468966609980
 20
-211.814289596372870
 11
-393.374107702588160
 21
-211.814289596372870
  0
ARC
  8
0
  6
CONTINUOUS
 62
3
 10
-393.374107702588160
 20
-206.814289596372870
 40
5.000000000000000
 50
270.000000000000000
 51
353.967950853629650
  0
ARC
  8
0
  6
CONTINUOUS
 62
3
 10
-686.740772475530550
 20
-175.814289596372990
 40
300.000000000000060
 50
353.967950853630210
 51
6.032049146369816
  0
LINE
  8
0
  6
CONTINUOUS
 62
4
 10
-173.705375403524270
 20
-226.129823783148370
 11
-24.705375403524386
 21
-226.129823783148370
  0
LINE
  8
0
  6
CONTINUOUS
 62
4
 10
-173.705375403524270
 20
-118.814289596372870
 11
-24.705375403524386
 21
-118.814289596372870
  0
LINE
  8
0
  6
CONTINUOUS
 62
4
 10
-173.705375403524270
 20
-118.314289596372870
 11
-24.705375403524386
 21
-118.314289596372870
  0
LINE
  8
0
  6
CONTINUOUS
 62
4
 10
-173.705375403524270
 20
-119.814289596372870
 11
-24.705375403524386
 21
-119.814289596372870
  0
LINE
  8
0
  6
CONTINUOUS
 62
4
 10
-173.705375403524270
 20
-120.814289596372870
 11
-24.705375403524386
 21
-120.814289596372870
  0
LINE
  8
0
  6
CONTINUOUS
 62
4
 10
-173.705375403524270
 20
-125.498755409597370
 11
-24.705375403524386
 21
-125.498755409597370
  0
LINE
  8
0
  6
CONTINUOUS
 62
4
 10
-173.705375403524270
 20
-130.448502877903140
 11
-24.705375403524386
 21
-130.448502877903140
  0
LINE
  8
0
  6
CONTINUOUS
 62
3
 10
-24.705375403524386
 20
-117.314289596372870
 11
-173.705375403524270
 21
-117.314289596372870
  0
LINE
  8
0
  6
CONTINUOUS
 62
4
 10
-173.705375403524270
 20
-233.314289596372870
 11
-24.705375403524386
 21
-233.314289596372870
  0
LINE
  8
0
  6
CONTINUOUS
 62
4
 10
-173.705375403524270
 20
-232.814289596372870
 11
-24.705375403524386
 21
-232.814289596372870
  0
LINE
  8
0
  6
CONTINUOUS
 62
4
 10
-173.705375403524270
 20
-231.814289596372870
 11
-24.705375403524386
 21
-231.814289596372870
  0
LINE
  8
0
  6
CONTINUOUS
 62
4
 10
-173.705375403524270
 20
-230.814289596372870
 11
-24.705375403524386
 21
-230.814289596372870
  0
LINE
  8
0
  6
CONTINUOUS
 62
3
 10
-24.705375403524386
 20
-234.314289596372870
 11
-173.705375403524270
 21
-234.314289596372870
  0
ARC
  8
0
  6
CONTINUOUS
 62
3
 10
50.794624596494714
 20
-124.712218729802540
 40
1.999999999999663
 50
93.000000000006111
 51
180.000000000000000
  0
LINE
  8
0
  6
CONTINUOUS
 62
3
 10
63.556304377708102
 20
-122.040662740552530
 11
50.689952684008631
 21
-122.714959660293740
  0
ARC
  8
0
  6
CONTINUOUS
 62
3
 10
46.794624596498352
 20
-130.314289596373560
 40
2.000000000000000
 50
270.000000000000000
 51
0.000000000000000
  0
LINE
  8
0
  6
CONTINUOUS
 62
3
 10
48.794624596494714
 20
-206.314289596373560
 11
48.794624596494714
 21
-124.712218729802540
  0
ARC
  8
0
  6
CONTINUOUS
 62
3
 10
50.794624596498352
 20
-287.916360462943660
 40
2.000000000000000
 50
180.000000000000000
 51
266.999999999993860
  0
ARC
  8
0
  6
CONTINUOUS
 62
3
 10
46.794624596498352
 20
-282.314289596372650
 40
2.000000000000000
 50
0.000000000000000
 51
90.000000000000000
  0
LINE
  8
0
  6
CONTINUOUS
 62
3
 10
48.794624596498352
 20
-206.314289596373560
 11
48.794624596498352
 21
-287.916360462943660
  0
LINE
  8
0
  6
CONTINUOUS
 62
3
 10
63.556304377708102
 20
-290.587916452193670
 11
50.689952684012269
 21
-289.913619532452460
  0
ARC
  8
0
  6
CONTINUOUS
 62
3
 10
33.794624596475614
 20
-168.314289596373210
 40
3.000000000000000
 50
270.000000000000000
 51
0.000000000000000
  0
ARC
  8
0
  6
CONTINUOUS
 62
3
 10
4.098878076793767
 20
-236.314289596372590
 40
2.999999999999957
 50
31.045490826862743
 51
90.000000000000000
  0
LINE
  8
0
  6
CONTINUOUS
 62
3
 10
36.794624596475614
 20
-284.814289596372930
 11
6.669152402352779
 21
-234.767134177104080
  0
LINE
  8
0
  6
CONTINUOUS
 62
3
 10
7.570772956102928
 20
-233.314289596372480
 11
24.127751568273425
 21
-233.314289596372480
  0
LINE
  8
0
  6
DASHDOT
 62
4
 10
16.794624596475614
 20
-154.058401588092290
 11
16.794624596475614
 21
-125.418499327276830
  0
LINE
  8
0
  6
CONTINUOUS
 62
3
 10
46.794624596475614
 20
-289.814289596373160
 11
46.794624596475614
 21
-277.314289596372930
  0
LINE
  8
0
  6
CONTINUOUS
 62
3
 10
46.794624596475614
 20
-122.814289596373150
 11
46.794624596475614
 21
-277.314289596372930
  0
LINE
  8
0
  6
CONTINUOUS
 62
3
 10
36.794624596475614
 20
-274.106526680525520
 11
34.854277410685739
 21
-266.865052398834340
  0
POINT
  8
0
  6
CONTINUOUS
 62
3
 10
36.794624596475614
 20
-284.814289596373160
  0
ARC
  8
0
  6
CONTINUOUS
 62
3
 10
39.794624596475614
 20
-286.568015577034490
 40
3.000000000000000
 50
180.000000000000000
 51
268.000000000000680
  0
LINE
  8
0
  6
CONTINUOUS
 62
3
 10
39.689926106368148
 20
-289.566188058091770
 11
46.794624596475614
 21
-289.814289596373160
  0
LINE
  8
0
  6
CONTINUOUS
 62
3
 10
36.794624596475614
 20
-274.106526680525520
 11
36.794624596475614
 21
-286.568015577034490
  0
LINE
  8
0
  6
CONTINUOUS
 62
3
 10
32.794638422519469
 20
-259.178375049747610
 11
27.021921105418869
 21
-237.634300724595790
  0
ARC
  8
0
  6
CONTINUOUS
 62
3
 10
31.794624596475614
 20
-135.314289596373380
 40
5.000000000000000
 50
270.000000000000000
 51
0.000000000000000
  0
ARC
  8
0
  6
CONTINUOUS
 62
3
 10
31.936507773724770
 20
-124.314289596373150
 40
5.000000000000000
 50
270.000000000000000
 51
349.193077125139720
  0
ARC
  8
0
  6
CONTINUOUS
 62
3
 10
39.794624596475614
 20
-125.814289596373150
 40
3.000000000000000
 50
90.000000000000000
 51
180.000000000000000
  0
LINE
  8
0
  6
CONTINUOUS
 62
3
 10
39.794624596475614
 20
-122.814289596373150
 11
46.794624596475614
 21
-122.814289596373150
  0
ARC
  8
0
  6
CONTINUOUS
 62
3
 10
33.794624596475614
 20
-198.814289596374980
 40
3.000000000000000
 50
0.000000000000000
 51
90.000000000000000
  0
LINE
  8
0
  6
CONTINUOUS
 62
3
 10
36.794624596475614
 20
-125.814289596373150
 11
36.794624596475614
 21
-274.106526680525410
  0
ARC
  8
0
  6
CONTINUOUS
 62
3
 10
-2.205375403524386
 20
-222.011312020639080
 40
5.000000000000000
 50
0.000000000000000
 51
90.000000000000000
  0
LINE
  8
0
  6
CONTINUOUS
 62
3
 10
2.794624596475614
 20
-235.755503526658520
 11
2.794624596475614
 21
-222.011312020639080
  0
LINE
  8
0
  6
CONTINUOUS
 62
3
 10
-24.705375403524386
 20
-217.011312020638970
 11
-2.205375403524386
 21
-217.011312020639080
  0
LINE
  8
0
  6
CONTINUOUS
 62
3
 10
-24.705375403524386
 20
-195.814289596374980
 11
33.794624596475614
 21
-195.814289596374980
  0
LINE
  8
0
  6
CONTINUOUS
 62
3
 10
7.409681754600797
 20
-235.997368423580440
 11
-24.705375403528137
 21
-234.314289596372930
  0
LINE
  8
0
  6
CONTINUOUS
 62
3
 10
-24.705375403524386
 20
-234.314289596373160
 11
-24.705375403524386
 21
-117.314289596372530
  0
LINE
  8
0
  6
CONTINUOUS
 62
3
 10
-5.705375403525750
 20
-155.814289596374980
 11
-24.705375403524386
 21
-155.814289596374980
  0
ARC
  8
0
  6
CONTINUOUS
 62
3
 10
-0.705375403526205
 20
-166.314289596373210
 40
5.000000000000000
 50
179.999999999997410
 51
270.000000000000000
  0
LINE
  8
0
  6
CONTINUOUS
 62
3
 10
-0.705375403526205
 20
-171.314289596373210
 11
33.794624596475614
 21
-171.314289596373210
  0
ARC
  8
0
  6
CONTINUOUS
 62
3
 10
-10.705375403524386
 20
-121.587442416399930
 40
5.000000000000000
 50
359.999999999998070
 51
92.999999999999048
  0
LINE
  8
0
  6
CONTINUOUS
 62
3
 10
-5.705375403524499
 20
-124.314289596372930
 11
-5.705375403524386
 21
-121.587442416400100
  0
ARC
  8
0
  6
CONTINUOUS
 62
3
 10
-0.705375403524499
 20
-124.314289596373150
 40
5.000000000000000
 50
179.999999999997410
 51
270.000000000000000
  0
ARC
  8
0
  6
CONTINUOUS
 62
3
 10
-0.705375403524954
 20
-135.314289596373380
 40
5.000000000000000
 50
179.999999999997410
 51
270.000000000000000
  0
LINE
  8
0
  6
CONTINUOUS
 62
3
 10
-5.705375403526205
 20
-166.314289596372990
 11
-5.705375403524499
 21
-124.314289596372930
  0
LINE
  8
0
  6
CONTINUOUS
 62
3
 10
31.936507773724770
 20
-129.314289596373160
 11
-0.705375403524499
 21
-129.314289596373160
  0
LINE
  8
0
  6
CONTINUOUS
 62
3
 10
31.794624596475614
 20
-140.314289596373380
 11
-0.705375403524954
 21
-140.314289596373380
  0
LINE
  8
0
  6
CONTINUOUS
 62
3
 10
-10.967055184739024
 20
-116.594294742627020
 11
-24.705375403524386
 21
-117.314289596372870
  0
LINE
  8
0
  6
DASHED
 62
3
 10
596.316452711952710
 20
-221.806908089120040
 11
597.914456454157290
 21
-221.727007902009060
  0
ARC
  8
0
  6
CONTINUOUS
 62
3
 10
534.829260734872830
 20
-171.952460271690140
 40
107.308449038694430
 50
7.943216783021247
 51
87.075476210271674
  0
CIRCLE
  8
0
  6
CONTINUOUS
 62
3
 10
509.798028183609400
 20
-166.314289596374010
 40
44.000000000000000
  0
ARC
  8
0
  6
CONTINUOUS
 62
3
 10
568.003399978034850
 20
-221.197207651745880
 40
10.000000000000068
 50
136.682825299161440
 51
238.061807908989040
  0
ARC
  8
0
  6
CONTINUOUS
 62
3
 10
582.508068755734030
 20
-159.814289596373560
 40
3.000000000000029
 50
185.108444450886450
 51
270.000000000000000
  0
ARC
  8
0
  6
CONTINUOUS
 62
3
 10
582.508068755734030
 20
-172.814289596373560
 40
3.000000000000000
 50
90.000000000000000
 51
174.891555549113520
  0
ARC
  8
0
  6
CONTINUOUS
 62
3
 10
636.156112431048310
 20
-157.814289596373560
 40
5.000000000000000
 50
270.000000000000000
 51
7.943216783020048
  0
ARC
  8
0
  6
CONTINUOUS
 62
3
 10
637.137709773567170
 20
-174.814289596373560
 40
5.000000000000000
 50
0.000000000000000
 51
90.000000000000000
  0
LINE
  8
0
  6
DASHDOT
 62
4
 10
558.197305834341480
 20
-175.814289596359460
 11
460.334489715979090
 21
-175.814289596359460
  0
LINE
  8
0
  6
CONTINUOUS
 62
3
 10
644.641455906283230
 20
-162.814289596373560
 11
582.508068755734030
 21
-162.814289596373560
  0
LINE
  8
0
  6
CONTINUOUS
 62
3
 10
644.641455906283230
 20
-169.814289596373560
 11
582.508068755734030
 21
-169.814289596373560
  0
ARC
  8
0
  6
DASHED
 62
3
 10
593.519946163094800
 20
-149.856789596359450
 40
18.799999999999933
 50
35.808626813495749
 51
85.126025186157264
  0
ARC
  8
0
  6
DASHED
 62
3
 10
589.694191529007870
 20
-129.411653219221730
 40
1.999999999999958
 50
280.598785266065990
 51
2.862405226112724
  0
ARC
  8
0
  6
DASHED
 62
3
 10
595.287204626723680
 20
-129.132002564335920
 40
1.999999999999927
 50
182.862405226112710
 51
265.126025186159040
  0
LINE
  8
0
  6
DASHED
 62
3
 10
592.820819525880320
 20
-119.854269336469050
 11
591.222815783675740
 21
-119.934169523579240
  0
ARC
  8
0
  6
DASHED
 62
3
 10
593.519946163094800
 20
-149.856789596359450
 40
18.799999999999983
 50
100.598785266066050
 51
180.000000000000000
  0
LINE
  8
0
  6
DASHED
 62
3
 10
592.820819525880320
 20
-119.854269336469050
 11
597.914456454157290
 21
-221.727007902009060
  0
LINE
  8
0
  6
DASHED
 62
3
 10
591.222815783675740
 20
-119.934169523579240
 11
596.316452711952710
 21
-221.806908089120040
  0
ARC
  8
0
  6
DASHED
 62
3
 10
599.446411994427080
 20
-212.316149918402940
 40
1.999999999999995
 50
99.916536608232732
 51
182.862405226112400
  0
ARC
  8
0
  6
DASHED
 62
3
 10
593.853398896711270
 20
-212.595800573288760
 40
1.999999999999927
 50
2.862405226112724
 51
85.808273843998350
  0
ARC
  8
0
  6
DASHED
 62
3
 10
595.519946163094800
 20
-189.856789596359450
 40
20.799999999999955
 50
180.000000000000000
 51
265.808273843992540
  0
LINE
  8
0
  6
DASHED
 62
3
 10
574.719946163094850
 20
-189.856789596359450
 11
574.719946163094850
 21
-149.856789596359450
  0
ARC
  8
0
  6
DASHED
 62
3
 10
595.519946163094800
 20
-189.856789596359450
 40
20.800000000000040
 50
279.916536608230560
 51
334.359929784105190
  0
ARC
  8
0
  6
DASHED
 62
3
 10
595.519946163094800
 20
-189.856789596359450
 40
20.799999999999926
 50
334.359929784105190
 51
5.724810452223396
  0
LINE
  8
0
  6
DASHED
 62
3
 10
616.216205514715740
 20
-187.781976628778440
 11
612.226180577059720
 21
-147.981477875661170
  0
ARC
  8
0
  6
DASHED
 62
3
 10
593.519946163094800
 20
-149.856789596359450
 40
18.799999999999837
 50
5.724810452223617
 51
35.808626813495749
  0
LINE
  8
0
  6
DASHED
 62
3
 10
427.634652519852410
 20
-184.419986274521080
 11
427.634275818497430
 21
-184.419986274521080
  0
LINE
  8
0
  6
CONTINUOUS
 62
3
 10
374.954600460935640
 20
-162.814289596373560
 11
437.087987611484830
 21
-162.814289596373560
  0
LINE
  8
0
  6
CONTINUOUS
 62
3
 10
374.954600460935640
 20
-169.814289596373560
 11
437.087987611484830
 21
-169.814289596373560
  0
ARC
  8
0
  6
DASHED
 62
3
 10
449.998028183609730
 20
-202.114289596359410
 40
0.200000000000045
 50
180.000000000000000
 51
270.000000000000000
  0
ARC
  8
0
  6
CONTINUOUS
 62
3
 10
436.720565012642570
 20
-198.867083278267500
 40
9.999999999999854
 50
294.115030123906250
 51
24.010868112054702
  0
ARC
  8
0
  6
CONTINUOUS
 62
3
 10
463.277608882545340
 20
-258.194340259288080
 40
55.000000000000114
 50
114.115030123906930
 51
159.806925700099980
  0
ARC
  8
0
  6
CONTINUOUS
 62
3
 10
437.087987611484830
 20
-159.814289596373560
 40
3.000000000000000
 50
270.000000000000000
 51
354.891555549113550
  0
ARC
  8
0
  6
CONTINUOUS
 62
3
 10
437.087987611484830
 20
-172.814289596373560
 40
3.000000000000029
 50
5.108444450886473
 51
90.000000000000000
  0
ARC
  8
0
  6
CONTINUOUS
 62
3
 10
463.277608882545340
 20
-258.194340259288080
 40
47.999999999999993
 50
113.824470809971170
 51
164.803706655299460
  0
ARC
  8
0
  6
CONTINUOUS
 62
3
 10
439.849318833031300
 20
-205.136680818300190
 40
10.000000000000089
 50
293.824470809970080
 51
29.030811683541202
  0
ARC
  8
0
  6
DASHED
 62
3
 10
449.998028183609730
 20
-202.114289596359410
 40
0.200000000000045
 50
180.000000000000000
 51
270.000000000000000
  0
CIRCLE
  8
0
  6
CONTINUOUS
 62
3
 10
509.798028183609400
 20
-166.314289596373560
 40
70.000000000000000
  0
LINE
  8
0
  6
DASHDOT
 62
4
 10
693.112715163961640
 20
-166.314289596373560
 11
334.167792315109690
 21
-166.314289596373560
  0
LINE
  8
0
  6
DASHED
 62
3
 10
411.798028183609690
 20
-178.314289596359460
 11
411.798028183609690
 21
-173.314289596359460
  0
LINE
  8
0
  6
DASHED
 62
3
 10
412.298030040807190
 20
-173.314289596359460
 11
411.798028183609690
 21
-173.314289596359460
  0
LINE
  8
0
  6
DASHED
 62
3
 10
412.308445031127410
 20
-178.314289596359460
 11
411.798028183609690
 21
-178.314289596359460
  0
ARC
  8
0
  6
DASHED
 62
3
 10
418.931363410667070
 20
-144.814289596359460
 40
5.000000000000000
 50
90.000000000000000
 51
173.967950853629390
  0
LINE
  8
0
  6
DASHED
 62
3
 10
451.298028183609690
 20
-139.814289596359460
 11
418.931363410667070
 21
-139.814289596359460
  0
LINE
  8
0
  6
DASHED
 62
3
 10
446.298028183609690
 20
-211.814289596359460
 11
446.298028183609690
 21
-139.814289596359460
  0
LINE
  8
0
  6
DASHED
 62
3
 10
451.298028183609690
 20
-211.814289596359460
 11
418.931363410667070
 21
-211.814289596359460
  0
LINE
  8
0
  6
DASHED
 62
3
 10
446.298028183609690
 20
-210.314289596359460
 11
446.298028183609690
 21
-211.814289596359460
  0
LINE
  8
0
  6
DASHED
 62
3
 10
451.298028183609690
 20
-196.314289596359460
 11
451.298028183609690
 21
-211.814289596359460
  0
LINE
  8
0
  6
DASHED
 62
3
 10
451.298028183609690
 20
-196.314289596359460
 11
449.998028183609730
 21
-196.314289596359460
  0
LINE
  8
0
  6
DASHED
 62
3
 10
449.798028183609690
 20
-155.314289596359460
 11
449.798028183609690
 21
-196.114289596359410
  0
LINE
  8
0
  6
DASHED
 62
3
 10
451.298028183609690
 20
-155.314289596359460
 11
451.298028183609690
 21
-139.814289596359460
  0
LINE
  8
0
  6
DASHED
 62
3
 10
451.298028183609690
 20
-155.314289596359460
 11
449.798028183609690
 21
-155.314289596359460
  0
ARC
  8
0
  6
DASHED
 62
3
 10
712.298028183609630
 20
-175.814289596359460
 40
300.000000000000000
 50
173.967950853630190
 51
186.032049146369810
  0
ARC
  8
0
  6
DASHED
 62
3
 10
418.931363410667070
 20
-206.814289596359460
 40
4.999999999999917
 50
186.032049146370610
 51
270.000000000000000
  0
TEXT
  8
0
  6
CONTINUOUS
 62
3
 10
-529.410644531250000
 20
183.441146850585940
 40
11.325599670410156
  1
Ｓ２０７
 50
0.000002504478167
 41
0.984848580536205
  7
STANDARD1
  0
TEXT
  8
0
  6
CONTINUOUS
 62
3
 10
-529.410644531250000
 20
165.251541137695310
 40
11.325599670410156
  1
三菱ギヤードモートル
 50
0.000002504478167
 41
0.984848580536205
  7
STANDARD1
  0
TEXT
  8
0
  6
CONTINUOUS
 62
3
 10
-529.410644531250000
 20
147.061950683593750
 40
11.325599670410156
  1
ＧＭ－ＳＦＳＢ
 50
0.000002504478167
 41
0.984848580536205
  7
STANDARD1
  0
TEXT
  8
0
  6
CONTINUOUS
 62
3
 10
-529.410644531250000
 20
128.872344970703120
 40
11.325599670410156
  1
０．４ｋＷ
 50
0.000002504478167
 41
0.984848580536205
  7
STANDARD1
  0
TEXT
  8
0
  6
CONTINUOUS
 62
3
 10
-529.410644531250000
 20
110.682739257812500
 40
11.325599670410156
  1
１／５４０～１／９００
 50
0.000002504478167
 41
0.984848580536205
  7
STANDARD1
  0
TEXT
  8
0
  6
CONTINUOUS
 62
3
 10
-529.410644531250000
 20
92.493141174316406
 40
11.325599670410156
  1
ＳＣＡＬＥ１／１
 50
0.000002504478167
 41
0.984848580536205
  7
STANDARD1
  0
ARC
  8
0
  6
CONTINUOUS
 62
3
 10
-494.740772475530660
 20
-74.314289596374465
 40
10.000000000000000
 50
180.000000000000000
 51
270.000000000000000
  0
LINE
  8
0
  6
CONTINUOUS
 62
3
 10
-494.740772475530660
 20
-84.314289596374465
 11
-473.740772475530660
 21
-84.314289596374465
  0
ARC
  8
0
  6
CONTINUOUS
 62
3
 10
-473.740772475530660
 20
-74.314289596374465
 40
10.000000000000000
 50
270.000000000000000
 51
0.000000000000000
  0
LINE
  8
0
  6
DASHDOT
 62
4
 10
-484.240772475530660
 20
8.921065930266195
 11
-484.240772475530660
 21
-347.638028369194220
  0
LINE
  8
0
  6
DASHDOT
 62
4
 10
-514.706930867882310
 20
-166.314289596371280
 11
-453.033376496443790
 21
-166.314289596371280
  0
ARC
  8
0
  6
CONTINUOUS
 62
3
 10
-484.240772475530660
 20
64.785710403627320
 40
300.600000000000190
 50
270.000000000000000
 51
278.597082237249080
  0
ARC
  8
0
  6
CONTINUOUS
 62
3
 10
-484.240772475530660
 20
64.785710403627320
 40
300.600000000000080
 50
261.402917762750920
 51
270.000000000000000
  0
ARC
  8
0
  6
CONTINUOUS
 62
4
 10
-484.240772475530660
 20
-416.414289596372780
 40
289.396999999999930
 50
90.000000000000000
 51
97.897988672427743
  0
ARC
  8
0
  6
CONTINUOUS
 62
4
 10
-523.182290430912760
 20
-135.705512055786130
 40
5.999999999999923
 50
97.897988672425626
 51
134.999999999996930
  0
LINE
  8
0
  6
CONTINUOUS
 62
4
 10
-527.424931118031850
 20
-131.462871368666580
 11
-532.000996510670460
 21
-136.038936761305190
  0
ARC
  8
0
  6
CONTINUOUS
 62
4
 10
-248.640772475530750
 20
-175.814289596372870
 40
289.396999999999930
 50
173.948014641331470
 51
180.000000000000000
  0
ARC
  8
0
  6
CONTINUOUS
 62
3
 10
-528.189359905813150
 20
-125.717675128844570
 40
6.599999999999971
 50
98.597082237248614
 51
134.999999999998610
  0
ARC
  8
0
  6
CONTINUOUS
 62
3
 10
-488.240772475530660
 20
-147.091476363682430
 40
1.499999999999998
 50
277.928141766204020
 51
0.000000000000000
  0
ARC
  8
0
  6
CONTINUOUS
 62
3
 10
-484.240772475530210
 20
-175.814289596372870
 40
33.499999999999950
 50
97.180755781459069
 51
142.819244218541740
  0
ARC
  8
0
  6
CONTINUOUS
 62
3
 10
-484.240772475530210
 20
-175.814289596372870
 40
43.000000000000043
 50
95.531071524839788
 51
144.468928475160770
  0
ARC
  8
0
  6
CONTINUOUS
 62
3
 10
-484.240772475530210
 20
-175.814289596372870
 40
37.000000000000099
 50
95.963570118321798
 51
144.036429881678830
  0
ARC
  8
0
  6
CONTINUOUS
 62
3
 10
-507.115458403196390
 20
-157.988781364889750
 40
1.499999999999926
 50
239.999999999998410
 51
322.071858233800300
  0
ARC
  8
0
  6
CONTINUOUS
 62
3
 10
-509.736226645265220
 20
-156.475680114847590
 40
1.500000000000103
 50
142.819244218542510
 51
239.999999999998410
  0
ARC
  8
0
  6
CONTINUOUS
 62
3
 10
-515.402308929681450
 20
-153.204365982689300
 40
1.500000000000123
 50
240.000000000002730
 51
324.036429881683720
  0
LINE
  8
0
  6
CONTINUOUS
 62
3
 10
-507.865458403196390
 20
-159.287819470566320
 11
-510.486226645265220
 21
-157.774718220524160
  0
LINE
  8
0
  6
CONTINUOUS
 62
3
 10
-516.152308929681450
 20
-154.503404088366100
 11
-518.763492528665550
 21
-152.995836534588990
  0
ARC
  8
0
  6
CONTINUOUS
 62
3
 10
-518.013492528665550
 20
-151.696798428912190
 40
1.499999999999976
 50
144.468928475160790
 51
240.000000000002730
  0
ARC
  8
0
  6
CONTINUOUS
 62
3
 10
-513.736226645265670
 20
-188.224695847622570
 40
1.500000000000157
 50
202.819244218546660
 51
300.000000000001590
  0
LINE
  8
0
  6
CONTINUOUS
 62
3
 10
-512.986226645265670
 20
-189.523733953299140
 11
-510.365458403196390
 21
-188.010632703257220
  0
ARC
  8
0
  6
CONTINUOUS
 62
3
 10
-519.402308929681910
 20
-191.496009979780870
 40
1.499999999999926
 50
300.000000000001590
 51
24.036429881677126
  0
LINE
  8
0
  6
CONTINUOUS
 62
3
 10
-521.263492528666010
 20
-194.302615639234770
 11
-518.652308929681910
 21
-192.795048085457440
  0
ARC
  8
0
  6
CONTINUOUS
 62
3
 10
-522.013492528666010
 20
-193.003577533557750
 40
1.500000000000128
 50
204.468928475167470
 51
299.999999999992950
  0
ARC
  8
0
  6
CONTINUOUS
 62
3
 10
-511.115458403196390
 20
-186.711594597580190
 40
1.500000000000320
 50
299.999999999992950
 51
22.071858233784546
  0
ARC
  8
0
  6
CONTINUOUS
 62
3
 10
-484.240772475530430
 20
-175.814289596373330
 40
33.499999999999794
 50
157.180755781458400
 51
202.819244218540940
  0
ARC
  8
0
  6
CONTINUOUS
 62
3
 10
-484.240772475530430
 20
-175.814289596373330
 40
43.000000000000121
 50
155.531071524839230
 51
204.468928475160200
  0
ARC
  8
0
  6
CONTINUOUS
 62
3
 10
-484.240772475530430
 20
-175.814289596373330
 40
37.000000000000156
 50
155.963570118321120
 51
204.036429881678230
  0
ARC
  8
0
  6
CONTINUOUS
 62
3
 10
-484.240772475531120
 20
-175.814289596372870
 40
27.499999999999886
 50
157.928141766202200
 51
202.071858233798680
  0
ARC
  8
0
  6
CONTINUOUS
 62
3
 10
-511.115458403196610
 20
-164.916984595165560
 40
1.500000000000110
 50
337.928141766202600
 51
59.999999999998380
  0
ARC
  8
0
  6
CONTINUOUS
 62
3
 10
-513.736226645265450
 20
-163.403883345123630
 40
1.500000000000123
 50
60.000000000002721
 51
157.180755781457980
  0
ARC
  8
0
  6
CONTINUOUS
 62
3
 10
-519.402308929681680
 20
-160.132569212965340
 40
1.499999999999855
 50
335.963570118319300
 51
59.999999999990862
  0
LINE
  8
0
  6
CONTINUOUS
 62
3
 10
-510.365458403196610
 20
-163.617946489488990
 11
-512.986226645265450
 21
-162.104845239446830
  0
LINE
  8
0
  6
CONTINUOUS
 62
3
 10
-518.652308929681450
 20
-158.833531107288760
 11
-521.263492528666010
 21
-157.325963553511660
  0
ARC
  8
0
  6
CONTINUOUS
 62
3
 10
-522.013492528666010
 20
-158.625001659188230
 40
1.499999999999926
 50
59.999999999998380
 51
155.531071524840400
  0
ARC
  8
0
  6
CONTINUOUS
 62
3
 10
-509.736226645265670
 20
-195.152899077897930
 40
1.499999999999926
 50
120.000000000001620
 51
217.180755781464400
  0
LINE
  8
0
  6
CONTINUOUS
 62
3
 10
-510.486226645265670
 20
-193.853860972221360
 11
-507.865458403196390
 21
-192.340759722178970
  0
ARC
  8
0
  6
CONTINUOUS
 62
3
 10
-515.402308929681910
 20
-198.424213210056220
 40
1.499999999999968
 50
35.963570118309242
 51
120.000000000001620
  0
LINE
  8
0
  6
CONTINUOUS
 62
3
 10
-518.763492528666010
 20
-198.632742658156990
 11
-516.152308929681910
 21
-197.125175104379650
  0
ARC
  8
0
  6
CONTINUOUS
 62
3
 10
-518.013492528666010
 20
-199.931780763833560
 40
1.499999999999926
 50
120.000000000001620
 51
215.531071524832130
  0
ARC
  8
0
  6
CONTINUOUS
 62
3
 10
-507.115458403196390
 20
-193.639797827856000
 40
1.500000000000122
 50
37.928141766218701
 51
119.999999999992930
  0
ARC
  8
0
  6
CONTINUOUS
 62
3
 10
-484.240772475530890
 20
-175.814289596372420
 40
33.500000000000163
 50
217.180755781459110
 51
262.819244218541770
  0
ARC
  8
0
  6
CONTINUOUS
 62
3
 10
-484.240772475530890
 20
-175.814289596372420
 40
42.999999999999858
 50
215.531071524839690
 51
264.468928475160850
  0
ARC
  8
0
  6
CONTINUOUS
 62
3
 10
-484.240772475530890
 20
-175.814289596372420
 40
37.000000000000021
 50
215.963570118321970
 51
264.036429881678940
  0
ARC
  8
0
  6
CONTINUOUS
 62
3
 10
-484.240772475530890
 20
-175.814289596373330
 40
27.499999999999780
 50
217.928141766201070
 51
262.071858233797400
  0
ARC
  8
0
  6
CONTINUOUS
 62
3
 10
-488.240772475530890
 20
-204.537102829063310
 40
1.500000000000000
 50
0.000000000000000
 51
82.071858233804562
  0
ARC
  8
0
  6
CONTINUOUS
 62
3
 10
-488.240772475530890
 20
-207.563305329147620
 40
1.499999999999998
 50
262.819244218541710
 51
0.000000000000000
  0
ARC
  8
0
  6
CONTINUOUS
 62
3
 10
-488.240772475530890
 20
-214.105933593464210
 40
1.500000000000000
 50
0.000000000017370
 51
84.036429881682594
  0
LINE
  8
0
  6
CONTINUOUS
 62
3
 10
-486.740772475530890
 20
-204.537102829063310
 11
-486.740772475530890
 21
-207.563305329147620
  0
LINE
  8
0
  6
CONTINUOUS
 62
3
 10
-486.740772475530890
 20
-214.105933593463760
 11
-486.740772475530890
 21
-217.121068701017980
  0
ARC
  8
0
  6
CONTINUOUS
 62
3
 10
-488.240772475530890
 20
-217.121068701017980
 40
1.500000000000430
 50
264.468928475160000
 51
0.000000000000000
  0
ARC
  8
0
  6
CONTINUOUS
 62
3
 10
-458.745318305795650
 20
-195.152899077897930
 40
1.500000000000240
 50
322.819244218535570
 51
59.999999999998380
  0
LINE
  8
0
  6
CONTINUOUS
 62
3
 10
-457.995318305795650
 20
-193.853860972221360
 11
-460.616086547864940
 21
-192.340759722178970
  0
ARC
  8
0
  6
CONTINUOUS
 62
3
 10
-453.079236021379420
 20
-198.424213210056220
 40
1.499999999999926
 50
59.999999999998380
 51
144.036429881690740
  0
ARC
  8
0
  6
CONTINUOUS
 62
3
 10
-461.366086547864940
 20
-193.639797827856000
 40
1.500000000000320
 50
60.000000000007070
 51
142.071858233781280
  0
ARC
  8
0
  6
CONTINUOUS
 62
3
 10
-484.240772475530430
 20
-175.814289596372420
 40
33.500000000000114
 50
277.180755781458230
 51
322.819244218540860
  0
ARC
  8
0
  6
CONTINUOUS
 62
3
 10
-484.240772475530430
 20
-175.814289596372420
 40
43.000000000000199
 50
275.531071524838860
 51
324.468928475160340
  0
ARC
  8
0
  6
CONTINUOUS
 62
3
 10
-484.240772475530430
 20
-175.814289596372420
 40
37.000000000000028
 50
275.963570118320770
 51
324.036429881678030
  0
ARC
  8
0
  6
CONTINUOUS
 62
3
 10
-484.240772475530430
 20
-175.814289596373330
 40
27.499999999999879
 50
277.928141766202600
 51
322.071858233798930
  0
ARC
  8
0
  6
CONTINUOUS
 62
3
 10
-480.240772475530430
 20
-204.537102829063310
 40
1.499999999999967
 50
97.928141766195438
 51
180.000000000000000
  0
ARC
  8
0
  6
CONTINUOUS
 62
3
 10
-480.240772475530430
 20
-207.563305329147620
 40
1.500000000000000
 50
180.000000000000000
 51
277.180755781458290
  0
ARC
  8
0
  6
CONTINUOUS
 62
3
 10
-480.240772475530430
 20
-214.105933593464210
 40
1.500000000000182
 50
95.963570118326047
 51
179.999999999982630
  0
LINE
  8
0
  6
CONTINUOUS
 62
3
 10
-481.740772475530430
 20
-204.537102829063310
 11
-481.740772475530430
 21
-207.563305329147620
  0
LINE
  8
0
  6
CONTINUOUS
 62
3
 10
-481.740772475530430
 20
-214.105933593463760
 11
-481.740772475530430
 21
-217.121068701017980
  0
ARC
  8
0
  6
CONTINUOUS
 62
3
 10
-480.240772475530430
 20
-217.121068701017980
 40
1.500000000000000
 50
180.000000000000000
 51
275.531071524831360
  0
ARC
  8
0
  6
CONTINUOUS
 62
3
 10
-454.745318305795650
 20
-188.224695847622570
 40
1.499999999999926
 50
239.999999999998410
 51
337.180755781453340
  0
LINE
  8
0
  6
CONTINUOUS
 62
3
 10
-455.495318305795650
 20
-189.523733953299140
 11
-458.116086547864940
 21
-188.010632703257220
  0
ARC
  8
0
  6
CONTINUOUS
 62
3
 10
-457.366086547864940
 20
-186.711594597580190
 40
1.499999999999899
 50
157.928141766199360
 51
240.000000000007050
  0
ARC
  8
0
  6
CONTINUOUS
 62
3
 10
-484.240772475530890
 20
-175.814289596373330
 40
33.500000000000128
 50
337.180755781459030
 51
22.819244218541968
  0
ARC
  8
0
  6
CONTINUOUS
 62
3
 10
-484.240772475530210
 20
-175.814289596372870
 40
27.499999999999886
 50
337.928141766202200
 51
22.071858233797812
  0
ARC
  8
0
  6
CONTINUOUS
 62
3
 10
-457.366086547864710
 20
-164.916984595165560
 40
1.499999999999926
 50
120.000000000001620
 51
202.071858233797370
  0
ARC
  8
0
  6
CONTINUOUS
 62
3
 10
-454.745318305795880
 20
-163.403883345123630
 40
1.499999999999948
 50
22.819244218550043
 51
119.999999999997270
  0
LINE
  8
0
  6
CONTINUOUS
 62
3
 10
-458.116086547864710
 20
-163.617946489488990
 11
-455.495318305795880
 21
-162.104845239446830
  0
ARC
  8
0
  6
CONTINUOUS
 62
3
 10
-484.240772475531120
 20
-175.814289596372870
 40
33.500000000000071
 50
37.180755781458259
 51
82.819244218540931
  0
ARC
  8
0
  6
CONTINUOUS
 62
3
 10
-484.240772475531120
 20
-175.814289596372870
 40
36.999999999999943
 50
35.963570118321194
 51
84.036429881678174
  0
ARC
  8
0
  6
CONTINUOUS
 62
3
 10
-453.079236021379870
 20
-153.204365982689300
 40
1.500000000000102
 50
215.963570118316280
 51
299.999999999997270
  0
ARC
  8
0
  6
CONTINUOUS
 62
3
 10
-458.745318305796100
 20
-156.475680114847590
 40
1.499999999999926
 50
300.000000000001590
 51
37.180755781457485
  0
ARC
  8
0
  6
CONTINUOUS
 62
3
 10
-484.240772475530430
 20
-175.814289596372420
 40
27.500000000000060
 50
37.928141766201819
 51
82.071858233798309
  0
ARC
  8
0
  6
CONTINUOUS
 62
3
 10
-480.240772475530660
 20
-147.091476363682430
 40
1.500000000000000
 50
180.000000000000000
 51
262.071858233795980
  0
LINE
  8
0
  6
CONTINUOUS
 62
3
 10
-460.616086547864940
 20
-159.287819470566320
 11
-457.995318305796100
 21
-157.774718220524160
  0
ARC
  8
0
  6
CONTINUOUS
 62
3
 10
-461.366086547864940
 20
-157.988781364889750
 40
1.499999999999843
 50
217.928141766204990
 51
300.000000000001590
  0
CIRCLE
  8
0
  6
CONTINUOUS
 62
3
 10
-484.240772475530660
 20
-175.814289596372420
 40
5.000000000000000
  0
ARC
  8
0
  6
CONTINUOUS
 62
3
 10
-478.303518542336750
 20
-167.767612286279020
 40
1.499999999999693
 50
233.578178478195410
 51
300.000000000001590
  0
ARC
  8
0
  6
CONTINUOUS
 62
3
 10
-480.240772475530660
 20
-166.649138206460520
 40
1.500000000000000
 50
180.000000000000000
 51
246.421821521804280
  0
ARC
  8
0
  6
CONTINUOUS
 62
3
 10
-467.065593206485910
 20
-161.279393068492480
 40
1.499999999999926
 50
300.000000000001590
 51
40.240348321182964
  0
ARC
  8
0
  6
CONTINUOUS
 62
3
 10
-480.240772475530660
 20
-163.444972719519460
 40
1.500000000000138
 50
72.079786860605225
 51
180.000000000000000
  0
ARC
  8
0
  6
CONTINUOUS
 62
3
 10
-480.240772475530660
 20
-156.728954912380230
 40
1.500000000000000
 50
180.000000000000000
 51
258.162995844103310
  0
ARC
  8
0
  6
CONTINUOUS
 62
3
 10
-469.712387799464860
 20
-162.807520639238650
 40
1.499999999999967
 50
221.837004155893280
 51
300.000000000001590
  0
ARC
  8
0
  6
CONTINUOUS
 62
3
 10
-480.240772475530660
 20
-153.672699770887900
 40
1.499999999999952
 50
79.759651678814024
 51
180.000000000000000
  0
ARC
  8
0
  6
CONTINUOUS
 62
3
 10
-475.528629832716320
 20
-166.165529542808140
 40
1.499999999999926
 50
300.000000000001590
 51
47.920213139381872
  0
LINE
  8
0
  6
CONTINUOUS
 62
3
 10
-468.962387799464860
 20
-164.106558744915220
 11
-466.315593206485910
 21
-162.578431174169050
  0
ARC
  8
0
  6
CONTINUOUS
 62
3
 10
-484.240772475530430
 20
-175.814289596372420
 40
14.499999999999860
 50
47.920213139391755
 51
72.079786860608309
  0
LINE
  8
0
  6
CONTINUOUS
 62
3
 10
-481.740772475530660
 20
-163.444972719519460
 11
-481.740772475530660
 21
-166.649138206460520
  0
LINE
  8
0
  6
CONTINUOUS
 62
3
 10
-481.740772475530660
 20
-153.672699770887900
 11
-481.740772475530660
 21
-156.728954912380230
  0
LINE
  8
0
  6
CONTINUOUS
 62
3
 10
-477.553518542336750
 20
-169.066650391955590
 11
-474.778629832716320
 21
-167.464567648484720
  0
ARC
  8
0
  6
CONTINUOUS
 62
3
 10
-484.240772475530430
 20
-175.814289596372420
 40
23.999999999999819
 50
40.240348321186090
 51
79.759651678814322
  0
ARC
  8
0
  6
CONTINUOUS
 62
3
 10
-484.240772475530430
 20
-175.814289596372420
 40
8.500000000000101
 50
53.578178478202659
 51
66.421821521799089
  0
ARC
  8
0
  6
CONTINUOUS
 62
3
 10
-471.528629832716320
 20
-178.534846419661330
 40
1.499999999999926
 50
239.999999999998410
 51
347.920213139390400
  0
LINE
  8
0
  6
CONTINUOUS
 62
3
 10
-472.278629832716320
 20
-179.833884525337910
 11
-475.053518542336750
 21
-178.231801781867490
  0
ARC
  8
0
  6
CONTINUOUS
 62
3
 10
-474.303518542336750
 20
-176.932763676190920
 40
1.500000000000099
 50
173.578178478198990
 51
239.999999999998410
  0
ARC
  8
0
  6
CONTINUOUS
 62
3
 10
-484.240772475530430
 20
-175.814289596372420
 40
8.499999999999865
 50
353.578178478199500
 51
6.421821521797448
  0
ARC
  8
0
  6
CONTINUOUS
 62
3
 10
-474.303518542336750
 20
-174.695815516554380
 40
1.499999999999926
 50
120.000000000001620
 51
186.421821521801010
  0
LINE
  8
0
  6
CONTINUOUS
 62
3
 10
-475.053518542336750
 20
-173.396777410877800
 11
-472.278629832716320
 21
-171.794694667406930
  0
ARC
  8
0
  6
CONTINUOUS
 62
3
 10
-471.528629832716320
 20
-173.093732773083500
 40
1.500000000000192
 50
12.079786860592611
 51
120.000000000001620
  0
ARC
  8
0
  6
CONTINUOUS
 62
3
 10
-484.240772475530430
 20
-175.814289596372420
 40
14.500000000000169
 50
347.920213139391310
 51
12.079786860606980
  0
ARC
  8
0
  6
CONTINUOUS
 62
3
 10
-463.065593206485910
 20
-183.420982893977000
 40
1.499999999999926
 50
239.999999999998410
 51
340.240348321188210
  0
LINE
  8
0
  6
CONTINUOUS
 62
3
 10
-463.815593206485910
 20
-184.720020999653570
 11
-466.462387799464860
 21
-183.191893428907860
  0
ARC
  8
0
  6
CONTINUOUS
 62
3
 10
-465.712387799464860
 20
-181.892855323230830
 40
1.500000000000038
 50
161.837004155895410
 51
240.000000000007050
  0
ARC
  8
0
  6
CONTINUOUS
 62
3
 10
-484.240772475530430
 20
-175.814289596372420
 40
17.999999999999943
 50
341.837004155893340
 51
18.162995844106646
  0
ARC
  8
0
  6
CONTINUOUS
 62
3
 10
-465.712387799464860
 20
-169.735723869514000
 40
1.499999999999926
 50
120.000000000001620
 51
198.162995844104590
  0
LINE
  8
0
  6
CONTINUOUS
 62
3
 10
-466.462387799464860
 20
-168.436685763837430
 11
-463.815593206485910
 21
-166.908558193091270
  0
ARC
  8
0
  6
CONTINUOUS
 62
3
 10
-463.065593206485910
 20
-168.207596298767840
 40
1.500000000000246
 50
19.759651678811824
 51
120.000000000001620
  0
ARC
  8
0
  6
CONTINUOUS
 62
3
 10
-484.240772475530430
 20
-175.814289596372420
 40
24.000000000000139
 50
340.240348321186050
 51
19.759651678813924
  0
ARC
  8
0
  6
CONTINUOUS
 62
3
 10
-496.952915118345000
 20
-178.534846419661330
 40
1.500000000000287
 50
192.079786860609600
 51
300.000000000001590
  0
LINE
  8
0
  6
CONTINUOUS
 62
3
 10
-496.202915118345000
 20
-179.833884525337910
 11
-493.428026408724580
 21
-178.231801781867490
  0
ARC
  8
0
  6
CONTINUOUS
 62
3
 10
-494.178026408724580
 20
-176.932763676190920
 40
1.499999999999926
 50
300.000000000001590
 51
6.421821521801967
  0
ARC
  8
0
  6
CONTINUOUS
 62
3
 10
-484.240772475531120
 20
-175.814289596372420
 40
8.499999999999813
 50
173.578178478202550
 51
186.421821521800500
  0
ARC
  8
0
  6
CONTINUOUS
 62
3
 10
-494.178026408724580
 20
-174.695815516554380
 40
1.499999999999873
 50
353.578178478198030
 51
59.999999999998380
  0
LINE
  8
0
  6
CONTINUOUS
 62
3
 10
-493.428026408724580
 20
-173.396777410877800
 11
-496.202915118345230
 21
-171.794694667406930
  0
ARC
  8
0
  6
CONTINUOUS
 62
3
 10
-496.952915118345230
 20
-173.093732773083500
 40
1.499999999999926
 50
59.999999999998380
 51
167.920213139405550
  0
ARC
  8
0
  6
CONTINUOUS
 62
3
 10
-484.240772475531120
 20
-175.814289596372420
 40
14.499999999999851
 50
167.920213139392840
 51
192.079786860608920
  0
ARC
  8
0
  6
CONTINUOUS
 62
3
 10
-505.415951744575410
 20
-183.420982893977000
 40
1.500000000000246
 50
199.759651678811820
 51
300.000000000001590
  0
LINE
  8
0
  6
CONTINUOUS
 62
3
 10
-504.665951744575410
 20
-184.720020999653570
 11
-502.019157151596460
 21
-183.191893428907860
  0
ARC
  8
0
  6
CONTINUOUS
 62
3
 10
-502.769157151596460
 20
-181.892855323230830
 40
1.500000000000320
 50
299.999999999992950
 51
18.162995844104589
  0
ARC
  8
0
  6
CONTINUOUS
 62
3
 10
-484.240772475531120
 20
-175.814289596372420
 40
17.999999999999726
 50
161.837004155893140
 51
198.162995844106860
  0
ARC
  8
0
  6
CONTINUOUS
 62
3
 10
-502.769157151596460
 20
-169.735723869514000
 40
1.500000000000038
 50
341.837004155895390
 51
59.999999999998380
  0
LINE
  8
0
  6
CONTINUOUS
 62
3
 10
-502.019157151596460
 20
-168.436685763837430
 11
-504.665951744575640
 21
-166.908558193091270
  0
ARC
  8
0
  6
CONTINUOUS
 62
3
 10
-505.415951744575640
 20
-168.207596298767840
 40
1.499999999999926
 50
59.999999999998380
 51
160.240348321185250
  0
ARC
  8
0
  6
CONTINUOUS
 62
3
 10
-484.240772475531120
 20
-175.814289596372420
 40
23.999999999999925
 50
160.240348321185910
 51
199.759651678814090
  0
ARC
  8
0
  6
CONTINUOUS
 62
3
 10
-492.952915118345000
 20
-185.463049649937150
 40
1.500000000000320
 50
119.999999999992930
 51
227.920213139381870
  0
LINE
  8
0
  6
CONTINUOUS
 62
3
 10
-493.702915118345000
 20
-184.164011544260120
 11
-490.928026408724580
 21
-182.561928800789700
  0
ARC
  8
0
  6
CONTINUOUS
 62
3
 10
-490.178026408724580
 20
-183.860966906466270
 40
1.500000000000059
 50
53.578178478205707
 51
120.000000000001620
  0
ARC
  8
0
  6
CONTINUOUS
 62
3
 10
-484.240772475530660
 20
-175.814289596372870
 40
8.499999999999870
 50
233.578178478199590
 51
246.421821521797680
  0
ARC
  8
0
  6
CONTINUOUS
 62
3
 10
-488.240772475530660
 20
-184.979440986284770
 40
1.500000000000000
 50
0.000000000017370
 51
66.421821521804304
  0
LINE
  8
0
  6
CONTINUOUS
 62
3
 10
-486.740772475530660
 20
-184.979440986284320
 11
-486.740772475530660
 21
-188.183606473225610
  0
ARC
  8
0
  6
CONTINUOUS
 62
3
 10
-488.240772475530660
 20
-188.183606473225610
 40
1.500000000000355
 50
252.079786860607900
 51
0.000000000000000
  0
ARC
  8
0
  6
CONTINUOUS
 62
3
 10
-484.240772475530660
 20
-175.814289596372870
 40
14.500000000000011
 50
227.920213139391080
 51
252.079786860607410
  0
ARC
  8
0
  6
CONTINUOUS
 62
3
 10
-501.415951744575410
 20
-190.349186124252810
 40
1.499999999999926
 50
120.000000000001620
 51
220.240348321176330
  0
LINE
  8
0
  6
CONTINUOUS
 62
3
 10
-502.165951744575410
 20
-189.050148018576240
 11
-499.519157151596460
 21
-187.522020447830070
  0
ARC
  8
0
  6
CONTINUOUS
 62
3
 10
-498.769157151596460
 20
-188.821058553506650
 40
1.500000000000118
 50
41.837004155899741
 51
120.000000000001620
  0
ARC
  8
0
  6
CONTINUOUS
 62
3
 10
-484.240772475530660
 20
-175.814289596372870
 40
17.999999999999940
 50
221.837004155892320
 51
258.162995844106770
  0
ARC
  8
0
  6
CONTINUOUS
 62
3
 10
-488.240772475530660
 20
-194.899624280365060
 40
1.500000000000000
 50
0.000000000000000
 51
78.162995844101530
  0
LINE
  8
0
  6
CONTINUOUS
 62
3
 10
-486.740772475530660
 20
-194.899624280365060
 11
-486.740772475530660
 21
-197.955879421857390
  0
ARC
  8
0
  6
CONTINUOUS
 62
3
 10
-488.240772475530660
 20
-197.955879421857390
 40
1.499999999999728
 50
259.759651678812470
 51
0.000000000000000
  0
ARC
  8
0
  6
CONTINUOUS
 62
3
 10
-484.240772475530660
 20
-175.814289596372870
 40
23.999999999999844
 50
220.240348321185340
 51
259.759651678813730
  0
ARC
  8
0
  6
CONTINUOUS
 62
3
 10
-475.528629832716320
 20
-185.463049649937150
 40
1.499999999999944
 50
312.079786860618130
 51
60.000000000007070
  0
LINE
  8
0
  6
CONTINUOUS
 62
3
 10
-474.778629832716320
 20
-184.164011544260120
 11
-477.553518542336750
 21
-182.561928800789700
  0
ARC
  8
0
  6
CONTINUOUS
 62
3
 10
-478.303518542336750
 20
-183.860966906466270
 40
1.499999999999926
 50
59.999999999998380
 51
126.421821521801260
  0
ARC
  8
0
  6
CONTINUOUS
 62
3
 10
-484.240772475530660
 20
-175.814289596372870
 40
8.500000000000060
 50
293.578178478202350
 51
306.421821521799190
  0
ARC
  8
0
  6
CONTINUOUS
 62
3
 10
-480.240772475530660
 20
-184.979440986284770
 40
1.500000000000139
 50
113.578178478195690
 51
179.999999999982630
  0
LINE
  8
0
  6
CONTINUOUS
 62
3
 10
-481.740772475530660
 20
-184.979440986284320
 11
-481.740772475530660
 21
-188.183606473225610
  0
ARC
  8
0
  6
CONTINUOUS
 62
3
 10
-480.240772475530660
 20
-188.183606473225610
 40
1.500000000000000
 50
180.000000000000000
 51
287.920213139392100
  0
ARC
  8
0
  6
CONTINUOUS
 62
3
 10
-484.240772475530660
 20
-175.814289596372870
 40
14.500000000000121
 50
287.920213139392560
 51
312.079786860608860
  0
ARC
  8
0
  6
CONTINUOUS
 62
3
 10
-467.065593206485910
 20
-190.349186124252810
 40
1.499999999999828
 50
319.759651678823670
 51
59.999999999998380
  0
LINE
  8
0
  6
CONTINUOUS
 62
3
 10
-466.315593206485910
 20
-189.050148018576240
 11
-468.962387799464860
 21
-187.522020447830070
  0
ARC
  8
0
  6
CONTINUOUS
 62
3
 10
-469.712387799464860
 20
-188.821058553506650
 40
1.499999999999926
 50
59.999999999998380
 51
138.162995844100240
  0
ARC
  8
0
  6
CONTINUOUS
 62
3
 10
-484.240772475530660
 20
-175.814289596372870
 40
18.000000000000146
 50
281.837004155893230
 51
318.162995844107680
  0
ARC
  8
0
  6
CONTINUOUS
 62
3
 10
-480.240772475530660
 20
-194.899624280365060
 40
1.499999999999731
 50
101.837004155898450
 51
180.000000000000000
  0
LINE
  8
0
  6
CONTINUOUS
 62
3
 10
-481.740772475530660
 20
-194.899624280365060
 11
-481.740772475530660
 21
-197.955879421857390
  0
ARC
  8
0
  6
CONTINUOUS
 62
3
 10
-480.240772475530660
 20
-197.955879421857390
 40
1.500000000000000
 50
180.000000000000000
 51
280.240348321187530
  0
ARC
  8
0
  6
CONTINUOUS
 62
3
 10
-484.240772475530660
 20
-175.814289596372870
 40
23.999999999999716
 50
280.240348321186270
 51
319.759651678814690
  0
ARC
  8
0
  6
CONTINUOUS
 62
3
 10
-488.240772475530660
 20
-163.444972719519460
 40
1.500000000000000
 50
0.000000000000000
 51
107.920213139394770
  0
LINE
  8
0
  6
CONTINUOUS
 62
3
 10
-486.740772475530660
 20
-163.444972719519460
 11
-486.740772475530660
 21
-166.649138206460520
  0
ARC
  8
0
  6
CONTINUOUS
 62
3
 10
-488.240772475530660
 20
-166.649138206460520
 40
1.500000000000139
 50
293.578178478195700
 51
0.000000000000000
  0
ARC
  8
0
  6
CONTINUOUS
 62
3
 10
-484.240772475531120
 20
-175.814289596372420
 40
8.499999999999879
 50
113.578178478199500
 51
126.421821521797340
  0
ARC
  8
0
  6
CONTINUOUS
 62
3
 10
-490.178026408724580
 20
-167.767612286279020
 40
1.499999999999926
 50
239.999999999998410
 51
306.421821521797600
  0
LINE
  8
0
  6
CONTINUOUS
 62
3
 10
-490.928026408724580
 20
-169.066650391955590
 11
-493.702915118345230
 21
-167.464567648484720
  0
ARC
  8
0
  6
CONTINUOUS
 62
3
 10
-492.952915118345230
 20
-166.165529542808140
 40
1.499999999999792
 50
132.079786860611680
 51
239.999999999998410
  0
ARC
  8
0
  6
CONTINUOUS
 62
3
 10
-484.240772475531120
 20
-175.814289596372420
 40
14.499999999999980
 50
107.920213139390830
 51
132.079786860607560
  0
ARC
  8
0
  6
CONTINUOUS
 62
3
 10
-488.240772475530660
 20
-153.672699770887900
 40
1.500000000000000
 50
0.000000000000000
 51
100.240348321194510
  0
LINE
  8
0
  6
CONTINUOUS
 62
3
 10
-486.740772475530660
 20
-153.672699770887900
 11
-486.740772475530660
 21
-156.728954912380230
  0
ARC
  8
0
  6
CONTINUOUS
 62
3
 10
-488.240772475530660
 20
-156.728954912380230
 40
1.499999999999954
 50
281.837004155896690
 51
0.000000000000000
  0
ARC
  8
0
  6
CONTINUOUS
 62
3
 10
-484.240772475531120
 20
-175.814289596372420
 40
17.999999999999829
 50
101.837004155891980
 51
138.162995844106210
  0
ARC
  8
0
  6
CONTINUOUS
 62
3
 10
-498.769157151596460
 20
-162.807520639238650
 40
1.499999999999926
 50
239.999999999998410
 51
318.162995844106720
  0
LINE
  8
0
  6
CONTINUOUS
 62
3
 10
-499.519157151596460
 20
-164.106558744915220
 11
-502.165951744575640
 21
-162.578431174169050
  0
ARC
  8
0
  6
CONTINUOUS
 62
3
 10
-501.415951744575640
 20
-161.279393068492480
 40
1.499999999999802
 50
139.759651678811420
 51
239.999999999998410
  0
ARC
  8
0
  6
CONTINUOUS
 62
3
 10
-484.240772475531120
 20
-175.814289596372420
 40
23.999999999999901
 50
100.240348321185670
 51
139.759651678813550
  0
ARC
  8
0
  6
CONTINUOUS
 62
3
 10
-488.240772475530660
 20
-144.065273863597890
 40
1.500000000000000
 50
0.000000000000000
 51
97.180755781458288
  0
LINE
  8
0
  6
CONTINUOUS
 62
3
 10
-486.740772475530660
 20
-144.065273863597890
 11
-486.740772475530660
 21
-147.091476363682430
  0
ARC
  8
0
  6
CONTINUOUS
 62
3
 10
-488.240772475530660
 20
-137.522645599281300
 40
1.499999999999933
 50
275.963570118318330
 51
0.000000000000000
  0
LINE
  8
0
  6
CONTINUOUS
 62
3
 10
-486.740772475530660
 20
-134.507510491727090
 11
-486.740772475530660
 21
-137.522645599281300
  0
LINE
  8
0
  6
CONTINUOUS
 62
3
 10
-449.718052422395320
 20
-198.632742658156990
 11
-452.329236021379420
 21
-197.125175104379650
  0
ARC
  8
0
  6
CONTINUOUS
 62
3
 10
-450.468052422395320
 20
-199.931780763833560
 40
1.499999999999844
 50
324.468928475167900
 51
59.999999999998380
  0
ARC
  8
0
  6
CONTINUOUS
 62
3
 10
-449.079236021379420
 20
-191.496009979780870
 40
1.500000000000063
 50
155.963570118322880
 51
239.999999999998410
  0
LINE
  8
0
  6
CONTINUOUS
 62
3
 10
-447.218052422395320
 20
-194.302615639234770
 11
-449.829236021379420
 21
-192.795048085457440
  0
ARC
  8
0
  6
CONTINUOUS
 62
3
 10
-446.468052422395320
 20
-193.003577533557750
 40
1.500000000000320
 50
240.000000000007050
 51
335.531071524832500
  0
ARC
  8
0
  6
CONTINUOUS
 62
3
 10
-484.240772475530890
 20
-175.814289596373330
 40
42.999999999999936
 50
335.531071524839770
 51
24.468928475160769
  0
ARC
  8
0
  6
CONTINUOUS
 62
3
 10
-484.240772475530890
 20
-175.814289596373330
 40
36.999999999999972
 50
335.963570118321740
 51
24.036429881678870
  0
ARC
  8
0
  6
CONTINUOUS
 62
3
 10
-449.079236021379640
 20
-160.132569212965340
 40
1.500000000000123
 50
119.999999999997270
 51
204.036429881680680
  0
LINE
  8
0
  6
CONTINUOUS
 62
3
 10
-449.829236021379640
 20
-158.833531107288540
 11
-447.218052422395320
 21
-157.325963553511430
  0
ARC
  8
0
  6
CONTINUOUS
 62
3
 10
-446.468052422395320
 20
-158.625001659188230
 40
1.500000000000034
 50
24.468928475159590
 51
119.999999999997270
  0
ARC
  8
0
  6
CONTINUOUS
 62
3
 10
-484.240772475531120
 20
-175.814289596372870
 40
42.999999999999908
 50
35.531071524839248
 51
84.468928475160212
  0
ARC
  8
0
  6
CONTINUOUS
 62
3
 10
-450.468052422395770
 20
-151.696798428912190
 40
1.500000000000123
 50
299.999999999997270
 51
35.531071524839192
  0
ARC
  8
0
  6
CONTINUOUS
 62
3
 10
-480.240772475530660
 20
-137.522645599281300
 40
1.500000000000000
 50
180.000000000000000
 51
264.036429881682580
  0
ARC
  8
0
  6
CONTINUOUS
 62
3
 10
-480.240772475530660
 20
-144.065273863597890
 40
1.499999999999998
 50
82.819244218541712
 51
180.000000000000000
  0
LINE
  8
0
  6
CONTINUOUS
 62
3
 10
-481.740772475530660
 20
-144.065273863597890
 11
-481.740772475530660
 21
-147.091476363682430
  0
LINE
  8
0
  6
CONTINUOUS
 62
3
 10
-452.329236021379870
 20
-154.503404088366100
 11
-449.718052422395770
 21
-152.995836534588990
  0
LINE
  8
0
  6
CONTINUOUS
 62
3
 10
-481.740772475530660
 20
-134.507510491727320
 11
-481.740772475530660
 21
-137.522645599281300
  0
ARC
  8
0
  6
CONTINUOUS
 62
3
 10
-484.240772475530890
 20
-175.814289596372420
 40
27.499999999999815
 50
97.928141766201691
 51
142.071858233797880
  0
ARC
  8
0
  6
CONTINUOUS
 62
3
 10
-484.240772475530430
 20
-175.814289596372420
 40
17.999999999999922
 50
41.837004155893325
 51
78.162995844107314
  0
ARC
  8
0
  6
CONTINUOUS
 62
3
 10
-488.240772475530660
 20
-134.507510491727090
 40
1.500000000000000
 50
0.000000000000000
 51
95.531071524841693
  0
ARC
  8
0
  6
CONTINUOUS
 62
3
 10
-480.240772475530660
 20
-134.507510491727320
 40
1.500000000000203
 50
84.468928475159132
 51
180.000000000000000
  0
LINE
  8
0
  6
CONTINUOUS
 62
3
 10
-532.856264661644330
 20
-230.577808819732580
 11
-539.922713780303520
 21
-223.511359701072930
  0
LINE
  8
0
  6
CONTINUOUS
 62
3
 10
-435.625280289416990
 20
-121.050770373013390
 11
-428.558831170758030
 21
-128.117219491672360
  0
ARC
  8
0
  6
CONTINUOUS
 62
3
 10
-248.640772475530750
 20
-175.814289596372870
 40
300.599999999999850
 50
173.948014641331500
 51
186.051985358668500
  0
ARC
  8
0
  6
CONTINUOUS
 62
3
 10
-484.240772475530660
 20
-416.414289596372780
 40
300.599999999999910
 50
90.000000000000000
 51
98.597082237249069
  0
ARC
  8
0
  6
CONTINUOUS
 62
3
 10
-440.292185045248170
 20
-125.717675128844570
 40
6.600000000000118
 50
45.000000000001400
 51
81.402917762751386
  0
ARC
  8
0
  6
CONTINUOUS
 62
3
 10
-484.240772475530660
 20
-416.414289596372780
 40
300.599999999999800
 50
81.402917762750931
 51
90.000000000000000
  0
LINE
  8
0
  6
CONTINUOUS
 62
3
 10
-435.625280289416990
 20
-230.577808819732580
 11
-428.558831170757570
 21
-223.511359701072930
  0
ARC
  8
0
  6
CONTINUOUS
 62
3
 10
-440.292185045248170
 20
-225.910904063901400
 40
6.599999999999747
 50
278.597082237248910
 51
315.000000000000000
  0
ARC
  8
0
  6
CONTINUOUS
 62
3
 10
-528.189359905813150
 20
-225.910904063901400
 40
6.599999999999957
 50
225.000000000000000
 51
261.402917762751090
  0
LINE
  8
0
  6
CONTINUOUS
 62
3
 10
-532.856264661644330
 20
-121.050770373013390
 11
-539.922713780303300
 21
-128.117219491672360
  0
ARC
  8
0
  6
CONTINUOUS
 62
3
 10
-521.113673400741050
 20
-146.926259871234610
 40
26.600000000000119
 50
135.000000000000000
 51
173.948014641331410
  0
ARC
  8
0
  6
CONTINUOUS
 62
3
 10
-521.113673400741050
 20
-204.702319321511140
 40
26.599999999999969
 50
186.051985358668590
 51
224.999999999998980
  0
ARC
  8
0
  6
CONTINUOUS
 62
4
 10
-521.113673400741050
 20
-146.926259871234610
 40
15.396999999999876
 50
135.000000000000000
 51
173.948014641331160
  0
ARC
  8
0
  6
CONTINUOUS
 62
4
 10
-719.840772475530570
 20
-175.814289596372870
 40
289.397000000000160
 50
0.000000000000000
 51
6.051985358668508
  0
ARC
  8
0
  6
CONTINUOUS
 62
4
 10
-447.367871550320050
 20
-146.926259871234610
 40
15.397000000000052
 50
6.051985358668849
 51
45.000000000000000
  0
LINE
  8
0
  6
CONTINUOUS
 62
4
 10
-441.056613833029250
 20
-131.462871368666580
 11
-436.480548440390630
 21
-136.038936761305190
  0
ARC
  8
0
  6
CONTINUOUS
 62
4
 10
-445.299254520148340
 20
-135.705512055786130
 40
6.000000000000049
 50
45.000000000003077
 51
82.102011327574374
  0
ARC
  8
0
  6
CONTINUOUS
 62
4
 10
-484.240772475530660
 20
-416.414289596372780
 40
289.396999999999820
 50
82.102011327572214
 51
90.000000000000000
  0
ARC
  8
0
  6
CONTINUOUS
 62
4
 10
-719.840772475530570
 20
-175.814289596372870
 40
289.397000000000160
 50
353.948014641331500
 51
0.000000000000000
  0
ARC
  8
0
  6
CONTINUOUS
 62
4
 10
-447.367871550320050
 20
-204.702319321511140
 40
15.396999999999876
 50
315.000000000000000
 51
353.948014641331160
  0
LINE
  8
0
  6
CONTINUOUS
 62
4
 10
-441.056613833029250
 20
-220.165707824079160
 11
-436.480548440390630
 21
-215.589642431440550
  0
ARC
  8
0
  6
CONTINUOUS
 62
4
 10
-445.299254520148340
 20
-215.923067136959620
 40
5.999999999999923
 50
277.897988672425640
 51
314.999999999996870
  0
ARC
  8
0
  6
CONTINUOUS
 62
4
 10
-484.240772475530660
 20
64.785710403627093
 40
289.396999999999990
 50
270.000000000000000
 51
277.897988672427800
  0
ARC
  8
0
  6
CONTINUOUS
 62
4
 10
-248.640772475530530
 20
-175.814289596372870
 40
289.397000000000160
 50
180.000000000000000
 51
186.051985358668500
  0
ARC
  8
0
  6
CONTINUOUS
 62
4
 10
-521.113673400741050
 20
-204.702319321511140
 40
15.397000000000052
 50
186.051985358668840
 51
225.000000000000000
  0
LINE
  8
0
  6
CONTINUOUS
 62
4
 10
-527.424931118031850
 20
-220.165707824079160
 11
-532.000996510670460
 21
-215.589642431440550
  0
ARC
  8
0
  6
CONTINUOUS
 62
4
 10
-523.182290430912760
 20
-215.923067136959620
 40
6.000000000000049
 50
225.000000000003070
 51
262.102011327574360
  0
ARC
  8
0
  6
CONTINUOUS
 62
4
 10
-484.240772475530430
 20
64.785710403627093
 40
289.396999999999880
 50
262.102011327572200
 51
270.000000000000000
  0
ARC
  8
0
  6
CONTINUOUS
 62
3
 10
-569.540772475530620
 20
-189.856789596372890
 40
20.800000000000082
 50
274.191726156007460
 51
354.952683218987430
  0
LINE
  8
0
  6
CONTINUOUS
 62
3
 10
-548.740772475530660
 20
-158.483680836147410
 11
-548.740772475530660
 21
-149.856789596372890
  0
POINT
  8
0
  6
DASHDOT
 62
4
 10
-548.740772475530660
 20
-175.828020089498860
  0
POINT
  8
0
  6
DASHDOT
 62
4
 10
-548.740772475530660
 20
-175.828020089498860
  0
ARC
  8
0
  6
CONTINUOUS
 62
3
 10
-567.540772475530620
 20
-149.856789596372890
 40
18.799999999999955
 50
0.000000000000000
 51
79.401214733933941
  0
ARC
  8
0
  6
CONTINUOUS
 62
3
 10
-569.540772475530620
 20
-189.856789596372890
 40
20.799999999999986
 50
174.275189547776620
 51
205.640070215894870
  0
ARC
  8
0
  6
CONTINUOUS
 62
3
 10
-569.540772475530620
 20
-189.856789596372890
 40
20.799999999999926
 50
205.640070215894870
 51
260.083463391769440
  0
ARC
  8
0
  6
CONTINUOUS
 62
3
 10
-569.540772475530620
 20
-189.856789596372890
 40
20.799999999999986
 50
174.275189547776620
 51
205.640070215894870
  0
ARC
  8
0
  6
CONTINUOUS
 62
3
 10
-563.715017841443680
 20
-129.411653219235180
 40
1.999999999999927
 50
177.137594773887290
 51
259.401214733934010
  0
ARC
  8
0
  6
CONTINUOUS
 62
3
 10
-569.308030939159490
 20
-129.132002564349360
 40
1.999999999999928
 50
274.873974813840960
 51
357.137594773887320
  0
ARC
  8
0
  6
CONTINUOUS
 62
3
 10
-567.874225209147080
 20
-212.595800573302200
 40
1.999999999999962
 50
94.191726156001650
 51
177.137594773887290
  0
LINE
  8
0
  6
CONTINUOUS
 62
3
 10
-566.042643967213850
 20
-119.894219430037650
 11
-571.136280895490810
 21
-221.766957995577740
  0
ARC
  8
0
  6
CONTINUOUS
 62
3
 10
-573.467238306862900
 20
-212.316149918416390
 40
2.000000000000154
 50
357.137594773887600
 51
80.083463391767268
  0
LINE
  8
0
  6
CONTINUOUS
 62
3
 10
-590.237031827151550
 20
-187.781976628791880
 11
-586.247006889495540
 21
-147.981477875674610
  0
ARC
  8
0
  6
CONTINUOUS
 62
3
 10
-567.540772475530620
 20
-149.856789596372890
 40
18.800000000000036
 50
94.873974813842736
 51
144.191373186504250
  0
ARC
  8
0
  6
CONTINUOUS
 62
3
 10
-567.540772475530620
 20
-149.856789596372890
 40
18.799999999999933
 50
144.191373186504250
 51
174.275189547776390
  0
LINE
  8
0
  6
CONTINUOUS
 62
3
 10
-566.841645838316140
 20
-119.854269336482500
 11
-565.243642096111560
 21
-119.934169523592680
  0
ARC
  8
0
  6
CONTINUOUS
 62
3
 10
-560.699319335210590
 20
-125.167631760262790
 40
9.000000000000060
 50
160.536063666407810
 51
193.739143184213500
  0
POINT
  8
0
  6
CONTINUOUS
 62
3
 10
-567.091333923034990
 20
-124.848031030871530
  0
LINE
  8
0
  6
CONTINUOUS
 62
3
 10
-566.916552263731430
 20
-121.352397844799150
 11
-567.266115582338560
 21
-128.343664216944030
  0
LINE
  8
0
  6
CONTINUOUS
 62
3
 10
-566.916552263731430
 20
-121.352397844799150
 11
-567.266115582338560
 21
-128.343664216944030
  0
LINE
  8
0
  6
CONTINUOUS
 62
3
 10
-567.266115582338560
 20
-128.343664216944030
 11
-568.243919394846330
 21
-128.294774026318690
  0
LINE
  8
0
  6
CONTINUOUS
 62
3
 10
-566.916552263731430
 20
-121.352397844799150
 11
-567.894356076238980
 21
-121.303507654173810
  0
ARC
  8
0
  6
CONTINUOUS
 62
3
 10
-568.179000530918640
 20
-126.996396747765060
 40
1.299999237060493
 50
193.739143184211430
 51
267.137612759980240
  0
ARC
  8
0
  6
CONTINUOUS
 62
3
 10
-567.959274940166670
 20
-122.601884932727330
 40
1.299999237060474
 50
87.137594090651831
 51
160.536063666412870
  0
LINE
  8
0
  6
CONTINUOUS
 62
3
 10
-566.841645838316140
 20
-119.854269336482500
 11
-571.935282766593100
 21
-221.727007902022480
  0
LINE
  8
0
  6
CONTINUOUS
 62
3
 10
-570.337279024388520
 20
-221.806908089133460
 11
-571.935282766593100
 21
-221.727007902022480
  0
LINE
  8
0
  6
CONTINUOUS
 62
3
 10
-565.243642096111560
 20
-119.934169523592680
 11
-570.337279024388520
 21
-221.806908089133460
  0
LINE
  8
0
  6
CONTINUOUS
 62
3
 10
-565.693645237051330
 20
-119.911669366545650
 11
-585.681120748752510
 21
-99.924193854844589
  0
LINE
  8
0
  6
CONTINUOUS
 62
3
 10
-569.674920441406700
 20
-125.829889098801680
 11
-589.868974582147420
 21
-105.635834958061420
  0
ARC
  8
0
  6
CONTINUOUS
 62
3
 10
-484.240772475531120
 20
-206.314289596371050
 40
35.000000000000000
 50
270.000000000000000
 51
304.496229465915230
  0
CIRCLE
  8
0
  6
CONTINUOUS
 62
3
 10
-484.240772475529750
 20
-46.314289596371054
 40
10.000000000000000
  0
LINE
  8
0
  6
DASHDOT
 62
4
 10
-461.072859476648200
 20
-46.314289596371054
 11
-508.095373378182900
 21
-46.314289596371054
  0
LINE
  8
0
  6
CONTINUOUS
 62
3
 10
-473.740772475529750
 20
-26.314289596371054
 11
-494.740772475529750
 21
-26.314289596371054
  0
LINE
  8
0
  6
CONTINUOUS
 62
3
 10
-504.740772475529750
 20
-36.314289596371054
 11
-504.740772475529750
 21
-61.664600194299965
  0
ARC
  8
0
  6
CONTINUOUS
 62
3
 10
-494.740772475529750
 20
-36.314289596371054
 40
10.000000000000000
 50
90.000000000000000
 51
180.000000000000000
  0
LINE
  8
0
  6
CONTINUOUS
 62
3
 10
-463.740772475529750
 20
-36.314289596371054
 11
-463.740772475529750
 21
-61.664600194299965
  0
ARC
  8
0
  6
CONTINUOUS
 62
3
 10
-473.740772475529750
 20
-36.314289596371054
 40
10.000000000000000
 50
0.000000000000000
 51
90.000000000000000
  0
ARC
  8
0
  6
CONTINUOUS
 62
3
 10
-484.240772475530660
 20
-661.314290409264690
 40
600.000000000000000
 50
91.957986872393320
 51
92.924523789728269
  0
ARC
  8
0
  6
CONTINUOUS
 62
3
 10
-509.240772475531120
 20
-171.952461084582180
 40
110.000000000000040
 50
92.924523789728156
 51
180.000000000000000
  0
ARC
  8
0
  6
CONTINUOUS
 62
3
 10
-484.240772475530660
 20
-661.314290409264690
 40
599.999999999999770
 50
87.075476210271731
 51
88.042013127606680
  0
LINE
  8
0
  6
CONTINUOUS
 62
3
 10
-504.740772475530660
 20
-61.664601007193824
 11
-504.740772475530660
 21
-83.314289596371282
  0
LINE
  8
0
  6
CONTINUOUS
 62
3
 10
-463.740772475530660
 20
-61.664601007193824
 11
-463.740772475530660
 21
-83.314289596371282
  0
LINE
  8
0
  6
CONTINUOUS
 62
3
 10
-362.240772475530210
 20
-223.314289596370830
 11
-352.871593081555940
 21
-223.314289596370830
  0
ARC
  8
0
  6
CONTINUOUS
 62
3
 10
-352.871593081555940
 20
-226.314289596370830
 40
2.999999999999921
 50
345.029598694536160
 51
90.000000000000000
  0
ARC
  8
0
  6
CONTINUOUS
 62
3
 10
-362.240772475530210
 20
-210.314289596370830
 40
13.000000000000000
 50
90.000000000000000
 51
270.000000000000000
  0
LINE
  8
0
  6
CONTINUOUS
 62
3
 10
-362.240772475530210
 20
-197.314289596370830
 11
-352.240772475530210
 21
-197.314289596370830
  0
ARC
  8
0
  6
CONTINUOUS
 62
3
 10
-352.240772475530210
 20
-194.314289596370830
 40
3.000000000000000
 50
270.000000000000000
 51
0.000000000000000
  0
ARC
  8
0
  6
CONTINUOUS
 62
3
 10
-615.609951869505380
 20
-226.314289596370830
 40
3.000000000000000
 50
90.000000000000000
 51
194.970401305463840
  0
ARC
  8
0
  6
CONTINUOUS
 62
3
 10
-616.240772475531120
 20
-194.314289596370830
 40
3.000000000000000
 50
180.000000000000000
 51
270.000000000000000
  0
ARC
  8
0
  6
CONTINUOUS
 62
3
 10
-606.240772475531120
 20
-210.314289596370830
 40
13.000000000000000
 50
270.000000000000000
 51
90.000000000000000
  0
LINE
  8
0
  6
CONTINUOUS
 62
3
 10
-606.240772475531120
 20
-197.314289596370830
 11
-616.240772475531120
 21
-197.314289596370830
  0
LINE
  8
0
  6
CONTINUOUS
 62
3
 10
-606.240772475531120
 20
-223.314289596370830
 11
-615.609951869505380
 21
-223.314289596370830
  0
ARC
  8
0
  6
CONTINUOUS
 62
3
 10
-378.847281318028190
 20
-299.686965473700870
 40
5.000000000000201
 50
225.000000000000000
 51
324.810226266870360
  0
ARC
  8
0
  6
CONTINUOUS
 62
3
 10
-390.233725630838650
 20
-312.342151721233220
 40
4.999999999999826
 50
311.231476075720650
 51
45.000000000003688
  0
ARC
  8
0
  6
CONTINUOUS
 62
3
 10
-589.634263633033130
 20
-299.686965473701090
 40
4.999999999999545
 50
215.189773733130520
 51
315.000000000001820
  0
ARC
  8
0
  6
CONTINUOUS
 62
3
 10
-578.247819320222670
 20
-312.342151721233220
 40
4.999999999999718
 50
134.999999999998150
 51
228.768523924279320
  0
ARC
  8
0
  6
CONTINUOUS
 62
3
 10
-437.689120623203390
 20
-258.194340259285350
 40
77.000000000000085
 50
305.114466930115950
 51
340.000000000000340
  0
ARC
  8
0
  6
CONTINUOUS
 62
3
 10
-388.796116527952450
 20
-327.724723190359330
 40
7.999999999999969
 50
125.114466930115760
 51
175.505843472000290
  0
ARC
  8
0
  6
CONTINUOUS
 62
3
 10
-406.740772475530660
 20
-326.314289596370830
 40
10.000000000000000
 50
306.869897645843990
 51
355.505843472000610
  0
LINE
  8
0
  6
CONTINUOUS
 62
3
 10
-484.240772475530660
 20
-334.314289596370830
 11
-400.740772475530660
 21
-334.314289596370830
  0
LINE
  8
0
  6
CONTINUOUS
 62
3
 10
-484.240772475530660
 20
-334.314289596370830
 11
-567.740772475530660
 21
-334.314289596370830
  0
ARC
  8
0
  6
CONTINUOUS
 62
3
 10
-561.740772475530660
 20
-326.314289596370830
 40
9.999999999999778
 50
184.494156527999370
 51
233.130102354155980
  0
ARC
  8
0
  6
CONTINUOUS
 62
3
 10
-579.685428423108870
 20
-327.724723190359330
 40
8.000000000000373
 50
4.494156527999717
 51
54.885533069884232
  0
ARC
  8
0
  6
CONTINUOUS
 62
3
 10
-530.792424327857930
 20
-258.194340259285350
 40
76.999999999999844
 50
199.999999999999770
 51
234.885533069884020
  0
ARC
  8
0
  6
CONTINUOUS
 62
3
 10
-547.981945596535640
 20
-282.076277997546870
 40
4.999999999999702
 50
28.402451678796261
 51
135.000000000001820
  0
ARC
  8
0
  6
CONTINUOUS
 62
3
 10
-437.689120623203390
 20
-258.194340259285350
 40
43.999999999999915
 50
228.360992047548710
 51
319.912288498426220
  0
ARC
  8
0
  6
CONTINUOUS
 62
3
 10
-437.689120623203390
 20
-258.194340259285350
 40
44.000000000000071
 50
319.912288498426220
 51
33.109776708315003
  0
ARC
  8
0
  6
CONTINUOUS
 62
3
 10
-556.442498186054190
 20
-266.495200026722610
 40
5.000000000000041
 50
315.000000000001820
 51
38.492496408252435
  0
ARC
  8
0
  6
CONTINUOUS
 62
3
 10
-544.421682905882680
 20
-134.112563885848430
 40
5.000000000000201
 50
225.000000000000000
 51
246.570377461469600
  0
ARC
  8
0
  6
CONTINUOUS
 62
3
 10
-396.645470147740870
 20
-231.428340265859560
 40
5.000000000000142
 50
171.091670649431510
 51
213.109776708314170
  0
ARC
  8
0
  6
CONTINUOUS
 62
3
 10
-470.246444078138550
 20
-294.814289596371280
 40
5.000000000000199
 50
48.360992047546546
 51
90.000000000000000
  0
ARC
  8
0
  6
CONTINUOUS
 62
3
 10
-551.677725089696540
 20
-271.927676961780890
 40
5.000000000000277
 50
11.617396360404429
 51
44.014880135744747
  0
ARC
  8
0
  6
CONTINUOUS
 62
3
 10
-515.435701450446120
 20
-264.476789596371190
 40
31.999999999999829
 50
191.617396360406130
 51
304.921969447764520
  0
ARC
  8
0
  6
CONTINUOUS
 62
3
 10
-494.254669989490480
 20
-294.814289596371280
 40
5.000000000000000
 50
90.000000000000000
 51
124.921969447764190
  0
ARC
  8
0
  6
CONTINUOUS
 62
3
 10
-406.549057815021910
 20
-296.026819537050190
 40
5.000000000000041
 50
44.999999999998167
 51
129.457930749405760
  0
ARC
  8
0
  6
CONTINUOUS
 62
3
 10
-395.469749566010590
 20
-283.064497225719150
 40
4.999999999999973
 50
149.498945295270290
 51
225.000000000003690
  0
ARC
  8
0
  6
CONTINUOUS
 62
3
 10
-599.240772475531120
 20
-221.721535416493450
 40
20.000000000000000
 50
180.000000000000000
 51
194.970401305464950
  0
ARC
  8
0
  6
CONTINUOUS
 62
3
 10
-369.240772475530660
 20
-221.721535416493450
 40
19.999999999999925
 50
345.029598694534740
 51
0.000000000000000
  0
ARC
  8
0
  6
CONTINUOUS
 62
3
 10
-459.240772475530210
 20
-171.952461084582180
 40
110.000000000000000
 50
0.000000000000000
 51
87.075476210271844
  0
LINE
  8
0
  6
CONTINUOUS
 62
3
 10
-551.517479502468520
 20
-278.540744091614210
 11
-581.783353226155100
 21
-308.806617815300570
  0
LINE
  8
0
  6
CONTINUOUS
 62
3
 10
-552.906964280121310
 20
-270.030733932655270
 11
-586.098729727100250
 21
-303.222499379633750
  0
LINE
  8
0
  6
CONTINUOUS
 62
3
 10
-547.957216811815560
 20
-137.648097791781310
 11
-565.263999381058850
 21
-120.341315222538180
  0
LINE
  8
0
  6
CONTINUOUS
 62
3
 10
-564.138506031910200
 20
-131.366303508298530
 11
-565.669668130506920
 21
-129.835141409701580
  0
LINE
  8
0
  6
CONTINUOUS
 62
3
 10
-403.013523909089030
 20
-292.491285631117530
 11
-386.698191724906220
 21
-308.806617815300340
  0
LINE
  8
0
  6
CONTINUOUS
 62
3
 10
-399.005283471943020
 20
-286.600031131652030
 11
-382.382815223961070
 21
-303.222499379633750
  0
LINE
  8
0
  6
CONTINUOUS
 62
3
 10
-618.561960514231370
 20
-226.887935785531910
 11
-603.148756128373290
 21
-284.529891295361490
  0
LINE
  8
0
  6
CONTINUOUS
 62
3
 10
-349.919584436830860
 20
-226.887935785531910
 11
-365.332788822688940
 21
-284.529891295361490
  0
LINE
  8
0
  6
CONTINUOUS
 62
3
 10
-619.240772475531120
 20
-171.952461084582180
 11
-619.240772475531120
 21
-221.721535416493450
  0
LINE
  8
0
  6
CONTINUOUS
 62
3
 10
-349.240772475530660
 20
-171.952461084582180
 11
-349.240772475530660
 21
-221.721535416493450
  0
LINE
  8
0
  6
CONTINUOUS
 62
3
 10
-480.740772475530660
 20
-91.314289596371282
 11
-480.740772475530660
 21
-115.834666201838550
  0
LINE
  8
0
  6
CONTINUOUS
 62
3
 10
-487.740772475530660
 20
-90.314289596371282
 11
-487.740772475530660
 21
-115.834666201838550
  0
ARC
  8
0
  6
CONTINUOUS
 62
3
 10
-386.335958108241240
 20
-96.388659948911709
 40
5.000000000000041
 50
315.000000000001820
 51
46.026024481648633
  0
ARC
  8
0
  6
CONTINUOUS
 62
3
 10
-501.740772475530660
 20
-83.314289596371282
 40
3.000000000000000
 50
180.000000000000000
 51
270.000000000000000
  0
ARC
  8
0
  6
CONTINUOUS
 62
3
 10
-466.740772475530660
 20
-83.314289596371282
 40
3.000000000000000
 50
270.000000000000000
 51
0.000000000000000
  0
ARC
  8
0
  6
CONTINUOUS
 62
3
 10
-475.740772475530660
 20
-91.314289596371282
 40
5.000000000000000
 50
90.000000000000000
 51
180.000000000000000
  0
ARC
  8
0
  6
CONTINUOUS
 62
3
 10
-492.740772475530660
 20
-91.314289596371282
 40
5.000000000000000
 50
0.000000000000000
 51
90.000000000000000
  0
LINE
  8
0
  6
CONTINUOUS
 62
3
 10
-501.740772475530660
 20
-86.314289596371282
 11
-484.240772475530660
 21
-86.314289596371282
  0
LINE
  8
0
  6
CONTINUOUS
 62
3
 10
-484.240772475530660
 20
-86.314289596371282
 11
-466.740772475530660
 21
-86.314289596371282
  0
ARC
  8
0
  6
CONTINUOUS
 62
3
 10
-375.077036462981030
 20
-109.171368863994300
 40
5.000000000000055
 50
36.720727734715837
 51
135.000000000000000
  0
ARC
  8
0
  6
CONTINUOUS
 62
3
 10
-582.145586842820080
 20
-96.388659948911709
 40
4.999999999999923
 50
133.973975518351350
 51
225.000000000003690
  0
ARC
  8
0
  6
CONTINUOUS
 62
3
 10
-593.404508488080300
 20
-109.171368863994300
 40
5.000000000000201
 50
45.000000000000000
 51
143.279272265286270
  0
CIRCLE
  8
0
  6
CONTINUOUS
 62
3
 10
-618.591060900974640
 20
-31.964001170927304
 40
12.000000000000000
  0
ARC
  8
0
  6
DASHDOT
 62
4
 10
-484.240772475530660
 20
-166.314289596371280
 40
189.999999999999970
 50
129.119041968700490
 51
140.880958031302610
  0
CIRCLE
  8
0
  6
CONTINUOUS
 62
3
 10
-349.890484050086680
 20
-31.964001170927304
 40
12.000000000000000
  0
ARC
  8
0
  6
DASHDOT
 62
4
 10
-484.240772475530660
 20
-166.314289596371280
 40
189.999999999999690
 50
39.119041968700387
 51
50.880958031302640
  0
CIRCLE
  8
0
  6
CONTINUOUS
 62
3
 10
-349.890484050086680
 20
-300.664578021815710
 40
12.000000000000000
  0
ARC
  8
0
  6
DASHDOT
 62
4
 10
-484.240772475530660
 20
-166.314289596371280
 40
190.000000000000310
 50
309.119041968700400
 51
320.880958031302500
  0
ARC
  8
0
  6
DASHDOT
 62
4
 10
-484.240772475530660
 20
-166.314289596371280
 40
190.000000000000260
 50
219.119041968700600
 51
230.880958031302730
  0
ARC
  8
0
  6
CONTINUOUS
 62
3
 10
-341.740772475530660
 20
-23.814289596371282
 40
15.000000000000000
 50
0.000000000000000
 51
90.000000000000000
  0
ARC
  8
0
  6
CONTINUOUS
 62
3
 10
-341.740772475530660
 20
-308.814289596371740
 40
15.000000000000000
 50
270.000000000000000
 51
0.000000000000000
  0
ARC
  8
0
  6
CONTINUOUS
 62
3
 10
-626.740772475530660
 20
-308.814289596371740
 40
15.000000000000000
 50
180.000000000000000
 51
270.000000000000000
  0
ARC
  8
0
  6
CONTINUOUS
 62
3
 10
-626.740772475530660
 20
-23.814289596371282
 40
15.000000000000000
 50
90.000000000000000
 51
180.000000000000000
  0
CIRCLE
  8
0
  6
CONTINUOUS
 62
3
 10
-618.591060900974640
 20
-300.664578021815710
 40
12.000000000000000
  0
ARC
  8
0
  6
CONTINUOUS
 62
3
 10
-485.740772475530660
 20
-37.937211930704279
 40
2.000000000000244
 50
146.321129221012820
 51
180.000000000000000
  0
ARC
  8
0
  6
CONTINUOUS
 62
3
 10
-492.740772475530660
 20
-26.296829211625436
 40
5.000000000000000
 50
0.000000000000000
 51
90.000000000000000
  0
ARC
  8
0
  6
CONTINUOUS
 62
3
 10
-482.740772475530660
 20
-37.937211930704279
 40
2.000000000000000
 50
0.000000000000000
 51
33.678870779012470
  0
ARC
  8
0
  6
CONTINUOUS
 62
3
 10
-475.740772475530660
 20
-26.296829211625436
 40
5.000000000000000
 50
90.000000000000000
 51
180.000000000000000
  0
ARC
  8
0
  6
CONTINUOUS
 62
3
 10
-588.198630291953920
 20
-50.335616499776734
 40
4.999999999999924
 50
122.993026125691440
 51
224.999999999998180
  0
ARC
  8
0
  6
CONTINUOUS
 62
3
 10
-566.381354872494630
 20
-72.152891919236026
 40
5.000000000000041
 50
224.999999999998180
 51
299.793441674209420
  0
ARC
  8
0
  6
CONTINUOUS
 62
3
 10
-580.714818918226570
 20
-81.861058433846893
 40
5.000000000000195
 50
308.426738841195630
 51
45.000000000000000
  0
ARC
  8
0
  6
CONTINUOUS
 62
3
 10
-602.039139194700850
 20
-60.536738157372383
 40
5.000000000000041
 50
44.999999999998167
 51
129.790979576180970
  0
ARC
  8
0
  6
CONTINUOUS
 62
3
 10
-387.766726032835660
 20
-81.861058433846893
 40
4.999999999999879
 50
134.999999999996310
 51
231.573261158808440
  0
ARC
  8
0
  6
CONTINUOUS
 62
3
 10
-402.100190078567150
 20
-72.152891919236026
 40
4.999999999999973
 50
240.206558325790580
 51
315.000000000001820
  0
ARC
  8
0
  6
CONTINUOUS
 62
3
 10
-366.442405756360930
 20
-60.536738157372383
 40
5.000000000000075
 50
50.209020423819034
 51
135.000000000001820
  0
ARC
  8
0
  6
CONTINUOUS
 62
3
 10
-380.282914659107860
 20
-50.335616499776734
 40
4.999999999999718
 50
314.999999999998120
 51
57.006973874308571
  0
LINE
  8
0
  6
DASHDOT
 62
4
 10
-604.802478667836910
 20
-45.752583404065035
 11
-632.379643134111920
 21
-18.175418937789573
  0
LINE
  8
0
  6
DASHDOT
 62
4
 10
-363.679066283223960
 20
-45.752583404065035
 11
-336.101901816948950
 21
-18.175418937790027
  0
LINE
  8
0
  6
DASHDOT
 62
4
 10
-363.679066283224420
 20
-286.875995788677980
 11
-336.101901816948950
 21
-314.453160254953450
  0
LINE
  8
0
  6
DASHDOT
 62
4
 10
-604.802478667837360
 20
-286.875995788677980
 11
-632.379643134112370
 21
-314.453160254953450
  0
LINE
  8
0
  6
CONTINUOUS
 62
3
 10
-341.740772475530660
 20
-8.814289596371282
 11
-626.740772475530660
 21
-8.814289596371282
  0
LINE
  8
0
  6
CONTINUOUS
 62
3
 10
-641.740772475530660
 20
-23.814289596371282
 11
-641.740772475530660
 21
-308.814289596371740
  0
LINE
  8
0
  6
CONTINUOUS
 62
3
 10
-326.740772475530660
 20
-23.814289596371282
 11
-326.740772475530660
 21
-308.814289596371740
  0
LINE
  8
0
  6
CONTINUOUS
 62
3
 10
-572.635227024062600
 20
-323.814289596371740
 11
-626.740772475530660
 21
-323.814289596371740
  0
LINE
  8
0
  6
CONTINUOUS
 62
3
 10
-341.740772475530660
 20
-323.814289596371740
 11
-395.775264692808720
 21
-323.814289596371740
  0
LINE
  8
0
  6
CONTINUOUS
 62
3
 10
-487.740772475530660
 20
-26.296829211625436
 11
-487.740772475530660
 21
-26.314289596371054
  0
LINE
  8
0
  6
CONTINUOUS
 62
3
 10
-480.740772475530660
 20
-26.296829211625436
 11
-480.740772475530660
 21
-26.314289596371054
  0
LINE
  8
0
  6
CONTINUOUS
 62
3
 10
-591.734164197886800
 20
-53.871150405709386
 11
-569.916888778427510
 21
-75.688425825168679
  0
LINE
  8
0
  6
CONTINUOUS
 62
3
 10
-598.503605288767970
 20
-57.001204251439731
 11
-577.179285012293690
 21
-78.325524527914013
  0
LINE
  8
0
  6
CONTINUOUS
 62
3
 10
-376.747380753175430
 20
-53.871150405709386
 11
-398.564656172634270
 21
-75.688425825168679
  0
LINE
  8
0
  6
CONTINUOUS
 62
3
 10
-369.977939662293810
 20
-57.001204251439731
 11
-391.302259938768090
 21
-78.325524527914013
  0
LINE
  8
0
  6
CONTINUOUS
 62
3
 10
-480.740772475530660
 20
-36.946792598773072
 11
-480.740772475530660
 21
-55.681786593969036
  0
LINE
  8
0
  6
CONTINUOUS
 62
3
 10
-487.740772475530660
 20
-36.946792598773754
 11
-487.740772475530660
 21
-55.681786593968354
  0
ARC
  8
0
  6
CONTINUOUS
 62
3
 10
-544.748503418770160
 20
-252.301401879059770
 40
2.999999999999930
 50
217.235576313378060
 51
302.923553630028720
  0
ARC
  8
0
  6
CONTINUOUS
 62
3
 10
-530.227884758219600
 20
-266.822020539610090
 40
3.000000000000205
 50
147.076446369973640
 51
232.764423686618530
  0
ARC
  8
0
  6
CONTINUOUS
 62
3
 10
-438.253660192842630
 20
-266.822020539610090
 40
3.000000000000068
 50
307.235576313381440
 51
32.923553630026383
  0
ARC
  8
0
  6
CONTINUOUS
 62
3
 10
-423.733041532292080
 20
-252.301401879059770
 40
3.000000000000014
 50
237.076446369971220
 51
322.764423686621970
  0
ARC
  8
0
  6
CONTINUOUS
 62
3
 10
-539.041548017488710
 20
-261.115065138328650
 40
7.500000000000062
 50
327.076446369969290
 51
122.923553630030650
  0
ARC
  8
0
  6
CONTINUOUS
 62
3
 10
-429.439996933573520
 20
-261.115065138328650
 40
7.500000000000062
 50
57.076446369969339
 51
212.923553630030680
  0
ARC
  8
0
  6
CONTINUOUS
 62
3
 10
-509.740772475531120
 20
-235.818018656599860
 40
3.000000000000000
 50
0.000000000000000
 51
16.586214890020596
  0
ARC
  8
0
  6
CONTINUOUS
 62
3
 10
-498.740772475531120
 20
-241.439067175738270
 40
3.000000000000127
 50
67.568479364624565
 51
180.000000000000000
  0
ARC
  8
0
  6
CONTINUOUS
 62
3
 10
-469.740772475531120
 20
-241.439067175738270
 40
3.000000000000000
 50
0.000000000000000
 51
112.431520635375430
  0
ARC
  8
0
  6
CONTINUOUS
 62
3
 10
-458.740772475531120
 20
-235.818018656599860
 40
3.000000000000279
 50
163.413785109983960
 51
180.000000000000000
  0
ARC
  8
0
  6
CONTINUOUS
 62
3
 10
-509.740772475531120
 20
-281.814289596371050
 40
3.000000000000000
 50
270.000000000000000
 51
0.000000000000000
  0
ARC
  8
0
  6
CONTINUOUS
 62
3
 10
-498.740772475531120
 20
-281.814289596371050
 40
3.000000000000000
 50
180.000000000000000
 51
270.000000000000000
  0
ARC
  8
0
  6
CONTINUOUS
 62
3
 10
-469.740772475531120
 20
-281.814289596371050
 40
3.000000000000000
 50
270.000000000000000
 51
0.000000000000000
  0
ARC
  8
0
  6
CONTINUOUS
 62
3
 10
-458.740772475531120
 20
-281.814289596371050
 40
3.000000000000000
 50
180.000000000000000
 51
270.000000000000000
  0
LINE
  8
0
  6
CONTINUOUS
 62
3
 10
-506.740772475531120
 20
-235.818018656599860
 11
-506.740772475531120
 21
-281.814289596371050
  0
LINE
  8
0
  6
CONTINUOUS
 62
3
 10
-501.740772475531120
 20
-241.439067175738270
 11
-501.740772475531120
 21
-281.814289596371050
  0
LINE
  8
0
  6
CONTINUOUS
 62
3
 10
-466.740772475531120
 20
-241.439067175738270
 11
-466.740772475531120
 21
-281.814289596371050
  0
LINE
  8
0
  6
CONTINUOUS
 62
3
 10
-461.740772475531120
 20
-235.818018656599860
 11
-461.740772475531120
 21
-281.814289596371050
  0
ARC
  8
0
  6
CONTINUOUS
 62
3
 10
-497.740772475531120
 20
-192.814289596371050
 40
70.000000000000057
 50
135.313567302927940
 51
137.401051550009780
  0
LINE
  8
0
  6
CONTINUOUS
 62
3
 10
-470.740772475531120
 20
-289.814289596371050
 11
-497.740772475531120
 21
-289.814289596371050
  0
LINE
  8
0
  6
CONTINUOUS
 62
3
 10
-567.740772475531120
 20
-210.578758614784190
 11
-567.740772475531120
 21
-219.814289596371050
  0
ARC
  8
0
  6
CONTINUOUS
 62
3
 10
-497.740772475531120
 20
-219.814289596371050
 40
70.000000000000000
 50
180.000000000000000
 51
270.000000000000000
  0
ARC
  8
0
  6
CONTINUOUS
 62
3
 10
-484.240772475531120
 20
-206.314289596371050
 40
34.999999999999950
 50
235.503770534084650
 51
270.000000000000000
  0
INSERT
  8
0
  2
SYM3
 10
-571.685594681874020
 20
-216.733246207633330
 41
1.000000000000000
 42
1.000000000000000
 43
1.000000000000000
 50
357.137594773886350
  0
INSERT
  8
0
  2
SYM4
 10
-534.240772475530660
 20
-75.314290409264459
 41
-1.000000000000000
  0
INSERT
  8
0
  2
SYM5
 10
-494.740772475530660
 20
-74.314289596371282
 41
-1.000000000000000
  0
INSERT
  8
0
  2
SYM6
 10
-561.740772475530210
 20
-326.314289596370830
 41
-1.000000000000000
  0
INSERT
  8
0
  2
SYM7
 10
-606.240772475531120
 20
-234.314289596371050
 41
-1.000000000000000
  0
INSERT
  8
0
  2
SYM8
 10
-605.240772475530660
 20
-144.314290409264460
 41
-1.000000000000000
  0
INSERT
  8
0
  2
SYM9
 10
-476.740772475530660
 20
-325.314289596370830
  0
INSERT
  8
0
  2
SYM10
 10
-406.740772475530660
 20
-326.314289596370830
  0
INSERT
  8
0
  2
SYM11
 10
-362.240772475530210
 20
-234.314289596370830
  0
INSERT
  8
0
  2
SYM12
 10
-363.240772475530660
 20
-144.314290409264230
  0
INSERT
  8
0
  2
SYM13
 10
-434.240772475530660
 20
-75.314290409264459
  0
INSERT
  8
0
  2
SYM14
 10
-473.740772475530660
 20
-74.314289596371282
  0
INSERT
  8
0
  2
SYM15
 10
-539.041548017488710
 20
-261.115065138328650
  0
INSERT
  8
0
  2
SYM16
 10
-429.439996933573520
 20
-261.115065138328650
  0
LINE
  8
0
  6
CONTINUOUS
 62
3
 10
-24.705375403524158
 20
233.685710403627350
 11
-24.705375403524158
 21
174.185710403627100
  0
LINE
  8
0
  6
CONTINUOUS
 62
3
 10
-24.705375403524158
 20
114.685710403627210
 11
32.795108609279168
 21
114.685710403627210
  0
ARC
  8
0
  6
CONTINUOUS
 62
3
 10
-10.705375403531207
 20
119.685710403627210
 40
5.000000000000000
 50
270.000000000000000
 51
0.000000000000000
  0
ARC
  8
0
  6
CONTINUOUS
 62
3
 10
33.794624596475842
 20
156.185710403627100
 40
3.000000000000000
 50
0.000000000000000
 51
90.000000000000000
  0
ARC
  8
0
  6
CONTINUOUS
 62
3
 10
33.794624596475842
 20
192.185710403627330
 40
3.000000000000000
 50
270.000000000000000
 51
0.000000000000000
  0
LINE
  8
0
  6
CONTINUOUS
 62
3
 10
-2.705375403531207
 20
159.185710403627100
 11
33.794624596475842
 21
159.185710403627100
  0
LINE
  8
0
  6
DASHDOT
 62
4
 10
16.794624596475842
 20
157.433371962729300
 11
16.794624596475842
 21
188.956179299265360
  0
ARC
  8
0
  6
CONTINUOUS
 62
3
 10
-2.705375403531207
 20
156.185710403627100
 40
3.000000000000000
 50
90.000000000000000
 51
180.000000000000000
  0
LINE
  8
0
  6
CONTINUOUS
 62
3
 10
-24.705375403524158
 20
233.685710403627350
 11
32.794610654578491
 21
233.685710403627350
  0
CIRCLE
  8
0
  6
CONTINUOUS
 62
3
 10
16.794624596475842
 20
174.185710403627100
 40
10.500000000000000
  0
LINE
  8
0
  6
CONTINUOUS
 62
3
 10
-2.705375403531207
 20
189.185710403627330
 11
33.794624596475842
 21
189.185710403627330
  0
LINE
  8
0
  6
CONTINUOUS
 62
3
 10
-5.705375403531207
 20
174.185710403627100
 11
-5.705375403531207
 21
119.685710403627210
  0
LINE
  8
0
  6
CONTINUOUS
 62
3
 10
-5.705375403531207
 20
228.685710403627350
 11
-5.705375403531207
 21
174.185710403627100
  0
ARC
  8
0
  6
CONTINUOUS
 62
3
 10
-2.705375403531207
 20
192.185710403627330
 40
3.000000000000000
 50
180.000000000000000
 51
270.000000000000000
  0
ARC
  8
0
  6
CONTINUOUS
 62
3
 10
-10.705375403531207
 20
228.685710403627350
 40
5.000000000000000
 50
0.000000000000000
 51
90.000000000000000
  0
LINE
  8
0
  6
CONTINUOUS
 62
3
 10
65.294624596494032
 20
39.185710403627098
 11
79.794624596494032
 21
39.185710403627098
  0
LINE
  8
0
  6
CONTINUOUS
 62
3
 10
65.294624596493804
 20
309.185710403627130
 11
79.794624596494032
 21
309.185710403627130
  0
ARC
  8
0
  6
CONTINUOUS
 62
3
 10
301.894624596494170
 20
150.585710403627640
 40
0.400000000000546
 50
270.000000000000000
 51
0.000000000000000
  0
LINE
  8
0
  6
CONTINUOUS
 62
3
 10
301.894624596494170
 20
150.185710403627100
 11
229.854432217629210
 21
150.185710403627100
  0
LINE
  8
0
  6
CONTINUOUS
 62
3
 10
302.294624596493800
 20
174.185710403627100
 11
302.294624596493800
 21
146.685710403627100
  0
LINE
  8
0
  6
CONTINUOUS
 62
3
 10
302.294624596493800
 20
146.685710403627100
 11
232.294624596493800
 21
146.685710403627100
  0
ARC
  8
0
  6
CONTINUOUS
 62
3
 10
301.894624596494170
 20
197.785710403626550
 40
0.399999999999636
 50
0.000000000000000
 51
90.000000000000000
  0
LINE
  8
0
  6
CONTINUOUS
 62
3
 10
302.294624596493800
 20
174.185710403627100
 11
302.294624596493800
 21
197.785710403626550
  0
LINE
  8
0
  6
CONTINUOUS
 62
3
 10
301.894624596494170
 20
198.185710403627100
 11
229.854432217629210
 21
198.185710403627100
  0
LINE
  8
0
  6
CONTINUOUS
 62
3
 10
227.294624596493800
 20
149.385710403626920
 11
227.094624596493990
 21
149.185710403627100
  0
ARC
  8
0
  6
CONTINUOUS
 62
3
 10
228.094624596493990
 20
149.535710403626550
 40
0.800000000001091
 50
90.000000000000000
 51
180.000000000000000
  0
LINE
  8
0
  6
CONTINUOUS
 62
3
 10
227.294624596493800
 20
149.535710403626550
 11
227.294624596493800
 21
149.385710403626920
  0
LINE
  8
0
  6
CONTINUOUS
 62
3
 10
229.294624596493800
 20
150.335710403627640
 11
228.094624596493990
 21
150.335710403627640
  0
LINE
  8
0
  6
CONTINUOUS
 62
3
 10
229.294624596493800
 20
150.335710403627640
 11
229.854432217629210
 21
150.185710403627100
  0
LINE
  8
0
  6
CONTINUOUS
 62
3
 10
227.094624596493990
 20
149.185710403627100
 11
225.294624596493800
 21
149.185710403627100
  0
LINE
  8
0
  6
CONTINUOUS
 62
3
 10
227.294624596493800
 20
174.185710403627100
 11
227.294624596493800
 21
149.535710403626550
  0
LINE
  8
0
  6
CONTINUOUS
 62
3
 10
227.294624596493800
 20
198.985710403627280
 11
227.094624596493990
 21
199.185710403627100
  0
ARC
  8
0
  6
CONTINUOUS
 62
3
 10
228.094624596493990
 20
198.835710403627640
 40
0.800000000000182
 50
180.000000000000000
 51
270.000000000000000
  0
LINE
  8
0
  6
CONTINUOUS
 62
3
 10
227.294624596493800
 20
198.835710403627640
 11
227.294624596493800
 21
198.985710403627280
  0
LINE
  8
0
  6
CONTINUOUS
 62
3
 10
229.294624596493800
 20
198.035710403626550
 11
228.094624596493990
 21
198.035710403626550
  0
LINE
  8
0
  6
CONTINUOUS
 62
3
 10
229.294624596493800
 20
198.035710403626550
 11
229.854432217629210
 21
198.185710403627100
  0
LINE
  8
0
  6
CONTINUOUS
 62
3
 10
227.094624596493990
 20
199.185710403627100
 11
225.294624596493800
 21
199.185710403627100
  0
LINE
  8
0
  6
CONTINUOUS
 62
3
 10
227.294624596493800
 20
174.185710403627100
 11
227.294624596493800
 21
198.835710403627640
  0
LINE
  8
0
  6
CONTINUOUS
 62
3
 10
232.294624596493800
 20
146.685710403627100
 11
232.294624596493800
 21
150.185710403627100
  0
LINE
  8
0
  6
CONTINUOUS
 62
3
 10
208.794624596493800
 20
174.185710403627100
 11
208.794624596493800
 21
54.041049462954533
  0
LINE
  8
0
  6
CONTINUOUS
 62
3
 10
208.794624596493800
 20
174.185710403627100
 11
208.794624596493800
 21
294.330371344299690
  0
LINE
  8
0
  6
CONTINUOUS
 62
3
 10
215.794624596493800
 20
261.090544190722990
 11
210.794624596493800
 21
261.090544190722990
  0
LINE
  8
0
  6
CONTINUOUS
 62
3
 10
215.794624596493800
 20
296.330371344299690
 11
210.794624596493800
 21
296.330371344299690
  0
ARC
  8
0
  6
CONTINUOUS
 62
3
 10
210.794624596493800
 20
294.330371344299690
 40
2.000000000000000
 50
90.000000000000000
 51
180.000000000000000
  0
ARC
  8
0
  6
CONTINUOUS
 62
3
 10
210.794624596493800
 20
259.090544190722990
 40
2.000000000000000
 50
90.000000000000000
 51
180.000000000000000
  0
LINE
  8
0
  6
CONTINUOUS
 62
3
 10
215.794624596493800
 20
87.280876616531231
 11
210.794624596493800
 21
87.280876616531231
  0
LINE
  8
0
  6
CONTINUOUS
 62
3
 10
215.794624596493800
 20
52.041049462954533
 11
210.794624596493800
 21
52.041049462954533
  0
ARC
  8
0
  6
CONTINUOUS
 62
3
 10
210.794624596493800
 20
54.041049462954533
 40
2.000000000000000
 50
180.000000000000000
 51
270.000000000000000
  0
ARC
  8
0
  6
CONTINUOUS
 62
3
 10
210.794624596493800
 20
89.280876616531231
 40
2.000000000000000
 50
180.000000000000000
 51
270.000000000000000
  0
LINE
  8
0
  6
CONTINUOUS
 62
3
 10
79.794624596494032
 20
39.185710403626643
 11
79.794624596494032
 21
309.185710403627810
  0
LINE
  8
0
  6
CONTINUOUS
 62
3
 10
79.794624596494032
 20
39.185710403626643
 11
79.794624596494032
 21
279.203170788373200
  0
LINE
  8
0
  6
CONTINUOUS
 62
3
 10
190.969122080006630
 20
35.303411403644731
 11
79.794320010003503
 21
39.185721040021207
  0
ARC
  8
0
  6
CONTINUOUS
 62
3
 10
190.794624596493800
 20
30.306457268549110
 40
5.000000000000000
 50
0.000000000000000
 51
87.999999999996405
  0
LINE
  8
0
  6
CONTINUOUS
 62
3
 10
190.969122080006630
 20
313.068009403609490
 11
79.794320010003503
 21
309.185699767233020
  0
ARC
  8
0
  6
CONTINUOUS
 62
3
 10
190.794624596493800
 20
318.064963538705110
 40
5.000000000000153
 50
272.000000000003580
 51
0.000000000000000
  0
LINE
  8
0
  6
DASHDOT
 62
4
 10
233.932494227475900
 20
39.835421978183120
 11
181.777449105793270
 21
39.835421978183120
  0
LINE
  8
0
  6
DASHDOT
 62
4
 10
233.932494227475900
 20
308.535998829071330
 11
181.777449105793270
 21
308.535998829071330
  0
LINE
  8
0
  6
CONTINUOUS
 62
3
 10
195.794624596493800
 20
19.685710403627098
 11
195.794624596493800
 21
328.685710403627130
  0
LINE
  8
0
  6
DASHDOT
 62
4
 10
324.741730673393930
 20
174.185710403627100
 11
-305.600111750462250
 21
174.185710403627100
  0
ARC
  8
0
  6
CONTINUOUS
 62
3
 10
223.794624596493800
 20
100.834063859381980
 40
5.000000000000129
 50
123.367012969230780
 51
143.130102354155980
  0
LINE
  8
0
  6
CONTINUOUS
 62
3
 10
215.794624596493800
 20
174.185710403627100
 11
215.794624596493800
 21
16.685710403627553
  0
LINE
  8
0
  6
CONTINUOUS
 62
3
 10
219.794624596493800
 20
174.185710403627100
 11
219.794624596493800
 21
30.185710403627553
  0
LINE
  8
0
  6
CONTINUOUS
 62
3
 10
223.294624596493800
 20
174.185710403627100
 11
223.294624596493800
 21
109.185710403627090
  0
LINE
  8
0
  6
CONTINUOUS
 62
3
 10
215.794624596493800
 20
16.685710403627326
 11
198.794624596493800
 21
16.685710403627326
  0
ARC
  8
0
  6
CONTINUOUS
 62
3
 10
198.794624596493800
 20
19.685710403627098
 40
3.000000000000000
 50
180.000000000000000
 51
270.000000000000000
  0
ARC
  8
0
  6
CONTINUOUS
 62
3
 10
218.294624596493800
 20
239.440887570052610
 40
5.000000000000000
 50
0.000000000000000
 51
72.542396876278175
  0
LINE
  8
0
  6
CONTINUOUS
 62
3
 10
219.794624596493800
 20
174.185710403627100
 11
219.794624596493800
 21
318.185710403627130
  0
LINE
  8
0
  6
CONTINUOUS
 62
3
 10
223.294624596494260
 20
174.185710403627100
 11
223.294624596493800
 21
239.440887570052610
  0
LINE
  8
0
  6
CONTINUOUS
 62
3
 10
215.794624596493800
 20
174.185710403627100
 11
215.794624596493800
 21
331.685710403627130
  0
ARC
  8
0
  6
CONTINUOUS
 62
3
 10
224.294624596493800
 20
129.185710403627100
 40
1.000000000000000
 50
90.000000000000000
 51
180.000000000000000
  0
ARC
  8
0
  6
CONTINUOUS
 62
3
 10
224.294624596493800
 20
219.185710403627100
 40
1.000000000000000
 50
180.000000000000000
 51
270.000000000000000
  0
ARC
  8
0
  6
CONTINUOUS
 62
3
 10
198.794624596493800
 20
328.685710403627130
 40
3.000000000000000
 50
90.000000000000000
 51
180.000000000000000
  0
ARC
  8
0
  6
CONTINUOUS
 62
3
 10
218.294624596493800
 20
109.185710403627090
 40
4.999999999999939
 50
303.367012969232230
 51
0.000000000000000
  0
LINE
  8
0
  6
CONTINUOUS
 62
3
 10
218.794624596493800
 20
29.185710403627553
 11
215.794624596493800
 21
29.185710403627553
  0
LINE
  8
0
  6
CONTINUOUS
 62
3
 10
215.794624596493800
 20
331.685710403627130
 11
198.794624596493800
 21
331.685710403627130
  0
LINE
  8
0
  6
CONTINUOUS
 62
3
 10
218.794624596493800
 20
319.185710403627130
 11
215.794624596493800
 21
319.185710403627130
  0
LINE
  8
0
  6
CONTINUOUS
 62
3
 10
225.294624596493800
 20
130.185710403627100
 11
225.294624596493800
 21
218.185710403626870
  0
LINE
  8
0
  6
CONTINUOUS
 62
3
 10
219.794624596493800
 20
30.185710403627553
 11
218.794624596493800
 21
29.185710403627553
  0
LINE
  8
0
  6
CONTINUOUS
 62
3
 10
219.794624596493800
 20
318.185710403627130
 11
218.794624596493800
 21
319.185710403627130
  0
LINE
  8
0
  6
CONTINUOUS
 62
3
 10
224.294624596493800
 20
218.185710403627100
 11
225.294624596493800
 21
218.185710403626870
  0
LINE
  8
0
  6
CONTINUOUS
 62
3
 10
224.294624596493800
 20
130.185710403627100
 11
225.294624596493800
 21
130.185710403627100
  0
LINE
  8
0
  6
CONTINUOUS
 62
3
 10
191.045020508172230
 20
256.326292800590640
 11
163.572641875361800
 21
256.326292800590640
  0
LINE
  8
0
  6
CONTINUOUS
 62
3
 10
159.853373745083220
 20
266.108990080888820
 11
193.715953889250390
 21
290.487585370082120
  0
ARC
  8
0
  6
CONTINUOUS
 62
3
 10
190.794624596493800
 20
294.545396992531100
 40
4.999999999999970
 50
305.751143201122320
 51
0.000000000000000
  0
ARC
  8
0
  6
CONTINUOUS
 62
3
 10
156.932044452327090
 20
270.166801703337800
 40
5.000000000000000
 50
270.000000000000000
 51
305.751143201118110
  0
ARC
  8
0
  6
CONTINUOUS
 62
3
 10
190.794624596493800
 20
285.704888089783940
 40
5.000000000000155
 50
305.751143201120780
 51
0.000000000000000
  0
LINE
  8
0
  6
CONTINUOUS
 62
3
 10
159.853373745083220
 20
257.268481178141660
 11
193.715953889250390
 21
281.647076467334730
  0
ARC
  8
0
  6
CONTINUOUS
 62
3
 10
156.932044452327090
 20
261.326292800590640
 40
5.000000000000000
 50
270.000000000000000
 51
305.751143201118110
  0
ARC
  8
0
  6
CONTINUOUS
 62
3
 10
190.794624596493800
 20
165.685710403627100
 40
5.000000000000000
 50
0.000000000000000
 51
90.000000000000000
  0
LINE
  8
0
  6
CONTINUOUS
 62
3
 10
190.794624596493800
 20
170.685710403627100
 11
163.544646598697680
 21
170.685710403627100
  0
ARC
  8
0
  6
CONTINUOUS
 62
3
 10
190.794624596493800
 20
182.685710403627100
 40
5.000000000000000
 50
270.000000000000000
 51
0.000000000000000
  0
LINE
  8
0
  6
CONTINUOUS
 62
3
 10
190.794624596493800
 20
177.685710403627100
 11
163.544646598697680
 21
177.685710403627100
  0
ARC
  8
0
  6
CONTINUOUS
 62
3
 10
163.544646598697680
 20
182.685710403627100
 40
5.000000000000000
 50
180.000000000000000
 51
270.000000000000000
  0
ARC
  8
0
  6
CONTINUOUS
 62
3
 10
163.544646598697680
 20
165.685710403627100
 40
5.000000000000000
 50
90.000000000000000
 51
180.000000000000000
  0
LINE
  8
0
  6
CONTINUOUS
 62
3
 10
191.045020508172230
 20
92.045128006663589
 11
163.572641875361800
 21
92.045128006663589
  0
LINE
  8
0
  6
CONTINUOUS
 62
3
 10
159.853373745083220
 20
82.262430726365409
 11
193.715953889250390
 21
57.883835437172110
  0
ARC
  8
0
  6
CONTINUOUS
 62
3
 10
190.794624596493800
 20
53.826023814723129
 40
5.000000000000000
 50
0.000000000000000
 51
54.248856798877661
  0
ARC
  8
0
  6
CONTINUOUS
 62
3
 10
156.932044452327090
 20
78.204619103916428
 40
4.999999999999703
 50
54.248856798881903
 51
90.000000000000000
  0
ARC
  8
0
  6
CONTINUOUS
 62
3
 10
190.794624596493800
 20
62.666532717470290
 40
5.000000000000000
 50
0.000000000000000
 51
54.248856798879189
  0
LINE
  8
0
  6
CONTINUOUS
 62
3
 10
159.853373745083220
 20
91.102939629112569
 11
193.715953889250390
 21
66.724344339919497
  0
ARC
  8
0
  6
CONTINUOUS
 62
3
 10
156.932044452327090
 20
87.045128006663589
 40
4.999999999999703
 50
54.248856798881903
 51
90.000000000000000
  0
LINE
  8
0
  6
CONTINUOUS
 62
3
 10
58.807936528607797
 20
258.210485845256240
 11
50.689952684012496
 21
257.785040339706030
  0
ARC
  8
0
  6
CONTINUOUS
 62
3
 10
65.294624596493804
 20
280.227670512077110
 40
3.000000000000123
 50
38.028903311269509
 51
80.405931773141646
  0
LINE
  8
0
  6
CONTINUOUS
 62
3
 10
52.520300407152263
 20
241.254519967982560
 11
68.107457399052691
 21
283.288648052544200
  0
ARC
  8
0
  6
CONTINUOUS
 62
3
 10
65.294624596493804
 20
284.331706835570460
 40
2.999999999999916
 50
339.654138359445990
 51
0.000000000000000
  0
ARC
  8
0
  6
CONTINUOUS
 62
3
 10
49.707467604593376
 20
242.297578751008810
 40
3.000000000000227
 50
270.000000000000000
 51
339.654138359445990
  0
LINE
  8
0
  6
CONTINUOUS
 62
3
 10
52.520300407152263
 20
234.646400790863940
 11
66.549177539906395
 21
234.646400790863940
  0
ARC
  8
0
  6
CONTINUOUS
 62
3
 10
49.707467604593376
 20
237.646400790864160
 40
3.000000000000227
 50
270.000000000000000
 51
339.654138359445990
  0
LINE
  8
0
  6
CONTINUOUS
 62
3
 10
52.520300407152263
 20
236.603342007837910
 11
68.107457399052691
 21
278.637470092399550
  0
ARC
  8
0
  6
CONTINUOUS
 62
3
 10
65.294624596493804
 20
279.680528875425810
 40
2.999999999999916
 50
339.654138359445990
 51
0.000000000000000
  0
LINE
  8
0
  6
CONTINUOUS
 62
3
 10
46.794624596480844
 20
191.185710403628240
 11
46.794624596501080
 21
257.685710403627130
  0
LINE
  8
0
  6
CONTINUOUS
 62
3
 10
46.794624596474705
 20
170.185710403625960
 11
46.794624596476979
 21
178.185710403628240
  0
LINE
  8
0
  6
CONTINUOUS
 62
3
 10
48.794624596498579
 20
191.185710403628240
 11
48.794624596498579
 21
255.787781270197230
  0
LINE
  8
0
  6
CONTINUOUS
 62
3
 10
48.794624596498579
 20
174.185710403627100
 11
48.794624596498579
 21
178.185710403628240
  0
ARC
  8
0
  6
CONTINUOUS
 62
3
 10
46.794624596497442
 20
247.185710403627350
 40
2.000000000000000
 50
270.000000000000000
 51
0.000000000000000
  0
ARC
  8
0
  6
CONTINUOUS
 62
3
 10
50.794624596498579
 20
255.787781270197230
 40
1.999999999999663
 50
93.000000000006111
 51
180.000000000000000
  0
LINE
  8
0
  6
CONTINUOUS
 62
3
 10
63.294624596493804
 20
288.685710403627130
 11
63.294624596493804
 21
286.143750295177140
  0
LINE
  8
0
  6
CONTINUOUS
 62
3
 10
63.294624596493804
 20
307.185710403627130
 11
63.294624596493804
 21
301.685710403627130
  0
LINE
  8
0
  6
CONTINUOUS
 62
3
 10
51.794624596490394
 20
174.185710403627100
 11
51.794624596490394
 21
194.685710403627100
  0
LINE
  8
0
  6
CONTINUOUS
 62
3
 10
56.294624596494032
 20
194.685710403627100
 11
51.794624596490394
 21
194.685710403627100
  0
LINE
  8
0
  6
CONTINUOUS
 62
3
 10
56.294624596494032
 20
174.185710403627100
 11
56.294624596494032
 21
194.685710403627100
  0
ARC
  8
0
  6
CONTINUOUS
 62
3
 10
59.294624596494032
 20
191.893406387681320
 40
3.000000000000001
 50
92.000000000003652
 51
180.000000000000000
  0
LINE
  8
0
  6
CONTINUOUS
 62
3
 10
63.469122080006628
 20
195.041011684943640
 11
59.189926106386338
 21
194.891578868738610
  0
ARC
  8
0
  6
CONTINUOUS
 62
3
 10
63.294624596494032
 20
200.037965820039030
 40
4.999999999999918
 50
272.000000000001080
 51
0.000000000000000
  0
ARC
  8
0
  6
CONTINUOUS
 62
3
 10
65.294624596493804
 20
307.185710403627130
 40
2.000000000000000
 50
90.000000000000000
 51
180.000000000000000
  0
ARC
  8
0
  6
CONTINUOUS
 62
3
 10
66.294624596493804
 20
286.143750295177140
 40
3.000000000000000
 50
180.000000000000000
 51
260.405931773138780
  0
LINE
  8
0
  6
CONTINUOUS
 62
3
 10
68.294624596494032
 20
174.185710403627100
 11
68.294624596493804
 21
307.185710403627130
  0
LINE
  8
0
  6
CONTINUOUS
 62
3
 10
79.294624596494032
 20
174.185710403627100
 11
79.294624596493804
 21
309.185710403627130
  0
ARC
  8
0
  6
CONTINUOUS
 62
3
 10
70.294624596493804
 20
307.185710403627130
 40
2.000000000000000
 50
90.000000000000000
 51
180.000000000000000
  0
LINE
  8
0
  6
CONTINUOUS
 62
3
 10
58.807936528607797
 20
90.160934961997981
 11
50.689952684012496
 21
90.586380467548196
  0
ARC
  8
0
  6
CONTINUOUS
 62
3
 10
65.294624596494032
 20
68.143750295177114
 40
3.000000000000653
 50
279.594068226858330
 51
321.971096688727810
  0
LINE
  8
0
  6
CONTINUOUS
 62
3
 10
52.520300407152263
 20
107.116900839271660
 11
68.107457399052691
 21
65.082772754710021
  0
ARC
  8
0
  6
CONTINUOUS
 62
3
 10
65.294624596494032
 20
64.039713971683767
 40
3.000000000000000
 50
0.000000000000000
 51
20.345861640555512
  0
ARC
  8
0
  6
CONTINUOUS
 62
3
 10
49.707467604593376
 20
106.073842056245410
 40
2.999999999999916
 50
20.345861640554002
 51
90.000000000000000
  0
LINE
  8
0
  6
CONTINUOUS
 62
3
 10
52.520300407152263
 20
113.725020016390280
 11
66.549177539906395
 21
113.725020016390280
  0
ARC
  8
0
  6
CONTINUOUS
 62
3
 10
49.707467604593376
 20
110.725020016390060
 40
2.999999999999916
 50
20.345861640554002
 51
90.000000000000000
  0
LINE
  8
0
  6
CONTINUOUS
 62
3
 10
52.520300407152263
 20
111.768078799416310
 11
68.107457399052691
 21
69.733950714854672
  0
ARC
  8
0
  6
CONTINUOUS
 62
3
 10
65.294624596494032
 20
68.690891931828418
 40
3.000000000000000
 50
0.000000000000000
 51
20.345861640555512
  0
LINE
  8
0
  6
CONTINUOUS
 62
3
 10
46.794624596480844
 20
157.185710403625960
 11
46.794624596501535
 21
90.685710403627098
  0
LINE
  8
0
  6
CONTINUOUS
 62
3
 10
48.794624596498579
 20
157.185710403625960
 11
48.794624596498579
 21
92.583639537056996
  0
LINE
  8
0
  6
CONTINUOUS
 62
3
 10
48.794624596498579
 20
174.185710403627100
 11
48.794624596498579
 21
170.185710403625960
  0
ARC
  8
0
  6
CONTINUOUS
 62
3
 10
46.794624596497442
 20
101.185710403626870
 40
2.000000000000000
 50
0.000000000000000
 51
90.000000000000000
  0
ARC
  8
0
  6
CONTINUOUS
 62
3
 10
50.794624596498579
 20
92.583639537056996
 40
2.000000000000000
 50
180.000000000000000
 51
266.999999999993860
  0
LINE
  8
0
  6
CONTINUOUS
 62
3
 10
63.294624596494032
 20
59.685710403627098
 11
63.294624596494032
 21
62.227670512077083
  0
LINE
  8
0
  6
CONTINUOUS
 62
3
 10
63.294624596494032
 20
41.185710403627098
 11
63.294624596494032
 21
46.685710403627098
  0
LINE
  8
0
  6
CONTINUOUS
 62
3
 10
51.794624596490394
 20
174.185710403627100
 11
51.794624596490394
 21
153.685710403627100
  0
LINE
  8
0
  6
CONTINUOUS
 62
3
 10
56.294624596494032
 20
153.685710403627100
 11
51.794624596490394
 21
153.685710403627100
  0
LINE
  8
0
  6
CONTINUOUS
 62
3
 10
56.294624596494032
 20
174.185710403627100
 11
56.294624596494032
 21
153.685710403627100
  0
ARC
  8
0
  6
CONTINUOUS
 62
3
 10
59.294624596494032
 20
156.478014419572870
 40
3.000000000000000
 50
180.000000000000000
 51
267.999999999996360
  0
LINE
  8
0
  6
CONTINUOUS
 62
3
 10
63.469122080006628
 20
153.330409122310560
 11
59.189926106386338
 21
153.479841938515590
  0
ARC
  8
0
  6
CONTINUOUS
 62
3
 10
63.294624596494032
 20
148.333454987215160
 40
5.000000000000000
 50
0.000000000000000
 51
87.999999999998934
  0
ARC
  8
0
  6
CONTINUOUS
 62
3
 10
65.294624596494032
 20
41.185710403627098
 40
2.000000000000000
 50
180.000000000000000
 51
270.000000000000000
  0
ARC
  8
0
  6
CONTINUOUS
 62
3
 10
66.294624596494032
 20
62.227670512077083
 40
2.999999999999756
 50
99.594068226861253
 51
180.000000000000000
  0
LINE
  8
0
  6
CONTINUOUS
 62
3
 10
68.294624596494032
 20
174.185710403627100
 11
68.294624596494032
 21
41.185710403627098
  0
LINE
  8
0
  6
CONTINUOUS
 62
3
 10
79.294624596494032
 20
174.185710403627100
 11
79.294624596494032
 21
39.185710403627098
  0
ARC
  8
0
  6
CONTINUOUS
 62
3
 10
70.294624596494032
 20
41.185710403627098
 40
2.000000000000000
 50
180.000000000000000
 51
270.000000000000000
  0
ARC
  8
0
  6
CONTINUOUS
 62
3
 10
39.794624596475842
 20
254.439436384288460
 40
3.000000000000001
 50
92.000000000003652
 51
180.000000000000000
  0
LINE
  8
0
  6
CONTINUOUS
 62
3
 10
36.794624596475842
 20
174.185710403627100
 11
36.794624596475842
 21
254.439436384288460
  0
LINE
  8
0
  6
CONTINUOUS
 62
3
 10
39.689926106368148
 20
257.437608865345740
 11
46.794624596475842
 21
257.685710403627130
  0
ARC
  8
0
  6
CONTINUOUS
 62
3
 10
31.794624596475842
 20
238.685710403627350
 40
5.000000000000049
 50
307.828636848028620
 51
0.000000000000000
  0
ARC
  8
0
  6
CONTINUOUS
 62
3
 10
31.794624596475842
 20
109.685710403626980
 40
5.000000000000000
 50
0.000000000000000
 51
52.171363151969786
  0
ARC
  8
0
  6
CONTINUOUS
 62
3
 10
39.794624596475842
 20
93.931984422965769
 40
3.000000000000000
 50
180.000000000000000
 51
267.999999999996360
  0
LINE
  8
0
  6
CONTINUOUS
 62
3
 10
39.689926106368148
 20
90.933811941908488
 11
46.794624596475842
 21
90.685710403627098
  0
LINE
  8
0
  6
CONTINUOUS
 62
3
 10
36.794624596475842
 20
174.185710403627100
 11
36.794624596475842
 21
93.931984422965769
  0
INSERT
  8
0
  2
SYM17
 10
51.794624596489712
 20
184.685710403628240
 41
-1.000000000000000
 50
180.000000000000030
  0
INSERT
  8
0
  2
SYM18
 10
68.294624596493804
 20
295.185710403627130
 41
-1.000000000000000
 50
180.000000000000030
  0
INSERT
  8
0
  2
SYM19
 10
68.294624596494032
 20
224.185710403627130
 41
-1.000000000000000
 50
180.000000000000030
  0
INSERT
  8
0
  2
SYM20
 10
51.794624596489712
 20
163.685710403625960
  0
INSERT
  8
0
  2
SYM21
 10
68.294624596494032
 20
53.185710403627098
  0
INSERT
  8
0
  2
SYM22
 10
68.294624596494032
 20
124.185710403627090
  0
INSERT
  8
0
  2
SYM23
 10
36.794624596475842
 20
228.986485945584490
 41
-1.000000000000000
 50
180.000000000000000
  0
INSERT
  8
0
  2
SYM1
 10
36.794624596475842
 20
119.384934861669730
  0
ARC
  8
0
  6
CONTINUOUS
 62
3
 10
-168.205375403524160
 20
243.685710403626900
 40
5.000000000000000
 50
180.000000000000000
 51
270.000000000000000
  0
LINE
  8
0
  6
CONTINUOUS
 62
3
 10
-173.205375403524160
 20
233.685710403626900
 11
-173.205375403524160
 21
238.685710403626900
  0
LINE
  8
0
  6
DASHDOT
 62
3
 10
-49.205375403524158
 20
233.685710403626900
 11
-49.205375403524158
 21
238.685710403626900
  0
ARC
  8
0
  6
CONTINUOUS
 62
3
 10
-54.205375403524158
 20
243.685710403626900
 40
5.000000000000000
 50
270.000000000000000
 51
0.000000000000000
  0
LINE
  8
0
  6
DASHDOT
 62
3
 10
-49.205375403524158
 20
233.685710403626900
 11
-49.205375403524158
 21
238.685710403626900
  0
LINE
  8
0
  6
CONTINUOUS
 62
3
 10
-173.205375403524160
 20
238.685710403626900
 11
-49.205375403524158
 21
238.685710403626900
  0
LINE
  8
0
  6
CONTINUOUS
 62
3
 10
-59.705375403524158
 20
257.346735463313730
 11
-162.705375403524160
 21
257.346735463313730
  0
ARC
  8
0
  6
CONTINUOUS
 62
3
 10
-54.205375403524158
 20
262.346735463313730
 40
5.000000000000072
 50
287.457603123721870
 51
0.000000000000000
  0
ARC
  8
0
  6
CONTINUOUS
 62
3
 10
-54.005375403524340
 20
258.023281589056070
 40
1.300000000000182
 50
0.000000000000000
 51
73.398450400977637
  0
ARC
  8
0
  6
CONTINUOUS
 62
3
 10
-56.205375403524158
 20
250.644257263306600
 40
9.000000000000123
 50
73.398450400980877
 51
106.601549599019120
  0
ARC
  8
0
  6
CONTINUOUS
 62
3
 10
-58.405375403523976
 20
258.023281589056070
 40
1.300000000000019
 50
106.601549599022360
 51
180.000000000000000
  0
LINE
  8
0
  6
CONTINUOUS
 62
3
 10
-52.705375403524158
 20
258.023281589056070
 11
-52.705375403524158
 21
257.036271851131690
  0
POLYLINE
  8
0
  6
CONTINUOUS
 62
3
 66
1
  0
VERTEX
  8
0
  6
CONTINUOUS
 62
3
 10
-59.705375403524158
 20
257.036271851131690
  0
VERTEX
  8
0
  6
CONTINUOUS
 62
3
 10
-59.638123884935467
 20
257.002173640935720
  0
VERTEX
  8
0
  6
CONTINUOUS
 62
3
 10
-59.438953767313663
 20
256.969385805835090
  0
VERTEX
  8
0
  6
CONTINUOUS
 62
3
 10
-59.115519046583067
 20
256.939168363945040
  0
VERTEX
  8
0
  6
CONTINUOUS
 62
3
 10
-58.680249137677073
 20
256.912682554611370
  0
VERTEX
  8
0
  6
CONTINUOUS
 62
3
 10
-58.149871219092766
 20
256.890946212633250
  0
VERTEX
  8
0
  6
CONTINUOUS
 62
3
 10
-57.544767416801974
 20
256.874794653443080
  0
VERTEX
  8
0
  6
CONTINUOUS
 62
3
 10
-56.888191530580606
 20
256.864848572402650
  0
VERTEX
  8
0
  6
CONTINUOUS
 62
3
 10
-56.205375403524158
 20
256.861490191828470
  0
VERTEX
  8
0
  6
CONTINUOUS
 62
3
 10
-55.522559276467710
 20
256.864848572402650
  0
VERTEX
  8
0
  6
CONTINUOUS
 62
3
 10
-54.865983390246342
 20
256.874794653443080
  0
VERTEX
  8
0
  6
CONTINUOUS
 62
3
 10
-54.260879587955550
 20
256.890946212633250
  0
VERTEX
  8
0
  6
CONTINUOUS
 62
3
 10
-53.730501669371243
 20
256.912682554611370
  0
VERTEX
  8
0
  6
CONTINUOUS
 62
3
 10
-53.295231760465249
 20
256.939168363945040
  0
VERTEX
  8
0
  6
CONTINUOUS
 62
3
 10
-52.971797039734653
 20
256.969385805835090
  0
VERTEX
  8
0
  6
CONTINUOUS
 62
3
 10
-52.772626922112856
 20
257.002173640935720
  0
VERTEX
  8
0
  6
CONTINUOUS
 62
3
 10
-52.705375403524158
 20
257.036271851131690
  0
SEQEND
  8
0
  6
CONTINUOUS
 62
3
  0
LINE
  8
0
  6
CONTINUOUS
 62
3
 10
-59.705375403524158
 20
258.023281589056070
 11
-59.705375403524158
 21
257.036271851131690
  0
ARC
  8
0
  6
CONTINUOUS
 62
3
 10
-168.205375403524160
 20
262.346735463313730
 40
5.000000000000000
 50
180.000000000000000
 51
252.542396876278160
  0
LINE
  8
0
  6
CONTINUOUS
 62
3
 10
-169.705375403524160
 20
258.023281589056070
 11
-169.705375403524160
 21
257.036271851131690
  0
LINE
  8
0
  6
CONTINUOUS
 62
3
 10
-162.705375403524160
 20
258.023281589056070
 11
-162.705375403524160
 21
257.036271851131690
  0
ARC
  8
0
  6
CONTINUOUS
 62
3
 10
-168.405375403523980
 20
258.023281589056070
 40
1.300000000000019
 50
106.601549599022360
 51
180.000000000000000
  0
ARC
  8
0
  6
CONTINUOUS
 62
3
 10
-166.205375403524160
 20
250.644257263306600
 40
9.000000000000123
 50
73.398450400980877
 51
106.601549599019120
  0
ARC
  8
0
  6
CONTINUOUS
 62
3
 10
-164.005375403524340
 20
258.023281589056070
 40
1.300000000000182
 50
0.000000000000000
 51
73.398450400977637
  0
POLYLINE
  8
0
  6
CONTINUOUS
 62
3
 66
1
  0
VERTEX
  8
0
  6
CONTINUOUS
 62
3
 10
-169.705375403524160
 20
257.036271851131690
  0
VERTEX
  8
0
  6
CONTINUOUS
 62
3
 10
-169.638123884935450
 20
257.002173640935720
  0
VERTEX
  8
0
  6
CONTINUOUS
 62
3
 10
-169.438953767313650
 20
256.969385805835090
  0
VERTEX
  8
0
  6
CONTINUOUS
 62
3
 10
-169.115519046583070
 20
256.939168363945040
  0
VERTEX
  8
0
  6
CONTINUOUS
 62
3
 10
-168.680249137677070
 20
256.912682554611370
  0
VERTEX
  8
0
  6
CONTINUOUS
 62
3
 10
-168.149871219092770
 20
256.890946212633250
  0
VERTEX
  8
0
  6
CONTINUOUS
 62
3
 10
-167.544767416801960
 20
256.874794653443080
  0
VERTEX
  8
0
  6
CONTINUOUS
 62
3
 10
-166.888191530580600
 20
256.864848572402650
  0
VERTEX
  8
0
  6
CONTINUOUS
 62
3
 10
-166.205375403524160
 20
256.861490191828470
  0
VERTEX
  8
0
  6
CONTINUOUS
 62
3
 10
-165.522559276467720
 20
256.864848572402650
  0
VERTEX
  8
0
  6
CONTINUOUS
 62
3
 10
-164.865983390246360
 20
256.874794653443080
  0
VERTEX
  8
0
  6
CONTINUOUS
 62
3
 10
-164.260879587955540
 20
256.890946212633250
  0
VERTEX
  8
0
  6
CONTINUOUS
 62
3
 10
-163.730501669371250
 20
256.912682554611370
  0
VERTEX
  8
0
  6
CONTINUOUS
 62
3
 10
-163.295231760465240
 20
256.939168363945040
  0
VERTEX
  8
0
  6
CONTINUOUS
 62
3
 10
-162.971797039734670
 20
256.969385805835090
  0
VERTEX
  8
0
  6
CONTINUOUS
 62
3
 10
-162.772626922112860
 20
257.002173640935720
  0
VERTEX
  8
0
  6
CONTINUOUS
 62
3
 10
-162.705375403524160
 20
257.036271851131690
  0
SEQEND
  8
0
  6
CONTINUOUS
 62
3
  0
LINE
  8
0
  6
CONTINUOUS
 62
3
 10
-49.205375403524158
 20
262.346735463313730
 11
-49.205375403524158
 21
275.285710403626810
  0
LINE
  8
0
  6
CONTINUOUS
 62
3
 10
-173.205375403524160
 20
262.346735463313730
 11
-173.205375403524160
 21
275.285710403626810
  0
LINE
  8
0
  6
CONTINUOUS
 62
3
 10
-173.205375403524160
 20
261.880220694689110
 11
-174.205375403524160
 21
261.880220694689110
  0
LINE
  8
0
  6
CONTINUOUS
 62
3
 10
-48.205375403524158
 20
256.786583766411920
 11
-174.205375403524160
 21
256.786583766411920
  0
ARC
  8
0
  6
CONTINUOUS
 62
3
 10
-168.205375403524160
 20
275.285710403626810
 40
5.000000000000000
 50
90.000000000000000
 51
180.000000000000000
  0
ARC
  8
0
  6
CONTINUOUS
 62
3
 10
-174.205375403524160
 20
259.880220694689110
 40
2.000000000000000
 50
90.000000000000000
 51
180.000000000000000
  0
ARC
  8
0
  6
CONTINUOUS
 62
3
 10
-174.205375403524160
 20
258.786583766411920
 40
2.000000000000000
 50
180.000000000000000
 51
270.000000000000000
  0
ARC
  8
0
  6
CONTINUOUS
 62
3
 10
-174.205375403524160
 20
257.987581895326680
 40
2.000000000000000
 50
180.000000000000000
 51
270.000000000000000
  0
LINE
  8
0
  6
CONTINUOUS
 62
3
 10
-176.205375403524160
 20
259.880220694689110
 11
-176.205375403524160
 21
257.188580024207790
  0
ARC
  8
0
  6
CONTINUOUS
 62
3
 10
-174.205375403524160
 20
257.188580024207790
 40
2.000000000000000
 50
180.000000000000000
 51
270.000000000000000
  0
LINE
  8
0
  6
CONTINUOUS
 62
3
 10
-173.205375403524160
 20
243.685710403626900
 11
-173.205375403524160
 21
255.188580024207790
  0
ARC
  8
0
  6
CONTINUOUS
 62
3
 10
-54.205375403524158
 20
275.285710403626810
 40
5.000000000000000
 50
0.000000000000000
 51
90.000000000000000
  0
LINE
  8
0
  6
CONTINUOUS
 62
3
 10
-168.205375403524160
 20
280.285710403626810
 11
-54.205375403524158
 21
280.285710403626810
  0
LINE
  8
0
  6
CONTINUOUS
 62
3
 10
-49.205375403524158
 20
243.685710403626900
 11
-49.205375403524158
 21
254.987581895326680
  0
LINE
  8
0
  6
CONTINUOUS
 62
3
 10
-46.205375403524158
 20
259.880220694689110
 11
-46.205375403524158
 21
257.188580024207790
  0
LINE
  8
0
  6
CONTINUOUS
 62
3
 10
-48.205375403524158
 20
255.987581895309860
 11
-174.205375403524160
 21
255.987581895309860
  0
LINE
  8
0
  6
CONTINUOUS
 62
3
 10
-48.205375403524158
 20
255.188580024207790
 11
-174.205375403524160
 21
255.188580024207790
  0
LINE
  8
0
  6
CONTINUOUS
 62
3
 10
-49.205375403524158
 20
261.880220694689110
 11
-48.205375403524158
 21
261.880220694689110
  0
ARC
  8
0
  6
CONTINUOUS
 62
3
 10
-48.205375403524158
 20
259.880220694689110
 40
2.000000000000000
 50
0.000000000000000
 51
90.000000000000000
  0
ARC
  8
0
  6
CONTINUOUS
 62
3
 10
-48.205375403524158
 20
258.786583766411920
 40
2.000000000000000
 50
270.000000000000000
 51
0.000000000000000
  0
ARC
  8
0
  6
CONTINUOUS
 62
3
 10
-48.205375403524158
 20
257.987581895326680
 40
2.000000000000000
 50
270.000000000000000
 51
0.000000000000000
  0
ARC
  8
0
  6
CONTINUOUS
 62
3
 10
-48.205375403524158
 20
257.188580024207790
 40
2.000000000000000
 50
270.000000000000000
 51
0.000000000000000
  0
LINE
  8
0
  6
CONTINUOUS
 62
3
 10
-180.705375403523930
 20
112.566489486754300
 11
-176.705375403524040
 21
112.566489486754300
  0
LINE
  8
0
  6
CONTINUOUS
 62
3
 10
-276.705375403473910
 20
174.185710403627100
 11
-276.705375403473910
 21
121.742505346381640
  0
LINE
  8
0
  6
CONTINUOUS
 62
3
 10
-24.705375403524158
 20
114.685710403627090
 11
-24.705375403524158
 21
174.185710403627100
  0
LINE
  8
0
  6
CONTINUOUS
 62
3
 10
-173.705375403524040
 20
174.185710403627100
 11
-173.705375403524040
 21
115.566489486754300
  0
ARC
  8
0
  6
CONTINUOUS
 62
3
 10
-180.705375403523930
 20
109.566489486754300
 40
3.000000000000000
 50
90.000000000000000
 51
180.000000000000000
  0
ARC
  8
0
  6
CONTINUOUS
 62
3
 10
-176.705375403524040
 20
115.566489486754300
 40
3.000000000000000
 50
270.000000000000000
 51
0.000000000000000
  0
ARC
  8
0
  6
CONTINUOUS
 62
3
 10
-274.105375403473770
 20
226.628915460872580
 40
2.599999999999721
 50
125.000000000001370
 51
180.000000000000000
  0
LINE
  8
0
  6
CONTINUOUS
 62
3
 10
-265.870928352965390
 20
235.568751289406920
 11
-275.596674137986380
 21
228.758710776023690
  0
ARC
  8
0
  6
CONTINUOUS
 62
3
 10
-254.399399625944400
 20
219.185710403627100
 40
20.000000000000028
 50
90.000000000000000
 51
125.000000000000180
  0
LINE
  8
0
  6
CONTINUOUS
 62
3
 10
-276.705375403473910
 20
174.185710403627100
 11
-276.705375403473910
 21
226.628915460872580
  0
LINE
  8
0
  6
CONTINUOUS
 62
3
 10
-173.705375403524040
 20
239.185710403627130
 11
-254.399399625944400
 21
239.185710403627130
  0
LINE
  8
0
  6
CONTINUOUS
 62
3
 10
-106.705375403524040
 20
233.685710403627130
 11
-24.705375403524158
 21
233.685710403627130
  0
LINE
  8
0
  6
CONTINUOUS
 62
4
 10
-173.705375403524040
 20
231.185710403627130
 11
-24.705375403524158
 21
231.185710403627130
  0
LINE
  8
0
  6
CONTINUOUS
 62
4
 10
-173.705375403524040
 20
230.185710403627130
 11
-24.705375403524158
 21
230.185710403627130
  0
LINE
  8
0
  6
CONTINUOUS
 62
4
 10
-173.705375403524040
 20
229.185710403627130
 11
-24.705375403524158
 21
229.185710403627130
  0
LINE
  8
0
  6
CONTINUOUS
 62
3
 10
-173.705375403524040
 20
174.185710403627100
 11
-173.705375403524040
 21
239.185710403627130
  0
LINE
  8
0
  6
CONTINUOUS
 62
4
 10
-173.705375403524040
 20
224.501244590402850
 11
-24.705375403524158
 21
224.501244590402850
  0
LINE
  8
0
  6
CONTINUOUS
 62
4
 10
-173.705375403524040
 20
219.551497122097060
 11
-24.705375403524158
 21
219.551497122097060
  0
LINE
  8
0
  6
CONTINUOUS
 62
4
 10
-173.705375403524040
 20
189.185710403627100
 11
-24.705375403524158
 21
189.185710403627100
  0
LINE
  8
0
  6
CONTINUOUS
 62
4
 10
-173.705375403524040
 20
193.558972213128270
 11
-24.705375403524158
 21
193.558972213128270
  0
LINE
  8
0
  6
CONTINUOUS
 62
4
 10
-173.705375403524040
 20
194.825210129215490
 11
-24.705375403524158
 21
194.825210129215490
  0
LINE
  8
0
  6
CONTINUOUS
 62
4
 10
-173.705375403524040
 20
199.015763860757690
 11
-24.705375403524158
 21
199.015763860757690
  0
LINE
  8
0
  6
CONTINUOUS
 62
4
 10
-173.705375403524040
 20
200.377644196106960
 11
-24.705375403524158
 21
200.377644196106960
  0
LINE
  8
0
  6
CONTINUOUS
 62
4
 10
-173.705375403524040
 20
204.468144730196830
 11
-24.705375403524158
 21
204.468144730196830
  0
LINE
  8
0
  6
CONTINUOUS
 62
4
 10
-173.705375403524040
 20
205.936502120001450
 11
-24.705375403524158
 21
205.936502120001450
  0
LINE
  8
0
  6
CONTINUOUS
 62
4
 10
-173.705375403524040
 20
209.900247543800990
 11
-24.705375403524158
 21
209.900247543800990
  0
LINE
  8
0
  6
CONTINUOUS
 62
4
 10
-173.705375403524040
 20
211.504895459363040
 11
-24.705375403524158
 21
211.504895459363040
  0
LINE
  8
0
  6
CONTINUOUS
 62
4
 10
-173.705375403524040
 20
159.185710403627100
 11
-24.705375403524158
 21
159.185710403627100
  0
LINE
  8
0
  6
CONTINUOUS
 62
4
 10
-173.705375403524040
 20
154.812448594125930
 11
-24.705375403524158
 21
154.812448594125930
  0
LINE
  8
0
  6
CONTINUOUS
 62
4
 10
-173.705375403524040
 20
153.546210678038700
 11
-24.705375403524158
 21
153.546210678038700
  0
LINE
  8
0
  6
CONTINUOUS
 62
4
 10
-173.705375403524040
 20
149.355656946496510
 11
-24.705375403524158
 21
149.355656946496510
  0
LINE
  8
0
  6
CONTINUOUS
 62
4
 10
-173.705375403524040
 20
147.993776611147240
 11
-24.705375403524158
 21
147.993776611147240
  0
LINE
  8
0
  6
CONTINUOUS
 62
4
 10
-173.705375403524040
 20
143.903276077057370
 11
-24.705375403524158
 21
143.903276077057370
  0
LINE
  8
0
  6
CONTINUOUS
 62
4
 10
-173.705375403524040
 20
142.434918687252750
 11
-24.705375403524158
 21
142.434918687252750
  0
LINE
  8
0
  6
CONTINUOUS
 62
4
 10
-173.705375403524040
 20
138.471173263453210
 11
-24.705375403524158
 21
138.471173263453210
  0
LINE
  8
0
  6
CONTINUOUS
 62
4
 10
-173.705375403524040
 20
136.866525347891160
 11
-24.705375403524158
 21
136.866525347891160
  0
LINE
  8
0
  6
CONTINUOUS
 62
4
 10
-173.705375403524040
 20
128.819923685157140
 11
-24.705375403524158
 21
128.819923685157140
  0
LINE
  8
0
  6
CONTINUOUS
 62
4
 10
-173.705375403524040
 20
119.185710403627090
 11
-24.705375403524158
 21
119.185710403627090
  0
LINE
  8
0
  6
CONTINUOUS
 62
4
 10
-173.705375403524040
 20
118.185710403627090
 11
-24.705375403524158
 21
118.185710403627090
  0
LINE
  8
0
  6
CONTINUOUS
 62
4
 10
-173.705375403524040
 20
117.185710403627090
 11
-24.705375403524158
 21
117.185710403627090
  0
LINE
  8
0
  6
CONTINUOUS
 62
3
 10
-184.705375403523480
 20
227.925825504064730
 11
-186.705375403523480
 21
226.273183864941300
  0
LINE
  8
0
  6
CONTINUOUS
 62
3
 10
-182.705375403523480
 20
229.101610989687520
 11
-184.705375403523480
 21
227.925825504064730
  0
LINE
  8
0
  6
CONTINUOUS
 62
3
 10
-184.705375403523480
 20
227.925825504064730
 11
-182.705375403523480
 21
226.273183864941300
  0
LINE
  8
0
  6
CONTINUOUS
 62
3
 10
-186.705375403523480
 20
229.101610989687520
 11
-184.705375403523480
 21
227.925825504064730
  0
POLYLINE
  8
0
  6
CONTINUOUS
 62
3
 66
1
 70
1
  0
VERTEX
  8
0
  6
CONTINUOUS
 62
3
 10
-180.005375403523490
 20
226.109235435687200
  0
VERTEX
  8
0
  6
CONTINUOUS
 62
3
 10
-180.095684585628310
 20
226.812192401887560
  0
VERTEX
  8
0
  6
CONTINUOUS
 62
3
 10
-180.363141600720440
 20
227.488135126099650
  0
VERTEX
  8
0
  6
CONTINUOUS
 62
3
 10
-180.797468225701520
 20
228.111087508505050
  0
VERTEX
  8
0
  6
CONTINUOUS
 62
3
 10
-181.381973531946700
 20
228.657109838403640
  0
VERTEX
  8
0
  6
CONTINUOUS
 62
3
 10
-182.094195308331360
 20
229.105218783870270
  0
VERTEX
  8
0
  6
CONTINUOUS
 62
3
 10
-182.906763271407560
 20
229.438193769433010
  0
VERTEX
  8
0
  6
CONTINUOUS
 62
3
 10
-183.788450890047670
 20
229.643238753131270
  0
VERTEX
  8
0
  6
CONTINUOUS
 62
3
 10
-184.705375403523480
 20
229.712473971232040
  0
VERTEX
  8
0
  6
CONTINUOUS
 62
3
 10
-185.622299916999280
 20
229.643238753131270
  0
VERTEX
  8
0
  6
CONTINUOUS
 62
3
 10
-186.503987535639400
 20
229.438193769433010
  0
VERTEX
  8
0
  6
CONTINUOUS
 62
3
 10
-187.316555498715590
 20
229.105218783870270
  0
VERTEX
  8
0
  6
CONTINUOUS
 62
3
 10
-188.028777275100250
 20
228.657109838403640
  0
VERTEX
  8
0
  6
CONTINUOUS
 62
3
 10
-188.613282581345430
 20
228.111087508505050
  0
VERTEX
  8
0
  6
CONTINUOUS
 62
3
 10
-189.047609206326510
 20
227.488135126099650
  0
VERTEX
  8
0
  6
CONTINUOUS
 62
3
 10
-189.315066221418650
 20
226.812192401887560
  0
VERTEX
  8
0
  6
CONTINUOUS
 62
3
 10
-189.405375403523460
 20
226.109235435687200
  0
VERTEX
  8
0
  6
CONTINUOUS
 62
3
 10
-189.315066221418650
 20
225.406278469486840
  0
VERTEX
  8
0
  6
CONTINUOUS
 62
3
 10
-189.047609206326510
 20
224.730335745274740
  0
VERTEX
  8
0
  6
CONTINUOUS
 62
3
 10
-188.613282581345430
 20
224.107383362869340
  0
VERTEX
  8
0
  6
CONTINUOUS
 62
3
 10
-188.028777275100230
 20
223.561361032970750
  0
VERTEX
  8
0
  6
CONTINUOUS
 62
3
 10
-187.316555498715590
 20
223.113252087504120
  0
VERTEX
  8
0
  6
CONTINUOUS
 62
3
 10
-186.503987535639400
 20
222.780277101941380
  0
VERTEX
  8
0
  6
CONTINUOUS
 62
3
 10
-185.622299916999280
 20
222.575232118243120
  0
VERTEX
  8
0
  6
CONTINUOUS
 62
3
 10
-184.705375403523480
 20
222.505996900142350
  0
VERTEX
  8
0
  6
CONTINUOUS
 62
3
 10
-183.788450890047670
 20
222.575232118243120
  0
VERTEX
  8
0
  6
CONTINUOUS
 62
3
 10
-182.906763271407560
 20
222.780277101941380
  0
VERTEX
  8
0
  6
CONTINUOUS
 62
3
 10
-182.094195308331360
 20
223.113252087504120
  0
VERTEX
  8
0
  6
CONTINUOUS
 62
3
 10
-181.381973531946730
 20
223.561361032970750
  0
VERTEX
  8
0
  6
CONTINUOUS
 62
3
 10
-180.797468225701520
 20
224.107383362869340
  0
VERTEX
  8
0
  6
CONTINUOUS
 62
3
 10
-180.363141600720440
 20
224.730335745274740
  0
VERTEX
  8
0
  6
CONTINUOUS
 62
3
 10
-180.095684585628310
 20
225.406278469486840
  0
SEQEND
  8
0
  6
CONTINUOUS
 62
3
  0
LINE
  8
0
  6
CONTINUOUS
 62
3
 10
-184.705375403523480
 20
120.445595303189260
 11
-186.705375403523480
 21
122.098236942312690
  0
LINE
  8
0
  6
CONTINUOUS
 62
3
 10
-182.705375403523480
 20
119.269809817566930
 11
-184.705375403523480
 21
120.445595303189260
  0
LINE
  8
0
  6
CONTINUOUS
 62
3
 10
-91.505375403524226
 20
114.685710403627090
 11
-24.705375403524158
 21
114.685710403627090
  0
ARC
  8
0
  6
CONTINUOUS
 62
3
 10
-254.399399625944400
 20
129.185710403627100
 40
20.000000000000007
 50
234.999999999999740
 51
270.000000000000000
  0
LINE
  8
0
  6
CONTINUOUS
 62
3
 10
-184.705375403523480
 20
120.445595303189260
 11
-182.705375403523480
 21
122.098236942312690
  0
LINE
  8
0
  6
CONTINUOUS
 62
3
 10
-186.705375403523480
 20
119.269809817566930
 11
-184.705375403523480
 21
120.445595303189260
  0
POLYLINE
  8
0
  6
CONTINUOUS
 62
3
 66
1
 70
1
  0
VERTEX
  8
0
  6
CONTINUOUS
 62
3
 10
-180.005375403523490
 20
122.262185371567250
  0
VERTEX
  8
0
  6
CONTINUOUS
 62
3
 10
-180.095684585628310
 20
122.965142337767610
  0
VERTEX
  8
0
  6
CONTINUOUS
 62
3
 10
-180.363141600720440
 20
123.641085061979700
  0
VERTEX
  8
0
  6
CONTINUOUS
 62
3
 10
-180.797468225701520
 20
124.264037444385110
  0
VERTEX
  8
0
  6
CONTINUOUS
 62
3
 10
-181.381973531946700
 20
124.810059774283680
  0
VERTEX
  8
0
  6
CONTINUOUS
 62
3
 10
-182.094195308331360
 20
125.258168719750300
  0
VERTEX
  8
0
  6
CONTINUOUS
 62
3
 10
-182.906763271407560
 20
125.591143705313070
  0
VERTEX
  8
0
  6
CONTINUOUS
 62
3
 10
-183.788450890047670
 20
125.796188689011310
  0
VERTEX
  8
0
  6
CONTINUOUS
 62
3
 10
-184.705375403523480
 20
125.865423907112080
  0
VERTEX
  8
0
  6
CONTINUOUS
 62
3
 10
-185.622299916999280
 20
125.796188689011310
  0
VERTEX
  8
0
  6
CONTINUOUS
 62
3
 10
-186.503987535639400
 20
125.591143705313070
  0
VERTEX
  8
0
  6
CONTINUOUS
 62
3
 10
-187.316555498715590
 20
125.258168719750300
  0
VERTEX
  8
0
  6
CONTINUOUS
 62
3
 10
-188.028777275100250
 20
124.810059774283680
  0
VERTEX
  8
0
  6
CONTINUOUS
 62
3
 10
-188.613282581345430
 20
124.264037444385110
  0
VERTEX
  8
0
  6
CONTINUOUS
 62
3
 10
-189.047609206326510
 20
123.641085061979700
  0
VERTEX
  8
0
  6
CONTINUOUS
 62
3
 10
-189.315066221418650
 20
122.965142337767610
  0
VERTEX
  8
0
  6
CONTINUOUS
 62
3
 10
-189.405375403523460
 20
122.262185371567250
  0
VERTEX
  8
0
  6
CONTINUOUS
 62
3
 10
-189.315066221418650
 20
121.559228405366890
  0
VERTEX
  8
0
  6
CONTINUOUS
 62
3
 10
-189.047609206326510
 20
120.883285681154800
  0
VERTEX
  8
0
  6
CONTINUOUS
 62
3
 10
-188.613282581345430
 20
120.260333298749400
  0
VERTEX
  8
0
  6
CONTINUOUS
 62
3
 10
-188.028777275100230
 20
119.714310968850820
  0
VERTEX
  8
0
  6
CONTINUOUS
 62
3
 10
-187.316555498715590
 20
119.266202023384210
  0
VERTEX
  8
0
  6
CONTINUOUS
 62
3
 10
-186.503987535639400
 20
118.933227037821430
  0
VERTEX
  8
0
  6
CONTINUOUS
 62
3
 10
-185.622299916999280
 20
118.728182054123190
  0
VERTEX
  8
0
  6
CONTINUOUS
 62
3
 10
-184.705375403523480
 20
118.658946836022420
  0
VERTEX
  8
0
  6
CONTINUOUS
 62
3
 10
-183.788450890047670
 20
118.728182054123190
  0
VERTEX
  8
0
  6
CONTINUOUS
 62
3
 10
-182.906763271407560
 20
118.933227037821430
  0
VERTEX
  8
0
  6
CONTINUOUS
 62
3
 10
-182.094195308331360
 20
119.266202023384210
  0
VERTEX
  8
0
  6
CONTINUOUS
 62
3
 10
-181.381973531946730
 20
119.714310968850820
  0
VERTEX
  8
0
  6
CONTINUOUS
 62
3
 10
-180.797468225701520
 20
120.260333298749400
  0
VERTEX
  8
0
  6
CONTINUOUS
 62
3
 10
-180.363141600720440
 20
120.883285681154800
  0
VERTEX
  8
0
  6
CONTINUOUS
 62
3
 10
-180.095684585628310
 20
121.559228405366890
  0
SEQEND
  8
0
  6
CONTINUOUS
 62
3
  0
LINE
  8
0
  6
CONTINUOUS
 62
3
 10
-183.705375403523930
 20
109.185710403627090
 11
-254.399399625944400
 21
109.185710403627090
  0
ARC
  8
0
  6
CONTINUOUS
 62
3
 10
-274.105375403473770
 20
121.742505346381640
 40
2.600000000000136
 50
180.000000000000000
 51
234.999999999998610
  0
LINE
  8
0
  6
CONTINUOUS
 62
3
 10
-265.870928352965390
 20
112.802669517847300
 11
-275.596674137986380
 21
119.612710031230530
  0
LINE
  8
0
  6
CONTINUOUS
 62
3
 10
-173.705375403524040
 20
233.685710403626900
 11
-24.705375403524158
 21
233.685710403626900
  0
LINE
  8
0
  6
CONTINUOUS
 62
3
 10
-183.705375403523930
 20
109.185710403627090
 11
-183.705375403523930
 21
109.566489486754300
  0
LINE
  8
0
  6
CONTINUOUS
 62
4
 10
-173.705375403524040
 20
123.870176216851370
 11
-24.705375403524158
 21
123.870176216851370
  0
LINE
  8
0
  6
CONTINUOUS
 62
3
 10
-181.505375403524230
 20
110.685710403626980
 11
-91.505375403524226
 21
110.685710403626980
  0
LINE
  8
0
  6
CONTINUOUS
 62
3
 10
-181.505375403524230
 20
113.737380501784030
 11
-181.505375403524230
 21
77.685710403626985
  0
LINE
  8
0
  6
CONTINUOUS
 62
3
 10
-174.505375403524230
 20
76.685710403626985
 11
-174.505375403524230
 21
76.185710403626985
  0
LINE
  8
0
  6
CONTINUOUS
 62
3
 10
-166.505375403524230
 20
76.685710403626985
 11
-166.505375403524230
 21
76.185710403626985
  0
LINE
  8
0
  6
CONTINUOUS
 62
3
 10
-98.505375403524226
 20
76.685710403626985
 11
-98.505375403524226
 21
76.185710403626985
  0
LINE
  8
0
  6
CONTINUOUS
 62
3
 10
-106.505375403524220
 20
76.685710403626985
 11
-106.505375403524220
 21
76.185710403626985
  0
LINE
  8
0
  6
CONTINUOUS
 62
3
 10
-106.505375403524220
 20
76.185710403626985
 11
-98.505375403524226
 21
76.185710403626985
  0
LINE
  8
0
  6
CONTINUOUS
 62
3
 10
-174.505375403524230
 20
76.185710403626985
 11
-166.505375403524230
 21
76.185710403626985
  0
ARC
  8
0
  6
CONTINUOUS
 62
3
 10
-180.505375403524230
 20
77.685710403626985
 40
1.000000000000000
 50
180.000000000000000
 51
270.000000000000000
  0
LINE
  8
0
  6
CONTINUOUS
 62
3
 10
-180.505375403524230
 20
76.685710403626985
 11
-92.505375403524226
 21
76.685710403626985
  0
ARC
  8
0
  6
CONTINUOUS
 62
3
 10
-92.505375403524226
 20
77.685710403626985
 40
1.000000000000000
 50
270.000000000000000
 51
0.000000000000000
  0
LINE
  8
0
  6
CONTINUOUS
 62
3
 10
-91.505375403524226
 20
115.685710403626980
 11
-91.505375403524226
 21
77.685710403626985
  0
LINE
  8
0
  6
CONTINUOUS
 62
3
 10
-91.505375403524226
 20
115.685710403626980
 11
-173.705375403545420
 21
115.685710403626980
  0
INSERT
  8
0
  2
SYM24
 10
68.294624596493804
 20
-234.314289596372650
  0
INSERT
  8
0
  2
SYM25
 10
68.294624596493804
 20
-144.314290409266280
  0
INSERT
  8
0
  2
SYM26
 10
68.294624596493804
 20
-75.314290409266277
  0
INSERT
  8
0
  2
SYM27
 10
68.294624596493804
 20
-325.314289596372650
  0
LINE
  8
0
  6
DASHDOT
 62
4
 10
308.916268498418500
 20
-166.314289596373560
 11
171.985842225223450
 21
-166.314289596373560
  0
LINE
  8
0
  6
CONTINUOUS
 62
3
 10
70.294624596493804
 20
-334.314289596373560
 11
79.794624596494032
 21
-334.314289596373560
  0
LINE
  8
0
  6
CONTINUOUS
 62
3
 10
58.294624596493804
 20
-61.314289596373555
 11
79.794624596494032
 21
-61.314289596373555
  0
ARC
  8
0
  6
CONTINUOUS
 62
3
 10
53.294624596493804
 20
-293.054241641140610
 40
3.000000000000000
 50
0.000000000000000
 51
86.999999999994799
  0
LINE
  8
0
  6
CONTINUOUS
 62
3
 10
61.032944815279507
 20
-302.442665099487160
 11
63.556304377708102
 21
-302.574908770486900
  0
ARC
  8
0
  6
CONTINUOUS
 62
3
 10
61.294624596493804
 20
-297.449517425714250
 40
5.000000000000000
 50
180.000000000000000
 51
267.000000000004890
  0
ARC
  8
0
  6
CONTINUOUS
 62
3
 10
63.294624596493804
 20
-307.568056444259810
 40
5.000000000000000
 50
0.000000000000000
 51
87.000000000004846
  0
LINE
  8
0
  6
CONTINUOUS
 62
3
 10
56.294624596493804
 20
-293.054241641140610
 11
56.294624596493804
 21
-297.449517425714250
  0
ARC
  8
0
  6
CONTINUOUS
 62
3
 10
63.294624596493804
 20
-295.581064125966580
 40
5.000000000000000
 50
0.000000000000000
 51
87.000000000004846
  0
ARC
  8
0
  6
CONTINUOUS
 62
3
 10
63.294624596493804
 20
-117.047515066779620
 40
5.000000000000018
 50
272.999999999995110
 51
0.000000000000000
  0
ARC
  8
0
  6
CONTINUOUS
 62
3
 10
55.294624596493804
 20
-117.466777301043970
 40
5.000000000000018
 50
272.999999999995110
 51
0.000000000000000
  0
LINE
  8
0
  6
CONTINUOUS
 62
3
 10
60.294624596493804
 20
-117.466777301043970
 11
60.294624596493804
 21
-88.971143845865072
  0
LINE
  8
0
  6
CONTINUOUS
 62
3
 10
59.294624596493804
 20
-86.314289596373555
 11
63.294624596493804
 21
-86.314289596373555
  0
ARC
  8
0
  6
CONTINUOUS
 62
3
 10
59.294624596493804
 20
-83.314289596373555
 40
3.000000000000000
 50
180.000000000000000
 51
270.000000000000000
  0
ARC
  8
0
  6
CONTINUOUS
 62
3
 10
57.294624596493804
 20
-88.971143845865072
 40
3.000000000000000
 50
0.000000000000000
 51
70.528779365506566
  0
ARC
  8
0
  6
CONTINUOUS
 62
3
 10
63.294624596493804
 20
-91.314289596373555
 40
5.000000000000000
 50
0.000000000000000
 51
90.000000000000000
  0
LINE
  8
0
  6
CONTINUOUS
 62
3
 10
56.294624596493804
 20
-83.314289596373555
 11
56.294624596493804
 21
-63.314289596373555
  0
ARC
  8
0
  6
CONTINUOUS
 62
3
 10
58.294624596493804
 20
-63.314289596373555
 40
2.000000000000000
 50
90.000000000000000
 51
180.000000000000000
  0
LINE
  8
0
  6
CONTINUOUS
 62
3
 10
68.294624596493804
 20
-197.398209813271710
 11
68.294624596493804
 21
-63.314289596373555
  0
LINE
  8
0
  6
CONTINUOUS
 62
3
 10
79.294624596493804
 20
-206.314289596373560
 11
79.294624596493804
 21
-61.314289596373555
  0
LINE
  8
0
  6
CONTINUOUS
 62
3
 10
68.294624596493804
 20
-223.230369379470860
 11
68.294624596493804
 21
-332.314289596373560
  0
ARC
  8
0
  6
CONTINUOUS
 62
3
 10
70.294624596493804
 20
-63.314289596373555
 40
2.000000000000000
 50
90.000000000000000
 51
180.000000000000000
  0
ARC
  8
0
  6
CONTINUOUS
 62
3
 10
66.294624596493804
 20
-203.314289596371740
 40
2.999999999999756
 50
99.594068226861253
 51
180.000000000000000
  0
ARC
  8
0
  6
CONTINUOUS
 62
3
 10
66.294624596493804
 20
-217.314289596371740
 40
3.000000000000000
 50
180.000000000000000
 51
260.405931773138780
  0
ARC
  8
0
  6
CONTINUOUS
 62
3
 10
65.294624596493804
 20
-197.398209813271710
 40
3.000000000000653
 50
279.594068226858330
 51
0.000000000000000
  0
ARC
  8
0
  6
CONTINUOUS
 62
3
 10
65.294624596493804
 20
-223.230369379470860
 40
3.000000000000000
 50
0.000000000000000
 51
80.405931773138747
  0
LINE
  8
0
  6
CONTINUOUS
 62
3
 10
63.294624596493804
 20
-203.314289596371740
 11
63.294624596493804
 21
-210.314289596371740
  0
LINE
  8
0
  6
CONTINUOUS
 62
3
 10
63.294624596493804
 20
-217.314289596371740
 11
63.294624596493804
 21
-210.314289596371740
  0
LINE
  8
0
  6
CONTINUOUS
 62
3
 10
79.294624596493804
 20
-206.314289596373560
 11
79.294624596493804
 21
-334.314289596373560
  0
ARC
  8
0
  6
CONTINUOUS
 62
3
 10
70.294624596493804
 20
-332.314289596373560
 40
2.000000000000000
 50
180.000000000000000
 51
270.000000000000000
  0
LINE
  8
0
  6
CONTINUOUS
 62
3
 10
51.794624596490166
 20
-84.314289596374465
 11
56.294624596490166
 21
-84.314289596374465
  0
LINE
  8
0
  6
DASHDOT
 62
4
 10
46.064377195679981
 20
-46.314289596374465
 11
64.163643210971486
 21
-46.314289596374465
  0
LINE
  8
0
  6
CONTINUOUS
 62
3
 10
56.294624596493804
 20
-26.314289596374465
 11
56.294624596493804
 21
-84.314289596374465
  0
LINE
  8
0
  6
CONTINUOUS
 62
3
 10
51.794624596493804
 20
-26.314289596374465
 11
56.294624596493804
 21
-26.314289596374465
  0
LINE
  8
0
  6
CONTINUOUS
 62
3
 10
51.794624596490166
 20
-84.314289596374465
 11
51.794624596493804
 21
-26.314289596374465
  0
ARC
  8
0
  6
CONTINUOUS
 62
3
 10
239.294217217352750
 20
-166.345522147638580
 40
7.000000000000000
 50
90.000000000000000
 51
270.000000000000000
  0
LINE
  8
0
  6
CONTINUOUS
 62
3
 10
302.294624596493800
 20
-159.345522147638580
 11
239.294217217352750
 21
-159.345522147638580
  0
LINE
  8
0
  6
CONTINUOUS
 62
3
 10
302.294624596493800
 20
-173.345522147638580
 11
239.294217217352750
 21
-173.345522147638580
  0
LINE
  8
0
  6
CONTINUOUS
 62
3
 10
302.294624596493800
 20
-166.314289596373560
 11
302.294624596493800
 21
-142.714289596374100
  0
ARC
  8
0
  6
CONTINUOUS
 62
3
 10
301.894624596494170
 20
-142.714289596374100
 40
0.399999999999636
 50
0.000000000000000
 51
90.000000000000000
  0
LINE
  8
0
  6
CONTINUOUS
 62
3
 10
301.894624596494170
 20
-142.314289596373560
 11
229.854432217629210
 21
-142.314289596373560
  0
ARC
  8
0
  6
CONTINUOUS
 62
3
 10
301.894624596494170
 20
-189.914289596373010
 40
0.400000000000546
 50
270.000000000000000
 51
0.000000000000000
  0
LINE
  8
0
  6
CONTINUOUS
 62
3
 10
302.294624596493800
 20
-166.314289596373560
 11
302.294624596493800
 21
-189.914289596373010
  0
LINE
  8
0
  6
CONTINUOUS
 62
3
 10
301.894624596494170
 20
-190.314289596373560
 11
229.854432217629210
 21
-190.314289596373560
  0
LINE
  8
0
  6
CONTINUOUS
 62
3
 10
227.094624596493990
 20
-141.314289596373560
 11
225.294624596493800
 21
-141.314289596373560
  0
LINE
  8
0
  6
CONTINUOUS
 62
3
 10
227.094624596493990
 20
-191.314289596373560
 11
225.294624596493800
 21
-191.314289596373560
  0
LINE
  8
0
  6
CONTINUOUS
 62
3
 10
227.294624596493800
 20
-191.114289596373740
 11
227.094624596493990
 21
-191.314289596373560
  0
ARC
  8
0
  6
CONTINUOUS
 62
3
 10
228.094624596493990
 20
-190.964289596374100
 40
0.800000000001091
 50
90.000000000000000
 51
180.000000000000000
  0
LINE
  8
0
  6
CONTINUOUS
 62
3
 10
227.294624596493800
 20
-190.964289596374100
 11
227.294624596493800
 21
-191.114289596373740
  0
LINE
  8
0
  6
CONTINUOUS
 62
3
 10
229.294624596493800
 20
-190.164289596373010
 11
228.094624596493990
 21
-190.164289596373010
  0
LINE
  8
0
  6
CONTINUOUS
 62
3
 10
229.294624596493800
 20
-190.164289596373010
 11
229.854432217629210
 21
-190.314289596373560
  0
LINE
  8
0
  6
CONTINUOUS
 62
3
 10
227.294624596493800
 20
-166.314289596373560
 11
227.294624596493800
 21
-190.964289596374100
  0
LINE
  8
0
  6
CONTINUOUS
 62
3
 10
227.294624596493800
 20
-141.514289596373370
 11
227.094624596493990
 21
-141.314289596373560
  0
ARC
  8
0
  6
CONTINUOUS
 62
3
 10
228.094624596493990
 20
-141.664289596373010
 40
0.800000000000182
 50
180.000000000000000
 51
270.000000000000000
  0
LINE
  8
0
  6
CONTINUOUS
 62
3
 10
227.294624596493800
 20
-141.664289596373010
 11
227.294624596493800
 21
-141.514289596373370
  0
LINE
  8
0
  6
CONTINUOUS
 62
3
 10
229.294624596493800
 20
-142.464289596374100
 11
228.094624596493990
 21
-142.464289596374100
  0
LINE
  8
0
  6
CONTINUOUS
 62
3
 10
229.294624596493800
 20
-142.464289596374100
 11
229.854432217629210
 21
-142.314289596373560
  0
LINE
  8
0
  6
CONTINUOUS
 62
3
 10
227.294624596493800
 20
-166.314289596373560
 11
227.294624596493800
 21
-141.664289596373010
  0
LINE
  8
0
  6
CONTINUOUS
 62
3
 10
215.794624596493800
 20
-171.314289596373560
 11
210.794624596493800
 21
-171.314289596373560
  0
LINE
  8
0
  6
CONTINUOUS
 62
3
 10
215.794624596493800
 20
-253.219123383469420
 11
210.794624596493800
 21
-253.219123383469420
  0
LINE
  8
0
  6
CONTINUOUS
 62
3
 10
215.794624596493800
 20
-288.458950537046120
 11
210.794624596493800
 21
-288.458950537046120
  0
ARC
  8
0
  6
CONTINUOUS
 62
3
 10
210.794624596493800
 20
-286.458950537046120
 40
2.000000000000000
 50
180.000000000000000
 51
270.000000000000000
  0
LINE
  8
0
  6
CONTINUOUS
 62
3
 10
208.794624596493800
 20
-173.314289596373560
 11
208.794624596493800
 21
-286.458950537046120
  0
ARC
  8
0
  6
CONTINUOUS
 62
3
 10
210.794624596493800
 20
-251.219123383469420
 40
2.000000000000000
 50
180.000000000000000
 51
270.000000000000000
  0
ARC
  8
0
  6
CONTINUOUS
 62
3
 10
210.794624596493800
 20
-173.314289596373560
 40
2.000000000000000
 50
90.000000000000000
 51
180.000000000000000
  0
LINE
  8
0
  6
CONTINUOUS
 62
3
 10
215.794624596493800
 20
-161.314289596373560
 11
210.794624596493800
 21
-161.314289596373560
  0
LINE
  8
0
  6
CONTINUOUS
 62
3
 10
215.794624596493800
 20
-79.409455809277688
 11
210.794624596493800
 21
-79.409455809277688
  0
LINE
  8
0
  6
CONTINUOUS
 62
3
 10
215.794624596493800
 20
-44.169628655700990
 11
210.794624596493800
 21
-44.169628655700990
  0
ARC
  8
0
  6
CONTINUOUS
 62
3
 10
210.794624596493800
 20
-46.169628655700990
 40
2.000000000000000
 50
90.000000000000000
 51
180.000000000000000
  0
LINE
  8
0
  6
CONTINUOUS
 62
3
 10
208.794624596493800
 20
-159.314289596373560
 11
208.794624596493800
 21
-46.169628655700990
  0
ARC
  8
0
  6
CONTINUOUS
 62
3
 10
210.794624596493800
 20
-81.409455809277688
 40
2.000000000000000
 50
90.000000000000000
 51
180.000000000000000
  0
ARC
  8
0
  6
CONTINUOUS
 62
3
 10
210.794624596493800
 20
-159.314289596373560
 40
2.000000000000000
 50
180.000000000000000
 51
270.000000000000000
  0
LINE
  8
0
  6
DASHDOT
 62
4
 10
233.932494227475900
 20
-300.664578021817530
 11
181.777449105793270
 21
-300.664578021817530
  0
LINE
  8
0
  6
DASHDOT
 62
4
 10
233.932494227475900
 20
-31.964001170929350
 11
181.777449105793270
 21
-31.964001170929350
  0
LINE
  8
0
  6
CONTINUOUS
 62
3
 10
195.794624596493800
 20
-320.814289596373560
 11
195.794624596493800
 21
-11.814289596373555
  0
LINE
  8
0
  6
CONTINUOUS
 62
3
 10
185.507808353093200
 20
-57.605243489425447
 11
79.794320010003503
 21
-61.296839848022273
  0
ARC
  8
0
  6
CONTINUOUS
 62
3
 10
223.794624596493800
 20
-239.665936140618670
 40
5.000000000000129
 50
123.367012969230780
 51
143.130102354155980
  0
LINE
  8
0
  6
CONTINUOUS
 62
3
 10
215.794624596493800
 20
-166.314289596373560
 11
215.794624596493800
 21
-323.814289596373100
  0
LINE
  8
0
  6
CONTINUOUS
 62
3
 10
219.794624596493800
 20
-166.314289596373560
 11
219.794624596493800
 21
-310.314289596373100
  0
LINE
  8
0
  6
CONTINUOUS
 62
3
 10
223.294624596493800
 20
-166.314289596373560
 11
223.294624596493800
 21
-231.314289596373560
  0
LINE
  8
0
  6
CONTINUOUS
 62
3
 10
215.794624596493800
 20
-323.814289596373330
 11
198.794624596493800
 21
-323.814289596373330
  0
ARC
  8
0
  6
CONTINUOUS
 62
3
 10
198.794624596493800
 20
-320.814289596373560
 40
3.000000000000000
 50
180.000000000000000
 51
270.000000000000000
  0
ARC
  8
0
  6
CONTINUOUS
 62
3
 10
218.294624596493800
 20
-101.059112429948070
 40
5.000000000000000
 50
0.000000000000000
 51
72.542396876277792
  0
LINE
  8
0
  6
CONTINUOUS
 62
3
 10
219.794624596493800
 20
-166.314289596373560
 11
219.794624596493800
 21
-22.314289596373555
  0
LINE
  8
0
  6
CONTINUOUS
 62
3
 10
223.294624596494260
 20
-166.314289596373560
 11
223.294624596493800
 21
-101.059112429948070
  0
LINE
  8
0
  6
CONTINUOUS
 62
3
 10
215.794624596493800
 20
-166.314289596373560
 11
215.794624596493800
 21
-8.814289596373555
  0
ARC
  8
0
  6
CONTINUOUS
 62
3
 10
224.294624596493800
 20
-211.314289596373560
 40
1.000000000000000
 50
90.000000000000000
 51
180.000000000000000
  0
ARC
  8
0
  6
CONTINUOUS
 62
3
 10
224.294624596493800
 20
-121.314289596373550
 40
1.000000000000000
 50
180.000000000000000
 51
270.000000000000000
  0
ARC
  8
0
  6
CONTINUOUS
 62
3
 10
198.794624596493800
 20
-11.814289596373555
 40
3.000000000000000
 50
90.000000000000000
 51
180.000000000000000
  0
ARC
  8
0
  6
CONTINUOUS
 62
3
 10
204.794624596493800
 20
-326.814289596373330
 40
3.000000000000000
 50
90.000000000000000
 51
180.000000000000000
  0
ARC
  8
0
  6
CONTINUOUS
 62
3
 10
198.794624596493800
 20
-335.214316903980030
 40
2.999999999999973
 50
268.122122552718340
 51
0.000000000000000
  0
ARC
  8
0
  6
CONTINUOUS
 62
3
 10
190.794624596493800
 20
-19.225772036156741
 40
5.000000000000121
 50
315.000000000000910
 51
0.000000000000000
  0
ARC
  8
0
  6
CONTINUOUS
 62
3
 10
156.401796535203400
 20
-53.618600097447825
 40
4.999999999999909
 50
271.999999999998470
 51
315.000000000001820
  0
ARC
  8
0
  6
CONTINUOUS
 62
3
 10
218.294624596493800
 20
-231.314289596373560
 40
4.999999999999939
 50
303.367012969232230
 51
0.000000000000000
  0
LINE
  8
0
  6
CONTINUOUS
 62
3
 10
218.794624596493800
 20
-311.314289596373100
 11
215.794624596493800
 21
-311.314289596373100
  0
LINE
  8
0
  6
CONTINUOUS
 62
3
 10
215.794624596493800
 20
-8.814289596373555
 11
198.794624596493800
 21
-8.814289596373555
  0
LINE
  8
0
  6
CONTINUOUS
 62
3
 10
218.794624596493800
 20
-21.314289596373555
 11
215.794624596493800
 21
-21.314289596373555
  0
LINE
  8
0
  6
CONTINUOUS
 62
3
 10
225.294624596493800
 20
-210.314289596373560
 11
225.294624596493800
 21
-122.314289596373780
  0
LINE
  8
0
  6
CONTINUOUS
 62
3
 10
79.794624596494032
 20
-334.314289596373560
 11
79.794624596494032
 21
-61.296829211627482
  0
LINE
  8
0
  6
CONTINUOUS
 62
3
 10
201.794624596493800
 20
-335.214316903980030
 11
201.794624596493800
 21
-326.814289596373330
  0
LINE
  8
0
  6
CONTINUOUS
 62
3
 10
79.794624596494032
 20
-334.314289596373560
 11
198.696316766031710
 21
-338.212705733079700
  0
LINE
  8
0
  6
CONTINUOUS
 62
3
 10
219.794624596493800
 20
-310.314289596373100
 11
218.794624596493800
 21
-311.314289596373100
  0
LINE
  8
0
  6
CONTINUOUS
 62
3
 10
219.794624596493800
 20
-22.314289596373555
 11
218.794624596493800
 21
-21.314289596373555
  0
LINE
  8
0
  6
CONTINUOUS
 62
3
 10
224.294624596493800
 20
-122.314289596373550
 11
225.294624596493800
 21
-122.314289596373780
  0
LINE
  8
0
  6
CONTINUOUS
 62
3
 10
224.294624596493800
 20
-210.314289596373560
 11
225.294624596493800
 21
-210.314289596373560
  0
LINE
  8
0
  6
CONTINUOUS
 62
3
 10
194.330158502426680
 20
-22.761305942089507
 11
159.937330441136280
 21
-57.154134003380477
  0
LINE
  8
0
  6
CONTINUOUS
 62
3
 10
191.099944742199800
 20
-81.861058433848939
 11
163.256434631839280
 21
-81.861058433848939
  0
ARC
  8
0
  6
CONTINUOUS
 62
3
 10
156.956218726990530
 20
-71.659936776253289
 40
5.000000000000000
 50
270.000000000000000
 51
305.248603455041290
  0
LINE
  8
0
  6
CONTINUOUS
 62
3
 10
193.680251020460450
 20
-51.829830729996957
 11
159.841845150956710
 21
-75.743214888420766
  0
ARC
  8
0
  6
CONTINUOUS
 62
3
 10
156.956218726990530
 20
-76.861058433848939
 40
5.000000000000000
 50
270.000000000000000
 51
305.248603455041290
  0
LINE
  8
0
  6
CONTINUOUS
 62
3
 10
193.680251020460450
 20
-57.030952387592606
 11
159.841845150956710
 21
-80.944336546016416
  0
ARC
  8
0
  6
CONTINUOUS
 62
3
 10
190.794624596493800
 20
-47.746552617829479
 40
5.000000000000051
 50
305.248603455045550
 51
0.000000000000000
  0
ARC
  8
0
  6
CONTINUOUS
 62
3
 10
190.794624596493800
 20
-52.947674275425129
 40
5.000000000000051
 50
305.248603455045550
 51
0.000000000000000
  0
CIRCLE
  8
0
  6
DASHED
 62
4
 10
-169.505375403524230
 20
90.685710403626985
 40
6.000000000000000
  0
ARC
  8
0
  6
DASHED
 62
4
 10
-169.505375403524230
 20
90.685710403626985
 40
7.000000000000000
 50
180.000000000000000
 51
0.000000000000000
  0
LINE
  8
0
  6
DASHED
 62
4
 10
-162.505375403524230
 20
110.685710403626980
 11
-162.505375403524230
 21
90.685710403626985
  0
LINE
  8
0
  6
DASHED
 62
4
 10
-176.505375403524230
 20
110.685710403626980
 11
-176.505375403524230
 21
90.685710403626985
  0
LINE
  8
0
  6
DASHDOT
 62
4
 10
-169.505375403524230
 20
81.685710403626985
 11
-169.505375403524230
 21
108.687309726176720
  0
LINE
  8
0
  6
DASHDOT
 62
4
 10
-160.505375403524230
 20
90.685710403626985
 11
-178.505375403524230
 21
90.685710403626985
  0
LINE
  8
0
  6
CONTINUOUS
 62
3
 10
642.137709773567170
 20
-174.814289596373560
 11
642.137709773567170
 21
-204.701859102245630
  0
LINE
  8
0
  6
CONTINUOUS
 62
3
 10
662.588734707272120
 20
-171.314289596373560
 11
665.298028183609400
 21
-171.314289596373560
  0
LINE
  8
0
  6
CONTINUOUS
 62
3
 10
662.588734707272120
 20
-161.314289596373560
 11
665.298028183609400
 21
-161.314289596373560
  0
LINE
  8
0
  6
CONTINUOUS
 62
3
 10
667.298028183609400
 20
-23.814289596373555
 11
667.298028183609400
 21
-308.814289596373560
  0
ARC
  8
0
  6
CONTINUOUS
 62
3
 10
509.798028183609400
 20
-166.345522147638120
 40
23.999999999999723
 50
196.957763300004330
 51
163.042236699995670
  0
ARC
  8
0
  6
CONTINUOUS
 62
3
 10
541.024189709788060
 20
-264.476789596373240
 40
48.000000000000185
 50
6.015134369631197
 51
56.987251938308155
  0
ARC
  8
0
  6
CONTINUOUS
 62
3
 10
572.624075790744430
 20
-215.840926288824450
 40
10.000000000000112
 50
141.750801860498630
 51
236.987251938307910
  0
ARC
  8
0
  6
CONTINUOUS
 62
3
 10
644.641455906283230
 20
-172.814289596373560
 40
3.000000000000145
 50
357.240247321764400
 51
90.000000000000000
  0
ARC
  8
0
  6
CONTINUOUS
 62
3
 10
644.641455906283230
 20
-159.814289596373560
 40
3.000000000000000
 50
270.000000000000000
 51
2.759752678235591
  0
ARC
  8
0
  6
CONTINUOUS
 62
3
 10
665.298028183609400
 20
-169.314289596373560
 40
2.000000000000000
 50
270.000000000000000
 51
0.000000000000000
  0
ARC
  8
0
  6
CONTINUOUS
 62
3
 10
665.298028183609400
 20
-163.314289596373560
 40
2.000000000000000
 50
0.000000000000000
 51
90.000000000000000
  0
ARC
  8
0
  6
CONTINUOUS
 62
3
 10
637.137709773567170
 20
-204.701859102245630
 40
5.000000000000024
 50
343.224145321645440
 51
0.000000000000000
  0
ARC
  8
0
  6
CONTINUOUS
 62
3
 10
662.588734707272120
 20
-174.314289596373560
 40
3.000000000000000
 50
90.000000000000000
 51
177.002775457333090
  0
ARC
  8
0
  6
CONTINUOUS
 62
3
 10
662.588734707272120
 20
-158.314289596373560
 40
2.999999999999966
 50
182.997224542666910
 51
270.000000000000000
  0
ARC
  8
0
  6
CONTINUOUS
 62
3
 10
509.798028183609400
 20
-166.314289596373560
 40
149.999999999999910
 50
2.997224542665233
 51
32.364374906978924
  0
CIRCLE
  8
0
  6
CONTINUOUS
 62
3
 10
509.798028183609400
 20
-166.314289596374010
 40
34.000000000000000
  0
ARC
  8
0
  6
CONTINUOUS
 62
3
 10
509.798028183609400
 20
-166.314289596373560
 40
150.000000000000060
 50
327.635625093021080
 51
357.002775457334740
  0
CIRCLE
  8
0
  6
CONTINUOUS
 62
3
 10
509.798028183609400
 20
-166.314289596373560
 40
145.000000000000000
  0
CIRCLE
  8
0
  6
CONTINUOUS
 62
3
 10
509.798028183609400
 20
-166.314289596373560
 40
138.000000000000000
  0
LINE
  8
0
  6
CONTINUOUS
 62
3
 10
-184.705375403523700
 20
-122.074174495935260
 11
-186.705375403523700
 21
-123.726816135058690
  0
LINE
  8
0
  6
CONTINUOUS
 62
3
 10
-182.705375403523700
 20
-120.898389010312480
 11
-184.705375403523700
 21
-122.074174495935260
  0
LINE
  8
0
  6
CONTINUOUS
 62
3
 10
-184.705375403523700
 20
-122.074174495935260
 11
-182.705375403523700
 21
-123.726816135058690
  0
LINE
  8
0
  6
CONTINUOUS
 62
3
 10
-186.705375403523700
 20
-120.898389010312480
 11
-184.705375403523700
 21
-122.074174495935260
  0
POLYLINE
  8
0
  6
CONTINUOUS
 62
3
 66
1
 70
1
  0
VERTEX
  8
0
  6
CONTINUOUS
 62
3
 10
-180.005375403523710
 20
-123.890764564312800
  0
VERTEX
  8
0
  6
CONTINUOUS
 62
3
 10
-180.095684585628530
 20
-123.187807598112440
  0
VERTEX
  8
0
  6
CONTINUOUS
 62
3
 10
-180.363141600720670
 20
-122.511864873900350
  0
VERTEX
  8
0
  6
CONTINUOUS
 62
3
 10
-180.797468225701750
 20
-121.888912491494940
  0
VERTEX
  8
0
  6
CONTINUOUS
 62
3
 10
-181.381973531946930
 20
-121.342890161596370
  0
VERTEX
  8
0
  6
CONTINUOUS
 62
3
 10
-182.094195308331590
 20
-120.894781216129750
  0
VERTEX
  8
0
  6
CONTINUOUS
 62
3
 10
-182.906763271407780
 20
-120.561806230566980
  0
VERTEX
  8
0
  6
CONTINUOUS
 62
3
 10
-183.788450890047900
 20
-120.356761246868740
  0
VERTEX
  8
0
  6
CONTINUOUS
 62
3
 10
-184.705375403523700
 20
-120.287526028767970
  0
VERTEX
  8
0
  6
CONTINUOUS
 62
3
 10
-185.622299916999510
 20
-120.356761246868740
  0
VERTEX
  8
0
  6
CONTINUOUS
 62
3
 10
-186.503987535639620
 20
-120.561806230566980
  0
VERTEX
  8
0
  6
CONTINUOUS
 62
3
 10
-187.316555498715810
 20
-120.894781216129750
  0
VERTEX
  8
0
  6
CONTINUOUS
 62
3
 10
-188.028777275100480
 20
-121.342890161596370
  0
VERTEX
  8
0
  6
CONTINUOUS
 62
3
 10
-188.613282581345660
 20
-121.888912491494940
  0
VERTEX
  8
0
  6
CONTINUOUS
 62
3
 10
-189.047609206326740
 20
-122.511864873900350
  0
VERTEX
  8
0
  6
CONTINUOUS
 62
3
 10
-189.315066221418870
 20
-123.187807598112440
  0
VERTEX
  8
0
  6
CONTINUOUS
 62
3
 10
-189.405375403523690
 20
-123.890764564312800
  0
VERTEX
  8
0
  6
CONTINUOUS
 62
3
 10
-189.315066221418870
 20
-124.593721530513160
  0
VERTEX
  8
0
  6
CONTINUOUS
 62
3
 10
-189.047609206326740
 20
-125.269664254725250
  0
VERTEX
  8
0
  6
CONTINUOUS
 62
3
 10
-188.613282581345660
 20
-125.892616637130650
  0
VERTEX
  8
0
  6
CONTINUOUS
 62
3
 10
-188.028777275100450
 20
-126.438638967029230
  0
VERTEX
  8
0
  6
CONTINUOUS
 62
3
 10
-187.316555498715810
 20
-126.886747912495840
  0
VERTEX
  8
0
  6
CONTINUOUS
 62
3
 10
-186.503987535639620
 20
-127.219722898058620
  0
VERTEX
  8
0
  6
CONTINUOUS
 62
3
 10
-185.622299916999510
 20
-127.424767881756860
  0
VERTEX
  8
0
  6
CONTINUOUS
 62
3
 10
-184.705375403523700
 20
-127.494003099857630
  0
VERTEX
  8
0
  6
CONTINUOUS
 62
3
 10
-183.788450890047900
 20
-127.424767881756860
  0
VERTEX
  8
0
  6
CONTINUOUS
 62
3
 10
-182.906763271407780
 20
-127.219722898058620
  0
VERTEX
  8
0
  6
CONTINUOUS
 62
3
 10
-182.094195308331590
 20
-126.886747912495840
  0
VERTEX
  8
0
  6
CONTINUOUS
 62
3
 10
-181.381973531946950
 20
-126.438638967029230
  0
VERTEX
  8
0
  6
CONTINUOUS
 62
3
 10
-180.797468225701750
 20
-125.892616637130650
  0
VERTEX
  8
0
  6
CONTINUOUS
 62
3
 10
-180.363141600720670
 20
-125.269664254725250
  0
VERTEX
  8
0
  6
CONTINUOUS
 62
3
 10
-180.095684585628530
 20
-124.593721530513160
  0
SEQEND
  8
0
  6
CONTINUOUS
 62
3
  0
ARC
  8
0
  6
CONTINUOUS
 62
3
 10
-274.105375403474000
 20
-128.371084539127420
 40
2.599999999999721
 50
125.000000000001370
 51
180.000000000000000
  0
LINE
  8
0
  6
CONTINUOUS
 62
3
 10
-265.870928352965620
 20
-119.431248710593080
 11
-275.596674137986610
 21
-126.241289223976310
  0
ARC
  8
0
  6
CONTINUOUS
 62
3
 10
-254.399399625944620
 20
-135.814289596372870
 40
20.000000000000000
 50
90.000000000000000
 51
125.000000000000240
  0
LINE
  8
0
  6
CONTINUOUS
 62
3
 10
-276.705375403474140
 20
-175.814289596372870
 11
-276.705375403474140
 21
-128.371084539127420
  0
LINE
  8
0
  6
CONTINUOUS
 62
3
 10
-173.705375403524270
 20
-115.814289596372870
 11
-254.399399625944620
 21
-115.814289596372870
  0
ARC
  8
0
  6
CONTINUOUS
 62
3
 10
-274.105375403474000
 20
-223.257494653618320
 40
2.600000000000136
 50
180.000000000000000
 51
234.999999999998610
  0
LINE
  8
0
  6
CONTINUOUS
 62
3
 10
-265.870928352965620
 20
-232.197330482152670
 11
-275.596674137986610
 21
-225.387289968769440
  0
ARC
  8
0
  6
CONTINUOUS
 62
3
 10
-254.399399625944620
 20
-215.814289596372870
 40
20.000000000000007
 50
234.999999999999740
 51
270.000000000000000
  0
LINE
  8
0
  6
CONTINUOUS
 62
3
 10
-276.705375403474140
 20
-175.814289596372870
 11
-276.705375403474140
 21
-223.257494653618320
  0
LINE
  8
0
  6
CONTINUOUS
 62
3
 10
-173.705375403524270
 20
-235.814289596372870
 11
-254.399399625944620
 21
-235.814289596372870
  0
LINE
  8
0
  6
CONTINUOUS
 62
3
 10
-184.705375403523700
 20
-229.554404696810710
 11
-186.705375403523700
 21
-227.901763057687280
  0
LINE
  8
0
  6
CONTINUOUS
 62
3
 10
-182.705375403523700
 20
-230.730190182433030
 11
-184.705375403523700
 21
-229.554404696810710
  0
LINE
  8
0
  6
CONTINUOUS
 62
3
 10
-184.705375403523700
 20
-229.554404696810710
 11
-182.705375403523700
 21
-227.901763057687280
  0
LINE
  8
0
  6
CONTINUOUS
 62
3
 10
-186.705375403523700
 20
-230.730190182433030
 11
-184.705375403523700
 21
-229.554404696810710
  0
POLYLINE
  8
0
  6
CONTINUOUS
 62
3
 66
1
 70
1
  0
VERTEX
  8
0
  6
CONTINUOUS
 62
3
 10
-180.005375403523710
 20
-227.737814628432720
  0
VERTEX
  8
0
  6
CONTINUOUS
 62
3
 10
-180.095684585628530
 20
-227.034857662232350
  0
VERTEX
  8
0
  6
CONTINUOUS
 62
3
 10
-180.363141600720670
 20
-226.358914938020260
  0
VERTEX
  8
0
  6
CONTINUOUS
 62
3
 10
-180.797468225701750
 20
-225.735962555614860
  0
VERTEX
  8
0
  6
CONTINUOUS
 62
3
 10
-181.381973531946930
 20
-225.189940225716270
  0
VERTEX
  8
0
  6
CONTINUOUS
 62
3
 10
-182.094195308331590
 20
-224.741831280249640
  0
VERTEX
  8
0
  6
CONTINUOUS
 62
3
 10
-182.906763271407780
 20
-224.408856294686900
  0
VERTEX
  8
0
  6
CONTINUOUS
 62
3
 10
-183.788450890047900
 20
-224.203811310988640
  0
VERTEX
  8
0
  6
CONTINUOUS
 62
3
 10
-184.705375403523700
 20
-224.134576092887870
  0
VERTEX
  8
0
  6
CONTINUOUS
 62
3
 10
-185.622299916999510
 20
-224.203811310988640
  0
VERTEX
  8
0
  6
CONTINUOUS
 62
3
 10
-186.503987535639620
 20
-224.408856294686900
  0
VERTEX
  8
0
  6
CONTINUOUS
 62
3
 10
-187.316555498715810
 20
-224.741831280249640
  0
VERTEX
  8
0
  6
CONTINUOUS
 62
3
 10
-188.028777275100480
 20
-225.189940225716270
  0
VERTEX
  8
0
  6
CONTINUOUS
 62
3
 10
-188.613282581345660
 20
-225.735962555614860
  0
VERTEX
  8
0
  6
CONTINUOUS
 62
3
 10
-189.047609206326740
 20
-226.358914938020260
  0
VERTEX
  8
0
  6
CONTINUOUS
 62
3
 10
-189.315066221418870
 20
-227.034857662232350
  0
VERTEX
  8
0
  6
CONTINUOUS
 62
3
 10
-189.405375403523690
 20
-227.737814628432720
  0
VERTEX
  8
0
  6
CONTINUOUS
 62
3
 10
-189.315066221418870
 20
-228.440771594633080
  0
VERTEX
  8
0
  6
CONTINUOUS
 62
3
 10
-189.047609206326740
 20
-229.116714318845170
  0
VERTEX
  8
0
  6
CONTINUOUS
 62
3
 10
-188.613282581345660
 20
-229.739666701250570
  0
VERTEX
  8
0
  6
CONTINUOUS
 62
3
 10
-188.028777275100450
 20
-230.285689031149160
  0
VERTEX
  8
0
  6
CONTINUOUS
 62
3
 10
-187.316555498715810
 20
-230.733797976615790
  0
VERTEX
  8
0
  6
CONTINUOUS
 62
3
 10
-186.503987535639620
 20
-231.066772962178530
  0
VERTEX
  8
0
  6
CONTINUOUS
 62
3
 10
-185.622299916999510
 20
-231.271817945876790
  0
VERTEX
  8
0
  6
CONTINUOUS
 62
3
 10
-184.705375403523700
 20
-231.341053163977560
  0
VERTEX
  8
0
  6
CONTINUOUS
 62
3
 10
-183.788450890047900
 20
-231.271817945876790
  0
VERTEX
  8
0
  6
CONTINUOUS
 62
3
 10
-182.906763271407780
 20
-231.066772962178530
  0
VERTEX
  8
0
  6
CONTINUOUS
 62
3
 10
-182.094195308331590
 20
-230.733797976615790
  0
VERTEX
  8
0
  6
CONTINUOUS
 62
3
 10
-181.381973531946950
 20
-230.285689031149160
  0
VERTEX
  8
0
  6
CONTINUOUS
 62
3
 10
-180.797468225701750
 20
-229.739666701250570
  0
VERTEX
  8
0
  6
CONTINUOUS
 62
3
 10
-180.363141600720670
 20
-229.116714318845170
  0
VERTEX
  8
0
  6
CONTINUOUS
 62
3
 10
-180.095684585628530
 20
-228.440771594633080
  0
SEQEND
  8
0
  6
CONTINUOUS
 62
3
  0
ARC
  8
0
  6
DASHDOT
 62
4
 10
509.798028183609400
 20
-166.314289596373560
 40
190.000000000000030
 50
39.339875762248923
 51
51.697379200818425
  0
ARC
  8
0
  6
DASHDOT
 62
4
 10
509.798028183609400
 20
-166.314289596373560
 40
189.999999999999910
 50
219.473876588071110
 51
231.759041488419480
  0
ARC
  8
0
  6
CONTINUOUS
 62
3
 10
407.305668530456220
 20
-242.990988878024380
 40
9.999999999999950
 50
216.800938413478920
 51
344.803706655300350
  0
ARC
  8
0
  6
CONTINUOUS
 62
3
 10
592.024146621344240
 20
-264.410494653774320
 40
10.000000000000052
 50
180.074478852622290
 51
309.970383425430270
  0
ARC
  8
0
  6
CONTINUOUS
 62
3
 10
541.024189709788060
 20
-264.476789596373240
 40
40.999999999999964
 50
0.074478852621535
 51
58.061807908989444
  0
ARC
  8
0
  6
CONTINUOUS
 62
3
 10
357.298028183609460
 20
-42.098560843835457
 40
5.000000000000000
 50
180.000000000000000
 51
225.000000000000000
  0
CIRCLE
  8
0
  6
CONTINUOUS
 62
3
 10
375.447739758165480
 20
-31.964001170929350
 40
12.000000000000000
  0
ARC
  8
0
  6
DASHDOT
 62
4
 10
509.798028183609400
 20
-166.314289596373560
 40
189.999999999999970
 50
129.119041968700370
 51
140.880958031302580
  0
ARC
  8
0
  6
CONTINUOUS
 62
3
 10
385.582299431071360
 20
-13.814289596373328
 40
5.000000000000041
 50
44.999999999998167
 51
90.000000000000000
  0
ARC
  8
0
  6
CONTINUOUS
 62
3
 10
374.652280012982200
 20
-80.666016108804570
 40
10.000000000000107
 50
327.635625093020340
 51
45.000000000000000
  0
ARC
  8
0
  6
CONTINUOUS
 62
3
 10
509.798028183609400
 20
-166.314289596373560
 40
149.999999999999890
 50
147.635625093021160
 51
177.002775457334760
  0
ARC
  8
0
  6
CONTINUOUS
 62
3
 10
424.149754696040470
 20
-31.168541425746298
 40
9.999999999999758
 50
225.000000000000000
 51
302.364374906978530
  0
ARC
  8
0
  6
CONTINUOUS
 62
3
 10
634.013756936147730
 20
-13.814289596373555
 40
5.000000000000000
 50
90.000000000000000
 51
135.000000000001820
  0
CIRCLE
  8
0
  6
CONTINUOUS
 62
3
 10
644.148316609053380
 20
-31.964001170929578
 40
12.000000000000000
  0
ARC
  8
0
  6
CONTINUOUS
 62
3
 10
662.298028183609400
 20
-42.098560843835457
 40
5.000000000000201
 50
315.000000000000000
 51
0.000000000000000
  0
ARC
  8
0
  6
CONTINUOUS
 62
3
 10
595.446301671178390
 20
-31.168541425746298
 40
9.999999999999984
 50
237.635625093021450
 51
314.999999999999090
  0
ARC
  8
0
  6
CONTINUOUS
 62
3
 10
509.798028183609400
 20
-166.314289596373560
 40
150.000000000000060
 50
57.635625093021090
 51
122.364374906978950
  0
ARC
  8
0
  6
CONTINUOUS
 62
3
 10
644.943776354236430
 20
-80.666016108804570
 40
9.999999999999758
 50
135.000000000000000
 51
212.364374906979260
  0
ARC
  8
0
  6
CONTINUOUS
 62
3
 10
662.298028183609400
 20
-290.530018348911880
 40
5.000000000000000
 50
0.000000000002606
 51
45.000000000001855
  0
CIRCLE
  8
0
  6
CONTINUOUS
 62
3
 10
644.148316609053380
 20
-300.664578021817530
 40
12.000000000000000
  0
ARC
  8
0
  6
DASHDOT
 62
4
 10
509.798028183609400
 20
-166.314289596373560
 40
190.000000000000140
 50
309.119041968700400
 51
320.880958031302550
  0
ARC
  8
0
  6
CONTINUOUS
 62
3
 10
634.013756936147500
 20
-318.814289596373560
 40
5.000000000000041
 50
225.000000000001850
 51
270.000000000000000
  0
ARC
  8
0
  6
CONTINUOUS
 62
3
 10
644.943776354236660
 20
-251.962563083942540
 40
9.999999999999984
 50
147.635625093021420
 51
224.999999999999090
  0
ARC
  8
0
  6
CONTINUOUS
 62
3
 10
595.446301671178390
 20
-301.460037767000590
 40
9.999999999999758
 50
45.000000000000000
 51
122.364374906979250
  0
ARC
  8
0
  6
CONTINUOUS
 62
3
 10
374.652280012982430
 20
-251.962563083942540
 40
9.999999999999758
 50
315.000000000000000
 51
32.364374906979279
  0
ARC
  8
0
  6
CONTINUOUS
 62
3
 10
424.149754696040470
 20
-301.460037767000810
 40
10.000000000000107
 50
57.635625093020330
 51
134.999999999999090
  0
ARC
  8
0
  6
CONTINUOUS
 62
3
 10
385.582299431071360
 20
-318.814289596373560
 40
5.000000000000000
 50
270.000000000000000
 51
315.000000000000000
  0
ARC
  8
0
  6
CONTINUOUS
 62
3
 10
357.298028183609460
 20
-290.530018348911650
 40
5.000000000000041
 50
135.000000000001820
 51
180.000000000000000
  0
ARC
  8
0
  6
CONTINUOUS
 62
3
 10
509.798028183609400
 20
-166.314289596373560
 40
149.999999999999910
 50
237.635625093021160
 51
302.364374906978870
  0
ARC
  8
0
  6
CONTINUOUS
 62
3
 10
652.298028183609400
 20
-23.814289596373555
 40
15.000000000000000
 50
0.000000000000000
 51
90.000000000000000
  0
ARC
  8
0
  6
CONTINUOUS
 62
3
 10
652.298028183609400
 20
-308.814289596373560
 40
15.000000000000000
 50
270.000000000000000
 51
0.000000000000000
  0
ARC
  8
0
  6
CONTINUOUS
 62
3
 10
367.298028183609460
 20
-308.814289596373560
 40
15.000000000000000
 50
180.000000000000000
 51
270.000000000000000
  0
ARC
  8
0
  6
CONTINUOUS
 62
3
 10
367.298028183609460
 20
-23.814289596373555
 40
15.000000000000000
 50
90.000000000000000
 51
180.000000000000000
  0
CIRCLE
  8
0
  6
CONTINUOUS
 62
3
 10
375.447739758165480
 20
-300.664578021817530
 40
12.000000000000000
  0
ARC
  8
0
  6
CONTINUOUS
 62
3
 10
509.798028183609400
 20
-166.314289596373560
 40
149.999999999999860
 50
182.997224542665240
 51
212.364374906978950
  0
ARC
  8
0
  6
CONTINUOUS
 62
3
 10
430.298028183609460
 20
-326.314289596373100
 40
11.999999999999970
 50
177.134016017401560
 51
270.000000000000000
  0
ARC
  8
0
  6
CONTINUOUS
 62
3
 10
412.322434197013140
 20
-326.251317252874740
 40
5.999999999999909
 50
2.984000447292837
 51
23.964546172534565
  0
ARC
  8
0
  6
CONTINUOUS
 62
3
 10
589.298028183609400
 20
-326.314289596373100
 40
12.000000000000000
 50
270.000000000000000
 51
2.865983982598435
  0
ARC
  8
0
  6
CONTINUOUS
 62
3
 10
607.273622170205730
 20
-326.251317252874740
 40
5.999999999999934
 50
156.035453827466310
 51
177.015999552707170
  0
ARC
  8
0
  6
CONTINUOUS
 62
3
 10
357.007321659946740
 20
-174.314289596373560
 40
3.000000000000193
 50
2.997224542666690
 51
90.000000000000000
  0
ARC
  8
0
  6
CONTINUOUS
 62
3
 10
357.007321659946740
 20
-158.314289596373560
 40
3.000000000000000
 50
270.000000000000000
 51
357.002775457333310
  0
ARC
  8
0
  6
CONTINUOUS
 62
3
 10
382.458346593651700
 20
-204.701859102245630
 40
5.000000000000000
 50
180.000000000000000
 51
196.775854678354560
  0
ARC
  8
0
  6
CONTINUOUS
 62
3
 10
354.298028183609460
 20
-163.314289596373560
 40
2.000000000000000
 50
90.000000000000000
 51
180.000000000000000
  0
ARC
  8
0
  6
CONTINUOUS
 62
3
 10
354.298028183609460
 20
-169.314289596373560
 40
2.000000000000000
 50
180.000000000000000
 51
270.000000000000000
  0
ARC
  8
0
  6
CONTINUOUS
 62
3
 10
516.298028183609400
 20
-31.470861873699619
 40
3.000000000000043
 50
87.240247321759966
 51
180.000000000000000
  0
ARC
  8
0
  6
CONTINUOUS
 62
3
 10
503.298028183609400
 20
-31.470861873699619
 40
3.000000000000000
 50
0.000000000000000
 51
92.759752678235699
  0
ARC
  8
0
  6
CONTINUOUS
 62
3
 10
503.298028183609400
 20
-93.604249024248929
 40
3.000000000000029
 50
275.108444450886450
 51
0.000000000000000
  0
ARC
  8
0
  6
CONTINUOUS
 62
3
 10
516.298028183609400
 20
-93.604249024248929
 40
3.000000000000000
 50
180.000000000000000
 51
264.891555549113550
  0
ARC
  8
0
  6
CONTINUOUS
 62
3
 10
374.954600460935640
 20
-159.814289596373560
 40
3.000000000000145
 50
177.240247321764400
 51
270.000000000000000
  0
ARC
  8
0
  6
CONTINUOUS
 62
3
 10
374.954600460935640
 20
-172.814289596373560
 40
3.000000000000000
 50
90.000000000000000
 51
182.759752678235600
  0
ARC
  8
0
  6
CONTINUOUS
 62
3
 10
509.829260734872380
 20
-661.314289596373330
 40
597.308449038694680
 50
87.075476210271702
 51
89.180762713737593
  0
ARC
  8
0
  6
CONTINUOUS
 62
3
 10
518.298028183609400
 20
-69.066386450635605
 40
5.000000000000082
 50
89.180762713737565
 51
180.000000000000000
  0
ARC
  8
0
  6
CONTINUOUS
 62
3
 10
509.766795632346660
 20
-661.314289596373330
 40
597.308449038694790
 50
90.819237286262435
 51
92.924523789728312
  0
ARC
  8
0
  6
CONTINUOUS
 62
3
 10
501.298028183609400
 20
-69.066386450635605
 40
5.000000000000000
 50
0.000000000000000
 51
90.819237286262435
  0
ARC
  8
0
  6
CONTINUOUS
 62
3
 10
484.766795632345970
 20
-171.952460271690140
 40
107.308449038694240
 50
92.924523789728326
 51
172.056783216978630
  0
ARC
  8
0
  6
CONTINUOUS
 62
3
 10
383.439943936170550
 20
-157.814289596373560
 40
4.999999999999872
 50
172.056783216977010
 51
270.000000000000000
  0
ARC
  8
0
  6
CONTINUOUS
 62
3
 10
382.458346593651700
 20
-174.814289596373560
 40
5.000000000000000
 50
90.000000000000000
 51
180.000000000000000
  0
ARC
  8
0
  6
CONTINUOUS
 62
3
 10
598.704856212483260
 20
-258.398902479548720
 40
9.999999999999867
 50
186.015134369631200
 51
313.994123956684400
  0
ARC
  8
0
  6
CONTINUOUS
 62
3
 10
402.272849855547580
 20
-235.757331188159240
 40
10.000000000000092
 50
212.855608111867750
 51
339.806925700099780
  0
CIRCLE
  8
0
  6
CONTINUOUS
 62
4
 10
509.798028183609400
 20
-166.314289596374010
 40
4.000000000000000
  0
CIRCLE
  8
0
  6
CONTINUOUS
 62
3
 10
509.798028183609400
 20
-166.314289596374010
 40
3.325000000000045
  0
LINE
  8
0
  6
DASHDOT
 62
4
 10
509.798028183609400
 20
9.707600318977711
 11
509.798028183609400
 21
-351.463205471853140
  0
LINE
  8
0
  6
DASHDOT
 62
4
 10
389.236321991303210
 20
-45.752583404067082
 11
361.659157525027980
 21
-18.175418937791619
  0
LINE
  8
0
  6
CONTINUOUS
 62
3
 10
417.078686884175170
 20
-38.239609237611603
 11
389.117833337004240
 21
-10.278755690440676
  0
LINE
  8
0
  6
CONTINUOUS
 62
3
 10
381.723347824847740
 20
-73.594948296939037
 11
353.762494277676810
 21
-45.634094749768110
  0
LINE
  8
0
  6
DASHDOT
 62
4
 10
630.359734375915880
 20
-45.752583404067309
 11
657.936898842191110
 21
-18.175418937792074
  0
LINE
  8
0
  6
CONTINUOUS
 62
3
 10
637.872708542371130
 20
-73.594948296939265
 11
665.833562089542280
 21
-45.634094749768337
  0
LINE
  8
0
  6
CONTINUOUS
 62
3
 10
602.517369483043690
 20
-38.239609237611830
 11
630.478223030214850
 21
-10.278755690440903
  0
LINE
  8
0
  6
DASHDOT
 62
4
 10
630.359734375915650
 20
-286.875995788680030
 11
657.936898842191110
 21
-314.453160254955260
  0
LINE
  8
0
  6
CONTINUOUS
 62
3
 10
602.517369483043690
 20
-294.388969955135280
 11
630.478223030214850
 21
-322.349823502306440
  0
LINE
  8
0
  6
CONTINUOUS
 62
3
 10
637.872708542371130
 20
-259.033630895807850
 11
665.833562089542060
 21
-286.994484442979000
  0
LINE
  8
0
  6
CONTINUOUS
 62
3
 10
417.078686884175170
 20
-294.388969955135280
 11
389.117833337004010
 21
-322.349823502306210
  0
LINE
  8
0
  6
CONTINUOUS
 62
3
 10
381.723347824847740
 20
-259.033630895807850
 11
353.762494277676580
 21
-286.994484442979000
  0
LINE
  8
0
  6
DASHDOT
 62
4
 10
389.236321991302990
 20
-286.875995788679800
 11
361.659157525027750
 21
-314.453160254955260
  0
LINE
  8
0
  6
CONTINUOUS
 62
3
 10
652.298028183609400
 20
-323.814289596373560
 11
367.298028183609460
 21
-323.814289596373560
  0
LINE
  8
0
  6
CONTINUOUS
 62
3
 10
652.298028183609400
 20
-8.814289596373555
 11
367.298028183609460
 21
-8.814289596373555
  0
LINE
  8
0
  6
CONTINUOUS
 62
3
 10
352.298028183609460
 20
-23.814289596373555
 11
352.298028183609460
 21
-308.814289596373560
  0
LINE
  8
0
  6
CONTINUOUS
 62
3
 10
430.298028183609460
 20
-338.314289596373560
 11
509.798028183609400
 21
-338.314289596373560
  0
LINE
  8
0
  6
CONTINUOUS
 62
3
 10
589.298028183609400
 20
-338.314289596373560
 11
509.798028183609400
 21
-338.314289596373560
  0
LINE
  8
0
  6
CONTINUOUS
 62
3
 10
357.007321659946740
 20
-161.314289596373560
 11
354.298028183609460
 21
-161.314289596373560
  0
LINE
  8
0
  6
CONTINUOUS
 62
3
 10
357.007321659946740
 20
-171.314289596373560
 11
354.298028183609460
 21
-171.314289596373560
  0
LINE
  8
0
  6
CONTINUOUS
 62
3
 10
506.298028183609400
 20
-31.470861873699619
 11
506.298028183609400
 21
-93.604249024248929
  0
LINE
  8
0
  6
CONTINUOUS
 62
3
 10
513.298028183609400
 20
-31.470861873699619
 11
513.298028183609400
 21
-93.604249024248929
  0
LINE
  8
0
  6
CONTINUOUS
 62
3
 10
377.458346593651700
 20
-174.814289596373560
 11
377.458346593651700
 21
-204.701859102245630
  0
LINE
  8
0
  6
CONTINUOUS
 62
3
 10
482.298028183609400
 20
-159.345522147638120
 11
482.298028183609400
 21
-173.345522147638120
  0
LINE
  8
0
  6
CONTINUOUS
 62
3
 10
491.298028183609400
 20
-159.345522147638120
 11
491.298028183609400
 21
-173.345522147638120
  0
LINE
  8
0
  6
CONTINUOUS
 62
3
 10
482.298028183609400
 20
-159.345522147638120
 11
491.298028183609400
 21
-159.345522147638120
  0
LINE
  8
0
  6
CONTINUOUS
 62
3
 10
482.298028183609400
 20
-173.345522147638120
 11
491.298028183609400
 21
-173.345522147638120
  0
ENDSEC
  0
EOF
