  0
SECTION
  2
HEADER
  9
$FILLMODE
 70
1
  9
$TEXTSTYLE
  7
STANDARD1
  9
$ACADVER
  1
AC1009
  9
$DIMASZ
 40
1.931851648807023
  9
$DIMEXE
 40
2.000000000000000
  9
$DIMEXO
 40
1.000000000000000
  9
$DIMLFAC
 40
1.000000000000000
  9
$DIMSCALE
 40
1.000000000000000
  9
$DIMTAD
 70
1
  9
$DIMTFAC
 40
0.714285731315613
  9
$DIMTXT
 40
3.200000047683716
  9
$LUPREC
 70
3
  9
$TEXTSIZE
 40
2.799999952316284
  9
$REGENMODE
 70
1
  0
ENDSEC
  0
SECTION
  2
TABLES
  0
TABLE
  2
LTYPE
 70
4
  0
LTYPE
  2
CONTINUOUS
 70
64
  3
Solid line
 72
65
 73
0
 40
0.0
  0
LTYPE
  2
DASHED
 70
64
  3
-- -- -- -- -- -- -- -- -- -- -- -- -- -- --
 72
65
 73
2
 40
0.75
 49
0.5
 49
-0.25
  0
LTYPE
  2
DASHDOT
 70
64
  3
__ . __ . __ . __ . __ . __ . __ . __ . __ . __
 72
65
 73
4
 40
1.0
 49
0.5
 49
-0.25
 49
0.0
 49
-0.25
  0
LTYPE
  2
DIVIDE
 70
64
  3
__ . . __ . . __ . . __ . . __ . . __ . . __
 72
65
 73
6
 40
1.25
 49
0.5
 49
-0.25
 49
0.0
 49
-0.25
 49
0.0
 49
-0.25
  0
ENDTAB
  0
TABLE
  2
LAYER
 70
1
  0
LAYER
  2
0
 70
64
 62
2
  6
CONTINUOUS
  0
ENDTAB
  0
TABLE
  2
STYLE
 70
4
  0
STYLE
  2
STANDARD1
 70
64
 40
0.0
 41
1.0
 50
0.0
 71
0
 42
2.799999952316284
  3
MONOTXT
  4
BIGFONT
  0
STYLE
  2
STANDARD2
 70
68
 40
0.0
 41
1.0
 50
0.0
 71
0
 42
2.799999952316284
  3
MONOTXT
  4
BIGFONT
  0
STYLE
  2
STANDARD3
 70
64
 40
0.0
 41
1.0
 50
0.0
 71
0
 42
2.799999952316284
  3
MONOTXT
  4

  0
STYLE
  2
STANDARD4
 70
68
 40
0.0
 41
1.0
 50
0.0
 71
0
 42
2.799999952316284
  3
MONOTXT
  4

  0
ENDTAB
  0
TABLE
  2
VIEW
 70
0
  0
ENDTAB
  0
ENDSEC
  0
SECTION
  2
BLOCKS
  0
BLOCK
  8
0
  2
SYM1
 70
64
 10
0.000000000000000
 20
0.000000000000000
  0
ARC
  8
0
  6
CONTINUOUS
 62
3
 10
1.981662750244141
 20
-0.000008163610801
 40
5.981661796569824
 50
150.999363302540700
 51
209.000072979481700
  0
ARC
  8
0
  6
CONTINUOUS
 62
3
 10
-2.269982337951660
 20
4.325008392333984
 40
1.729999542236328
 50
179.999745461767870
 51
235.499786279783790
  0
ARC
  8
0
  6
CONTINUOUS
 62
3
 10
-2.270017623901367
 20
-4.324990272521973
 40
1.729999542236328
 50
124.499759285265280
 51
179.999745461767870
  0
LINE
  8
0
  6
CONTINUOUS
 62
3
 10
-3.249984168999890
 20
2.900012016287064
 11
0.000013133145058
 21
2.899999618522375
  0
LINE
  8
0
  6
CONTINUOUS
 62
3
 10
-3.250009052584916
 20
-2.899986267083180
 11
-0.000013285950788
 21
-2.899999618524636
  0
LINE
  8
0
  6
CONTINUOUS
 62
3
 10
0.000023687533422
 20
5.749999046325684
 11
-0.000023687533422
 21
-5.749999046325684
  0
LINE
  8
0
  6
CONTINUOUS
 62
3
 10
-3.249972343459831
 20
5.750005722029982
 11
0.000027906669402
 21
5.749993324257003
  0
LINE
  8
0
  6
CONTINUOUS
 62
3
 10
-3.999972830514309
 20
4.900008662670757
 11
-3.249970339875063
 21
5.750006850331147
  0
LINE
  8
0
  6
CONTINUOUS
 62
3
 10
-4.000014781949545
 20
-4.899978112209579
 11
-3.999973773958658
 21
4.900011588107803
  0
LINE
  8
0
  6
CONTINUOUS
 62
3
 10
-3.250024308998832
 20
-5.749987011620533
 11
-4.000020133420207
 21
-4.899982163000686
  0
LINE
  8
0
  6
CONTINUOUS
 62
3
 10
-0.000027060931608
 20
-5.749995231614290
 11
-3.250020760774497
 21
-5.749981880178368
  0
POINT
  8
0
  6
CONTINUOUS
 62
3
 10
0.000000000000000
 20
0.000000000000000
  0
ENDBLK
  8
0
  0
BLOCK
  8
0
  2
SYM2
 70
64
 10
0.000000000000000
 20
0.000000000000000
  0
LINE
  8
0
  6
CONTINUOUS
 62
3
 10
-7.499999046325684
 20
6.500000000000000
 11
-7.499999046325684
 21
-6.500000000000000
  0
LINE
  8
0
  6
CONTINUOUS
 62
3
 10
-7.499997911632022
 20
-6.499999445138201
 11
-7.999998623386432
 21
-5.634070287011241
  0
LINE
  8
0
  6
CONTINUOUS
 62
3
 10
-7.499999203818277
 20
6.499999909101064
 11
-7.999999021366804
 21
5.633876130311293
  0
LINE
  8
0
  6
CONTINUOUS
 62
3
 10
-0.000000000000000
 20
-6.500000000000000
 11
-7.499998092651367
 21
-6.500000000000000
  0
LINE
  8
0
  6
CONTINUOUS
 62
3
 10
0.000000000000000
 20
6.500000000000000
 11
-7.499999046325684
 21
6.500000000000000
  0
LINE
  8
0
  6
CONTINUOUS
 62
3
 10
-7.999999046325684
 20
5.633875846862793
 11
-7.999999046325684
 21
-5.634070396423340
  0
LINE
  8
0
  6
CONTINUOUS
 62
3
 10
0.000000000000000
 20
-6.500000000000000
 11
-0.000000000000000
 21
6.500000000000000
  0
POINT
  8
0
  6
CONTINUOUS
 62
3
 10
0.000000000000000
 20
0.000000000000000
  0
ENDBLK
  8
0
  0
BLOCK
  8
0
  2
SYM3
 70
64
 10
0.000000000000000
 20
0.000000000000000
  0
LINE
  8
0
  6
CONTINUOUS
 62
3
 10
-7.499999046325684
 20
6.500000000000000
 11
-7.499999046325684
 21
-6.500000000000000
  0
LINE
  8
0
  6
CONTINUOUS
 62
3
 10
-7.499997911632022
 20
-6.499999445138201
 11
-7.999998623386432
 21
-5.634070287011241
  0
LINE
  8
0
  6
CONTINUOUS
 62
3
 10
-7.499999203818277
 20
6.499999909101064
 11
-7.999999021366804
 21
5.633876130311293
  0
LINE
  8
0
  6
CONTINUOUS
 62
3
 10
-0.000000000000000
 20
-6.500000000000000
 11
-7.499998092651367
 21
-6.500000000000000
  0
LINE
  8
0
  6
CONTINUOUS
 62
3
 10
0.000000000000000
 20
6.500000000000000
 11
-7.499999046325684
 21
6.500000000000000
  0
LINE
  8
0
  6
CONTINUOUS
 62
3
 10
-7.999999046325684
 20
5.633875846862793
 11
-7.999999046325684
 21
-5.634070396423340
  0
LINE
  8
0
  6
CONTINUOUS
 62
3
 10
0.000000000000000
 20
-6.500000000000000
 11
-0.000000000000000
 21
6.500000000000000
  0
POINT
  8
0
  6
CONTINUOUS
 62
3
 10
0.000000000000000
 20
0.000000000000000
  0
ENDBLK
  8
0
  0
BLOCK
  8
0
  2
SYM4
 70
64
 10
0.000000000000000
 20
0.000000000000000
  0
ARC
  8
0
  6
CONTINUOUS
 62
3
 10
-0.979025304317474
 20
-2.200000762939453
 40
1.299999237060547
 50
196.601531107481040
 51
270.000000000000000
  0
ARC
  8
0
  6
CONTINUOUS
 62
3
 10
-0.979025304317474
 20
2.200000762939453
 40
1.299999237060547
 50
90.000000000000000
 51
163.398451589674950
  0
LINE
  8
0
  6
CONTINUOUS
 62
3
 10
-0.000000000000000
 20
-3.500000000000000
 11
-0.979025304317474
 21
-3.500000000000000
  0
LINE
  8
0
  6
CONTINUOUS
 62
3
 10
0.000000000000000
 20
3.500000000000000
 11
-0.979025304317474
 21
3.500000000000000
  0
LINE
  8
0
  6
CONTINUOUS
 62
3
 10
0.000000000000000
 20
-3.500000000000000
 11
-0.000000000000000
 21
3.500000000000000
  0
LINE
  8
0
  6
CONTINUOUS
 62
3
 10
0.000000000000000
 20
-3.500000000000000
 11
-0.000000000000000
 21
3.500000000000000
  0
POINT
  8
0
  6
CONTINUOUS
 62
3
 10
0.000000000000000
 20
0.000000000000000
  0
ARC
  8
0
  6
CONTINUOUS
 62
3
 10
6.399999618530273
 20
0.000000000000000
 40
9.000000000000000
 50
163.398451589674950
 51
196.601531107481040
  0
ENDBLK
  8
0
  0
BLOCK
  8
0
  2
SYM5
 70
64
 10
0.000000000000000
 20
0.000000000000000
  0
CIRCLE
  8
0
  6
CONTINUOUS
 62
3
 10
0.000000000000000
 20
0.000000000000000
 40
5.633955001831055
  0
CIRCLE
  8
0
  6
CONTINUOUS
 62
3
 10
0.000000000000000
 20
0.000000000000000
 40
6.500000000000000
  0
POINT
  8
0
  6
CONTINUOUS
 62
3
 10
0.000000000000000
 20
0.000000000000000
  0
LINE
  8
0
  6
CONTINUOUS
 62
3
 10
-2.999996662140960
 20
-1.732045999551255
 11
-2.999997615815242
 21
1.732051977133316
  0
LINE
  8
0
  6
CONTINUOUS
 62
3
 10
2.999996662140697
 20
1.732046953225571
 11
2.999997615814979
 21
-1.732051023458999
  0
LINE
  8
0
  6
CONTINUOUS
 62
3
 10
0.000006701720849
 20
3.464096999935236
 11
-2.999997939551520
 21
1.732051821705568
  0
LINE
  8
0
  6
CONTINUOUS
 62
3
 10
2.999998112093635
 20
-1.732051392778772
 11
-0.000004464412200
 21
-3.464098365415111
  0
LINE
  8
0
  6
CONTINUOUS
 62
3
 10
0.000006618601731
 20
3.464096896385627
 11
2.999997425948948
 21
1.732046782136365
  0
LINE
  8
0
  6
CONTINUOUS
 62
3
 10
-0.000004704988612
 20
-3.464098175748802
 11
-2.999997577100373
 21
-1.732046218032735
  0
POINT
  8
0
  6
CONTINUOUS
 62
3
 10
0.500000119209290
 20
6.500000000000000
  0
POINT
  8
0
  6
CONTINUOUS
 62
3
 10
0.000000000000000
 20
5.633955001831055
  0
ENDBLK
  8
0
  0
BLOCK
  8
0
  2
SYM6
 70
64
 10
0.000000000000000
 20
0.000000000000000
  0
CIRCLE
  8
0
  6
CONTINUOUS
 62
3
 10
0.000000000000000
 20
0.000000000000000
 40
5.633955001831055
  0
CIRCLE
  8
0
  6
CONTINUOUS
 62
3
 10
0.000000000000000
 20
0.000000000000000
 40
6.500000000000000
  0
POINT
  8
0
  6
CONTINUOUS
 62
3
 10
0.000000000000000
 20
0.000000000000000
  0
LINE
  8
0
  6
CONTINUOUS
 62
3
 10
-2.999996662140960
 20
-1.732045999551255
 11
-2.999997615815242
 21
1.732051977133316
  0
LINE
  8
0
  6
CONTINUOUS
 62
3
 10
2.999996662140697
 20
1.732046953225571
 11
2.999997615814979
 21
-1.732051023458999
  0
LINE
  8
0
  6
CONTINUOUS
 62
3
 10
0.000006701720849
 20
3.464096999935236
 11
-2.999997939551520
 21
1.732051821705568
  0
LINE
  8
0
  6
CONTINUOUS
 62
3
 10
2.999998112093635
 20
-1.732051392778772
 11
-0.000004464412200
 21
-3.464098365415111
  0
LINE
  8
0
  6
CONTINUOUS
 62
3
 10
0.000006618601731
 20
3.464096896385627
 11
2.999997425948948
 21
1.732046782136365
  0
LINE
  8
0
  6
CONTINUOUS
 62
3
 10
-0.000004704988612
 20
-3.464098175748802
 11
-2.999997577100373
 21
-1.732046218032735
  0
POINT
  8
0
  6
CONTINUOUS
 62
3
 10
0.500000119209290
 20
6.500000000000000
  0
POINT
  8
0
  6
CONTINUOUS
 62
3
 10
0.000000000000000
 20
5.633955001831055
  0
ENDBLK
  8
0
  0
BLOCK
  8
0
  2
SYM7
 70
64
 10
0.000000000000000
 20
0.000000000000000
  0
CIRCLE
  8
0
  6
CONTINUOUS
 62
3
 10
0.000000000000000
 20
0.000000000000000
 40
5.633955001831055
  0
CIRCLE
  8
0
  6
CONTINUOUS
 62
3
 10
0.000000000000000
 20
0.000000000000000
 40
6.500000000000000
  0
POINT
  8
0
  6
CONTINUOUS
 62
3
 10
0.000000000000000
 20
0.000000000000000
  0
LINE
  8
0
  6
CONTINUOUS
 62
3
 10
-2.999996662140960
 20
-1.732045999551255
 11
-2.999997615815242
 21
1.732051977133316
  0
LINE
  8
0
  6
CONTINUOUS
 62
3
 10
2.999996662140697
 20
1.732046953225571
 11
2.999997615814979
 21
-1.732051023458999
  0
LINE
  8
0
  6
CONTINUOUS
 62
3
 10
0.000006701720849
 20
3.464096999935236
 11
-2.999997939551520
 21
1.732051821705568
  0
LINE
  8
0
  6
CONTINUOUS
 62
3
 10
2.999998112093635
 20
-1.732051392778772
 11
-0.000004464412200
 21
-3.464098365415111
  0
LINE
  8
0
  6
CONTINUOUS
 62
3
 10
0.000006618601731
 20
3.464096896385627
 11
2.999997425948948
 21
1.732046782136365
  0
LINE
  8
0
  6
CONTINUOUS
 62
3
 10
-0.000004704988612
 20
-3.464098175748802
 11
-2.999997577100373
 21
-1.732046218032735
  0
POINT
  8
0
  6
CONTINUOUS
 62
3
 10
0.500000119209290
 20
6.500000000000000
  0
POINT
  8
0
  6
CONTINUOUS
 62
3
 10
0.000000000000000
 20
5.633955001831055
  0
ENDBLK
  8
0
  0
BLOCK
  8
0
  2
SYM8
 70
64
 10
0.000000000000000
 20
0.000000000000000
  0
CIRCLE
  8
0
  6
CONTINUOUS
 62
3
 10
0.000000000000000
 20
0.000000000000000
 40
5.633955001831055
  0
CIRCLE
  8
0
  6
CONTINUOUS
 62
3
 10
0.000000000000000
 20
0.000000000000000
 40
6.500000000000000
  0
POINT
  8
0
  6
CONTINUOUS
 62
3
 10
0.000000000000000
 20
0.000000000000000
  0
LINE
  8
0
  6
CONTINUOUS
 62
3
 10
-2.999996662140960
 20
-1.732045999551255
 11
-2.999997615815242
 21
1.732051977133316
  0
LINE
  8
0
  6
CONTINUOUS
 62
3
 10
2.999996662140697
 20
1.732046953225571
 11
2.999997615814979
 21
-1.732051023458999
  0
LINE
  8
0
  6
CONTINUOUS
 62
3
 10
0.000006701720849
 20
3.464096999935236
 11
-2.999997939551520
 21
1.732051821705568
  0
LINE
  8
0
  6
CONTINUOUS
 62
3
 10
2.999998112093635
 20
-1.732051392778772
 11
-0.000004464412200
 21
-3.464098365415111
  0
LINE
  8
0
  6
CONTINUOUS
 62
3
 10
0.000006618601731
 20
3.464096896385627
 11
2.999997425948948
 21
1.732046782136365
  0
LINE
  8
0
  6
CONTINUOUS
 62
3
 10
-0.000004704988612
 20
-3.464098175748802
 11
-2.999997577100373
 21
-1.732046218032735
  0
POINT
  8
0
  6
CONTINUOUS
 62
3
 10
0.500000119209290
 20
6.500000000000000
  0
POINT
  8
0
  6
CONTINUOUS
 62
3
 10
0.000000000000000
 20
5.633955001831055
  0
ENDBLK
  8
0
  0
BLOCK
  8
0
  2
SYM9
 70
64
 10
0.000000000000000
 20
0.000000000000000
  0
CIRCLE
  8
0
  6
CONTINUOUS
 62
3
 10
0.000000000000000
 20
0.000000000000000
 40
5.633955001831055
  0
CIRCLE
  8
0
  6
CONTINUOUS
 62
3
 10
0.000000000000000
 20
0.000000000000000
 40
6.500000000000000
  0
POINT
  8
0
  6
CONTINUOUS
 62
3
 10
0.000000000000000
 20
0.000000000000000
  0
LINE
  8
0
  6
CONTINUOUS
 62
3
 10
-2.999996662140960
 20
-1.732045999551255
 11
-2.999997615815242
 21
1.732051977133316
  0
LINE
  8
0
  6
CONTINUOUS
 62
3
 10
2.999996662140697
 20
1.732046953225571
 11
2.999997615814979
 21
-1.732051023458999
  0
LINE
  8
0
  6
CONTINUOUS
 62
3
 10
0.000006701720849
 20
3.464096999935236
 11
-2.999997939551520
 21
1.732051821705568
  0
LINE
  8
0
  6
CONTINUOUS
 62
3
 10
2.999998112093635
 20
-1.732051392778772
 11
-0.000004464412200
 21
-3.464098365415111
  0
LINE
  8
0
  6
CONTINUOUS
 62
3
 10
0.000006618601731
 20
3.464096896385627
 11
2.999997425948948
 21
1.732046782136365
  0
LINE
  8
0
  6
CONTINUOUS
 62
3
 10
-0.000004704988612
 20
-3.464098175748802
 11
-2.999997577100373
 21
-1.732046218032735
  0
POINT
  8
0
  6
CONTINUOUS
 62
3
 10
0.500000119209290
 20
6.500000000000000
  0
POINT
  8
0
  6
CONTINUOUS
 62
3
 10
0.000000000000000
 20
5.633955001831055
  0
ENDBLK
  8
0
  0
BLOCK
  8
0
  2
SYM10
 70
64
 10
0.000000000000000
 20
0.000000000000000
  0
CIRCLE
  8
0
  6
CONTINUOUS
 62
3
 10
0.000000000000000
 20
0.000000000000000
 40
5.633955001831055
  0
CIRCLE
  8
0
  6
CONTINUOUS
 62
3
 10
0.000000000000000
 20
0.000000000000000
 40
6.500000000000000
  0
POINT
  8
0
  6
CONTINUOUS
 62
3
 10
0.000000000000000
 20
0.000000000000000
  0
LINE
  8
0
  6
CONTINUOUS
 62
3
 10
-2.999996662140960
 20
-1.732045999551255
 11
-2.999997615815242
 21
1.732051977133316
  0
LINE
  8
0
  6
CONTINUOUS
 62
3
 10
2.999996662140697
 20
1.732046953225571
 11
2.999997615814979
 21
-1.732051023458999
  0
LINE
  8
0
  6
CONTINUOUS
 62
3
 10
0.000006701720849
 20
3.464096999935236
 11
-2.999997939551520
 21
1.732051821705568
  0
LINE
  8
0
  6
CONTINUOUS
 62
3
 10
2.999998112093635
 20
-1.732051392778772
 11
-0.000004464412200
 21
-3.464098365415111
  0
LINE
  8
0
  6
CONTINUOUS
 62
3
 10
0.000006618601731
 20
3.464096896385627
 11
2.999997425948948
 21
1.732046782136365
  0
LINE
  8
0
  6
CONTINUOUS
 62
3
 10
-0.000004704988612
 20
-3.464098175748802
 11
-2.999997577100373
 21
-1.732046218032735
  0
POINT
  8
0
  6
CONTINUOUS
 62
3
 10
0.500000119209290
 20
6.500000000000000
  0
POINT
  8
0
  6
CONTINUOUS
 62
3
 10
0.000000000000000
 20
5.633955001831055
  0
ENDBLK
  8
0
  0
BLOCK
  8
0
  2
SYM11
 70
64
 10
0.000000000000000
 20
0.000000000000000
  0
CIRCLE
  8
0
  6
CONTINUOUS
 62
3
 10
0.000000000000000
 20
0.000000000000000
 40
5.633955001831055
  0
CIRCLE
  8
0
  6
CONTINUOUS
 62
3
 10
0.000000000000000
 20
0.000000000000000
 40
6.500000000000000
  0
POINT
  8
0
  6
CONTINUOUS
 62
3
 10
0.000000000000000
 20
0.000000000000000
  0
LINE
  8
0
  6
CONTINUOUS
 62
3
 10
-2.999996662140960
 20
-1.732045999551255
 11
-2.999997615815242
 21
1.732051977133316
  0
LINE
  8
0
  6
CONTINUOUS
 62
3
 10
2.999996662140697
 20
1.732046953225571
 11
2.999997615814979
 21
-1.732051023458999
  0
LINE
  8
0
  6
CONTINUOUS
 62
3
 10
0.000006701720849
 20
3.464096999935236
 11
-2.999997939551520
 21
1.732051821705568
  0
LINE
  8
0
  6
CONTINUOUS
 62
3
 10
2.999998112093635
 20
-1.732051392778772
 11
-0.000004464412200
 21
-3.464098365415111
  0
LINE
  8
0
  6
CONTINUOUS
 62
3
 10
0.000006618601731
 20
3.464096896385627
 11
2.999997425948948
 21
1.732046782136365
  0
LINE
  8
0
  6
CONTINUOUS
 62
3
 10
-0.000004704988612
 20
-3.464098175748802
 11
-2.999997577100373
 21
-1.732046218032735
  0
POINT
  8
0
  6
CONTINUOUS
 62
3
 10
0.500000119209290
 20
6.500000000000000
  0
POINT
  8
0
  6
CONTINUOUS
 62
3
 10
0.000000000000000
 20
5.633955001831055
  0
ENDBLK
  8
0
  0
BLOCK
  8
0
  2
SYM12
 70
64
 10
0.000000000000000
 20
0.000000000000000
  0
CIRCLE
  8
0
  6
CONTINUOUS
 62
3
 10
0.000000000000000
 20
0.000000000000000
 40
5.633955001831055
  0
CIRCLE
  8
0
  6
CONTINUOUS
 62
3
 10
0.000000000000000
 20
0.000000000000000
 40
6.500000000000000
  0
POINT
  8
0
  6
CONTINUOUS
 62
3
 10
0.000000000000000
 20
0.000000000000000
  0
LINE
  8
0
  6
CONTINUOUS
 62
3
 10
-2.999996662140960
 20
-1.732045999551255
 11
-2.999997615815242
 21
1.732051977133316
  0
LINE
  8
0
  6
CONTINUOUS
 62
3
 10
2.999996662140697
 20
1.732046953225571
 11
2.999997615814979
 21
-1.732051023458999
  0
LINE
  8
0
  6
CONTINUOUS
 62
3
 10
0.000006701720849
 20
3.464096999935236
 11
-2.999997939551520
 21
1.732051821705568
  0
LINE
  8
0
  6
CONTINUOUS
 62
3
 10
2.999998112093635
 20
-1.732051392778772
 11
-0.000004464412200
 21
-3.464098365415111
  0
LINE
  8
0
  6
CONTINUOUS
 62
3
 10
0.000006618601731
 20
3.464096896385627
 11
2.999997425948948
 21
1.732046782136365
  0
LINE
  8
0
  6
CONTINUOUS
 62
3
 10
-0.000004704988612
 20
-3.464098175748802
 11
-2.999997577100373
 21
-1.732046218032735
  0
POINT
  8
0
  6
CONTINUOUS
 62
3
 10
0.500000119209290
 20
6.500000000000000
  0
POINT
  8
0
  6
CONTINUOUS
 62
3
 10
0.000000000000000
 20
5.633955001831055
  0
ENDBLK
  8
0
  0
BLOCK
  8
0
  2
SYM13
 70
64
 10
0.000000000000000
 20
0.000000000000000
  0
CIRCLE
  8
0
  6
CONTINUOUS
 62
3
 10
0.000000000000000
 20
0.000000000000000
 40
5.633955001831055
  0
CIRCLE
  8
0
  6
CONTINUOUS
 62
3
 10
0.000000000000000
 20
0.000000000000000
 40
6.500000000000000
  0
POINT
  8
0
  6
CONTINUOUS
 62
3
 10
0.000000000000000
 20
0.000000000000000
  0
LINE
  8
0
  6
CONTINUOUS
 62
3
 10
-2.999996662140960
 20
-1.732045999551255
 11
-2.999997615815242
 21
1.732051977133316
  0
LINE
  8
0
  6
CONTINUOUS
 62
3
 10
2.999996662140697
 20
1.732046953225571
 11
2.999997615814979
 21
-1.732051023458999
  0
LINE
  8
0
  6
CONTINUOUS
 62
3
 10
0.000006701720849
 20
3.464096999935236
 11
-2.999997939551520
 21
1.732051821705568
  0
LINE
  8
0
  6
CONTINUOUS
 62
3
 10
2.999998112093635
 20
-1.732051392778772
 11
-0.000004464412200
 21
-3.464098365415111
  0
LINE
  8
0
  6
CONTINUOUS
 62
3
 10
0.000006618601731
 20
3.464096896385627
 11
2.999997425948948
 21
1.732046782136365
  0
LINE
  8
0
  6
CONTINUOUS
 62
3
 10
-0.000004704988612
 20
-3.464098175748802
 11
-2.999997577100373
 21
-1.732046218032735
  0
POINT
  8
0
  6
CONTINUOUS
 62
3
 10
0.500000119209290
 20
6.500000000000000
  0
POINT
  8
0
  6
CONTINUOUS
 62
3
 10
0.000000000000000
 20
5.633955001831055
  0
ENDBLK
  8
0
  0
BLOCK
  8
0
  2
SYM14
 70
64
 10
0.000000000000000
 20
0.000000000000000
  0
CIRCLE
  8
0
  6
CONTINUOUS
 62
3
 10
0.000000000000000
 20
0.000000000000000
 40
5.633955001831055
  0
CIRCLE
  8
0
  6
CONTINUOUS
 62
3
 10
0.000000000000000
 20
0.000000000000000
 40
6.500000000000000
  0
POINT
  8
0
  6
CONTINUOUS
 62
3
 10
0.000000000000000
 20
0.000000000000000
  0
LINE
  8
0
  6
CONTINUOUS
 62
3
 10
-2.999996662140960
 20
-1.732045999551255
 11
-2.999997615815242
 21
1.732051977133316
  0
LINE
  8
0
  6
CONTINUOUS
 62
3
 10
2.999996662140697
 20
1.732046953225571
 11
2.999997615814979
 21
-1.732051023458999
  0
LINE
  8
0
  6
CONTINUOUS
 62
3
 10
0.000006701720849
 20
3.464096999935236
 11
-2.999997939551520
 21
1.732051821705568
  0
LINE
  8
0
  6
CONTINUOUS
 62
3
 10
2.999998112093635
 20
-1.732051392778772
 11
-0.000004464412200
 21
-3.464098365415111
  0
LINE
  8
0
  6
CONTINUOUS
 62
3
 10
0.000006618601731
 20
3.464096896385627
 11
2.999997425948948
 21
1.732046782136365
  0
LINE
  8
0
  6
CONTINUOUS
 62
3
 10
-0.000004704988612
 20
-3.464098175748802
 11
-2.999997577100373
 21
-1.732046218032735
  0
POINT
  8
0
  6
CONTINUOUS
 62
3
 10
0.500000119209290
 20
6.500000000000000
  0
POINT
  8
0
  6
CONTINUOUS
 62
3
 10
0.000000000000000
 20
5.633955001831055
  0
ENDBLK
  8
0
  0
BLOCK
  8
0
  2
SYM15
 70
64
 10
0.000000000000000
 20
0.000000000000000
  0
CIRCLE
  8
0
  6
CONTINUOUS
 62
3
 10
0.000000000000000
 20
0.000000000000000
 40
5.633955001831055
  0
CIRCLE
  8
0
  6
CONTINUOUS
 62
3
 10
0.000000000000000
 20
0.000000000000000
 40
6.500000000000000
  0
POINT
  8
0
  6
CONTINUOUS
 62
3
 10
0.000000000000000
 20
0.000000000000000
  0
LINE
  8
0
  6
CONTINUOUS
 62
3
 10
-2.999996662140960
 20
-1.732045999551255
 11
-2.999997615815242
 21
1.732051977133316
  0
LINE
  8
0
  6
CONTINUOUS
 62
3
 10
2.999996662140697
 20
1.732046953225571
 11
2.999997615814979
 21
-1.732051023458999
  0
LINE
  8
0
  6
CONTINUOUS
 62
3
 10
0.000006701720849
 20
3.464096999935236
 11
-2.999997939551520
 21
1.732051821705568
  0
LINE
  8
0
  6
CONTINUOUS
 62
3
 10
2.999998112093635
 20
-1.732051392778772
 11
-0.000004464412200
 21
-3.464098365415111
  0
LINE
  8
0
  6
CONTINUOUS
 62
3
 10
0.000006618601731
 20
3.464096896385627
 11
2.999997425948948
 21
1.732046782136365
  0
LINE
  8
0
  6
CONTINUOUS
 62
3
 10
-0.000004704988612
 20
-3.464098175748802
 11
-2.999997577100373
 21
-1.732046218032735
  0
POINT
  8
0
  6
CONTINUOUS
 62
3
 10
0.500000119209290
 20
6.500000000000000
  0
POINT
  8
0
  6
CONTINUOUS
 62
3
 10
0.000000000000000
 20
5.633955001831055
  0
ENDBLK
  8
0
  0
BLOCK
  8
0
  2
SYM16
 70
64
 10
0.000000000000000
 20
0.000000000000000
  0
CIRCLE
  8
0
  6
CONTINUOUS
 62
3
 10
0.000000000000000
 20
0.000000000000000
 40
5.000000000000000
  0
LINE
  8
0
  6
CONTINUOUS
 62
3
 10
4.989816965891634
 20
-2.892629271321994
 11
0.010171343047148
 21
-5.767622431692701
  0
LINE
  8
0
  6
CONTINUOUS
 62
3
 10
4.979648434603448
 20
2.874994693650046
 11
4.989821279270270
 21
-2.892629961559101
  0
LINE
  8
0
  6
CONTINUOUS
 62
3
 10
-0.010171198458579
 20
5.767622839547471
 11
4.979645433681753
 21
2.874994469174567
  0
LINE
  8
0
  6
CONTINUOUS
 62
3
 10
-4.989816965891634
 20
2.892629271321994
 11
-0.010171343047148
 21
5.767622431692701
  0
LINE
  8
0
  6
CONTINUOUS
 62
3
 10
-4.979648434603448
 20
-2.874994693650046
 11
-4.989821279270270
 21
2.892629961559101
  0
LINE
  8
0
  6
CONTINUOUS
 62
3
 10
0.010171198458579
 20
-5.767622839547471
 11
-4.979645433681753
 21
-2.874994469174567
  0
POINT
  8
0
  6
CONTINUOUS
 62
3
 10
0.000000000000000
 20
0.000000000000000
  0
ENDBLK
  8
0
  0
BLOCK
  8
0
  2
SYM17
 70
64
 10
0.000000000000000
 20
0.000000000000000
  0
CIRCLE
  8
0
  6
CONTINUOUS
 62
3
 10
0.000000000000000
 20
0.000000000000000
 40
5.000000000000000
  0
LINE
  8
0
  6
CONTINUOUS
 62
3
 10
4.989816965891634
 20
-2.892629271321994
 11
0.010171343047148
 21
-5.767622431692701
  0
LINE
  8
0
  6
CONTINUOUS
 62
3
 10
4.979648434603448
 20
2.874994693650046
 11
4.989821279270270
 21
-2.892629961559101
  0
LINE
  8
0
  6
CONTINUOUS
 62
3
 10
-0.010171198458579
 20
5.767622839547471
 11
4.979645433681753
 21
2.874994469174567
  0
LINE
  8
0
  6
CONTINUOUS
 62
3
 10
-4.989816965891634
 20
2.892629271321994
 11
-0.010171343047148
 21
5.767622431692701
  0
LINE
  8
0
  6
CONTINUOUS
 62
3
 10
-4.979648434603448
 20
-2.874994693650046
 11
-4.989821279270270
 21
2.892629961559101
  0
LINE
  8
0
  6
CONTINUOUS
 62
3
 10
0.010171198458579
 20
-5.767622839547471
 11
-4.979645433681753
 21
-2.874994469174567
  0
POINT
  8
0
  6
CONTINUOUS
 62
3
 10
0.000000000000000
 20
0.000000000000000
  0
ENDBLK
  8
0
  0
BLOCK
  8
0
  2
SYM18
 70
64
 10
0.000000000000000
 20
0.000000000000000
  0
POINT
  8
0
  6
CONTINUOUS
 62
3
 10
0.000000000000000
 20
0.000000000000000
  0
LINE
  8
0
  6
CONTINUOUS
 62
3
 10
0.000000000000000
 20
-6.500000000000000
 11
-0.000000000000000
 21
6.500000000000000
  0
LINE
  8
0
  6
CONTINUOUS
 62
3
 10
-7.999999046325684
 20
5.633875846862793
 11
-7.999999046325684
 21
-5.634070396423340
  0
LINE
  8
0
  6
CONTINUOUS
 62
3
 10
0.000000000000000
 20
6.500000000000000
 11
-7.499999046325684
 21
6.500000000000000
  0
LINE
  8
0
  6
CONTINUOUS
 62
3
 10
-0.000000000000000
 20
-6.500000000000000
 11
-7.499998092651367
 21
-6.500000000000000
  0
LINE
  8
0
  6
CONTINUOUS
 62
3
 10
-7.499999203818277
 20
6.499999909101064
 11
-7.999999021366804
 21
5.633876130311293
  0
LINE
  8
0
  6
CONTINUOUS
 62
3
 10
-7.499997911632022
 20
-6.499999445138201
 11
-7.999998623386432
 21
-5.634070287011241
  0
LINE
  8
0
  6
CONTINUOUS
 62
3
 10
-7.499999046325684
 20
6.500000000000000
 11
-7.499999046325684
 21
-6.500000000000000
  0
ENDBLK
  8
0
  0
BLOCK
  8
0
  2
SYM19
 70
64
 10
0.000000000000000
 20
0.000000000000000
  0
POINT
  8
0
  6
CONTINUOUS
 62
3
 10
0.000000000000000
 20
0.000000000000000
  0
LINE
  8
0
  6
CONTINUOUS
 62
3
 10
0.000000000000000
 20
-6.500000000000000
 11
-0.000000000000000
 21
6.500000000000000
  0
LINE
  8
0
  6
CONTINUOUS
 62
3
 10
-7.999999046325684
 20
5.633875846862793
 11
-7.999999046325684
 21
-5.634070396423340
  0
LINE
  8
0
  6
CONTINUOUS
 62
3
 10
0.000000000000000
 20
6.500000000000000
 11
-7.499999046325684
 21
6.500000000000000
  0
LINE
  8
0
  6
CONTINUOUS
 62
3
 10
-0.000000000000000
 20
-6.500000000000000
 11
-7.499998092651367
 21
-6.500000000000000
  0
LINE
  8
0
  6
CONTINUOUS
 62
3
 10
-7.499999203818277
 20
6.499999909101064
 11
-7.999999021366804
 21
5.633876130311293
  0
LINE
  8
0
  6
CONTINUOUS
 62
3
 10
-7.499997911632022
 20
-6.499999445138201
 11
-7.999998623386432
 21
-5.634070287011241
  0
LINE
  8
0
  6
CONTINUOUS
 62
3
 10
-7.499999046325684
 20
6.500000000000000
 11
-7.499999046325684
 21
-6.500000000000000
  0
ENDBLK
  8
0
  0
BLOCK
  8
0
  2
SYM20
 70
64
 10
0.000000000000000
 20
0.000000000000000
  0
POINT
  8
0
  6
CONTINUOUS
 62
3
 10
0.000000000000000
 20
0.000000000000000
  0
LINE
  8
0
  6
CONTINUOUS
 62
3
 10
0.000000000000000
 20
-6.500000000000000
 11
-0.000000000000000
 21
6.500000000000000
  0
LINE
  8
0
  6
CONTINUOUS
 62
3
 10
-7.999999046325684
 20
5.633875846862793
 11
-7.999999046325684
 21
-5.634070396423340
  0
LINE
  8
0
  6
CONTINUOUS
 62
3
 10
0.000000000000000
 20
6.500000000000000
 11
-7.499999046325684
 21
6.500000000000000
  0
LINE
  8
0
  6
CONTINUOUS
 62
3
 10
-0.000000000000000
 20
-6.500000000000000
 11
-7.499998092651367
 21
-6.500000000000000
  0
LINE
  8
0
  6
CONTINUOUS
 62
3
 10
-7.499999203818277
 20
6.499999909101064
 11
-7.999999021366804
 21
5.633876130311293
  0
LINE
  8
0
  6
CONTINUOUS
 62
3
 10
-7.499997911632022
 20
-6.499999445138201
 11
-7.999998623386432
 21
-5.634070287011241
  0
LINE
  8
0
  6
CONTINUOUS
 62
3
 10
-7.499999046325684
 20
6.500000000000000
 11
-7.499999046325684
 21
-6.500000000000000
  0
ENDBLK
  8
0
  0
BLOCK
  8
0
  2
SYM21
 70
64
 10
0.000000000000000
 20
0.000000000000000
  0
POINT
  8
0
  6
CONTINUOUS
 62
3
 10
0.000000000000000
 20
0.000000000000000
  0
LINE
  8
0
  6
CONTINUOUS
 62
3
 10
0.000000000000000
 20
-6.500000000000000
 11
-0.000000000000000
 21
6.500000000000000
  0
LINE
  8
0
  6
CONTINUOUS
 62
3
 10
-7.999999046325684
 20
5.633875846862793
 11
-7.999999046325684
 21
-5.634070396423340
  0
LINE
  8
0
  6
CONTINUOUS
 62
3
 10
0.000000000000000
 20
6.500000000000000
 11
-7.499999046325684
 21
6.500000000000000
  0
LINE
  8
0
  6
CONTINUOUS
 62
3
 10
-0.000000000000000
 20
-6.500000000000000
 11
-7.499998092651367
 21
-6.500000000000000
  0
LINE
  8
0
  6
CONTINUOUS
 62
3
 10
-7.499999203818277
 20
6.499999909101064
 11
-7.999999021366804
 21
5.633876130311293
  0
LINE
  8
0
  6
CONTINUOUS
 62
3
 10
-7.499997911632022
 20
-6.499999445138201
 11
-7.999998623386432
 21
-5.634070287011241
  0
LINE
  8
0
  6
CONTINUOUS
 62
3
 10
-7.499999046325684
 20
6.500000000000000
 11
-7.499999046325684
 21
-6.500000000000000
  0
ENDBLK
  8
0
  0
BLOCK
  8
0
  2
SYM22
 70
64
 10
0.000000000000000
 20
0.000000000000000
  0
POINT
  8
0
  6
CONTINUOUS
 62
3
 10
0.000000000000000
 20
0.000000000000000
  0
LINE
  8
0
  6
CONTINUOUS
 62
3
 10
0.000000000000000
 20
-6.500000000000000
 11
-0.000000000000000
 21
6.500000000000000
  0
LINE
  8
0
  6
CONTINUOUS
 62
3
 10
-7.999999046325684
 20
5.633875846862793
 11
-7.999999046325684
 21
-5.634070396423340
  0
LINE
  8
0
  6
CONTINUOUS
 62
3
 10
0.000000000000000
 20
6.500000000000000
 11
-7.499999046325684
 21
6.500000000000000
  0
LINE
  8
0
  6
CONTINUOUS
 62
3
 10
-0.000000000000000
 20
-6.500000000000000
 11
-7.499998092651367
 21
-6.500000000000000
  0
LINE
  8
0
  6
CONTINUOUS
 62
3
 10
-7.499999203818277
 20
6.499999909101064
 11
-7.999999021366804
 21
5.633876130311293
  0
LINE
  8
0
  6
CONTINUOUS
 62
3
 10
-7.499997911632022
 20
-6.499999445138201
 11
-7.999998623386432
 21
-5.634070287011241
  0
LINE
  8
0
  6
CONTINUOUS
 62
3
 10
-7.499999046325684
 20
6.500000000000000
 11
-7.499999046325684
 21
-6.500000000000000
  0
ENDBLK
  8
0
  0
BLOCK
  8
0
  2
SYM23
 70
64
 10
0.000000000000000
 20
0.000000000000000
  0
POINT
  8
0
  6
CONTINUOUS
 62
3
 10
0.000000000000000
 20
0.000000000000000
  0
LINE
  8
0
  6
CONTINUOUS
 62
3
 10
0.000000000000000
 20
-6.500000000000000
 11
-0.000000000000000
 21
6.500000000000000
  0
LINE
  8
0
  6
CONTINUOUS
 62
3
 10
-7.999999046325684
 20
5.633875846862793
 11
-7.999999046325684
 21
-5.634070396423340
  0
LINE
  8
0
  6
CONTINUOUS
 62
3
 10
0.000000000000000
 20
6.500000000000000
 11
-7.499999046325684
 21
6.500000000000000
  0
LINE
  8
0
  6
CONTINUOUS
 62
3
 10
-0.000000000000000
 20
-6.500000000000000
 11
-7.499998092651367
 21
-6.500000000000000
  0
LINE
  8
0
  6
CONTINUOUS
 62
3
 10
-7.499999203818277
 20
6.499999909101064
 11
-7.999999021366804
 21
5.633876130311293
  0
LINE
  8
0
  6
CONTINUOUS
 62
3
 10
-7.499997911632022
 20
-6.499999445138201
 11
-7.999998623386432
 21
-5.634070287011241
  0
LINE
  8
0
  6
CONTINUOUS
 62
3
 10
-7.499999046325684
 20
6.500000000000000
 11
-7.499999046325684
 21
-6.500000000000000
  0
ENDBLK
  8
0
  0
BLOCK
  8
0
  2
SYM24
 70
64
 10
0.000000000000000
 20
0.000000000000000
  0
ARC
  8
0
  6
CONTINUOUS
 62
3
 10
1.981662750244141
 20
-0.000008163610801
 40
5.981661796569824
 50
150.999363302540700
 51
209.000072979481700
  0
ARC
  8
0
  6
CONTINUOUS
 62
3
 10
-2.269982337951660
 20
4.325008392333984
 40
1.729999542236328
 50
179.999745461767870
 51
235.499786279783790
  0
ARC
  8
0
  6
CONTINUOUS
 62
3
 10
-2.270017623901367
 20
-4.324990272521973
 40
1.729999542236328
 50
124.499759285265280
 51
179.999745461767870
  0
LINE
  8
0
  6
CONTINUOUS
 62
3
 10
-3.249984168999890
 20
2.900012016287064
 11
0.000013133145058
 21
2.899999618522375
  0
LINE
  8
0
  6
CONTINUOUS
 62
3
 10
-3.250009052584916
 20
-2.899986267083180
 11
-0.000013285950788
 21
-2.899999618524636
  0
LINE
  8
0
  6
CONTINUOUS
 62
3
 10
0.000023687533422
 20
5.749999046325684
 11
-0.000023687533422
 21
-5.749999046325684
  0
LINE
  8
0
  6
CONTINUOUS
 62
3
 10
-3.249972343459831
 20
5.750005722029982
 11
0.000027906669402
 21
5.749993324257003
  0
LINE
  8
0
  6
CONTINUOUS
 62
3
 10
-3.999972830514309
 20
4.900008662670757
 11
-3.249970339875063
 21
5.750006850331147
  0
LINE
  8
0
  6
CONTINUOUS
 62
3
 10
-4.000014781949545
 20
-4.899978112209579
 11
-3.999973773958658
 21
4.900011588107803
  0
LINE
  8
0
  6
CONTINUOUS
 62
3
 10
-3.250024308998832
 20
-5.749987011620533
 11
-4.000020133420207
 21
-4.899982163000686
  0
LINE
  8
0
  6
CONTINUOUS
 62
3
 10
-0.000027060931608
 20
-5.749995231614290
 11
-3.250020760774497
 21
-5.749981880178368
  0
POINT
  8
0
  6
CONTINUOUS
 62
3
 10
0.000000000000000
 20
0.000000000000000
  0
ENDBLK
  8
0
  0
BLOCK
  8
0
  2
SYM25
 70
64
 10
0.000000000000000
 20
0.000000000000000
  0
LINE
  8
0
  6
CONTINUOUS
 62
3
 10
-7.499999046325684
 20
6.500000000000000
 11
-7.499999046325684
 21
-6.500000000000000
  0
LINE
  8
0
  6
CONTINUOUS
 62
3
 10
-7.499997911632022
 20
-6.499999445138201
 11
-7.999998623386432
 21
-5.634070287011241
  0
LINE
  8
0
  6
CONTINUOUS
 62
3
 10
-7.499999203818277
 20
6.499999909101064
 11
-7.999999021366804
 21
5.633876130311293
  0
LINE
  8
0
  6
CONTINUOUS
 62
3
 10
-0.000000000000000
 20
-6.500000000000000
 11
-7.499998092651367
 21
-6.500000000000000
  0
LINE
  8
0
  6
CONTINUOUS
 62
3
 10
0.000000000000000
 20
6.500000000000000
 11
-7.499999046325684
 21
6.500000000000000
  0
LINE
  8
0
  6
CONTINUOUS
 62
3
 10
-7.999999046325684
 20
5.633875846862793
 11
-7.999999046325684
 21
-5.634070396423340
  0
LINE
  8
0
  6
CONTINUOUS
 62
3
 10
0.000000000000000
 20
-6.500000000000000
 11
-0.000000000000000
 21
6.500000000000000
  0
POINT
  8
0
  6
CONTINUOUS
 62
3
 10
0.000000000000000
 20
0.000000000000000
  0
ENDBLK
  8
0
  0
BLOCK
  8
0
  2
SYM26
 70
64
 10
0.000000000000000
 20
0.000000000000000
  0
LINE
  8
0
  6
CONTINUOUS
 62
3
 10
-7.499999046325684
 20
6.500000000000000
 11
-7.499999046325684
 21
-6.500000000000000
  0
LINE
  8
0
  6
CONTINUOUS
 62
3
 10
-7.499997911632022
 20
-6.499999445138201
 11
-7.999998623386432
 21
-5.634070287011241
  0
LINE
  8
0
  6
CONTINUOUS
 62
3
 10
-7.499999203818277
 20
6.499999909101064
 11
-7.999999021366804
 21
5.633876130311293
  0
LINE
  8
0
  6
CONTINUOUS
 62
3
 10
-0.000000000000000
 20
-6.500000000000000
 11
-7.499998092651367
 21
-6.500000000000000
  0
LINE
  8
0
  6
CONTINUOUS
 62
3
 10
0.000000000000000
 20
6.500000000000000
 11
-7.499999046325684
 21
6.500000000000000
  0
LINE
  8
0
  6
CONTINUOUS
 62
3
 10
-7.999999046325684
 20
5.633875846862793
 11
-7.999999046325684
 21
-5.634070396423340
  0
LINE
  8
0
  6
CONTINUOUS
 62
3
 10
0.000000000000000
 20
-6.500000000000000
 11
-0.000000000000000
 21
6.500000000000000
  0
POINT
  8
0
  6
CONTINUOUS
 62
3
 10
0.000000000000000
 20
0.000000000000000
  0
ENDBLK
  8
0
  0
BLOCK
  8
0
  2
SYM27
 70
64
 10
0.000000000000000
 20
0.000000000000000
  0
LINE
  8
0
  6
CONTINUOUS
 62
3
 10
-7.499999046325684
 20
6.500000000000000
 11
-7.499999046325684
 21
-6.500000000000000
  0
LINE
  8
0
  6
CONTINUOUS
 62
3
 10
-7.499997911632022
 20
-6.499999445138201
 11
-7.999998623386432
 21
-5.634070287011241
  0
LINE
  8
0
  6
CONTINUOUS
 62
3
 10
-7.499999203818277
 20
6.499999909101064
 11
-7.999999021366804
 21
5.633876130311293
  0
LINE
  8
0
  6
CONTINUOUS
 62
3
 10
-0.000000000000000
 20
-6.500000000000000
 11
-7.499998092651367
 21
-6.500000000000000
  0
LINE
  8
0
  6
CONTINUOUS
 62
3
 10
0.000000000000000
 20
6.500000000000000
 11
-7.499999046325684
 21
6.500000000000000
  0
LINE
  8
0
  6
CONTINUOUS
 62
3
 10
-7.999999046325684
 20
5.633875846862793
 11
-7.999999046325684
 21
-5.634070396423340
  0
LINE
  8
0
  6
CONTINUOUS
 62
3
 10
0.000000000000000
 20
-6.500000000000000
 11
-0.000000000000000
 21
6.500000000000000
  0
POINT
  8
0
  6
CONTINUOUS
 62
3
 10
0.000000000000000
 20
0.000000000000000
  0
ENDBLK
  8
0
  0
ENDSEC
  0
SECTION
  2
ENTITIES
  0
LINE
  8
0
  6
CONTINUOUS
 62
3
 10
-431.434287143614480
 20
-219.866983199842110
 11
-430.947483751908860
 21
-220.353786591547730
  0
LINE
  8
0
  6
CONTINUOUS
 62
3
 10
-438.081090617028170
 20
-226.513786673255850
 11
-437.594287225322550
 21
-227.000590064961440
  0
LINE
  8
0
  6
CONTINUOUS
 62
3
 10
-431.121148534645670
 20
-220.119530150692500
 11
-437.798247837118590
 21
-226.796629453165420
  0
LINE
  8
0
  6
CONTINUOUS
 62
3
 10
-431.434287143614480
 20
-219.866983199842110
 11
-438.081090617028170
 21
-226.513786673255850
  0
POINT
  8
0
  6
CONTINUOUS
 62
3
 10
-434.757688880321330
 20
-223.190384936548980
  0
ARC
  8
0
  6
CONTINUOUS
 62
3
 10
-437.020430445248340
 20
-220.927643371621940
 40
6.099999427795406
 50
264.601927898108500
 51
5.398089404735109
  0
LINE
  8
0
  6
CONTINUOUS
 62
3
 10
-541.460102026501320
 20
-219.866983199842110
 11
-541.946905418206940
 21
-220.353786591547730
  0
LINE
  8
0
  6
CONTINUOUS
 62
3
 10
-534.813298553087630
 20
-226.513786673255850
 11
-535.300101944793250
 21
-227.000590064961440
  0
LINE
  8
0
  6
CONTINUOUS
 62
3
 10
-541.773240635470070
 20
-220.119530150692500
 11
-535.096141332997150
 21
-226.796629453165420
  0
LINE
  8
0
  6
CONTINUOUS
 62
3
 10
-541.460102026501320
 20
-219.866983199842110
 11
-534.813298553087630
 21
-226.513786673255850
  0
POINT
  8
0
  6
CONTINUOUS
 62
3
 10
-538.136700289794480
 20
-223.190384936548980
  0
ARC
  8
0
  6
CONTINUOUS
 62
3
 10
-535.873958724867410
 20
-220.927643371621940
 40
6.099999427795398
 50
174.601910595264880
 51
275.398072101890420
  0
LINE
  8
0
  6
CONTINUOUS
 62
3
 10
-541.460102026501320
 20
-123.134775263782450
 11
-541.946905418206940
 21
-122.647971872076830
  0
LINE
  8
0
  6
CONTINUOUS
 62
3
 10
-534.813298553087630
 20
-116.487971790368740
 11
-535.300101944793250
 21
-116.001168398663120
  0
LINE
  8
0
  6
CONTINUOUS
 62
3
 10
-541.773240635470070
 20
-122.882228312932080
 11
-535.096141332997150
 21
-116.205129010459170
  0
LINE
  8
0
  6
CONTINUOUS
 62
3
 10
-541.460102026501320
 20
-123.134775263782450
 11
-534.813298553087630
 21
-116.487971790368740
  0
POINT
  8
0
  6
CONTINUOUS
 62
3
 10
-538.136700289794480
 20
-119.811373527075600
  0
ARC
  8
0
  6
CONTINUOUS
 62
3
 10
-535.873958724867410
 20
-122.074115092002640
 40
6.099999427795408
 50
84.601927898109551
 51
185.398089404735120
  0
LINE
  8
0
  6
CONTINUOUS
 62
3
 10
-431.434287143614480
 20
-123.134775263782450
 11
-430.947483751908860
 21
-122.647971872076830
  0
LINE
  8
0
  6
CONTINUOUS
 62
3
 10
-438.081090617028170
 20
-116.487971790368740
 11
-437.594287225322550
 21
-116.001168398663120
  0
LINE
  8
0
  6
CONTINUOUS
 62
3
 10
-431.121148534645670
 20
-122.882228312932080
 11
-437.798247837118590
 21
-116.205129010459170
  0
LINE
  8
0
  6
CONTINUOUS
 62
3
 10
-431.434287143614480
 20
-123.134775263782450
 11
-438.081090617028170
 21
-116.487971790368740
  0
POINT
  8
0
  6
CONTINUOUS
 62
3
 10
-434.757688880321330
 20
-119.811373527075600
  0
ARC
  8
0
  6
CONTINUOUS
 62
3
 10
-437.020430445248340
 20
-122.074115092002640
 40
6.099999427795398
 50
354.601910595264880
 51
95.398072101891515
  0
INSERT
  8
0
  2
SYM1
 10
34.552959800804274
 20
-264.801654773770220
  0
INSERT
  8
0
  2
SYM1
 10
34.552959800804274
 20
-155.200103689855470
  0
ARC
  8
0
  6
DASHDOT
 62
4
 10
507.556348033798260
 20
-170.000879231812860
 40
189.999999999999970
 50
217.765345563077860
 51
231.759041488419480
  0
ARC
  8
0
  6
DASHDOT
 62
4
 10
507.556348033798260
 20
-170.000879231812860
 40
189.999999999999910
 50
38.158851341618487
 51
51.697379200818425
  0
LINE
  8
0
  6
CONTINUOUS
 62
3
 10
-402.947194585057900
 20
-207.500879231812180
 11
-402.947194585057900
 21
-223.500879231808430
  0
LINE
  8
0
  6
CONTINUOUS
 62
3
 10
-416.896942053366730
 20
-135.500879231812180
 11
-385.006846311835600
 21
-103.610783490281500
  0
LINE
  8
0
  6
CONTINUOUS
 62
3
 10
-406.997447116755210
 20
-135.500879231812180
 11
-380.818992478441150
 21
-109.322424593498560
  0
ARC
  8
0
  6
CONTINUOUS
 62
3
 10
-426.266284154705890
 20
-137.799153521285580
 40
4.999999999999959
 50
312.239175315564640
 51
315.000000000000000
  0
ARC
  8
0
  6
CONTINUOUS
 62
3
 10
-364.447194585057450
 20
-214.000879231807970
 40
13.000000000000000
 50
90.000000000000000
 51
270.000000000000000
  0
ARC
  8
0
  6
CONTINUOUS
 62
3
 10
-449.574293659847290
 20
-200.388908956950440
 40
26.599999999999955
 50
315.000000000001020
 51
353.948014641331380
  0
ARC
  8
0
  6
CONTINUOUS
 62
3
 10
-449.574293659847510
 20
-142.612849506673910
 40
26.600000000000193
 50
6.051985358668552
 51
45.000000000000000
  0
ARC
  8
0
  6
CONTINUOUS
 62
3
 10
-722.047194585057810
 20
-171.500879231812180
 40
300.600000000000080
 50
353.948014641331500
 51
6.051985358668499
  0
LINE
  8
0
  6
CONTINUOUS
 62
3
 10
-423.102199644516870
 20
-140.000879231811950
 11
-422.947194585057900
 21
-140.000879231811950
  0
LINE
  8
0
  6
CONTINUOUS
 62
3
 10
-422.947194585057900
 20
-203.000879231812180
 11
-422.947194585057900
 21
-201.493378294078870
  0
LINE
  8
0
  6
CONTINUOUS
 62
3
 10
-422.947194585057900
 20
-141.508380169545260
 11
-422.947194585057900
 21
-140.000879231811950
  0
LINE
  8
0
  6
CONTINUOUS
 62
3
 10
-423.102199644516870
 20
-203.000879231812180
 11
-422.947194585057900
 21
-203.000879231812180
  0
LINE
  8
0
  6
DASHDOT
 62
4
 10
-662.517273650164160
 20
-171.500879231812180
 11
-309.656975722101950
 21
-171.500879231812180
  0
LINE
  8
0
  6
CONTINUOUS
 62
3
 10
-422.947194585057900
 20
-141.508380169545380
 11
-422.947194585057900
 21
-135.500879231812180
  0
LINE
  8
0
  6
CONTINUOUS
 62
3
 10
-422.947194585057900
 20
-201.493378294078980
 11
-422.947194585057900
 21
-207.500879231812180
  0
ARC
  8
0
  6
CONTINUOUS
 62
3
 10
-395.580529812115510
 20
-140.500879231812180
 40
5.000000000000131
 50
6.032049146369048
 51
90.000000000000000
  0
LINE
  8
0
  6
CONTINUOUS
 62
3
 10
-424.140891076137340
 20
-135.500879231812180
 11
-395.580529812115510
 21
-135.500879231812180
  0
LINE
  8
0
  6
CONTINUOUS
 62
3
 10
-424.140891076137340
 20
-207.500879231812180
 11
-395.580529812115510
 21
-207.500879231812180
  0
ARC
  8
0
  6
CONTINUOUS
 62
3
 10
-395.580529812115510
 20
-202.500879231812180
 40
5.000000000000000
 50
270.000000000000000
 51
353.967950853629650
  0
LINE
  8
0
  6
CONTINUOUS
 62
3
 10
-388.447194585057900
 20
-174.000879231812180
 11
-388.447194585057900
 21
-169.000879231812180
  0
LINE
  8
0
  6
CONTINUOUS
 62
3
 10
-388.947196442255630
 20
-169.000879231812180
 11
-388.447194585057900
 21
-169.000879231812180
  0
LINE
  8
0
  6
CONTINUOUS
 62
3
 10
-388.957611432575620
 20
-174.000879231812180
 11
-388.447194585057900
 21
-174.000879231812180
  0
ARC
  8
0
  6
CONTINUOUS
 62
3
 10
-688.947194585057900
 20
-171.500879231812290
 40
300.000000000000060
 50
353.967950853630210
 51
6.032049146369816
  0
ARC
  8
0
  6
CONTINUOUS
 62
3
 10
-182.947040199195500
 20
-206.500879231812180
 40
3.000000000000000
 50
180.000000000000000
 51
270.000000000000000
  0
LINE
  8
0
  6
CONTINUOUS
 62
3
 10
-185.947040199195500
 20
-206.500879231812180
 11
-185.947040199195500
 21
-171.500879231812180
  0
LINE
  8
0
  6
CONTINUOUS
 62
4
 10
-185.860703988192430
 20
-207.215416371986070
 11
-183.446637708705450
 21
-207.215416371986070
  0
LINE
  8
0
  6
CONTINUOUS
 62
4
 10
-185.947040199195500
 20
-201.783313558381450
 11
-183.747040199195790
 21
-201.783313558381450
  0
LINE
  8
0
  6
CONTINUOUS
 62
4
 10
-185.947040199195500
 20
-197.692813024291810
 11
-183.747040199195790
 21
-197.692813024291810
  0
LINE
  8
0
  6
CONTINUOUS
 62
4
 10
-185.947040199195500
 20
-196.330932688942540
 11
-183.747040199195790
 21
-196.330932688942540
  0
LINE
  8
0
  6
CONTINUOUS
 62
4
 10
-185.947040199195500
 20
-191.500879231812180
 11
-183.747040199195790
 21
-191.500879231812180
  0
LINE
  8
0
  6
CONTINUOUS
 62
4
 10
-185.947040199195500
 20
-141.218444905242900
 11
-183.747040199195790
 21
-141.218444905242900
  0
LINE
  8
0
  6
CONTINUOUS
 62
4
 10
-185.947040199195500
 20
-146.670825774681820
 11
-183.747040199195790
 21
-146.670825774681820
  0
LINE
  8
0
  6
CONTINUOUS
 62
4
 10
-185.947040199195500
 20
-145.308945439332550
 11
-183.747040199195790
 21
-145.308945439332550
  0
LINE
  8
0
  6
CONTINUOUS
 62
4
 10
-185.947040199195500
 20
-151.500879231812180
 11
-183.747040199195790
 21
-151.500879231812180
  0
LINE
  8
0
  6
CONTINUOUS
 62
4
 10
-185.860703988192430
 20
-135.786342091638350
 11
-183.446637708705450
 21
-135.786342091638350
  0
LINE
  8
0
  6
CONTINUOUS
 62
4
 10
-185.947040199195500
 20
-139.750087515437830
 11
-183.747040199195790
 21
-139.750087515437830
  0
ARC
  8
0
  6
CONTINUOUS
 62
3
 10
-182.947040199195500
 20
-136.500879231812230
 40
3.000000000000000
 50
90.000000000000000
 51
180.000000000000000
  0
LINE
  8
0
  6
CONTINUOUS
 62
3
 10
-178.947040199195610
 20
-133.500879231812230
 11
-182.947040199195500
 21
-133.500879231812230
  0
ARC
  8
0
  6
CONTINUOUS
 62
3
 10
-178.947040199195610
 20
-130.500879231812230
 40
3.000000000000000
 50
270.000000000000000
 51
0.000000000000000
  0
LINE
  8
0
  6
CONTINUOUS
 62
3
 10
-185.947040199195500
 20
-136.500879231812230
 11
-185.947040199195500
 21
-171.500879231812180
  0
ARC
  8
0
  6
CONTINUOUS
 62
3
 10
-94.747040199195794
 20
-136.500879231812230
 40
1.000000000000000
 50
0.000000000000000
 51
90.000000000000000
  0
LINE
  8
0
  6
CONTINUOUS
 62
3
 10
-93.747040199195794
 20
-136.500879231812230
 11
-93.747040199195794
 21
-206.500879231812180
  0
ARC
  8
0
  6
CONTINUOUS
 62
3
 10
-94.747040199195794
 20
-206.500879231812180
 40
1.000000000000000
 50
270.000000000000000
 51
0.000000000000000
  0
ARC
  8
0
  6
CONTINUOUS
 62
3
 10
-182.747040199195790
 20
-206.500879231812180
 40
1.000000000000000
 50
180.000000000000000
 51
270.000000000000000
  0
LINE
  8
0
  6
CONTINUOUS
 62
3
 10
-94.747040199195794
 20
-207.500879231812180
 11
-182.747040199195790
 21
-207.500879231812180
  0
LINE
  8
0
  6
CONTINUOUS
 62
3
 10
-183.747040199195790
 20
-136.500879231812230
 11
-183.747040199195790
 21
-206.500879231812180
  0
ARC
  8
0
  6
CONTINUOUS
 62
3
 10
-182.747040199195790
 20
-136.500879231812230
 40
1.000000000000000
 50
90.000000000000000
 51
180.000000000000000
  0
LINE
  8
0
  6
CONTINUOUS
 62
3
 10
-94.747040199195794
 20
-135.500879231812230
 11
-182.747040199195790
 21
-135.500879231812230
  0
LINE
  8
0
  6
CONTINUOUS
 62
3
 10
58.052959800822464
 20
-121.153366936483280
 11
58.052959800822464
 21
-92.657733481304376
  0
LINE
  8
0
  6
CONTINUOUS
 62
3
 10
61.314639582036762
 20
-125.727252375991830
 11
48.448287888337290
 21
-126.401549295733040
  0
LINE
  8
0
  6
CONTINUOUS
 62
3
 10
46.552959800823373
 20
-210.000879231812860
 11
46.552959800823373
 21
-128.398808365241850
  0
LINE
  8
0
  6
CONTINUOUS
 62
3
 10
46.552959800827011
 20
-210.000879231812860
 11
46.552959800827011
 21
-291.602950098382960
  0
LINE
  8
0
  6
CONTINUOUS
 62
3
 10
61.314639582036762
 20
-294.274506087632970
 11
48.448287888340928
 21
-293.600209167891760
  0
LINE
  8
0
  6
CONTINUOUS
 62
3
 10
54.052959800822464
 20
-296.740831276579910
 11
54.052959800822464
 21
-301.136107061153550
  0
LINE
  8
0
  6
CONTINUOUS
 62
3
 10
58.791280019608166
 20
-306.129254734926460
 11
61.314639582036762
 21
-306.261498405926200
  0
ARC
  8
0
  6
CONTINUOUS
 62
3
 10
48.552959800823373
 20
-128.398808365241850
 40
1.999999999999663
 50
93.000000000006111
 51
180.000000000000000
  0
ARC
  8
0
  6
CONTINUOUS
 62
3
 10
53.052959800822464
 20
-121.153366936483280
 40
5.000000000000018
 50
272.999999999995110
 51
0.000000000000000
  0
ARC
  8
0
  6
CONTINUOUS
 62
3
 10
44.552959800827011
 20
-134.000879231812860
 40
2.000000000000000
 50
270.000000000000000
 51
0.000000000000000
  0
ARC
  8
0
  6
CONTINUOUS
 62
3
 10
48.552959800827011
 20
-291.602950098382960
 40
2.000000000000000
 50
180.000000000000000
 51
266.999999999993860
  0
ARC
  8
0
  6
CONTINUOUS
 62
3
 10
44.552959800827011
 20
-286.000879231811950
 40
2.000000000000000
 50
0.000000000000000
 51
90.000000000000000
  0
ARC
  8
0
  6
CONTINUOUS
 62
3
 10
59.052959800822464
 20
-301.136107061153550
 40
5.000000000000000
 50
180.000000000000000
 51
267.000000000004890
  0
ARC
  8
0
  6
CONTINUOUS
 62
3
 10
51.052959800822464
 20
-296.740831276579910
 40
3.000000000000000
 50
0.000000000000000
 51
86.999999999994799
  0
LINE
  8
0
  6
CONTINUOUS
 62
4
 10
-175.947040199195610
 20
-221.816413418587670
 11
-26.947040199195726
 21
-221.816413418587670
  0
LINE
  8
0
  6
CONTINUOUS
 62
4
 10
-175.947040199195610
 20
-216.866665950281910
 11
-26.947040199195726
 21
-216.866665950281910
  0
LINE
  8
0
  6
CONTINUOUS
 62
4
 10
-184.850032757575720
 20
-208.820064287548120
 11
-26.947040199195726
 21
-208.820064287548120
  0
LINE
  8
0
  6
CONTINUOUS
 62
4
 10
-93.747040199195794
 20
-203.251670948186530
 11
-26.947040199195726
 21
-203.251670948186530
  0
LINE
  8
0
  6
CONTINUOUS
 62
4
 10
-93.747040199195794
 20
-141.218444905242900
 11
-26.947040199195726
 21
-141.218444905242900
  0
LINE
  8
0
  6
CONTINUOUS
 62
4
 10
-93.747040199195794
 20
-196.330932688942540
 11
-26.947040199195726
 21
-196.330932688942540
  0
LINE
  8
0
  6
CONTINUOUS
 62
4
 10
-93.747040199195794
 20
-201.783313558381450
 11
-26.947040199195726
 21
-201.783313558381450
  0
LINE
  8
0
  6
CONTINUOUS
 62
4
 10
-93.747040199195794
 20
-146.670825774681820
 11
-26.947040199195726
 21
-146.670825774681820
  0
LINE
  8
0
  6
CONTINUOUS
 62
4
 10
-93.747040199195794
 20
-191.500879231812180
 11
-26.947040199195726
 21
-191.500879231812180
  0
LINE
  8
0
  6
CONTINUOUS
 62
4
 10
-93.747040199195794
 20
-197.692813024291810
 11
-26.947040199195726
 21
-197.692813024291810
  0
LINE
  8
0
  6
CONTINUOUS
 62
4
 10
-93.747040199195794
 20
-145.308945439332550
 11
-26.947040199195726
 21
-145.308945439332550
  0
LINE
  8
0
  6
CONTINUOUS
 62
4
 10
-93.747040199195794
 20
-151.500879231812180
 11
-26.947040199195726
 21
-151.500879231812180
  0
LINE
  8
0
  6
CONTINUOUS
 62
4
 10
-175.947040199195610
 20
-114.500879231812230
 11
-26.947040199195726
 21
-114.500879231812230
  0
LINE
  8
0
  6
CONTINUOUS
 62
4
 10
-175.947040199195610
 20
-114.000879231812230
 11
-26.947040199195726
 21
-114.000879231812230
  0
LINE
  8
0
  6
CONTINUOUS
 62
4
 10
-175.947040199195610
 20
-115.500879231812230
 11
-26.947040199195726
 21
-115.500879231812230
  0
LINE
  8
0
  6
CONTINUOUS
 62
4
 10
-175.947040199195610
 20
-116.500879231812230
 11
-26.947040199195726
 21
-116.500879231812230
  0
LINE
  8
0
  6
CONTINUOUS
 62
4
 10
-175.947040199195610
 20
-121.185345045036740
 11
-26.947040199195726
 21
-121.185345045036740
  0
LINE
  8
0
  6
CONTINUOUS
 62
4
 10
-175.947040199195610
 20
-126.135092513342490
 11
-26.947040199195726
 21
-126.135092513342490
  0
LINE
  8
0
  6
CONTINUOUS
 62
4
 10
-184.850032757575720
 20
-134.181694176076290
 11
-26.947040199195726
 21
-134.181694176076290
  0
LINE
  8
0
  6
CONTINUOUS
 62
3
 10
-26.947040199195726
 20
-113.000879231812230
 11
-175.947040199195610
 21
-113.000879231812230
  0
LINE
  8
0
  6
CONTINUOUS
 62
4
 10
-175.947040199195610
 20
-229.000879231812180
 11
-26.947040199195726
 21
-229.000879231812180
  0
LINE
  8
0
  6
CONTINUOUS
 62
4
 10
-175.947040199195610
 20
-228.500879231812180
 11
-26.947040199195726
 21
-228.500879231812180
  0
LINE
  8
0
  6
CONTINUOUS
 62
4
 10
-175.947040199195610
 20
-227.500879231812180
 11
-26.947040199195726
 21
-227.500879231812180
  0
LINE
  8
0
  6
CONTINUOUS
 62
4
 10
-175.947040199195610
 20
-226.500879231812180
 11
-26.947040199195726
 21
-226.500879231812180
  0
LINE
  8
0
  6
DASHDOT
 62
4
 10
-2.547809064879402
 20
-171.500879231812180
 11
-288.876252737542250
 21
-171.500879231812180
  0
LINE
  8
0
  6
CONTINUOUS
 62
3
 10
-26.947040199195726
 20
-230.000879231812180
 11
-175.947040199195610
 21
-230.000879231812180
  0
LINE
  8
0
  6
CONTINUOUS
 62
4
 10
-93.747040199195794
 20
-139.750087515437830
 11
-26.947040199195726
 21
-139.750087515437830
  0
LINE
  8
0
  6
CONTINUOUS
 62
4
 10
-94.047442689685909
 20
-135.786342091638350
 11
-26.947040199195726
 21
-135.786342091638350
  0
LINE
  8
0
  6
CONTINUOUS
 62
4
 10
-94.047442689686136
 20
-207.215416371986070
 11
-26.947040199195726
 21
-207.215416371986070
  0
INSERT
  8
0
  2
SYM2
 10
66.052959800822464
 20
-238.000879231811950
  0
INSERT
  8
0
  2
SYM3
 10
66.052959800822521
 20
-148.000880044705470
  0
LINE
  8
0
  6
CONTINUOUS
 62
3
 10
37.448261310696807
 20
-293.252777693530960
 11
44.552959800804274
 21
-293.500879231812350
  0
ARC
  8
0
  6
CONTINUOUS
 62
3
 10
29.552959800804274
 20
-290.395052459093850
 40
5.000000000000000
 50
0.000000000000000
 51
41.496847105758341
  0
POINT
  8
0
  6
CONTINUOUS
 62
3
 10
34.552959800804274
 20
-288.500879231812350
  0
ARC
  8
0
  6
CONTINUOUS
 62
3
 10
37.552959800804274
 20
-290.254605212473680
 40
3.000000000000000
 50
180.000000000000000
 51
268.000000000000680
  0
LINE
  8
0
  6
CONTINUOUS
 62
3
 10
34.552959800804274
 20
-277.793116315964820
 11
34.552959800804274
 21
-290.254605212473680
  0
ARC
  8
0
  6
CONTINUOUS
 62
3
 10
1.729406138453442
 20
-249.644432552963000
 40
3.000000000000004
 50
36.807809254663752
 51
90.000000000000000
  0
LINE
  8
0
  6
CONTINUOUS
 62
3
 10
8.211836820178178
 20
-246.644432552963000
 11
30.243984457870283
 21
-246.644432552963000
  0
LINE
  8
0
  6
CONTINUOUS
 62
3
 10
34.552959800804274
 20
-288.500879231812350
 11
4.131355293259276
 21
-247.847034361763410
  0
LINE
  8
0
  6
CONTINUOUS
 62
3
 10
0.552959800804274
 20
-242.370595032969900
 11
0.552959800804274
 21
-215.697901656080320
  0
ARC
  8
0
  6
CONTINUOUS
 62
3
 10
5.552959800803251
 20
-248.172435357777150
 40
5.000000000000000
 50
180.000000000000000
 51
267.999999999998920
  0
LINE
  8
0
  6
CONTINUOUS
 62
3
 10
8.187522092157565
 20
-253.267484021759340
 11
5.378462317290655
 21
-253.169389492872540
  0
LINE
  8
0
  6
CONTINUOUS
 62
3
 10
0.552959800803251
 20
-248.172435357777150
 11
0.552959800803364
 21
-242.370595032970130
  0
LINE
  8
0
  6
CONTINUOUS
 62
3
 10
-26.947040199195726
 20
-230.000879231812350
 11
-26.947040199195726
 21
-113.000879231811890
  0
LINE
  8
0
  6
CONTINUOUS
 62
3
 10
-3.074610263293835
 20
-225.367398088356770
 11
-26.947040199195726
 21
-225.367398088356770
  0
ARC
  8
0
  6
CONTINUOUS
 62
3
 10
-2.447040199195726
 20
-234.288986862242100
 40
3.000000000000000
 50
0.000000000000000
 51
86.999999999996518
  0
ARC
  8
0
  6
CONTINUOUS
 62
3
 10
-2.447040199195726
 20
-215.697901656080320
 40
3.000000000000000
 50
0.000000000000000
 51
90.000000000000000
  0
LINE
  8
0
  6
CONTINUOUS
 62
3
 10
-26.947040199195726
 20
-212.697901656080320
 11
-2.447040199195726
 21
-212.697901656080320
  0
ARC
  8
0
  6
CONTINUOUS
 62
3
 10
-4.447040199196636
 20
-242.370595032969900
 40
5.000000000000000
 50
359.999999999997390
 51
88.000000000000227
  0
ARC
  8
0
  6
CONTINUOUS
 62
3
 10
-11.947040199197204
 20
-234.103812907391050
 40
3.000000000000000
 50
180.000000000000000
 51
267.999999999998520
  0
LINE
  8
0
  6
CONTINUOUS
 62
3
 10
-2.290032330466715
 20
-231.293098257978440
 11
-26.947040199199478
 21
-230.000879231812350
  0
LINE
  8
0
  6
CONTINUOUS
 62
3
 10
-14.947040199197204
 20
-234.103812907391050
 11
-14.947040199197204
 21
-233.476666283353950
  0
LINE
  8
0
  6
CONTINUOUS
 62
3
 10
-4.272542715684153
 20
-237.373640897874510
 11
-12.051738689304784
 21
-237.101985388448330
  0
ARC
  8
0
  6
CONTINUOUS
 62
3
 10
-17.947040199197204
 20
-233.476666283353950
 40
3.000000000000000
 50
0.000000000000000
 51
86.999999999996518
  0
ARC
  8
0
  6
CONTINUOUS
 62
3
 10
31.552959800804274
 20
-194.500879231816210
 40
3.000000000000000
 50
0.000000000000000
 51
90.000000000000000
  0
LINE
  8
0
  6
CONTINUOUS
 62
3
 10
31.552959800804274
 20
-191.500879231816210
 11
-26.947040199195726
 21
-191.500879231816210
  0
ARC
  8
0
  6
CONTINUOUS
 62
3
 10
31.552959800804274
 20
-172.000879231812350
 40
3.000000000000227
 50
270.000000000000000
 51
0.000000000000000
  0
ARC
  8
0
  6
CONTINUOUS
 62
3
 10
-2.947040199197545
 20
-170.000879231812580
 40
5.000000000000000
 50
179.999999999997410
 51
270.000000000000000
  0
LINE
  8
0
  6
CONTINUOUS
 62
3
 10
31.552959800804274
 20
-175.000879231812580
 11
-2.947040199197545
 21
-175.000879231812580
  0
LINE
  8
0
  6
CONTINUOUS
 62
3
 10
44.552959800804274
 20
-139.000879231812800
 11
44.552959800804274
 21
-293.500879231812350
  0
LINE
  8
0
  6
CONTINUOUS
 62
3
 10
44.552959800804274
 20
-126.500879231812460
 11
44.552959800804274
 21
-139.000879231812800
  0
ARC
  8
0
  6
CONTINUOUS
 62
3
 10
29.552959800804274
 20
-139.000879231812800
 40
5.000000000000000
 50
270.000000000000000
 51
0.000000000000000
  0
ARC
  8
0
  6
CONTINUOUS
 62
3
 10
29.694842978053430
 20
-128.000879231812460
 40
4.999999999999886
 50
270.000000000000000
 51
349.193077125139720
  0
ARC
  8
0
  6
CONTINUOUS
 62
3
 10
37.552959800804274
 20
-129.500879231812460
 40
3.000000000000000
 50
90.000000000000000
 51
180.000000000000000
  0
LINE
  8
0
  6
CONTINUOUS
 62
3
 10
37.552959800804274
 20
-126.500879231812460
 11
44.552959800804274
 21
-126.500879231812460
  0
LINE
  8
0
  6
CONTINUOUS
 62
3
 10
34.552959800804274
 20
-129.500879231812460
 11
34.552959800804274
 21
-277.793116315964820
  0
LINE
  8
0
  6
DASHDOT
 62
4
 10
14.552959800804274
 20
-151.826767260133410
 11
14.552959800804274
 21
-129.105088962716140
  0
LINE
  8
0
  6
CONTINUOUS
 62
3
 10
-7.947040199196863
 20
-151.500879231816210
 11
-26.947040199195726
 21
-151.500879231816210
  0
LINE
  8
0
  6
CONTINUOUS
 62
3
 10
29.694842978053430
 20
-133.000879231812350
 11
-2.947040199195840
 21
-133.000879231812350
  0
LINE
  8
0
  6
CONTINUOUS
 62
3
 10
29.552959800804274
 20
-144.000879231812800
 11
-2.947040199196294
 21
-144.000879231812800
  0
ARC
  8
0
  6
CONTINUOUS
 62
3
 10
-12.947040199195385
 20
-117.274032051839240
 40
5.000000000000000
 50
359.999999999997390
 51
93.000000000000355
  0
LINE
  8
0
  6
CONTINUOUS
 62
3
 10
-7.947040199195840
 20
-128.000879231812230
 11
-7.947040199195385
 21
-117.274032051839470
  0
LINE
  8
0
  6
CONTINUOUS
 62
3
 10
-13.208719980410137
 20
-112.280884378066330
 11
-26.947040199195726
 21
-113.000879231812230
  0
ARC
  8
0
  6
CONTINUOUS
 62
3
 10
-2.947040199195840
 20
-128.000879231812460
 40
5.000000000000000
 50
179.999999999998690
 51
270.000000000000000
  0
LINE
  8
0
  6
CONTINUOUS
 62
3
 10
-7.947040199197545
 20
-170.000879231812350
 11
-7.947040199195840
 21
-128.000879231812230
  0
ARC
  8
0
  6
CONTINUOUS
 62
3
 10
-2.947040199196294
 20
-139.000879231812800
 40
5.000000000000000
 50
179.999999999994770
 51
270.000000000000000
  0
LINE
  8
0
  6
CONTINUOUS
 62
3
 10
642.399775756472080
 20
-166.500879231812860
 11
580.266388605922880
 21
-166.500879231812860
  0
LINE
  8
0
  6
CONTINUOUS
 62
3
 10
642.399775756472080
 20
-173.500879231812860
 11
580.266388605922880
 21
-173.500879231812860
  0
ARC
  8
0
  6
CONTINUOUS
 62
3
 10
580.266388605922880
 20
-163.500879231812860
 40
3.000000000000029
 50
185.108444450886450
 51
270.000000000000000
  0
ARC
  8
0
  6
CONTINUOUS
 62
3
 10
580.266388605922880
 20
-176.500879231812860
 40
3.000000000000000
 50
90.000000000000000
 51
174.891555549113520
  0
ARC
  8
0
  6
CONTINUOUS
 62
3
 10
532.587580585061690
 20
-175.639049907129450
 40
107.308449038694430
 50
7.943216783021247
 51
87.075476210271674
  0
ARC
  8
0
  6
CONTINUOUS
 62
3
 10
570.382395640933280
 20
-219.527515924263750
 40
10.000000000000112
 50
141.750801860498630
 51
236.987251938307910
  0
ARC
  8
0
  6
DASHED
 62
3
 10
591.278266013283660
 20
-145.543379231812080
 40
18.799999999999933
 50
35.808626813495749
 51
85.126025186157264
  0
ARC
  8
0
  6
DASHED
 62
3
 10
587.452511379196720
 20
-125.098242854674360
 40
1.999999999999958
 50
280.598785266065990
 51
2.862405226112724
  0
ARC
  8
0
  6
DASHED
 62
3
 10
593.045524476912530
 20
-124.818592199788550
 40
1.999999999999927
 50
182.862405226112710
 51
265.126025186159040
  0
LINE
  8
0
  6
DASHED
 62
3
 10
590.579139376069180
 20
-115.540858971921690
 11
588.981135633864600
 21
-115.620759159031870
  0
ARC
  8
0
  6
DASHED
 62
3
 10
591.278266013283660
 20
-145.543379231812080
 40
18.799999999999983
 50
100.598785266066050
 51
180.000000000000000
  0
LINE
  8
0
  6
DASHED
 62
3
 10
572.478266013283700
 20
-185.543379231812080
 11
572.478266013283700
 21
-145.543379231812080
  0
ARC
  8
0
  6
DASHED
 62
3
 10
593.278266013283660
 20
-185.543379231812080
 40
20.799999999999955
 50
180.000000000000000
 51
265.808273843992540
  0
LINE
  8
0
  6
DASHED
 62
3
 10
588.981135633864600
 20
-115.620759159031870
 11
594.074772562141560
 21
-217.493497724572650
  0
LINE
  8
0
  6
DASHED
 62
3
 10
590.579139376069180
 20
-115.540858971921690
 11
595.672776304346140
 21
-217.413597537461670
  0
LINE
  8
0
  6
DASHED
 62
3
 10
594.074772562141560
 20
-217.493497724572650
 11
595.672776304346140
 21
-217.413597537461670
  0
ARC
  8
0
  6
DASHED
 62
3
 10
597.204731844615940
 20
-208.002739553855580
 40
1.999999999999995
 50
99.916536608232732
 51
182.862405226112400
  0
ARC
  8
0
  6
DASHED
 62
3
 10
591.611718746900120
 20
-208.282390208741390
 40
1.999999999999927
 50
2.862405226112724
 51
85.808273843998350
  0
ARC
  8
0
  6
DASHED
 62
3
 10
593.278266013283660
 20
-185.543379231812080
 40
20.800000000000040
 50
279.916536608230560
 51
334.359929784105190
  0
ARC
  8
0
  6
DASHED
 62
3
 10
591.278266013283660
 20
-145.543379231812080
 40
18.799999999999837
 50
5.724810452223617
 51
35.808626813495749
  0
LINE
  8
0
  6
DASHED
 62
3
 10
613.974525364904590
 20
-183.468566264231070
 11
609.984500427248580
 21
-143.668067511113800
  0
ARC
  8
0
  6
DASHED
 62
3
 10
593.278266013283660
 20
-185.543379231812080
 40
20.799999999999926
 50
334.359929784105190
 51
5.724810452223396
  0
LINE
  8
0
  6
DASHED
 62
3
 10
444.056348033798540
 20
-206.000879231812090
 11
444.056348033798540
 21
-207.500879231812090
  0
LINE
  8
0
  6
DASHDOT
 62
4
 10
690.871035014150490
 20
-170.000879231812860
 11
331.926112165298550
 21
-170.000879231812860
  0
LINE
  8
0
  6
CONTINUOUS
 62
3
 10
372.712920311124490
 20
-173.500879231812860
 11
434.846307461673690
 21
-173.500879231812860
  0
LINE
  8
0
  6
CONTINUOUS
 62
3
 10
372.712920311124490
 20
-166.500879231812860
 11
434.846307461673690
 21
-166.500879231812860
  0
LINE
  8
0
  6
DASHDOT
 62
4
 10
447.659755016849720
 20
-171.500879231812060
 11
562.350211791589350
 21
-171.500879231812060
  0
ARC
  8
0
  6
CONTINUOUS
 62
3
 10
437.607638683220160
 20
-208.823270453739500
 40
10.000000000000089
 50
293.824470809970080
 51
29.030811683541202
  0
CIRCLE
  8
0
  6
CONTINUOUS
 62
3
 10
507.556348033798260
 20
-170.000879231812860
 40
70.000000000000000
  0
ARC
  8
0
  6
CONTINUOUS
 62
3
 10
434.846307461673690
 20
-176.500879231812860
 40
3.000000000000029
 50
5.108444450886473
 51
90.000000000000000
  0
ARC
  8
0
  6
CONTINUOUS
 62
3
 10
434.846307461673690
 20
-163.500879231812860
 40
3.000000000000000
 50
270.000000000000000
 51
354.891555549113550
  0
ARC
  8
0
  6
CONTINUOUS
 62
3
 10
434.478884862831420
 20
-202.553672913706810
 40
9.999999999999854
 50
294.115030123906250
 51
24.010868112054702
  0
ARC
  8
0
  6
CONTINUOUS
 62
3
 10
461.035928732734190
 20
-261.880929894727390
 40
55.000000000000114
 50
114.115030123906930
 51
159.806925700099980
  0
LINE
  8
0
  6
DASHED
 62
3
 10
449.056348033798540
 20
-192.000879231812090
 11
447.756348033798590
 21
-192.000879231812090
  0
LINE
  8
0
  6
DASHED
 62
3
 10
449.056348033798540
 20
-192.000879231812090
 11
449.056348033798540
 21
-207.500879231812090
  0
ARC
  8
0
  6
DASHED
 62
3
 10
447.756348033798590
 20
-191.800879231812050
 40
0.200000000000045
 50
180.000000000000000
 51
270.000000000000000
  0
ARC
  8
0
  6
DASHED
 62
3
 10
447.756348033798590
 20
-191.800879231812050
 40
0.200000000000045
 50
180.000000000000000
 51
270.000000000000000
  0
LINE
  8
0
  6
DASHED
 62
3
 10
447.556348033798540
 20
-151.000879231812090
 11
447.556348033798540
 21
-191.800879231812050
  0
LINE
  8
0
  6
DASHED
 62
3
 10
444.056348033798540
 20
-207.500879231812090
 11
444.056348033798540
 21
-135.500879231812090
  0
LINE
  8
0
  6
DASHED
 62
3
 10
449.056348033798540
 20
-207.500879231812090
 11
416.689683260855930
 21
-207.500879231812090
  0
ARC
  8
0
  6
DASHED
 62
3
 10
416.689683260855930
 20
-202.500879231812090
 40
4.999999999999917
 50
186.032049146370610
 51
270.000000000000000
  0
ARC
  8
0
  6
DASHED
 62
3
 10
710.056348033798490
 20
-171.500879231812090
 40
300.000000000000000
 50
173.967950853630190
 51
186.032049146369810
  0
LINE
  8
0
  6
DASHED
 62
3
 10
410.056349890996050
 20
-169.000879231812090
 11
409.556348033798540
 21
-169.000879231812090
  0
LINE
  8
0
  6
DASHED
 62
3
 10
409.556348033798540
 20
-174.000879231812090
 11
409.556348033798540
 21
-169.000879231812090
  0
LINE
  8
0
  6
DASHED
 62
3
 10
410.066764881316260
 20
-174.000879231812090
 11
409.556348033798540
 21
-174.000879231812090
  0
ARC
  8
0
  6
DASHED
 62
3
 10
416.689683260855930
 20
-140.500879231812090
 40
5.000000000000000
 50
90.000000000000000
 51
173.967950853629390
  0
LINE
  8
0
  6
DASHED
 62
3
 10
449.056348033798540
 20
-135.500879231812090
 11
416.689683260855930
 21
-135.500879231812090
  0
LINE
  8
0
  6
DASHED
 62
3
 10
449.056348033798540
 20
-151.000879231812090
 11
447.556348033798540
 21
-151.000879231812090
  0
LINE
  8
0
  6
DASHED
 62
3
 10
449.056348033798540
 20
-151.000879231812090
 11
449.056348033798540
 21
-135.500879231812090
  0
TEXT
  8
0
  6
CONTINUOUS
 62
3
 10
-531.111083984375000
 20
225.954360961914060
 40
13.590719223022461
  1
Ｓ２０８
 50
0.000002504478167
 41
0.984848654959993
  7
STANDARD1
  0
TEXT
  8
0
  6
CONTINUOUS
 62
3
 10
-531.111083984375000
 20
204.126846313476560
 40
13.590719223022461
  1
三菱ギヤードモートル
 50
0.000002504478167
 41
0.984848654959993
  7
STANDARD1
  0
TEXT
  8
0
  6
CONTINUOUS
 62
3
 10
-531.111083984375000
 20
182.299316406250000
 40
13.590719223022461
  1
ＧＭ－ＳＦＳＢ
 50
0.000002504478167
 41
0.984848654959992
  7
STANDARD1
  0
TEXT
  8
0
  6
CONTINUOUS
 62
3
 10
-531.111083984375000
 20
160.471801757812500
 40
13.590719223022461
  1
０．４ｋＷ
 50
0.000002504478167
 41
0.984848654959993
  7
STANDARD1
  0
TEXT
  8
0
  6
CONTINUOUS
 62
3
 10
-531.111083984375000
 20
138.644271850585940
 40
13.590719223022461
  1
１／１２００
 50
0.000002504478167
 41
0.984848654959993
  7
STANDARD1
  0
TEXT
  8
0
  6
CONTINUOUS
 62
3
 10
-531.111083984375000
 20
116.816757202148430
 40
13.590719223022461
  1
ＳＣＡＬＥ１／１
 50
0.000002504478167
 41
0.984848654959993
  7
STANDARD1
  0
LINE
  8
0
  6
DASHDOT
 62
4
 10
-516.760036861918370
 20
-170.000879231808430
 11
-455.608724546110920
 21
-170.000879231808430
  0
LINE
  8
0
  6
DASHDOT
 62
4
 10
-486.447194585057900
 20
7.693030127512088
 11
-486.447194585057900
 21
-356.501494360193990
  0
ARC
  8
0
  6
CONTINUOUS
 62
4
 10
-486.447194585057900
 20
-412.100879231812090
 40
289.396999999999930
 50
90.000000000000000
 51
97.897988672427743
  0
ARC
  8
0
  6
CONTINUOUS
 62
4
 10
-525.388712540440000
 20
-131.392101691225430
 40
5.999999999999923
 50
97.897988672425626
 51
134.999999999996930
  0
LINE
  8
0
  6
CONTINUOUS
 62
4
 10
-529.631353227559090
 20
-127.149461004105880
 11
-534.207418620197700
 21
-131.725526396744500
  0
ARC
  8
0
  6
CONTINUOUS
 62
4
 10
-250.847194585057990
 20
-171.500879231812180
 40
289.396999999999930
 50
173.948014641331470
 51
180.000000000000000
  0
ARC
  8
0
  6
CONTINUOUS
 62
3
 10
-530.395782015340390
 20
-121.404264764283880
 40
6.599999999999971
 50
98.597082237248614
 51
134.999999999998610
  0
ARC
  8
0
  6
CONTINUOUS
 62
3
 10
-490.447194585057900
 20
-142.778065999121740
 40
1.499999999999998
 50
277.928141766204020
 51
0.000000000000000
  0
ARC
  8
0
  6
CONTINUOUS
 62
3
 10
-486.447194585057450
 20
-171.500879231812180
 40
33.499999999999950
 50
97.180755781459069
 51
142.819244218541740
  0
ARC
  8
0
  6
CONTINUOUS
 62
3
 10
-486.447194585057450
 20
-171.500879231812180
 40
43.000000000000043
 50
95.531071524839788
 51
144.468928475160770
  0
ARC
  8
0
  6
CONTINUOUS
 62
3
 10
-486.447194585057450
 20
-171.500879231812180
 40
37.000000000000099
 50
95.963570118321798
 51
144.036429881678830
  0
ARC
  8
0
  6
CONTINUOUS
 62
3
 10
-509.321880512723620
 20
-153.675371000329050
 40
1.499999999999926
 50
239.999999999998410
 51
322.071858233800300
  0
ARC
  8
0
  6
CONTINUOUS
 62
3
 10
-511.942648754792460
 20
-152.162269750286900
 40
1.500000000000103
 50
142.819244218542510
 51
239.999999999998410
  0
ARC
  8
0
  6
CONTINUOUS
 62
3
 10
-517.608731039208690
 20
-148.890955618128600
 40
1.500000000000123
 50
240.000000000002730
 51
324.036429881683720
  0
LINE
  8
0
  6
CONTINUOUS
 62
3
 10
-510.071880512723620
 20
-154.974409106005620
 11
-512.692648754792460
 21
-153.461307855963470
  0
LINE
  8
0
  6
CONTINUOUS
 62
3
 10
-518.358731039208690
 20
-150.189993723805400
 11
-520.969914638192790
 21
-148.682426170028290
  0
ARC
  8
0
  6
CONTINUOUS
 62
3
 10
-520.219914638192790
 20
-147.383388064351490
 40
1.499999999999976
 50
144.468928475160790
 51
240.000000000002730
  0
ARC
  8
0
  6
CONTINUOUS
 62
3
 10
-515.942648754792910
 20
-183.911285483061870
 40
1.500000000000157
 50
202.819244218546660
 51
300.000000000001590
  0
LINE
  8
0
  6
CONTINUOUS
 62
3
 10
-515.192648754792910
 20
-185.210323588738450
 11
-512.571880512723620
 21
-183.697222338696520
  0
ARC
  8
0
  6
CONTINUOUS
 62
3
 10
-521.608731039209150
 20
-187.182599615220170
 40
1.499999999999926
 50
300.000000000001590
 51
24.036429881677126
  0
LINE
  8
0
  6
CONTINUOUS
 62
3
 10
-523.469914638193250
 20
-189.989205274674080
 11
-520.858731039209150
 21
-188.481637720896740
  0
ARC
  8
0
  6
CONTINUOUS
 62
3
 10
-524.219914638193250
 20
-188.690167168997050
 40
1.500000000000128
 50
204.468928475167470
 51
299.999999999992950
  0
ARC
  8
0
  6
CONTINUOUS
 62
3
 10
-513.321880512723620
 20
-182.398184233019490
 40
1.500000000000320
 50
299.999999999992950
 51
22.071858233784546
  0
ARC
  8
0
  6
CONTINUOUS
 62
3
 10
-486.447194585057670
 20
-171.500879231812630
 40
33.499999999999794
 50
157.180755781458400
 51
202.819244218540940
  0
ARC
  8
0
  6
CONTINUOUS
 62
3
 10
-486.447194585057670
 20
-171.500879231812630
 40
43.000000000000121
 50
155.531071524839230
 51
204.468928475160200
  0
ARC
  8
0
  6
CONTINUOUS
 62
3
 10
-486.447194585057670
 20
-171.500879231812630
 40
37.000000000000156
 50
155.963570118321120
 51
204.036429881678230
  0
ARC
  8
0
  6
CONTINUOUS
 62
3
 10
-486.447194585058360
 20
-171.500879231812180
 40
27.499999999999886
 50
157.928141766202200
 51
202.071858233798680
  0
ARC
  8
0
  6
CONTINUOUS
 62
3
 10
-513.321880512723850
 20
-160.603574230604860
 40
1.500000000000110
 50
337.928141766202600
 51
59.999999999998380
  0
ARC
  8
0
  6
CONTINUOUS
 62
3
 10
-515.942648754792690
 20
-159.090472980562940
 40
1.500000000000123
 50
60.000000000002721
 51
157.180755781457980
  0
ARC
  8
0
  6
CONTINUOUS
 62
3
 10
-521.608731039208920
 20
-155.819158848404640
 40
1.499999999999855
 50
335.963570118319300
 51
59.999999999990862
  0
LINE
  8
0
  6
CONTINUOUS
 62
3
 10
-512.571880512723850
 20
-159.304536124928290
 11
-515.192648754792690
 21
-157.791434874886140
  0
LINE
  8
0
  6
CONTINUOUS
 62
3
 10
-520.858731039208690
 20
-154.520120742728070
 11
-523.469914638193250
 21
-153.012553188950960
  0
ARC
  8
0
  6
CONTINUOUS
 62
3
 10
-524.219914638193250
 20
-154.311591294627530
 40
1.499999999999926
 50
59.999999999998380
 51
155.531071524840400
  0
ARC
  8
0
  6
CONTINUOUS
 62
3
 10
-511.942648754792910
 20
-190.839488713337230
 40
1.499999999999926
 50
120.000000000001620
 51
217.180755781464400
  0
LINE
  8
0
  6
CONTINUOUS
 62
3
 10
-512.692648754792910
 20
-189.540450607660660
 11
-510.071880512723620
 21
-188.027349357618280
  0
ARC
  8
0
  6
CONTINUOUS
 62
3
 10
-517.608731039209150
 20
-194.110802845495530
 40
1.499999999999968
 50
35.963570118309242
 51
120.000000000001620
  0
LINE
  8
0
  6
CONTINUOUS
 62
3
 10
-520.969914638193250
 20
-194.319332293596290
 11
-518.358731039209150
 21
-192.811764739818950
  0
ARC
  8
0
  6
CONTINUOUS
 62
3
 10
-520.219914638193250
 20
-195.618370399272860
 40
1.499999999999926
 50
120.000000000001620
 51
215.531071524832130
  0
ARC
  8
0
  6
CONTINUOUS
 62
3
 10
-509.321880512723620
 20
-189.326387463295300
 40
1.500000000000122
 50
37.928141766218701
 51
119.999999999992930
  0
ARC
  8
0
  6
CONTINUOUS
 62
3
 10
-486.447194585058130
 20
-171.500879231811720
 40
33.500000000000163
 50
217.180755781459110
 51
262.819244218541770
  0
ARC
  8
0
  6
CONTINUOUS
 62
3
 10
-486.447194585058130
 20
-171.500879231811720
 40
42.999999999999858
 50
215.531071524839690
 51
264.468928475160850
  0
ARC
  8
0
  6
CONTINUOUS
 62
3
 10
-486.447194585058130
 20
-171.500879231811720
 40
37.000000000000021
 50
215.963570118321970
 51
264.036429881678940
  0
ARC
  8
0
  6
CONTINUOUS
 62
3
 10
-486.447194585058130
 20
-171.500879231812630
 40
27.499999999999780
 50
217.928141766201070
 51
262.071858233797400
  0
ARC
  8
0
  6
CONTINUOUS
 62
3
 10
-490.447194585058130
 20
-200.223692464502620
 40
1.500000000000000
 50
0.000000000000000
 51
82.071858233804562
  0
ARC
  8
0
  6
CONTINUOUS
 62
3
 10
-490.447194585058130
 20
-203.249894964586930
 40
1.499999999999998
 50
262.819244218541710
 51
0.000000000000000
  0
ARC
  8
0
  6
CONTINUOUS
 62
3
 10
-490.447194585058130
 20
-209.792523228903520
 40
1.500000000000000
 50
0.000000000017370
 51
84.036429881682594
  0
LINE
  8
0
  6
CONTINUOUS
 62
3
 10
-488.947194585058130
 20
-200.223692464502620
 11
-488.947194585058130
 21
-203.249894964586930
  0
LINE
  8
0
  6
CONTINUOUS
 62
3
 10
-488.947194585058130
 20
-209.792523228903060
 11
-488.947194585058130
 21
-212.807658336457280
  0
ARC
  8
0
  6
CONTINUOUS
 62
3
 10
-490.447194585058130
 20
-212.807658336457280
 40
1.500000000000430
 50
264.468928475160000
 51
0.000000000000000
  0
ARC
  8
0
  6
CONTINUOUS
 62
3
 10
-460.951740415322890
 20
-190.839488713337230
 40
1.500000000000240
 50
322.819244218535570
 51
59.999999999998380
  0
LINE
  8
0
  6
CONTINUOUS
 62
3
 10
-460.201740415322890
 20
-189.540450607660660
 11
-462.822508657392180
 21
-188.027349357618280
  0
ARC
  8
0
  6
CONTINUOUS
 62
3
 10
-455.285658130906650
 20
-194.110802845495530
 40
1.499999999999926
 50
59.999999999998380
 51
144.036429881690740
  0
ARC
  8
0
  6
CONTINUOUS
 62
3
 10
-463.572508657392180
 20
-189.326387463295300
 40
1.500000000000320
 50
60.000000000007070
 51
142.071858233781280
  0
ARC
  8
0
  6
CONTINUOUS
 62
3
 10
-486.447194585057670
 20
-171.500879231811720
 40
33.500000000000114
 50
277.180755781458230
 51
322.819244218540860
  0
ARC
  8
0
  6
CONTINUOUS
 62
3
 10
-486.447194585057670
 20
-171.500879231811720
 40
43.000000000000199
 50
275.531071524838860
 51
324.468928475160340
  0
ARC
  8
0
  6
CONTINUOUS
 62
3
 10
-486.447194585057670
 20
-171.500879231811720
 40
37.000000000000028
 50
275.963570118320770
 51
324.036429881678030
  0
ARC
  8
0
  6
CONTINUOUS
 62
3
 10
-486.447194585057670
 20
-171.500879231812630
 40
27.499999999999879
 50
277.928141766202600
 51
322.071858233798930
  0
ARC
  8
0
  6
CONTINUOUS
 62
3
 10
-482.447194585057670
 20
-200.223692464502620
 40
1.499999999999967
 50
97.928141766195438
 51
180.000000000000000
  0
ARC
  8
0
  6
CONTINUOUS
 62
3
 10
-482.447194585057670
 20
-203.249894964586930
 40
1.500000000000000
 50
180.000000000000000
 51
277.180755781458290
  0
ARC
  8
0
  6
CONTINUOUS
 62
3
 10
-482.447194585057670
 20
-209.792523228903520
 40
1.500000000000182
 50
95.963570118326047
 51
179.999999999982630
  0
LINE
  8
0
  6
CONTINUOUS
 62
3
 10
-483.947194585057670
 20
-200.223692464502620
 11
-483.947194585057670
 21
-203.249894964586930
  0
LINE
  8
0
  6
CONTINUOUS
 62
3
 10
-483.947194585057670
 20
-209.792523228903060
 11
-483.947194585057670
 21
-212.807658336457280
  0
ARC
  8
0
  6
CONTINUOUS
 62
3
 10
-482.447194585057670
 20
-212.807658336457280
 40
1.500000000000000
 50
180.000000000000000
 51
275.531071524831360
  0
ARC
  8
0
  6
CONTINUOUS
 62
3
 10
-456.951740415322890
 20
-183.911285483061870
 40
1.499999999999926
 50
239.999999999998410
 51
337.180755781453340
  0
LINE
  8
0
  6
CONTINUOUS
 62
3
 10
-457.701740415322890
 20
-185.210323588738450
 11
-460.322508657392180
 21
-183.697222338696520
  0
ARC
  8
0
  6
CONTINUOUS
 62
3
 10
-459.572508657392180
 20
-182.398184233019490
 40
1.499999999999899
 50
157.928141766199360
 51
240.000000000007050
  0
ARC
  8
0
  6
CONTINUOUS
 62
3
 10
-486.447194585058130
 20
-171.500879231812630
 40
33.500000000000128
 50
337.180755781459030
 51
22.819244218541968
  0
ARC
  8
0
  6
CONTINUOUS
 62
3
 10
-486.447194585057450
 20
-171.500879231812180
 40
27.499999999999886
 50
337.928141766202200
 51
22.071858233797812
  0
ARC
  8
0
  6
CONTINUOUS
 62
3
 10
-459.572508657391950
 20
-160.603574230604860
 40
1.499999999999926
 50
120.000000000001620
 51
202.071858233797370
  0
ARC
  8
0
  6
CONTINUOUS
 62
3
 10
-456.951740415323120
 20
-159.090472980562940
 40
1.499999999999948
 50
22.819244218550043
 51
119.999999999997270
  0
LINE
  8
0
  6
CONTINUOUS
 62
3
 10
-460.322508657391950
 20
-159.304536124928290
 11
-457.701740415323120
 21
-157.791434874886140
  0
ARC
  8
0
  6
CONTINUOUS
 62
3
 10
-486.447194585058360
 20
-171.500879231812180
 40
33.500000000000071
 50
37.180755781458259
 51
82.819244218540931
  0
ARC
  8
0
  6
CONTINUOUS
 62
3
 10
-486.447194585058360
 20
-171.500879231812180
 40
36.999999999999943
 50
35.963570118321194
 51
84.036429881678174
  0
ARC
  8
0
  6
CONTINUOUS
 62
3
 10
-455.285658130907110
 20
-148.890955618128600
 40
1.500000000000102
 50
215.963570118316280
 51
299.999999999997270
  0
ARC
  8
0
  6
CONTINUOUS
 62
3
 10
-460.951740415323340
 20
-152.162269750286900
 40
1.499999999999926
 50
300.000000000001590
 51
37.180755781457485
  0
ARC
  8
0
  6
CONTINUOUS
 62
3
 10
-486.447194585057670
 20
-171.500879231811720
 40
27.500000000000060
 50
37.928141766201819
 51
82.071858233798309
  0
ARC
  8
0
  6
CONTINUOUS
 62
3
 10
-482.447194585057900
 20
-142.778065999121740
 40
1.500000000000000
 50
180.000000000000000
 51
262.071858233795980
  0
LINE
  8
0
  6
CONTINUOUS
 62
3
 10
-462.822508657392180
 20
-154.974409106005620
 11
-460.201740415323340
 21
-153.461307855963470
  0
ARC
  8
0
  6
CONTINUOUS
 62
3
 10
-463.572508657392180
 20
-153.675371000329050
 40
1.499999999999843
 50
217.928141766204990
 51
300.000000000001590
  0
CIRCLE
  8
0
  6
CONTINUOUS
 62
3
 10
-486.447194585057900
 20
-171.500879231811720
 40
5.000000000000000
  0
ARC
  8
0
  6
CONTINUOUS
 62
3
 10
-480.509940651863990
 20
-163.454201921718320
 40
1.499999999999693
 50
233.578178478195410
 51
300.000000000001590
  0
ARC
  8
0
  6
CONTINUOUS
 62
3
 10
-482.447194585057900
 20
-162.335727841899820
 40
1.500000000000000
 50
180.000000000000000
 51
246.421821521804280
  0
ARC
  8
0
  6
CONTINUOUS
 62
3
 10
-469.272015316013150
 20
-156.965982703931790
 40
1.499999999999926
 50
300.000000000001590
 51
40.240348321182964
  0
ARC
  8
0
  6
CONTINUOUS
 62
3
 10
-482.447194585057900
 20
-159.131562354958760
 40
1.500000000000138
 50
72.079786860605225
 51
180.000000000000000
  0
ARC
  8
0
  6
CONTINUOUS
 62
3
 10
-482.447194585057900
 20
-152.415544547819540
 40
1.500000000000000
 50
180.000000000000000
 51
258.162995844103310
  0
ARC
  8
0
  6
CONTINUOUS
 62
3
 10
-471.918809908992100
 20
-158.494110274677950
 40
1.499999999999967
 50
221.837004155893280
 51
300.000000000001590
  0
ARC
  8
0
  6
CONTINUOUS
 62
3
 10
-482.447194585057900
 20
-149.359289406327210
 40
1.499999999999952
 50
79.759651678814024
 51
180.000000000000000
  0
ARC
  8
0
  6
CONTINUOUS
 62
3
 10
-477.735051942243560
 20
-161.852119178247450
 40
1.499999999999926
 50
300.000000000001590
 51
47.920213139381872
  0
LINE
  8
0
  6
CONTINUOUS
 62
3
 10
-471.168809908992100
 20
-159.793148380354520
 11
-468.522015316013150
 21
-158.265020809608360
  0
ARC
  8
0
  6
CONTINUOUS
 62
3
 10
-486.447194585057670
 20
-171.500879231811720
 40
14.499999999999860
 50
47.920213139391755
 51
72.079786860608309
  0
LINE
  8
0
  6
CONTINUOUS
 62
3
 10
-483.947194585057900
 20
-159.131562354958760
 11
-483.947194585057900
 21
-162.335727841899820
  0
LINE
  8
0
  6
CONTINUOUS
 62
3
 10
-483.947194585057900
 20
-149.359289406327210
 11
-483.947194585057900
 21
-152.415544547819540
  0
LINE
  8
0
  6
CONTINUOUS
 62
3
 10
-479.759940651863990
 20
-164.753240027394900
 11
-476.985051942243560
 21
-163.151157283924020
  0
ARC
  8
0
  6
CONTINUOUS
 62
3
 10
-486.447194585057670
 20
-171.500879231811720
 40
23.999999999999819
 50
40.240348321186090
 51
79.759651678814322
  0
ARC
  8
0
  6
CONTINUOUS
 62
3
 10
-486.447194585057670
 20
-171.500879231811720
 40
8.500000000000101
 50
53.578178478202659
 51
66.421821521799089
  0
ARC
  8
0
  6
CONTINUOUS
 62
3
 10
-473.735051942243560
 20
-174.221436055100640
 40
1.499999999999926
 50
239.999999999998410
 51
347.920213139390400
  0
LINE
  8
0
  6
CONTINUOUS
 62
3
 10
-474.485051942243560
 20
-175.520474160777210
 11
-477.259940651863990
 21
-173.918391417306790
  0
ARC
  8
0
  6
CONTINUOUS
 62
3
 10
-476.509940651863990
 20
-172.619353311630220
 40
1.500000000000099
 50
173.578178478198990
 51
239.999999999998410
  0
ARC
  8
0
  6
CONTINUOUS
 62
3
 10
-486.447194585057670
 20
-171.500879231811720
 40
8.499999999999865
 50
353.578178478199500
 51
6.421821521797448
  0
ARC
  8
0
  6
CONTINUOUS
 62
3
 10
-476.509940651863990
 20
-170.382405151993680
 40
1.499999999999926
 50
120.000000000001620
 51
186.421821521801010
  0
LINE
  8
0
  6
CONTINUOUS
 62
3
 10
-477.259940651863990
 20
-169.083367046317110
 11
-474.485051942243560
 21
-167.481284302846230
  0
ARC
  8
0
  6
CONTINUOUS
 62
3
 10
-473.735051942243560
 20
-168.780322408522810
 40
1.500000000000192
 50
12.079786860592611
 51
120.000000000001620
  0
ARC
  8
0
  6
CONTINUOUS
 62
3
 10
-486.447194585057670
 20
-171.500879231811720
 40
14.500000000000169
 50
347.920213139391310
 51
12.079786860606980
  0
ARC
  8
0
  6
CONTINUOUS
 62
3
 10
-465.272015316013150
 20
-179.107572529416300
 40
1.499999999999926
 50
239.999999999998410
 51
340.240348321188210
  0
LINE
  8
0
  6
CONTINUOUS
 62
3
 10
-466.022015316013150
 20
-180.406610635092870
 11
-468.668809908992100
 21
-178.878483064347170
  0
ARC
  8
0
  6
CONTINUOUS
 62
3
 10
-467.918809908992100
 20
-177.579444958670140
 40
1.500000000000038
 50
161.837004155895410
 51
240.000000000007050
  0
ARC
  8
0
  6
CONTINUOUS
 62
3
 10
-486.447194585057670
 20
-171.500879231811720
 40
17.999999999999943
 50
341.837004155893340
 51
18.162995844106646
  0
ARC
  8
0
  6
CONTINUOUS
 62
3
 10
-467.918809908992100
 20
-165.422313504953310
 40
1.499999999999926
 50
120.000000000001620
 51
198.162995844104590
  0
LINE
  8
0
  6
CONTINUOUS
 62
3
 10
-468.668809908992100
 20
-164.123275399276740
 11
-466.022015316013150
 21
-162.595147828530570
  0
ARC
  8
0
  6
CONTINUOUS
 62
3
 10
-465.272015316013150
 20
-163.894185934207140
 40
1.500000000000246
 50
19.759651678811824
 51
120.000000000001620
  0
ARC
  8
0
  6
CONTINUOUS
 62
3
 10
-486.447194585057670
 20
-171.500879231811720
 40
24.000000000000139
 50
340.240348321186050
 51
19.759651678813924
  0
ARC
  8
0
  6
CONTINUOUS
 62
3
 10
-499.159337227872240
 20
-174.221436055100640
 40
1.500000000000287
 50
192.079786860609600
 51
300.000000000001590
  0
LINE
  8
0
  6
CONTINUOUS
 62
3
 10
-498.409337227872240
 20
-175.520474160777210
 11
-495.634448518251820
 21
-173.918391417306790
  0
ARC
  8
0
  6
CONTINUOUS
 62
3
 10
-496.384448518251820
 20
-172.619353311630220
 40
1.499999999999926
 50
300.000000000001590
 51
6.421821521801967
  0
ARC
  8
0
  6
CONTINUOUS
 62
3
 10
-486.447194585058360
 20
-171.500879231811720
 40
8.499999999999813
 50
173.578178478202550
 51
186.421821521800500
  0
ARC
  8
0
  6
CONTINUOUS
 62
3
 10
-496.384448518251820
 20
-170.382405151993680
 40
1.499999999999873
 50
353.578178478198030
 51
59.999999999998380
  0
LINE
  8
0
  6
CONTINUOUS
 62
3
 10
-495.634448518251820
 20
-169.083367046317110
 11
-498.409337227872470
 21
-167.481284302846230
  0
ARC
  8
0
  6
CONTINUOUS
 62
3
 10
-499.159337227872470
 20
-168.780322408522810
 40
1.499999999999926
 50
59.999999999998380
 51
167.920213139405550
  0
ARC
  8
0
  6
CONTINUOUS
 62
3
 10
-486.447194585058360
 20
-171.500879231811720
 40
14.499999999999851
 50
167.920213139392840
 51
192.079786860608920
  0
ARC
  8
0
  6
CONTINUOUS
 62
3
 10
-507.622373854102650
 20
-179.107572529416300
 40
1.500000000000246
 50
199.759651678811820
 51
300.000000000001590
  0
LINE
  8
0
  6
CONTINUOUS
 62
3
 10
-506.872373854102650
 20
-180.406610635092870
 11
-504.225579261123700
 21
-178.878483064347170
  0
ARC
  8
0
  6
CONTINUOUS
 62
3
 10
-504.975579261123700
 20
-177.579444958670140
 40
1.500000000000320
 50
299.999999999992950
 51
18.162995844104589
  0
ARC
  8
0
  6
CONTINUOUS
 62
3
 10
-486.447194585058360
 20
-171.500879231811720
 40
17.999999999999726
 50
161.837004155893140
 51
198.162995844106860
  0
ARC
  8
0
  6
CONTINUOUS
 62
3
 10
-504.975579261123700
 20
-165.422313504953310
 40
1.500000000000038
 50
341.837004155895390
 51
59.999999999998380
  0
LINE
  8
0
  6
CONTINUOUS
 62
3
 10
-504.225579261123700
 20
-164.123275399276740
 11
-506.872373854102880
 21
-162.595147828530570
  0
ARC
  8
0
  6
CONTINUOUS
 62
3
 10
-507.622373854102880
 20
-163.894185934207140
 40
1.499999999999926
 50
59.999999999998380
 51
160.240348321185250
  0
ARC
  8
0
  6
CONTINUOUS
 62
3
 10
-486.447194585058360
 20
-171.500879231811720
 40
23.999999999999925
 50
160.240348321185910
 51
199.759651678814090
  0
ARC
  8
0
  6
CONTINUOUS
 62
3
 10
-495.159337227872240
 20
-181.149639285376450
 40
1.500000000000320
 50
119.999999999992930
 51
227.920213139381870
  0
LINE
  8
0
  6
CONTINUOUS
 62
3
 10
-495.909337227872240
 20
-179.850601179699420
 11
-493.134448518251820
 21
-178.248518436229010
  0
ARC
  8
0
  6
CONTINUOUS
 62
3
 10
-492.384448518251820
 20
-179.547556541905580
 40
1.500000000000059
 50
53.578178478205707
 51
120.000000000001620
  0
ARC
  8
0
  6
CONTINUOUS
 62
3
 10
-486.447194585057900
 20
-171.500879231812180
 40
8.499999999999870
 50
233.578178478199590
 51
246.421821521797680
  0
ARC
  8
0
  6
CONTINUOUS
 62
3
 10
-490.447194585057900
 20
-180.666030621724080
 40
1.500000000000000
 50
0.000000000017370
 51
66.421821521804304
  0
LINE
  8
0
  6
CONTINUOUS
 62
3
 10
-488.947194585057900
 20
-180.666030621723620
 11
-488.947194585057900
 21
-183.870196108664910
  0
ARC
  8
0
  6
CONTINUOUS
 62
3
 10
-490.447194585057900
 20
-183.870196108664910
 40
1.500000000000355
 50
252.079786860607900
 51
0.000000000000000
  0
ARC
  8
0
  6
CONTINUOUS
 62
3
 10
-486.447194585057900
 20
-171.500879231812180
 40
14.500000000000011
 50
227.920213139391080
 51
252.079786860607410
  0
ARC
  8
0
  6
CONTINUOUS
 62
3
 10
-503.622373854102650
 20
-186.035775759692110
 40
1.499999999999926
 50
120.000000000001620
 51
220.240348321176330
  0
LINE
  8
0
  6
CONTINUOUS
 62
3
 10
-504.372373854102650
 20
-184.736737654015540
 11
-501.725579261123700
 21
-183.208610083269380
  0
ARC
  8
0
  6
CONTINUOUS
 62
3
 10
-500.975579261123700
 20
-184.507648188945950
 40
1.500000000000118
 50
41.837004155899741
 51
120.000000000001620
  0
ARC
  8
0
  6
CONTINUOUS
 62
3
 10
-486.447194585057900
 20
-171.500879231812180
 40
17.999999999999940
 50
221.837004155892320
 51
258.162995844106770
  0
ARC
  8
0
  6
CONTINUOUS
 62
3
 10
-490.447194585057900
 20
-190.586213915804360
 40
1.500000000000000
 50
0.000000000000000
 51
78.162995844101530
  0
LINE
  8
0
  6
CONTINUOUS
 62
3
 10
-488.947194585057900
 20
-190.586213915804360
 11
-488.947194585057900
 21
-193.642469057296690
  0
ARC
  8
0
  6
CONTINUOUS
 62
3
 10
-490.447194585057900
 20
-193.642469057296690
 40
1.499999999999728
 50
259.759651678812470
 51
0.000000000000000
  0
ARC
  8
0
  6
CONTINUOUS
 62
3
 10
-486.447194585057900
 20
-171.500879231812180
 40
23.999999999999844
 50
220.240348321185340
 51
259.759651678813730
  0
ARC
  8
0
  6
CONTINUOUS
 62
3
 10
-477.735051942243560
 20
-181.149639285376450
 40
1.499999999999944
 50
312.079786860618130
 51
60.000000000007070
  0
LINE
  8
0
  6
CONTINUOUS
 62
3
 10
-476.985051942243560
 20
-179.850601179699420
 11
-479.759940651863990
 21
-178.248518436229010
  0
ARC
  8
0
  6
CONTINUOUS
 62
3
 10
-480.509940651863990
 20
-179.547556541905580
 40
1.499999999999926
 50
59.999999999998380
 51
126.421821521801260
  0
ARC
  8
0
  6
CONTINUOUS
 62
3
 10
-486.447194585057900
 20
-171.500879231812180
 40
8.500000000000060
 50
293.578178478202350
 51
306.421821521799190
  0
ARC
  8
0
  6
CONTINUOUS
 62
3
 10
-482.447194585057900
 20
-180.666030621724080
 40
1.500000000000139
 50
113.578178478195690
 51
179.999999999982630
  0
LINE
  8
0
  6
CONTINUOUS
 62
3
 10
-483.947194585057900
 20
-180.666030621723620
 11
-483.947194585057900
 21
-183.870196108664910
  0
ARC
  8
0
  6
CONTINUOUS
 62
3
 10
-482.447194585057900
 20
-183.870196108664910
 40
1.500000000000000
 50
180.000000000000000
 51
287.920213139392100
  0
ARC
  8
0
  6
CONTINUOUS
 62
3
 10
-486.447194585057900
 20
-171.500879231812180
 40
14.500000000000121
 50
287.920213139392560
 51
312.079786860608860
  0
ARC
  8
0
  6
CONTINUOUS
 62
3
 10
-469.272015316013150
 20
-186.035775759692110
 40
1.499999999999828
 50
319.759651678823670
 51
59.999999999998380
  0
LINE
  8
0
  6
CONTINUOUS
 62
3
 10
-468.522015316013150
 20
-184.736737654015540
 11
-471.168809908992100
 21
-183.208610083269380
  0
ARC
  8
0
  6
CONTINUOUS
 62
3
 10
-471.918809908992100
 20
-184.507648188945950
 40
1.499999999999926
 50
59.999999999998380
 51
138.162995844100240
  0
ARC
  8
0
  6
CONTINUOUS
 62
3
 10
-486.447194585057900
 20
-171.500879231812180
 40
18.000000000000146
 50
281.837004155893230
 51
318.162995844107680
  0
ARC
  8
0
  6
CONTINUOUS
 62
3
 10
-482.447194585057900
 20
-190.586213915804360
 40
1.499999999999731
 50
101.837004155898450
 51
180.000000000000000
  0
LINE
  8
0
  6
CONTINUOUS
 62
3
 10
-483.947194585057900
 20
-190.586213915804360
 11
-483.947194585057900
 21
-193.642469057296690
  0
ARC
  8
0
  6
CONTINUOUS
 62
3
 10
-482.447194585057900
 20
-193.642469057296690
 40
1.500000000000000
 50
180.000000000000000
 51
280.240348321187530
  0
ARC
  8
0
  6
CONTINUOUS
 62
3
 10
-486.447194585057900
 20
-171.500879231812180
 40
23.999999999999716
 50
280.240348321186270
 51
319.759651678814690
  0
ARC
  8
0
  6
CONTINUOUS
 62
3
 10
-490.447194585057900
 20
-159.131562354958760
 40
1.500000000000000
 50
0.000000000000000
 51
107.920213139394770
  0
LINE
  8
0
  6
CONTINUOUS
 62
3
 10
-488.947194585057900
 20
-159.131562354958760
 11
-488.947194585057900
 21
-162.335727841899820
  0
ARC
  8
0
  6
CONTINUOUS
 62
3
 10
-490.447194585057900
 20
-162.335727841899820
 40
1.500000000000139
 50
293.578178478195700
 51
0.000000000000000
  0
ARC
  8
0
  6
CONTINUOUS
 62
3
 10
-486.447194585058360
 20
-171.500879231811720
 40
8.499999999999879
 50
113.578178478199500
 51
126.421821521797340
  0
ARC
  8
0
  6
CONTINUOUS
 62
3
 10
-492.384448518251820
 20
-163.454201921718320
 40
1.499999999999926
 50
239.999999999998410
 51
306.421821521797600
  0
LINE
  8
0
  6
CONTINUOUS
 62
3
 10
-493.134448518251820
 20
-164.753240027394900
 11
-495.909337227872470
 21
-163.151157283924020
  0
ARC
  8
0
  6
CONTINUOUS
 62
3
 10
-495.159337227872470
 20
-161.852119178247450
 40
1.499999999999792
 50
132.079786860611680
 51
239.999999999998410
  0
ARC
  8
0
  6
CONTINUOUS
 62
3
 10
-486.447194585058360
 20
-171.500879231811720
 40
14.499999999999980
 50
107.920213139390830
 51
132.079786860607560
  0
ARC
  8
0
  6
CONTINUOUS
 62
3
 10
-490.447194585057900
 20
-149.359289406327210
 40
1.500000000000000
 50
0.000000000000000
 51
100.240348321194510
  0
LINE
  8
0
  6
CONTINUOUS
 62
3
 10
-488.947194585057900
 20
-149.359289406327210
 11
-488.947194585057900
 21
-152.415544547819540
  0
ARC
  8
0
  6
CONTINUOUS
 62
3
 10
-490.447194585057900
 20
-152.415544547819540
 40
1.499999999999954
 50
281.837004155896690
 51
0.000000000000000
  0
ARC
  8
0
  6
CONTINUOUS
 62
3
 10
-486.447194585058360
 20
-171.500879231811720
 40
17.999999999999829
 50
101.837004155891980
 51
138.162995844106210
  0
ARC
  8
0
  6
CONTINUOUS
 62
3
 10
-500.975579261123700
 20
-158.494110274677950
 40
1.499999999999926
 50
239.999999999998410
 51
318.162995844106720
  0
LINE
  8
0
  6
CONTINUOUS
 62
3
 10
-501.725579261123700
 20
-159.793148380354520
 11
-504.372373854102880
 21
-158.265020809608360
  0
ARC
  8
0
  6
CONTINUOUS
 62
3
 10
-503.622373854102880
 20
-156.965982703931790
 40
1.499999999999802
 50
139.759651678811420
 51
239.999999999998410
  0
ARC
  8
0
  6
CONTINUOUS
 62
3
 10
-486.447194585058360
 20
-171.500879231811720
 40
23.999999999999901
 50
100.240348321185670
 51
139.759651678813550
  0
ARC
  8
0
  6
CONTINUOUS
 62
3
 10
-490.447194585057900
 20
-139.751863499037200
 40
1.500000000000000
 50
0.000000000000000
 51
97.180755781458288
  0
LINE
  8
0
  6
CONTINUOUS
 62
3
 10
-488.947194585057900
 20
-139.751863499037200
 11
-488.947194585057900
 21
-142.778065999121740
  0
ARC
  8
0
  6
CONTINUOUS
 62
3
 10
-490.447194585057900
 20
-133.209235234720610
 40
1.499999999999933
 50
275.963570118318330
 51
0.000000000000000
  0
LINE
  8
0
  6
CONTINUOUS
 62
3
 10
-488.947194585057900
 20
-130.194100127166390
 11
-488.947194585057900
 21
-133.209235234720610
  0
LINE
  8
0
  6
CONTINUOUS
 62
3
 10
-451.924474531922560
 20
-194.319332293596290
 11
-454.535658130906650
 21
-192.811764739818950
  0
ARC
  8
0
  6
CONTINUOUS
 62
3
 10
-452.674474531922560
 20
-195.618370399272860
 40
1.499999999999844
 50
324.468928475167900
 51
59.999999999998380
  0
ARC
  8
0
  6
CONTINUOUS
 62
3
 10
-451.285658130906650
 20
-187.182599615220170
 40
1.500000000000063
 50
155.963570118322880
 51
239.999999999998410
  0
LINE
  8
0
  6
CONTINUOUS
 62
3
 10
-449.424474531922560
 20
-189.989205274674080
 11
-452.035658130906650
 21
-188.481637720896740
  0
ARC
  8
0
  6
CONTINUOUS
 62
3
 10
-448.674474531922560
 20
-188.690167168997050
 40
1.500000000000320
 50
240.000000000007050
 51
335.531071524832500
  0
ARC
  8
0
  6
CONTINUOUS
 62
3
 10
-486.447194585058130
 20
-171.500879231812630
 40
42.999999999999936
 50
335.531071524839770
 51
24.468928475160769
  0
ARC
  8
0
  6
CONTINUOUS
 62
3
 10
-486.447194585058130
 20
-171.500879231812630
 40
36.999999999999972
 50
335.963570118321740
 51
24.036429881678870
  0
ARC
  8
0
  6
CONTINUOUS
 62
3
 10
-451.285658130906880
 20
-155.819158848404640
 40
1.500000000000123
 50
119.999999999997270
 51
204.036429881680680
  0
LINE
  8
0
  6
CONTINUOUS
 62
3
 10
-452.035658130906880
 20
-154.520120742727840
 11
-449.424474531922560
 21
-153.012553188950730
  0
ARC
  8
0
  6
CONTINUOUS
 62
3
 10
-448.674474531922560
 20
-154.311591294627530
 40
1.500000000000034
 50
24.468928475159590
 51
119.999999999997270
  0
ARC
  8
0
  6
CONTINUOUS
 62
3
 10
-486.447194585058360
 20
-171.500879231812180
 40
42.999999999999908
 50
35.531071524839248
 51
84.468928475160212
  0
ARC
  8
0
  6
CONTINUOUS
 62
3
 10
-452.674474531923010
 20
-147.383388064351490
 40
1.500000000000123
 50
299.999999999997270
 51
35.531071524839192
  0
ARC
  8
0
  6
CONTINUOUS
 62
3
 10
-482.447194585057900
 20
-133.209235234720610
 40
1.500000000000000
 50
180.000000000000000
 51
264.036429881682580
  0
ARC
  8
0
  6
CONTINUOUS
 62
3
 10
-482.447194585057900
 20
-139.751863499037200
 40
1.499999999999998
 50
82.819244218541712
 51
180.000000000000000
  0
LINE
  8
0
  6
CONTINUOUS
 62
3
 10
-483.947194585057900
 20
-139.751863499037200
 11
-483.947194585057900
 21
-142.778065999121740
  0
LINE
  8
0
  6
CONTINUOUS
 62
3
 10
-454.535658130907110
 20
-150.189993723805400
 11
-451.924474531923010
 21
-148.682426170028290
  0
LINE
  8
0
  6
CONTINUOUS
 62
3
 10
-483.947194585057900
 20
-130.194100127166620
 11
-483.947194585057900
 21
-133.209235234720610
  0
ARC
  8
0
  6
CONTINUOUS
 62
3
 10
-486.447194585058130
 20
-171.500879231811720
 40
27.499999999999815
 50
97.928141766201691
 51
142.071858233797880
  0
ARC
  8
0
  6
CONTINUOUS
 62
3
 10
-486.447194585057670
 20
-171.500879231811720
 40
17.999999999999922
 50
41.837004155893325
 51
78.162995844107314
  0
ARC
  8
0
  6
CONTINUOUS
 62
3
 10
-490.447194585057900
 20
-130.194100127166390
 40
1.500000000000000
 50
0.000000000000000
 51
95.531071524841693
  0
ARC
  8
0
  6
CONTINUOUS
 62
3
 10
-482.447194585057900
 20
-130.194100127166620
 40
1.500000000000203
 50
84.468928475159132
 51
180.000000000000000
  0
LINE
  8
0
  6
CONTINUOUS
 62
3
 10
-535.062686771171570
 20
-226.264398455171890
 11
-542.129135889830760
 21
-219.197949336512240
  0
LINE
  8
0
  6
CONTINUOUS
 62
3
 10
-437.831702398944230
 20
-116.737360008452690
 11
-430.765253280285260
 21
-123.803809127111660
  0
ARC
  8
0
  6
CONTINUOUS
 62
3
 10
-250.847194585057990
 20
-171.500879231812180
 40
300.599999999999850
 50
173.948014641331500
 51
186.051985358668500
  0
ARC
  8
0
  6
CONTINUOUS
 62
3
 10
-486.447194585057900
 20
-412.100879231812090
 40
300.599999999999910
 50
90.000000000000000
 51
98.597082237249069
  0
ARC
  8
0
  6
CONTINUOUS
 62
3
 10
-486.447194585057900
 20
69.099120768187959
 40
300.600000000000140
 50
270.000000000000000
 51
278.597082237249080
  0
ARC
  8
0
  6
CONTINUOUS
 62
3
 10
-442.498607154775410
 20
-121.404264764283880
 40
6.600000000000118
 50
45.000000000001400
 51
81.402917762751386
  0
ARC
  8
0
  6
CONTINUOUS
 62
3
 10
-486.447194585057900
 20
-412.100879231812090
 40
300.599999999999800
 50
81.402917762750931
 51
90.000000000000000
  0
LINE
  8
0
  6
CONTINUOUS
 62
3
 10
-437.831702398944230
 20
-226.264398455171890
 11
-430.765253280284810
 21
-219.197949336512240
  0
ARC
  8
0
  6
CONTINUOUS
 62
3
 10
-442.498607154775410
 20
-221.597493699340700
 40
6.599999999999747
 50
278.597082237248910
 51
315.000000000000000
  0
ARC
  8
0
  6
CONTINUOUS
 62
3
 10
-486.447194585057900
 20
69.099120768187959
 40
300.600000000000020
 50
261.402917762750920
 51
270.000000000000000
  0
ARC
  8
0
  6
CONTINUOUS
 62
3
 10
-530.395782015340390
 20
-221.597493699340700
 40
6.599999999999957
 50
225.000000000000000
 51
261.402917762751090
  0
LINE
  8
0
  6
CONTINUOUS
 62
3
 10
-535.062686771171570
 20
-116.737360008452690
 11
-542.129135889830540
 21
-123.803809127111660
  0
ARC
  8
0
  6
CONTINUOUS
 62
3
 10
-523.320095510268290
 20
-142.612849506673910
 40
26.600000000000119
 50
135.000000000000000
 51
173.948014641331410
  0
ARC
  8
0
  6
CONTINUOUS
 62
3
 10
-523.320095510268290
 20
-200.388908956950440
 40
26.599999999999969
 50
186.051985358668590
 51
224.999999999998980
  0
ARC
  8
0
  6
CONTINUOUS
 62
4
 10
-523.320095510268290
 20
-142.612849506673910
 40
15.396999999999876
 50
135.000000000000000
 51
173.948014641331160
  0
ARC
  8
0
  6
CONTINUOUS
 62
4
 10
-722.047194585057810
 20
-171.500879231812180
 40
289.397000000000160
 50
0.000000000000000
 51
6.051985358668508
  0
ARC
  8
0
  6
CONTINUOUS
 62
4
 10
-449.574293659847290
 20
-142.612849506673910
 40
15.397000000000052
 50
6.051985358668849
 51
45.000000000000000
  0
LINE
  8
0
  6
CONTINUOUS
 62
4
 10
-443.263035942556480
 20
-127.149461004105880
 11
-438.686970549917870
 21
-131.725526396744500
  0
ARC
  8
0
  6
CONTINUOUS
 62
4
 10
-447.505676629675580
 20
-131.392101691225430
 40
6.000000000000049
 50
45.000000000003077
 51
82.102011327574374
  0
ARC
  8
0
  6
CONTINUOUS
 62
4
 10
-486.447194585057900
 20
-412.100879231812090
 40
289.396999999999820
 50
82.102011327572214
 51
90.000000000000000
  0
ARC
  8
0
  6
CONTINUOUS
 62
4
 10
-722.047194585057810
 20
-171.500879231812180
 40
289.397000000000160
 50
353.948014641331500
 51
0.000000000000000
  0
ARC
  8
0
  6
CONTINUOUS
 62
4
 10
-449.574293659847290
 20
-200.388908956950440
 40
15.396999999999876
 50
315.000000000000000
 51
353.948014641331160
  0
LINE
  8
0
  6
CONTINUOUS
 62
4
 10
-443.263035942556480
 20
-215.852297459518470
 11
-438.686970549917870
 21
-211.276232066879860
  0
ARC
  8
0
  6
CONTINUOUS
 62
4
 10
-447.505676629675580
 20
-211.609656772398920
 40
5.999999999999923
 50
277.897988672425640
 51
314.999999999996870
  0
ARC
  8
0
  6
CONTINUOUS
 62
4
 10
-486.447194585057900
 20
69.099120768187731
 40
289.396999999999930
 50
270.000000000000000
 51
277.897988672427800
  0
ARC
  8
0
  6
CONTINUOUS
 62
4
 10
-250.847194585057760
 20
-171.500879231812180
 40
289.397000000000160
 50
180.000000000000000
 51
186.051985358668500
  0
ARC
  8
0
  6
CONTINUOUS
 62
4
 10
-523.320095510268290
 20
-200.388908956950440
 40
15.397000000000052
 50
186.051985358668840
 51
225.000000000000000
  0
LINE
  8
0
  6
CONTINUOUS
 62
4
 10
-529.631353227559090
 20
-215.852297459518470
 11
-534.207418620197700
 21
-211.276232066879860
  0
ARC
  8
0
  6
CONTINUOUS
 62
4
 10
-525.388712540440000
 20
-211.609656772398920
 40
6.000000000000049
 50
225.000000000003070
 51
262.102011327574360
  0
ARC
  8
0
  6
CONTINUOUS
 62
4
 10
-486.447194585057670
 20
69.099120768187731
 40
289.396999999999820
 50
262.102011327572200
 51
270.000000000000000
  0
ARC
  8
0
  6
CONTINUOUS
 62
3
 10
-571.747194585057850
 20
-185.543379231812200
 40
20.800000000000082
 50
274.191726156007460
 51
354.952683218987430
  0
LINE
  8
0
  6
CONTINUOUS
 62
3
 10
-550.947194585057900
 20
-154.170270471586780
 11
-550.947194585057900
 21
-145.543379231812200
  0
POINT
  8
0
  6
DASHDOT
 62
4
 10
-550.947194585057900
 20
-171.514609724938170
  0
POINT
  8
0
  6
DASHDOT
 62
4
 10
-550.947194585057900
 20
-171.514609724938170
  0
ARC
  8
0
  6
CONTINUOUS
 62
3
 10
-569.747194585057850
 20
-145.543379231812200
 40
18.799999999999955
 50
0.000000000000000
 51
79.401214733933941
  0
ARC
  8
0
  6
CONTINUOUS
 62
3
 10
-571.747194585057850
 20
-185.543379231812200
 40
20.799999999999986
 50
174.275189547776620
 51
205.640070215894870
  0
ARC
  8
0
  6
CONTINUOUS
 62
3
 10
-571.747194585057850
 20
-185.543379231812200
 40
20.799999999999926
 50
205.640070215894870
 51
260.083463391769440
  0
ARC
  8
0
  6
CONTINUOUS
 62
3
 10
-571.747194585057850
 20
-185.543379231812200
 40
20.799999999999986
 50
174.275189547776620
 51
205.640070215894870
  0
ARC
  8
0
  6
CONTINUOUS
 62
3
 10
-565.921439950970920
 20
-125.098242854674480
 40
1.999999999999927
 50
177.137594773887290
 51
259.401214733934010
  0
ARC
  8
0
  6
CONTINUOUS
 62
3
 10
-571.514453048686730
 20
-124.818592199788660
 40
1.999999999999928
 50
274.873974813840960
 51
357.137594773887320
  0
ARC
  8
0
  6
CONTINUOUS
 62
3
 10
-570.080647318674320
 20
-208.282390208741500
 40
1.999999999999962
 50
94.191726156001650
 51
177.137594773887290
  0
LINE
  8
0
  6
CONTINUOUS
 62
3
 10
-568.249066076741090
 20
-115.580809065476950
 11
-573.342703005018050
 21
-217.453547631017050
  0
ARC
  8
0
  6
CONTINUOUS
 62
3
 10
-575.673660416390130
 20
-208.002739553855690
 40
2.000000000000154
 50
357.137594773887600
 51
80.083463391767268
  0
LINE
  8
0
  6
CONTINUOUS
 62
3
 10
-592.443453936678790
 20
-183.468566264231190
 11
-588.453428999022780
 21
-143.668067511113920
  0
ARC
  8
0
  6
CONTINUOUS
 62
3
 10
-569.747194585057850
 20
-145.543379231812200
 40
18.800000000000036
 50
94.873974813842736
 51
144.191373186504250
  0
ARC
  8
0
  6
CONTINUOUS
 62
3
 10
-569.747194585057850
 20
-145.543379231812200
 40
18.799999999999933
 50
144.191373186504250
 51
174.275189547776390
  0
LINE
  8
0
  6
CONTINUOUS
 62
3
 10
-569.048067947843380
 20
-115.540858971921800
 11
-567.450064205638800
 21
-115.620759159031990
  0
ARC
  8
0
  6
CONTINUOUS
 62
3
 10
-562.905741444737830
 20
-120.854221395702090
 40
9.000000000000060
 50
160.536063666407810
 51
193.739143184213500
  0
POINT
  8
0
  6
CONTINUOUS
 62
3
 10
-569.297756032562230
 20
-120.534620666310840
  0
LINE
  8
0
  6
CONTINUOUS
 62
3
 10
-569.122974373258670
 20
-117.038987480238460
 11
-569.472537691865800
 21
-124.030253852383330
  0
LINE
  8
0
  6
CONTINUOUS
 62
3
 10
-569.122974373258670
 20
-117.038987480238460
 11
-569.472537691865800
 21
-124.030253852383330
  0
LINE
  8
0
  6
CONTINUOUS
 62
3
 10
-569.472537691865800
 20
-124.030253852383330
 11
-570.450341504373570
 21
-123.981363661757990
  0
LINE
  8
0
  6
CONTINUOUS
 62
3
 10
-569.122974373258670
 20
-117.038987480238460
 11
-570.100778185766220
 21
-116.990097289613110
  0
ARC
  8
0
  6
CONTINUOUS
 62
3
 10
-570.385422640445880
 20
-122.682986383204360
 40
1.299999237060493
 50
193.739143184211430
 51
267.137612759980240
  0
ARC
  8
0
  6
CONTINUOUS
 62
3
 10
-570.165697049693900
 20
-118.288474568166630
 40
1.299999237060474
 50
87.137594090651831
 51
160.536063666412870
  0
LINE
  8
0
  6
CONTINUOUS
 62
3
 10
-569.048067947843380
 20
-115.540858971921800
 11
-574.141704876120340
 21
-217.413597537461780
  0
LINE
  8
0
  6
CONTINUOUS
 62
3
 10
-572.543701133915760
 20
-217.493497724572760
 11
-574.141704876120340
 21
-217.413597537461780
  0
LINE
  8
0
  6
CONTINUOUS
 62
3
 10
-567.450064205638800
 20
-115.620759159031990
 11
-572.543701133915760
 21
-217.493497724572760
  0
LINE
  8
0
  6
CONTINUOUS
 62
3
 10
-571.827589084649730
 20
-119.670737263911860
 11
-587.887542858279740
 21
-103.610783490281730
  0
LINE
  8
0
  6
CONTINUOUS
 62
3
 10
-563.784218422107980
 20
-127.714107926453380
 11
-567.851373871538390
 21
-123.646952477022920
  0
ARC
  8
0
  6
CONTINUOUS
 62
3
 10
-487.947194585057900
 20
-41.623801566141424
 40
2.000000000000244
 50
146.321129221012820
 51
180.000000000000000
  0
ARC
  8
0
  6
CONTINUOUS
 62
3
 10
-484.947194585057900
 20
-41.623801566141424
 40
2.000000000000000
 50
0.000000000000000
 51
33.678870779012470
  0
LINE
  8
0
  6
CONTINUOUS
 62
3
 10
-489.947194585057900
 20
-40.633382234210899
 11
-489.947194585057900
 21
-59.368376229405499
  0
LINE
  8
0
  6
CONTINUOUS
 62
3
 10
-482.947194585057900
 20
-40.633382234210217
 11
-482.947194585057900
 21
-59.368376229406181
  0
LINE
  8
0
  6
CONTINUOUS
 62
3
 10
-489.947194585057900
 20
-29.983418847062580
 11
-489.947194585057900
 21
-30.000879231808199
  0
LINE
  8
0
  6
CONTINUOUS
 62
3
 10
-482.947194585057900
 20
-29.983418847062580
 11
-482.947194585057900
 21
-30.000879231808199
  0
CIRCLE
  8
0
  6
CONTINUOUS
 62
3
 10
-620.797483010501880
 20
-35.650590806364448
 40
12.000000000000000
  0
ARC
  8
0
  6
DASHDOT
 62
4
 10
-486.447194585057900
 20
-170.000879231808430
 40
189.999999999999970
 50
129.119041968700490
 51
140.880958031302610
  0
CIRCLE
  8
0
  6
CONTINUOUS
 62
3
 10
-352.096906159613920
 20
-35.650590806364448
 40
12.000000000000000
  0
ARC
  8
0
  6
DASHDOT
 62
4
 10
-486.447194585057900
 20
-170.000879231808430
 40
189.999999999999690
 50
39.119041968700387
 51
50.880958031302640
  0
CIRCLE
  8
0
  6
CONTINUOUS
 62
3
 10
-352.096906159613920
 20
-304.351167657252860
 40
12.000000000000000
  0
ARC
  8
0
  6
DASHDOT
 62
4
 10
-486.447194585057900
 20
-170.000879231808430
 40
190.000000000000310
 50
309.119041968700400
 51
320.880958031302500
  0
ARC
  8
0
  6
DASHDOT
 62
4
 10
-486.447194585057900
 20
-170.000879231808430
 40
190.000000000000260
 50
219.119041968700600
 51
230.880958031302730
  0
ARC
  8
0
  6
CONTINUOUS
 62
3
 10
-343.947194585057900
 20
-27.500879231808426
 40
15.000000000000000
 50
0.000000000000000
 51
90.000000000000000
  0
ARC
  8
0
  6
CONTINUOUS
 62
3
 10
-343.947194585057900
 20
-312.500879231808880
 40
15.000000000000000
 50
270.000000000000000
 51
0.000000000000000
  0
ARC
  8
0
  6
CONTINUOUS
 62
3
 10
-628.947194585057900
 20
-312.500879231808880
 40
15.000000000000000
 50
180.000000000000000
 51
270.000000000000000
  0
ARC
  8
0
  6
CONTINUOUS
 62
3
 10
-628.947194585057900
 20
-27.500879231808426
 40
15.000000000000000
 50
90.000000000000000
 51
180.000000000000000
  0
CIRCLE
  8
0
  6
CONTINUOUS
 62
3
 10
-620.797483010501880
 20
-304.351167657252860
 40
12.000000000000000
  0
ARC
  8
0
  6
CONTINUOUS
 62
3
 10
-494.947194585057900
 20
-29.983418847062580
 40
5.000000000000000
 50
0.000000000000000
 51
90.000000000000000
  0
ARC
  8
0
  6
CONTINUOUS
 62
3
 10
-477.947194585057900
 20
-29.983418847062580
 40
5.000000000000000
 50
90.000000000000000
 51
180.000000000000000
  0
ARC
  8
0
  6
CONTINUOUS
 62
3
 10
-590.405052401481160
 20
-54.022206135213878
 40
4.999999999999924
 50
122.993026125691440
 51
224.999999999998180
  0
ARC
  8
0
  6
CONTINUOUS
 62
3
 10
-568.587776982021860
 20
-75.839481554673171
 40
5.000000000000041
 50
224.999999999998180
 51
299.793441674209420
  0
ARC
  8
0
  6
CONTINUOUS
 62
3
 10
-582.921241027753810
 20
-85.547648069284037
 40
5.000000000000195
 50
308.426738841195630
 51
45.000000000000000
  0
ARC
  8
0
  6
CONTINUOUS
 62
3
 10
-604.245561304228090
 20
-64.223327792809528
 40
5.000000000000041
 50
44.999999999998167
 51
129.790979576180970
  0
ARC
  8
0
  6
CONTINUOUS
 62
3
 10
-389.973148142362900
 20
-85.547648069284037
 40
4.999999999999879
 50
134.999999999996310
 51
231.573261158808440
  0
ARC
  8
0
  6
CONTINUOUS
 62
3
 10
-404.306612188094390
 20
-75.839481554673171
 40
4.999999999999973
 50
240.206558325790580
 51
315.000000000001820
  0
ARC
  8
0
  6
CONTINUOUS
 62
3
 10
-368.648827865888170
 20
-64.223327792809528
 40
5.000000000000075
 50
50.209020423819034
 51
135.000000000001820
  0
ARC
  8
0
  6
CONTINUOUS
 62
3
 10
-382.489336768635100
 20
-54.022206135213878
 40
4.999999999999718
 50
314.999999999998120
 51
57.006973874308571
  0
LINE
  8
0
  6
DASHDOT
 62
4
 10
-607.008900777364150
 20
-49.439173039502180
 11
-634.586065243639150
 21
-21.862008573226717
  0
LINE
  8
0
  6
DASHDOT
 62
4
 10
-365.885488392751200
 20
-49.439173039502180
 11
-338.308323926476190
 21
-21.862008573227172
  0
LINE
  8
0
  6
DASHDOT
 62
4
 10
-365.885488392751650
 20
-290.562585424115130
 11
-338.308323926476190
 21
-318.139749890390590
  0
LINE
  8
0
  6
DASHDOT
 62
4
 10
-607.008900777364600
 20
-290.562585424115130
 11
-634.586065243639610
 21
-318.139749890390590
  0
LINE
  8
0
  6
CONTINUOUS
 62
3
 10
-343.947194585057900
 20
-12.500879231808426
 11
-628.947194585057900
 21
-12.500879231808426
  0
LINE
  8
0
  6
CONTINUOUS
 62
3
 10
-643.947194585057900
 20
-27.500879231808426
 11
-643.947194585057900
 21
-312.500879231808880
  0
LINE
  8
0
  6
CONTINUOUS
 62
3
 10
-328.947194585057900
 20
-27.500879231808426
 11
-328.947194585057900
 21
-312.500879231808880
  0
LINE
  8
0
  6
CONTINUOUS
 62
3
 10
-574.841649133589840
 20
-327.500879231808880
 11
-628.947194585057900
 21
-327.500879231808880
  0
LINE
  8
0
  6
CONTINUOUS
 62
3
 10
-343.947194585057900
 20
-327.500879231808880
 11
-397.981686802335960
 21
-327.500879231808880
  0
LINE
  8
0
  6
CONTINUOUS
 62
3
 10
-593.940586307414040
 20
-57.557740041146531
 11
-572.123310887954740
 21
-79.375015460605823
  0
LINE
  8
0
  6
CONTINUOUS
 62
3
 10
-600.710027398295210
 20
-60.687793886876875
 11
-579.385707121820930
 21
-82.012114163351157
  0
LINE
  8
0
  6
CONTINUOUS
 62
3
 10
-378.953802862702670
 20
-57.557740041146531
 11
-400.771078282161510
 21
-79.375015460605823
  0
LINE
  8
0
  6
CONTINUOUS
 62
3
 10
-372.184361771821050
 20
-60.687793886876875
 11
-393.508682048295330
 21
-82.012114163351157
  0
CIRCLE
  8
0
  6
CONTINUOUS
 62
3
 10
-486.447194585056990
 20
-50.000879231808199
 40
10.000000000000000
  0
LINE
  8
0
  6
DASHDOT
 62
4
 10
-463.279281586175440
 20
-50.000879231808199
 11
-510.301795487710140
 21
-50.000879231808199
  0
LINE
  8
0
  6
CONTINUOUS
 62
3
 10
-475.947194585056990
 20
-30.000879231808199
 11
-496.947194585056990
 21
-30.000879231808199
  0
LINE
  8
0
  6
CONTINUOUS
 62
3
 10
-506.947194585056990
 20
-40.000879231808199
 11
-506.947194585056990
 21
-65.351189829737109
  0
ARC
  8
0
  6
CONTINUOUS
 62
3
 10
-496.947194585056990
 20
-40.000879231808199
 40
10.000000000000000
 50
90.000000000000000
 51
180.000000000000000
  0
LINE
  8
0
  6
CONTINUOUS
 62
3
 10
-465.947194585056990
 20
-40.000879231808199
 11
-465.947194585056990
 21
-65.351189829737109
  0
ARC
  8
0
  6
CONTINUOUS
 62
3
 10
-475.947194585056990
 20
-40.000879231808199
 40
10.000000000000000
 50
0.000000000000000
 51
90.000000000000000
  0
ARC
  8
0
  6
CONTINUOUS
 62
3
 10
-486.447194585057900
 20
-665.000880044701830
 40
600.000000000000000
 50
91.957986872393320
 51
92.924523789728269
  0
ARC
  8
0
  6
CONTINUOUS
 62
3
 10
-511.447194585058360
 20
-175.639050720019330
 40
110.000000000000040
 50
92.924523789728156
 51
180.000000000000000
  0
ARC
  8
0
  6
CONTINUOUS
 62
3
 10
-486.447194585057900
 20
-665.000880044701830
 40
599.999999999999770
 50
87.075476210271731
 51
88.042013127606680
  0
LINE
  8
0
  6
CONTINUOUS
 62
3
 10
-506.947194585057900
 20
-65.351190642630968
 11
-506.947194585057900
 21
-87.000879231808426
  0
LINE
  8
0
  6
CONTINUOUS
 62
3
 10
-465.947194585057900
 20
-65.351190642630968
 11
-465.947194585057900
 21
-87.000879231808426
  0
LINE
  8
0
  6
CONTINUOUS
 62
3
 10
-364.447194585057450
 20
-227.000879231807970
 11
-355.078015191083180
 21
-227.000879231807970
  0
ARC
  8
0
  6
CONTINUOUS
 62
3
 10
-355.078015191083180
 20
-230.000879231807970
 40
2.999999999999921
 50
345.029598694536160
 51
90.000000000000000
  0
LINE
  8
0
  6
CONTINUOUS
 62
3
 10
-364.447194585057450
 20
-201.000879231807970
 11
-354.447194585057450
 21
-201.000879231807970
  0
ARC
  8
0
  6
CONTINUOUS
 62
3
 10
-354.447194585057450
 20
-198.000879231807970
 40
3.000000000000000
 50
270.000000000000000
 51
0.000000000000000
  0
ARC
  8
0
  6
CONTINUOUS
 62
3
 10
-617.816373979032620
 20
-230.000879231807970
 40
3.000000000000000
 50
90.000000000000000
 51
194.970401305463840
  0
ARC
  8
0
  6
CONTINUOUS
 62
3
 10
-618.447194585058360
 20
-198.000879231807970
 40
3.000000000000000
 50
180.000000000000000
 51
270.000000000000000
  0
ARC
  8
0
  6
CONTINUOUS
 62
3
 10
-608.447194585058360
 20
-214.000879231807970
 40
13.000000000000000
 50
270.000000000000000
 51
90.000000000000000
  0
LINE
  8
0
  6
CONTINUOUS
 62
3
 10
-608.447194585058360
 20
-201.000879231807970
 11
-618.447194585058360
 21
-201.000879231807970
  0
LINE
  8
0
  6
CONTINUOUS
 62
3
 10
-608.447194585058360
 20
-227.000879231807970
 11
-617.816373979032620
 21
-227.000879231807970
  0
ARC
  8
0
  6
CONTINUOUS
 62
3
 10
-381.053703427555430
 20
-303.373555109138010
 40
5.000000000000201
 50
225.000000000000000
 51
324.810226266870360
  0
ARC
  8
0
  6
CONTINUOUS
 62
3
 10
-392.440147740365890
 20
-316.028741356670370
 40
4.999999999999826
 50
311.231476075720650
 51
45.000000000003688
  0
ARC
  8
0
  6
CONTINUOUS
 62
3
 10
-591.840685742560370
 20
-303.373555109138240
 40
4.999999999999545
 50
215.189773733130520
 51
315.000000000001820
  0
ARC
  8
0
  6
CONTINUOUS
 62
3
 10
-580.454241429749910
 20
-316.028741356670370
 40
4.999999999999718
 50
134.999999999998150
 51
228.768523924279320
  0
ARC
  8
0
  6
CONTINUOUS
 62
3
 10
-439.895542732730630
 20
-261.880929894722500
 40
77.000000000000085
 50
305.114466930115950
 51
340.000000000000340
  0
ARC
  8
0
  6
CONTINUOUS
 62
3
 10
-391.002538637479690
 20
-331.411312825796470
 40
7.999999999999969
 50
125.114466930115760
 51
175.505843472000290
  0
ARC
  8
0
  6
CONTINUOUS
 62
3
 10
-408.947194585057900
 20
-330.000879231807970
 40
10.000000000000000
 50
306.869897645843990
 51
355.505843472000610
  0
LINE
  8
0
  6
CONTINUOUS
 62
3
 10
-486.447194585057900
 20
-338.000879231807970
 11
-402.947194585057900
 21
-338.000879231807970
  0
LINE
  8
0
  6
CONTINUOUS
 62
3
 10
-486.447194585057900
 20
-338.000879231807970
 11
-569.947194585057900
 21
-338.000879231807970
  0
ARC
  8
0
  6
CONTINUOUS
 62
3
 10
-563.947194585057900
 20
-330.000879231807970
 40
9.999999999999778
 50
184.494156527999370
 51
233.130102354155980
  0
ARC
  8
0
  6
CONTINUOUS
 62
3
 10
-581.891850532636110
 20
-331.411312825796470
 40
8.000000000000373
 50
4.494156527999717
 51
54.885533069884232
  0
ARC
  8
0
  6
CONTINUOUS
 62
3
 10
-532.998846437385170
 20
-261.880929894722500
 40
76.999999999999844
 50
199.999999999999770
 51
234.885533069884020
  0
ARC
  8
0
  6
CONTINUOUS
 62
3
 10
-550.188367706062880
 20
-285.762867632984010
 40
4.999999999999702
 50
28.402451678796261
 51
135.000000000001820
  0
ARC
  8
0
  6
CONTINUOUS
 62
3
 10
-439.895542732730630
 20
-261.880929894722500
 40
43.999999999999915
 50
228.360992047548710
 51
319.912288498426220
  0
ARC
  8
0
  6
CONTINUOUS
 62
3
 10
-439.895542732730630
 20
-261.880929894722500
 40
44.000000000000071
 50
319.912288498426220
 51
33.109776708315003
  0
ARC
  8
0
  6
CONTINUOUS
 62
3
 10
-558.648920295581430
 20
-270.181789662159760
 40
5.000000000000041
 50
315.000000000001820
 51
38.492496408252435
  0
ARC
  8
0
  6
CONTINUOUS
 62
3
 10
-546.628105015409910
 20
-137.799153521285580
 40
5.000000000000201
 50
225.000000000000000
 51
228.365633755029820
  0
ARC
  8
0
  6
CONTINUOUS
 62
3
 10
-398.851892257268100
 20
-235.114929901296700
 40
5.000000000000142
 50
171.091670649431510
 51
213.109776708314170
  0
ARC
  8
0
  6
CONTINUOUS
 62
3
 10
-472.452866187665790
 20
-298.500879231808430
 40
5.000000000000199
 50
48.360992047546546
 51
90.000000000000000
  0
ARC
  8
0
  6
CONTINUOUS
 62
3
 10
-553.884147199223780
 20
-275.614266597218030
 40
5.000000000000277
 50
11.617396360404429
 51
44.014880135744747
  0
ARC
  8
0
  6
CONTINUOUS
 62
3
 10
-517.642123559973360
 20
-268.163379231808340
 40
31.999999999999829
 50
191.617396360406130
 51
304.921969447764520
  0
ARC
  8
0
  6
CONTINUOUS
 62
3
 10
-496.461092099017720
 20
-298.500879231808430
 40
5.000000000000000
 50
90.000000000000000
 51
124.921969447764190
  0
ARC
  8
0
  6
CONTINUOUS
 62
3
 10
-408.755479924549150
 20
-299.713409172487330
 40
5.000000000000041
 50
44.999999999998167
 51
129.457930749405760
  0
ARC
  8
0
  6
CONTINUOUS
 62
3
 10
-397.676171675537830
 20
-286.751086861156300
 40
4.999999999999973
 50
149.498945295270290
 51
225.000000000003690
  0
ARC
  8
0
  6
CONTINUOUS
 62
3
 10
-601.447194585058360
 20
-225.408125051930600
 40
20.000000000000000
 50
180.000000000000000
 51
194.970401305464950
  0
ARC
  8
0
  6
CONTINUOUS
 62
3
 10
-371.447194585057900
 20
-225.408125051930600
 40
19.999999999999925
 50
345.029598694534740
 51
0.000000000000000
  0
ARC
  8
0
  6
CONTINUOUS
 62
3
 10
-461.447194585057450
 20
-175.639050720019330
 40
110.000000000000000
 50
0.000000000000000
 51
87.075476210271844
  0
LINE
  8
0
  6
CONTINUOUS
 62
3
 10
-553.723901611995760
 20
-282.227333727051360
 11
-583.989775335682340
 21
-312.493207450737710
  0
LINE
  8
0
  6
CONTINUOUS
 62
3
 10
-555.113386389648550
 20
-273.717323568092410
 11
-588.305151836627490
 21
-306.909089015070890
  0
LINE
  8
0
  6
CONTINUOUS
 62
3
 10
-550.163638921342790
 20
-141.334687427218460
 11
-551.917923279699040
 21
-139.580403068862210
  0
LINE
  8
0
  6
CONTINUOUS
 62
3
 10
-574.135184502338350
 20
-127.262636782834760
 11
-592.075396691674650
 21
-109.322424593498560
  0
LINE
  8
0
  6
CONTINUOUS
 62
3
 10
-405.219946018616270
 20
-296.177875266554680
 11
-388.904613834433460
 21
-312.493207450737490
  0
LINE
  8
0
  6
CONTINUOUS
 62
3
 10
-401.211705581470260
 20
-290.286620767089180
 11
-384.589237333488310
 21
-306.909089015070890
  0
LINE
  8
0
  6
CONTINUOUS
 62
3
 10
-620.768382623758610
 20
-230.574525420969050
 11
-605.355178237900530
 21
-288.216480930798640
  0
LINE
  8
0
  6
CONTINUOUS
 62
3
 10
-352.126006546358100
 20
-230.574525420969050
 11
-367.539210932216180
 21
-288.216480930798640
  0
LINE
  8
0
  6
CONTINUOUS
 62
3
 10
-621.447194585058360
 20
-175.639050720019330
 11
-621.447194585058360
 21
-225.408125051930600
  0
LINE
  8
0
  6
CONTINUOUS
 62
3
 10
-351.447194585057900
 20
-175.639050720019330
 11
-351.447194585057900
 21
-225.408125051930600
  0
LINE
  8
0
  6
CONTINUOUS
 62
3
 10
-482.947194585057900
 20
-95.000879231808426
 11
-482.947194585057900
 21
-111.521255837277860
  0
LINE
  8
0
  6
CONTINUOUS
 62
3
 10
-489.947194585057900
 20
-94.000879231808426
 11
-489.947194585058360
 21
-111.521255837277860
  0
ARC
  8
0
  6
CONTINUOUS
 62
3
 10
-388.542380217768480
 20
-100.075249584348850
 40
5.000000000000041
 50
315.000000000001820
 51
46.026024481648633
  0
ARC
  8
0
  6
CONTINUOUS
 62
3
 10
-503.947194585057900
 20
-87.000879231808426
 40
3.000000000000000
 50
180.000000000000000
 51
270.000000000000000
  0
ARC
  8
0
  6
CONTINUOUS
 62
3
 10
-468.947194585057900
 20
-87.000879231808426
 40
3.000000000000000
 50
270.000000000000000
 51
0.000000000000000
  0
ARC
  8
0
  6
CONTINUOUS
 62
3
 10
-477.947194585057900
 20
-95.000879231808426
 40
5.000000000000000
 50
90.000000000000000
 51
180.000000000000000
  0
ARC
  8
0
  6
CONTINUOUS
 62
3
 10
-494.947194585057900
 20
-95.000879231808426
 40
5.000000000000000
 50
0.000000000000000
 51
90.000000000000000
  0
LINE
  8
0
  6
CONTINUOUS
 62
3
 10
-503.947194585057900
 20
-90.000879231808426
 11
-486.447194585057900
 21
-90.000879231808426
  0
LINE
  8
0
  6
CONTINUOUS
 62
3
 10
-486.447194585057900
 20
-90.000879231808426
 11
-468.947194585057900
 21
-90.000879231808426
  0
ARC
  8
0
  6
CONTINUOUS
 62
3
 10
-377.283458572508270
 20
-112.857958499431440
 40
5.000000000000055
 50
36.720727734715837
 51
135.000000000000000
  0
ARC
  8
0
  6
CONTINUOUS
 62
3
 10
-584.352008952347320
 20
-100.075249584348850
 40
4.999999999999923
 50
133.973975518351350
 51
225.000000000003690
  0
ARC
  8
0
  6
CONTINUOUS
 62
3
 10
-595.610930597607530
 20
-112.857958499431440
 40
5.000000000000201
 50
45.000000000000000
 51
143.279272265286270
  0
ARC
  8
0
  6
CONTINUOUS
 62
3
 10
-547.368568566709310
 20
-256.270050309187350
 40
3.000000000000157
 50
217.216305150621450
 51
305.655769637476740
  0
ARC
  8
0
  6
CONTINUOUS
 62
3
 10
-532.716365662436710
 20
-270.922253213459840
 40
2.999999999999963
 50
144.344230362521470
 51
232.783694849374170
  0
ARC
  8
0
  6
CONTINUOUS
 62
3
 10
-440.178023507679090
 20
-270.922253213459840
 40
3.000000000000045
 50
307.216305150625770
 51
35.655769637478542
  0
ARC
  8
0
  6
CONTINUOUS
 62
3
 10
-425.525820603406490
 20
-256.270050309187350
 40
2.999999999999897
 50
234.344230362523230
 51
322.783694849380250
  0
ARC
  8
0
  6
CONTINUOUS
 62
3
 10
-541.247970127015490
 20
-264.801654773765790
 40
7.500000000000311
 50
324.344230362523150
 51
125.655769637477660
  0
ARC
  8
0
  6
CONTINUOUS
 62
3
 10
-431.646419043100310
 20
-264.801654773765790
 40
7.499999999999967
 50
54.344230362522332
 51
215.655769637476880
  0
ARC
  8
0
  6
CONTINUOUS
 62
3
 10
-511.947194585057900
 20
-248.285993832655550
 40
3.000000000000000
 50
0.000000000000000
 51
56.334193595323846
  0
ARC
  8
0
  6
CONTINUOUS
 62
3
 10
-500.947194585057900
 20
-253.655775864374160
 40
2.999999999999956
 50
71.626061996671027
 51
180.000000000000000
  0
ARC
  8
0
  6
CONTINUOUS
 62
3
 10
-471.947194585057900
 20
-253.655775864374160
 40
3.000000000000000
 50
0.000000000000000
 51
108.373938003328970
  0
ARC
  8
0
  6
CONTINUOUS
 62
3
 10
-460.947194585057900
 20
-248.285993832655550
 40
3.000000000000062
 50
123.665806404676170
 51
180.000000000000000
  0
ARC
  8
0
  6
CONTINUOUS
 62
3
 10
-486.447194585057900
 20
-210.000879231808430
 40
43.000000000000121
 50
206.245931860254190
 51
333.754068139745870
  0
ARC
  8
0
  6
CONTINUOUS
 62
3
 10
-511.947194585057900
 20
-285.500879231808430
 40
3.000000000000000
 50
270.000000000000000
 51
0.000000000000000
  0
ARC
  8
0
  6
CONTINUOUS
 62
3
 10
-500.947194585057900
 20
-285.500879231808430
 40
3.000000000000000
 50
180.000000000000000
 51
270.000000000000000
  0
ARC
  8
0
  6
CONTINUOUS
 62
3
 10
-471.947194585057900
 20
-285.500879231808430
 40
3.000000000000000
 50
270.000000000000000
 51
0.000000000000000
  0
ARC
  8
0
  6
CONTINUOUS
 62
3
 10
-460.947194585057900
 20
-285.500879231808430
 40
3.000000000000000
 50
180.000000000000000
 51
270.000000000000000
  0
ARC
  8
0
  6
CONTINUOUS
 62
3
 10
-486.447194585057900
 20
-210.000879231808430
 40
26.999999999999996
 50
231.132316163394620
 51
270.000000000000000
  0
ARC
  8
0
  6
CONTINUOUS
 62
3
 10
-486.447194585057900
 20
-210.000879231808430
 40
27.000000000000000
 50
270.000000000000000
 51
308.867683836605350
  0
LINE
  8
0
  6
CONTINUOUS
 62
3
 10
-463.947194585057900
 20
-248.285993832655550
 11
-463.947194585057900
 21
-285.500879231808430
  0
LINE
  8
0
  6
CONTINUOUS
 62
3
 10
-468.947194585057900
 20
-253.655775864374160
 11
-468.947194585057900
 21
-285.500879231808430
  0
LINE
  8
0
  6
CONTINUOUS
 62
3
 10
-503.947194585057900
 20
-253.655775864374160
 11
-503.947194585057900
 21
-285.500879231808430
  0
LINE
  8
0
  6
CONTINUOUS
 62
3
 10
-508.947194585057900
 20
-248.285993832655550
 11
-508.947194585057900
 21
-285.500879231808430
  0
ARC
  8
0
  6
CONTINUOUS
 62
3
 10
-499.947194585057900
 20
-196.500879231808430
 40
70.000000000000000
 50
136.278229842815450
 51
136.766765190805440
  0
ARC
  8
0
  6
CONTINUOUS
 62
3
 10
-499.947194585057900
 20
-223.500879231808430
 40
70.000000000000000
 50
180.000000000000000
 51
270.000000000000000
  0
ARC
  8
0
  6
CONTINUOUS
 62
3
 10
-472.947194585057900
 20
-223.500879231808430
 40
70.000000000000000
 50
270.000000000000000
 51
0.000000000000000
  0
LINE
  8
0
  6
CONTINUOUS
 62
3
 10
-569.947194585057900
 20
-206.265348250223610
 11
-569.947194585057900
 21
-223.500879231808430
  0
LINE
  8
0
  6
CONTINUOUS
 62
3
 10
-472.947194585057900
 20
-293.500879231808430
 11
-499.947194585057900
 21
-293.500879231808430
  0
INSERT
  8
0
  2
SYM4
 10
-573.892016791401260
 20
-212.419835843072630
 41
1.000000000000000
 42
1.000000000000000
 43
1.000000000000000
 50
357.137594773886350
  0
INSERT
  8
0
  2
SYM5
 10
-536.447194585057900
 20
-79.000880044701603
 41
-1.000000000000000
  0
INSERT
  8
0
  2
SYM6
 10
-496.947194585057900
 20
-78.000879231808426
 41
-1.000000000000000
  0
INSERT
  8
0
  2
SYM7
 10
-563.947194585057450
 20
-330.000879231807970
 41
-1.000000000000000
  0
INSERT
  8
0
  2
SYM8
 10
-608.447194585058360
 20
-238.000879231808200
 41
-1.000000000000000
  0
INSERT
  8
0
  2
SYM9
 10
-607.447194585057900
 20
-148.000880044701600
 41
-1.000000000000000
  0
INSERT
  8
0
  2
SYM10
 10
-478.947194585057900
 20
-329.000879231807970
  0
INSERT
  8
0
  2
SYM11
 10
-408.947194585057900
 20
-330.000879231807970
  0
INSERT
  8
0
  2
SYM12
 10
-364.447194585057450
 20
-238.000879231807970
  0
INSERT
  8
0
  2
SYM13
 10
-365.447194585057900
 20
-148.000880044701380
  0
INSERT
  8
0
  2
SYM14
 10
-436.447194585057900
 20
-79.000880044701603
  0
INSERT
  8
0
  2
SYM15
 10
-475.947194585057900
 20
-78.000879231808426
  0
INSERT
  8
0
  2
SYM16
 10
-431.646419043100310
 20
-264.801654773765790
  0
INSERT
  8
0
  2
SYM17
 10
-541.247970127015490
 20
-264.801654773765790
  0
LINE
  8
0
  6
CONTINUOUS
 62
3
 10
-496.947194585057900
 20
-88.000879231813883
 11
-475.947194585057900
 21
-88.000879231813883
  0
ARC
  8
0
  6
CONTINUOUS
 62
3
 10
-475.947194585057900
 20
-78.000879231813883
 40
10.000000000000000
 50
270.000000000000000
 51
0.000000000000000
  0
ARC
  8
0
  6
CONTINUOUS
 62
3
 10
-496.947194585057900
 20
-78.000879231813883
 40
10.000000000000000
 50
180.000000000000000
 51
270.000000000000000
  0
ARC
  8
0
  6
CONTINUOUS
 62
3
 10
299.652959800822830
 20
154.899120768188370
 40
0.400000000000546
 50
270.000000000000000
 51
0.000000000000000
  0
LINE
  8
0
  6
CONTINUOUS
 62
3
 10
299.652959800822830
 20
154.499120768187820
 11
227.612767421957870
 21
154.499120768187820
  0
LINE
  8
0
  6
CONTINUOUS
 62
3
 10
300.052959800822460
 20
178.499120768187820
 11
300.052959800822460
 21
150.999120768187820
  0
LINE
  8
0
  6
CONTINUOUS
 62
3
 10
300.052959800822460
 20
150.999120768187820
 11
230.052959800822460
 21
150.999120768187820
  0
ARC
  8
0
  6
CONTINUOUS
 62
3
 10
299.652959800822830
 20
202.099120768187280
 40
0.399999999999636
 50
0.000000000000000
 51
90.000000000000000
  0
LINE
  8
0
  6
CONTINUOUS
 62
3
 10
300.052959800822460
 20
178.499120768187820
 11
300.052959800822460
 21
202.099120768187280
  0
LINE
  8
0
  6
CONTINUOUS
 62
3
 10
299.652959800822830
 20
202.499120768187820
 11
227.612767421957870
 21
202.499120768187820
  0
LINE
  8
0
  6
CONTINUOUS
 62
3
 10
225.052959800822460
 20
153.699120768187640
 11
224.852959800822650
 21
153.499120768187820
  0
ARC
  8
0
  6
CONTINUOUS
 62
3
 10
225.852959800822650
 20
153.849120768187280
 40
0.800000000001091
 50
90.000000000000000
 51
180.000000000000000
  0
LINE
  8
0
  6
CONTINUOUS
 62
3
 10
225.052959800822460
 20
153.849120768187280
 11
225.052959800822460
 21
153.699120768187640
  0
LINE
  8
0
  6
CONTINUOUS
 62
3
 10
227.052959800822460
 20
154.649120768188370
 11
225.852959800822650
 21
154.649120768188370
  0
LINE
  8
0
  6
CONTINUOUS
 62
3
 10
227.052959800822460
 20
154.649120768188370
 11
227.612767421957870
 21
154.499120768187820
  0
LINE
  8
0
  6
CONTINUOUS
 62
3
 10
224.852959800822650
 20
153.499120768187820
 11
223.052959800822460
 21
153.499120768187820
  0
LINE
  8
0
  6
CONTINUOUS
 62
3
 10
225.052959800822460
 20
178.499120768187820
 11
225.052959800822460
 21
153.849120768187280
  0
LINE
  8
0
  6
CONTINUOUS
 62
3
 10
225.052959800822460
 20
203.299120768188000
 11
224.852959800822650
 21
203.499120768187820
  0
ARC
  8
0
  6
CONTINUOUS
 62
3
 10
225.852959800822650
 20
203.149120768188370
 40
0.800000000000182
 50
180.000000000000000
 51
270.000000000000000
  0
LINE
  8
0
  6
CONTINUOUS
 62
3
 10
225.052959800822460
 20
203.149120768188370
 11
225.052959800822460
 21
203.299120768188000
  0
LINE
  8
0
  6
CONTINUOUS
 62
3
 10
227.052959800822460
 20
202.349120768187280
 11
225.852959800822650
 21
202.349120768187280
  0
LINE
  8
0
  6
CONTINUOUS
 62
3
 10
227.052959800822460
 20
202.349120768187280
 11
227.612767421957870
 21
202.499120768187820
  0
LINE
  8
0
  6
CONTINUOUS
 62
3
 10
224.852959800822650
 20
203.499120768187820
 11
223.052959800822460
 21
203.499120768187820
  0
LINE
  8
0
  6
CONTINUOUS
 62
3
 10
225.052959800822460
 20
178.499120768187820
 11
225.052959800822460
 21
203.149120768188370
  0
LINE
  8
0
  6
CONTINUOUS
 62
3
 10
230.052959800822460
 20
150.999120768187820
 11
230.052959800822460
 21
154.499120768187820
  0
LINE
  8
0
  6
CONTINUOUS
 62
3
 10
206.552959800822460
 20
178.499120768187820
 11
206.552959800822460
 21
58.354459827515257
  0
LINE
  8
0
  6
CONTINUOUS
 62
3
 10
206.552959800822460
 20
178.499120768187820
 11
206.552959800822460
 21
298.643781708860390
  0
LINE
  8
0
  6
CONTINUOUS
 62
3
 10
213.552959800822460
 20
265.403954555283690
 11
208.552959800822460
 21
265.403954555283690
  0
LINE
  8
0
  6
CONTINUOUS
 62
3
 10
213.552959800822460
 20
300.643781708860390
 11
208.552959800822460
 21
300.643781708860390
  0
ARC
  8
0
  6
CONTINUOUS
 62
3
 10
208.552959800822460
 20
298.643781708860390
 40
2.000000000000000
 50
90.000000000000000
 51
180.000000000000000
  0
ARC
  8
0
  6
CONTINUOUS
 62
3
 10
208.552959800822460
 20
263.403954555283690
 40
2.000000000000000
 50
90.000000000000000
 51
180.000000000000000
  0
LINE
  8
0
  6
CONTINUOUS
 62
3
 10
213.552959800822460
 20
91.594286981091955
 11
208.552959800822460
 21
91.594286981091955
  0
LINE
  8
0
  6
CONTINUOUS
 62
3
 10
213.552959800822460
 20
56.354459827515257
 11
208.552959800822460
 21
56.354459827515257
  0
ARC
  8
0
  6
CONTINUOUS
 62
3
 10
208.552959800822460
 20
58.354459827515257
 40
2.000000000000000
 50
180.000000000000000
 51
270.000000000000000
  0
ARC
  8
0
  6
CONTINUOUS
 62
3
 10
208.552959800822460
 20
93.594286981091955
 40
2.000000000000000
 50
180.000000000000000
 51
270.000000000000000
  0
ARC
  8
0
  6
CONTINUOUS
 62
3
 10
188.552959800822460
 20
34.619867633109834
 40
5.000000000000000
 50
0.000000000000000
 51
87.999999999996405
  0
ARC
  8
0
  6
CONTINUOUS
 62
3
 10
188.552959800822460
 20
322.378373903265810
 40
5.000000000000153
 50
272.000000000003580
 51
0.000000000000000
  0
LINE
  8
0
  6
DASHDOT
 62
4
 10
231.690829431804560
 20
44.148832342743844
 11
179.535784310121930
 21
44.148832342743844
  0
LINE
  8
0
  6
DASHDOT
 62
4
 10
231.690829431804560
 20
312.849409193632030
 11
179.535784310121930
 21
312.849409193632030
  0
LINE
  8
0
  6
CONTINUOUS
 62
3
 10
193.552959800822460
 20
23.999120768187822
 11
193.552959800822460
 21
332.999120768187820
  0
ARC
  8
0
  6
CONTINUOUS
 62
3
 10
221.552959800822460
 20
105.147474223942700
 40
5.000000000000129
 50
123.367012969230780
 51
143.130102354155980
  0
LINE
  8
0
  6
CONTINUOUS
 62
3
 10
213.552959800822460
 20
178.499120768187820
 11
213.552959800822460
 21
20.999120768188277
  0
LINE
  8
0
  6
CONTINUOUS
 62
3
 10
217.552959800822460
 20
178.499120768187820
 11
217.552959800822460
 21
34.499120768188277
  0
LINE
  8
0
  6
CONTINUOUS
 62
3
 10
221.052959800822460
 20
178.499120768187820
 11
221.052959800822460
 21
113.499120768187820
  0
LINE
  8
0
  6
CONTINUOUS
 62
3
 10
213.552959800822460
 20
20.999120768188050
 11
196.552959800822460
 21
20.999120768188050
  0
ARC
  8
0
  6
CONTINUOUS
 62
3
 10
196.552959800822460
 20
23.999120768187822
 40
3.000000000000000
 50
180.000000000000000
 51
270.000000000000000
  0
ARC
  8
0
  6
CONTINUOUS
 62
3
 10
216.052959800822460
 20
243.754297934613310
 40
5.000000000000000
 50
0.000000000000000
 51
72.542396876278175
  0
LINE
  8
0
  6
CONTINUOUS
 62
3
 10
217.552959800822460
 20
178.499120768187820
 11
217.552959800822460
 21
322.499120768187820
  0
LINE
  8
0
  6
CONTINUOUS
 62
3
 10
221.052959800822920
 20
178.499120768187820
 11
221.052959800822460
 21
243.754297934613310
  0
LINE
  8
0
  6
CONTINUOUS
 62
3
 10
213.552959800822460
 20
178.499120768187820
 11
213.552959800822460
 21
335.999120768187820
  0
ARC
  8
0
  6
CONTINUOUS
 62
3
 10
222.052959800822460
 20
133.499120768187820
 40
1.000000000000000
 50
90.000000000000000
 51
180.000000000000000
  0
ARC
  8
0
  6
CONTINUOUS
 62
3
 10
222.052959800822460
 20
223.499120768187820
 40
1.000000000000000
 50
180.000000000000000
 51
270.000000000000000
  0
ARC
  8
0
  6
CONTINUOUS
 62
3
 10
196.552959800822460
 20
332.999120768187820
 40
3.000000000000000
 50
90.000000000000000
 51
180.000000000000000
  0
ARC
  8
0
  6
CONTINUOUS
 62
3
 10
216.052959800822460
 20
113.499120768187820
 40
4.999999999999939
 50
303.367012969232230
 51
0.000000000000000
  0
LINE
  8
0
  6
CONTINUOUS
 62
3
 10
216.552959800822460
 20
33.499120768188277
 11
213.552959800822460
 21
33.499120768188277
  0
LINE
  8
0
  6
CONTINUOUS
 62
3
 10
213.552959800822460
 20
335.999120768187820
 11
196.552959800822460
 21
335.999120768187820
  0
LINE
  8
0
  6
CONTINUOUS
 62
3
 10
216.552959800822460
 20
323.499120768187820
 11
213.552959800822460
 21
323.499120768187820
  0
LINE
  8
0
  6
CONTINUOUS
 62
3
 10
223.052959800822460
 20
134.499120768187820
 11
223.052959800822460
 21
222.499120768187590
  0
LINE
  8
0
  6
CONTINUOUS
 62
3
 10
217.552959800822460
 20
34.499120768188277
 11
216.552959800822460
 21
33.499120768188277
  0
LINE
  8
0
  6
CONTINUOUS
 62
3
 10
217.552959800822460
 20
322.499120768187820
 11
216.552959800822460
 21
323.499120768187820
  0
LINE
  8
0
  6
CONTINUOUS
 62
3
 10
222.052959800822460
 20
222.499120768187820
 11
223.052959800822460
 21
222.499120768187590
  0
LINE
  8
0
  6
CONTINUOUS
 62
3
 10
222.052959800822460
 20
134.499120768187820
 11
223.052959800822460
 21
134.499120768187820
  0
LINE
  8
0
  6
CONTINUOUS
 62
3
 10
188.803355712500890
 20
260.639703165151330
 11
161.330977079690460
 21
260.639703165151330
  0
LINE
  8
0
  6
CONTINUOUS
 62
3
 10
157.611708949411880
 20
270.422400445449510
 11
191.474289093579050
 21
294.800995734642810
  0
ARC
  8
0
  6
CONTINUOUS
 62
3
 10
188.552959800822460
 20
298.858807357091790
 40
4.999999999999970
 50
305.751143201122320
 51
0.000000000000000
  0
ARC
  8
0
  6
CONTINUOUS
 62
3
 10
154.690379656655750
 20
274.480212067898490
 40
5.000000000000000
 50
270.000000000000000
 51
305.751143201118110
  0
ARC
  8
0
  6
CONTINUOUS
 62
3
 10
188.552959800822460
 20
290.018298454344630
 40
5.000000000000155
 50
305.751143201120780
 51
0.000000000000000
  0
LINE
  8
0
  6
CONTINUOUS
 62
3
 10
157.611708949411880
 20
261.581891542702350
 11
191.474289093579050
 21
285.960486831895420
  0
ARC
  8
0
  6
CONTINUOUS
 62
3
 10
154.690379656655750
 20
265.639703165151330
 40
5.000000000000000
 50
270.000000000000000
 51
305.751143201118110
  0
ARC
  8
0
  6
CONTINUOUS
 62
3
 10
188.552959800822460
 20
169.999120768187820
 40
5.000000000000000
 50
0.000000000000000
 51
90.000000000000000
  0
LINE
  8
0
  6
CONTINUOUS
 62
3
 10
188.552959800822460
 20
174.999120768187820
 11
161.302981803026340
 21
174.999120768187820
  0
ARC
  8
0
  6
CONTINUOUS
 62
3
 10
188.552959800822460
 20
186.999120768187820
 40
5.000000000000000
 50
270.000000000000000
 51
0.000000000000000
  0
LINE
  8
0
  6
CONTINUOUS
 62
3
 10
188.552959800822460
 20
181.999120768187820
 11
161.302981803026340
 21
181.999120768187820
  0
ARC
  8
0
  6
CONTINUOUS
 62
3
 10
161.302981803026340
 20
186.999120768187820
 40
5.000000000000000
 50
180.000000000000000
 51
270.000000000000000
  0
ARC
  8
0
  6
CONTINUOUS
 62
3
 10
161.302981803026340
 20
169.999120768187820
 40
5.000000000000000
 50
90.000000000000000
 51
180.000000000000000
  0
LINE
  8
0
  6
CONTINUOUS
 62
3
 10
188.803355712500890
 20
96.358538371224313
 11
161.330977079690460
 21
96.358538371224313
  0
LINE
  8
0
  6
CONTINUOUS
 62
3
 10
157.611708949411880
 20
86.575841090926133
 11
191.474289093579050
 21
62.197245801732834
  0
ARC
  8
0
  6
CONTINUOUS
 62
3
 10
188.552959800822460
 20
58.139434179283853
 40
5.000000000000000
 50
0.000000000000000
 51
54.248856798877661
  0
ARC
  8
0
  6
CONTINUOUS
 62
3
 10
154.690379656655750
 20
82.518029468477152
 40
4.999999999999703
 50
54.248856798881903
 51
90.000000000000000
  0
ARC
  8
0
  6
CONTINUOUS
 62
3
 10
188.552959800822460
 20
66.979943082031014
 40
5.000000000000000
 50
0.000000000000000
 51
54.248856798879189
  0
LINE
  8
0
  6
CONTINUOUS
 62
3
 10
157.611708949411880
 20
95.416349993673293
 11
191.474289093579050
 21
71.037754704480221
  0
ARC
  8
0
  6
CONTINUOUS
 62
3
 10
154.690379656655750
 20
91.358538371224313
 40
4.999999999999703
 50
54.248856798881903
 51
90.000000000000000
  0
LINE
  8
0
  6
DASHDOT
 62
4
 10
14.552959800804274
 20
160.211697603742780
 11
14.552959800804274
 21
197.567115080405070
  0
ARC
  8
0
  6
CONTINUOUS
 62
3
 10
31.552959800804274
 20
196.499120768187820
 40
3.000000000000000
 50
270.000000000000000
 51
0.000000000000000
  0
ARC
  8
0
  6
CONTINUOUS
 62
3
 10
31.552959800804274
 20
160.499120768187820
 40
3.000000000000000
 50
0.000000000000000
 51
90.000000000000000
  0
ARC
  8
0
  6
CONTINUOUS
 62
3
 10
-12.947040199201638
 20
123.999120768187820
 40
5.000000000000000
 50
270.000000000000000
 51
359.999999999997390
  0
LINE
  8
0
  6
CONTINUOUS
 62
3
 10
-26.947040199195726
 20
118.999120768187820
 11
30.552487231952909
 21
118.999120768187820
  0
LINE
  8
0
  6
CONTINUOUS
 62
3
 10
-26.947040199195726
 20
237.999120768187590
 11
-26.947040199195726
 21
178.499120768187820
  0
LINE
  8
0
  6
CONTINUOUS
 62
3
 10
-7.947040199202092
 20
123.999120768187590
 11
-7.947040199197090
 21
232.999120768187590
  0
ARC
  8
0
  6
CONTINUOUS
 62
3
 10
-12.947040199196636
 20
232.999120768187820
 40
4.999999999999545
 50
359.999999999997390
 51
90.000000000000000
  0
LINE
  8
0
  6
CONTINUOUS
 62
3
 10
-4.947040199199364
 20
193.499120768187820
 11
31.552959800804274
 21
193.499120768187820
  0
ARC
  8
0
  6
CONTINUOUS
 62
3
 10
-4.947040199199364
 20
196.499120768187820
 40
2.999999999999545
 50
180.000000000000000
 51
270.000000000000000
  0
LINE
  8
0
  6
CONTINUOUS
 62
3
 10
-4.947040199201183
 20
163.499120768187820
 11
31.552959800804274
 21
163.499120768187820
  0
ARC
  8
0
  6
CONTINUOUS
 62
3
 10
-4.947040199201183
 20
160.499120768187820
 40
3.000000000000000
 50
90.000000000000000
 51
180.000000000000000
  0
CIRCLE
  8
0
  6
CONTINUOUS
 62
3
 10
14.552959800804274
 20
178.499120768187820
 40
9.625113364740628
  0
LINE
  8
0
  6
CONTINUOUS
 62
3
 10
-26.947040199195726
 20
237.999120768187820
 11
30.552985186653359
 21
237.999120768187820
  0
ARC
  8
0
  6
CONTINUOUS
 62
3
 10
68.052959800822691
 20
45.499120768187822
 40
2.000000000000000
 50
180.000000000000000
 51
270.000000000000000
  0
LINE
  8
0
  6
CONTINUOUS
 62
3
 10
77.052959800822691
 20
178.499120768187820
 11
77.052959800822691
 21
43.499120768187822
  0
LINE
  8
0
  6
CONTINUOUS
 62
3
 10
66.052959800822691
 20
178.499120768187820
 11
66.052959800822691
 21
45.499120768187822
  0
ARC
  8
0
  6
CONTINUOUS
 62
3
 10
64.052959800822691
 20
66.541080876637807
 40
2.999999999999756
 50
99.594068226861253
 51
180.000000000000000
  0
LINE
  8
0
  6
CONTINUOUS
 62
3
 10
63.052959800822691
 20
43.499120768187822
 11
77.552959800822691
 21
43.499120768187822
  0
ARC
  8
0
  6
CONTINUOUS
 62
3
 10
63.052959800822691
 20
45.499120768187822
 40
2.000000000000000
 50
180.000000000000000
 51
270.000000000000000
  0
ARC
  8
0
  6
CONTINUOUS
 62
3
 10
61.052959800822691
 20
152.646865351775890
 40
5.000000000000000
 50
0.000000000000000
 51
87.999999999998934
  0
LINE
  8
0
  6
CONTINUOUS
 62
3
 10
61.227457284335287
 20
157.643819486871280
 11
56.948261310714997
 21
157.793252303076320
  0
ARC
  8
0
  6
CONTINUOUS
 62
3
 10
57.052959800822691
 20
160.791424784133600
 40
3.000000000000000
 50
180.000000000000000
 51
267.999999999996360
  0
LINE
  8
0
  6
CONTINUOUS
 62
3
 10
54.052959800822691
 20
178.499120768187820
 11
54.052959800822691
 21
157.999120768187820
  0
LINE
  8
0
  6
CONTINUOUS
 62
3
 10
54.052959800822691
 20
157.999120768187820
 11
49.552959800819053
 21
157.999120768187820
  0
LINE
  8
0
  6
CONTINUOUS
 62
3
 10
49.552959800819053
 20
178.499120768187820
 11
49.552959800819053
 21
157.999120768187820
  0
LINE
  8
0
  6
CONTINUOUS
 62
3
 10
61.052959800822691
 20
45.499120768187822
 11
61.052959800822691
 21
50.999120768187822
  0
LINE
  8
0
  6
CONTINUOUS
 62
3
 10
61.052959800822691
 20
63.999120768187822
 11
61.052959800822691
 21
66.541080876637807
  0
ARC
  8
0
  6
CONTINUOUS
 62
3
 10
48.552959800827239
 20
96.897049901617720
 40
2.000000000000000
 50
180.000000000000000
 51
266.999999999993860
  0
ARC
  8
0
  6
CONTINUOUS
 62
3
 10
44.552959800826102
 20
105.499120768187590
 40
2.000000000000000
 50
0.000000000000000
 51
90.000000000000000
  0
LINE
  8
0
  6
CONTINUOUS
 62
3
 10
46.552959800827239
 20
178.499120768187820
 11
46.552959800827239
 21
174.499120768186690
  0
LINE
  8
0
  6
CONTINUOUS
 62
3
 10
46.552959800827239
 20
161.499120768186690
 11
46.552959800827239
 21
96.897049901617720
  0
LINE
  8
0
  6
CONTINUOUS
 62
3
 10
44.552959800804501
 20
178.499120768187820
 11
44.552959800805638
 21
174.499120768186690
  0
LINE
  8
0
  6
CONTINUOUS
 62
3
 10
44.552959800809504
 20
161.499120768186690
 11
44.552959800830195
 21
94.999120768186913
  0
ARC
  8
0
  6
CONTINUOUS
 62
3
 10
63.052959800822691
 20
73.004302296389142
 40
3.000000000000000
 50
0.000000000000000
 51
20.345861640555512
  0
LINE
  8
0
  6
CONTINUOUS
 62
3
 10
50.278635611480922
 20
116.081489163977030
 11
65.865792603381351
 21
74.047361079415396
  0
ARC
  8
0
  6
CONTINUOUS
 62
3
 10
47.465802808922035
 20
115.038430380950780
 40
2.999999999999916
 50
20.345861640554002
 51
90.000000000000000
  0
LINE
  8
0
  6
CONTINUOUS
 62
3
 10
50.278635611480922
 20
118.038430380951010
 11
64.307512744235055
 21
118.038430380951010
  0
ARC
  8
0
  6
CONTINUOUS
 62
3
 10
47.465802808922035
 20
110.387252420806130
 40
2.999999999999916
 50
20.345861640554002
 51
90.000000000000000
  0
ARC
  8
0
  6
CONTINUOUS
 62
3
 10
63.052959800822691
 20
68.353124336244491
 40
3.000000000000000
 50
0.000000000000000
 51
20.345861640555512
  0
LINE
  8
0
  6
CONTINUOUS
 62
3
 10
50.278635611480922
 20
111.430311203832380
 11
65.865792603381351
 21
69.396183119270745
  0
ARC
  8
0
  6
CONTINUOUS
 62
3
 10
63.052959800822691
 20
72.457160659737838
 40
3.000000000000653
 50
279.594068226858330
 51
321.971096688727810
  0
LINE
  8
0
  6
CONTINUOUS
 62
3
 10
56.566271732936457
 20
94.474345326558705
 11
48.448287888341156
 21
94.899790832108920
  0
ARC
  8
0
  6
CONTINUOUS
 62
3
 10
68.052959800822464
 20
311.499120768187820
 40
2.000000000000000
 50
90.000000000000000
 51
180.000000000000000
  0
LINE
  8
0
  6
CONTINUOUS
 62
3
 10
77.052959800822691
 20
178.499120768187820
 11
77.052959800822464
 21
313.499120768187820
  0
LINE
  8
0
  6
CONTINUOUS
 62
3
 10
66.052959800822691
 20
178.499120768187820
 11
66.052959800822464
 21
311.499120768187820
  0
ARC
  8
0
  6
CONTINUOUS
 62
3
 10
64.052959800822464
 20
290.457160659737840
 40
3.000000000000000
 50
180.000000000000000
 51
260.405931773138780
  0
LINE
  8
0
  6
CONTINUOUS
 62
3
 10
63.052959800822464
 20
313.499120768187820
 11
77.552959800822691
 21
313.499120768187820
  0
ARC
  8
0
  6
CONTINUOUS
 62
3
 10
63.052959800822464
 20
311.499120768187820
 40
2.000000000000000
 50
90.000000000000000
 51
180.000000000000000
  0
ARC
  8
0
  6
CONTINUOUS
 62
3
 10
61.052959800822691
 20
204.351376184599760
 40
4.999999999999918
 50
272.000000000001080
 51
0.000000000000000
  0
LINE
  8
0
  6
CONTINUOUS
 62
3
 10
61.227457284335287
 20
199.354422049504360
 11
56.948261310714997
 21
199.204989233299330
  0
ARC
  8
0
  6
CONTINUOUS
 62
3
 10
57.052959800822691
 20
196.206816752242050
 40
3.000000000000001
 50
92.000000000003652
 51
180.000000000000000
  0
LINE
  8
0
  6
CONTINUOUS
 62
3
 10
54.052959800822691
 20
178.499120768187820
 11
54.052959800822691
 21
198.999120768187820
  0
LINE
  8
0
  6
CONTINUOUS
 62
3
 10
54.052959800822691
 20
198.999120768187820
 11
49.552959800819053
 21
198.999120768187820
  0
LINE
  8
0
  6
CONTINUOUS
 62
3
 10
49.552959800819053
 20
178.499120768187820
 11
49.552959800819053
 21
198.999120768187820
  0
LINE
  8
0
  6
CONTINUOUS
 62
3
 10
61.052959800822464
 20
311.499120768187820
 11
61.052959800822464
 21
305.999120768187820
  0
LINE
  8
0
  6
CONTINUOUS
 62
3
 10
61.052959800822464
 20
292.999120768187820
 11
61.052959800822464
 21
290.457160659737840
  0
ARC
  8
0
  6
CONTINUOUS
 62
3
 10
48.552959800827239
 20
260.101191634757920
 40
1.999999999999663
 50
93.000000000006111
 51
180.000000000000000
  0
ARC
  8
0
  6
CONTINUOUS
 62
3
 10
44.552959800826102
 20
251.499120768188050
 40
2.000000000000000
 50
270.000000000000000
 51
0.000000000000000
  0
LINE
  8
0
  6
CONTINUOUS
 62
3
 10
46.552959800827239
 20
178.499120768187820
 11
46.552959800827239
 21
182.499120768188960
  0
LINE
  8
0
  6
CONTINUOUS
 62
3
 10
46.552959800827239
 20
195.499120768188960
 11
46.552959800827239
 21
260.101191634757920
  0
LINE
  8
0
  6
CONTINUOUS
 62
3
 10
44.552959800804501
 20
178.499120768187820
 11
44.552959800805638
 21
182.499120768188960
  0
LINE
  8
0
  6
CONTINUOUS
 62
3
 10
44.552959800809504
 20
195.499120768188960
 11
44.552959800829740
 21
261.999120768187820
  0
ARC
  8
0
  6
CONTINUOUS
 62
3
 10
63.052959800822464
 20
283.993939239986500
 40
2.999999999999916
 50
339.654138359445990
 51
0.000000000000000
  0
LINE
  8
0
  6
CONTINUOUS
 62
3
 10
50.278635611480922
 20
240.916752372398610
 11
65.865792603381351
 21
282.950880456960250
  0
ARC
  8
0
  6
CONTINUOUS
 62
3
 10
47.465802808922035
 20
241.959811155424860
 40
3.000000000000227
 50
270.000000000000000
 51
339.654138359445990
  0
LINE
  8
0
  6
CONTINUOUS
 62
3
 10
50.278635611480922
 20
238.959811155424630
 11
64.307512744235055
 21
238.959811155424630
  0
ARC
  8
0
  6
CONTINUOUS
 62
3
 10
47.465802808922035
 20
246.610989115569510
 40
3.000000000000227
 50
270.000000000000000
 51
339.654138359445990
  0
ARC
  8
0
  6
CONTINUOUS
 62
3
 10
63.052959800822464
 20
288.645117200131150
 40
2.999999999999916
 50
339.654138359445990
 51
0.000000000000000
  0
LINE
  8
0
  6
CONTINUOUS
 62
3
 10
50.278635611480922
 20
245.567930332543260
 11
65.865792603381351
 21
287.602058417104900
  0
ARC
  8
0
  6
CONTINUOUS
 62
3
 10
63.052959800822464
 20
284.541080876637810
 40
3.000000000000123
 50
38.028903311269509
 51
80.405931773141646
  0
LINE
  8
0
  6
CONTINUOUS
 62
3
 10
56.566271732936457
 20
262.523896209816940
 11
48.448287888341156
 21
262.098450704266720
  0
LINE
  8
0
  6
DASHDOT
 62
4
 10
322.500065877722590
 20
178.499120768187820
 11
-305.271477624671210
 21
178.499120768187820
  0
LINE
  8
0
  6
CONTINUOUS
 62
3
 10
188.727457284335290
 20
317.381419768170190
 11
77.552655214332162
 21
313.499110131793710
  0
LINE
  8
0
  6
CONTINUOUS
 62
3
 10
188.727457284335290
 20
39.616821768205455
 11
77.552655214332162
 21
43.499131404581931
  0
LINE
  8
0
  6
CONTINUOUS
 62
3
 10
77.552959800822691
 20
43.499120768187368
 11
77.552959800822691
 21
283.516581152933900
  0
LINE
  8
0
  6
CONTINUOUS
 62
3
 10
77.552959800822691
 20
43.499120768187368
 11
77.552959800822691
 21
313.499120768188500
  0
ARC
  8
0
  6
CONTINUOUS
 62
3
 10
37.552959800804274
 20
258.999120768187820
 40
3.000000000000000
 50
90.000000000000000
 51
180.000000000000000
  0
LINE
  8
0
  6
CONTINUOUS
 62
3
 10
34.552959800804274
 20
258.999120768187820
 11
34.552959800804274
 21
98.245394787526493
  0
ARC
  8
0
  6
CONTINUOUS
 62
3
 10
37.552959800804274
 20
98.245394787526493
 40
3.000000000000000
 50
180.000000000000000
 51
268.000000000000680
  0
ARC
  8
0
  6
CONTINUOUS
 62
3
 10
29.552959800804274
 20
242.999120768187820
 40
5.000000000000009
 50
307.828636848032320
 51
0.000000000000000
  0
ARC
  8
0
  6
CONTINUOUS
 62
3
 10
29.552959800804274
 20
113.999120768187820
 40
5.000000000000000
 50
0.000000000000000
 51
52.171363151966126
  0
LINE
  8
0
  6
CONTINUOUS
 62
3
 10
37.552959800804274
 20
261.999120768187820
 11
44.552959800829740
 21
261.999120768187820
  0
LINE
  8
0
  6
CONTINUOUS
 62
3
 10
37.448261310697035
 20
95.247222306469212
 11
44.552959800830195
 21
94.999120768186913
  0
INSERT
  8
0
  2
SYM18
 10
66.052959800822691
 20
128.499120768187820
  0
INSERT
  8
0
  2
SYM19
 10
66.052959800822691
 20
57.499120768187822
  0
INSERT
  8
0
  2
SYM20
 10
49.552959800818371
 20
167.999120768186690
  0
INSERT
  8
0
  2
SYM21
 10
66.052959800822691
 20
228.499120768187820
 41
-1.000000000000000
 50
180.000000000000030
  0
INSERT
  8
0
  2
SYM22
 10
66.052959800822464
 20
299.499120768187820
 41
-1.000000000000000
 50
180.000000000000030
  0
INSERT
  8
0
  2
SYM23
 10
49.552959800818371
 20
188.999120768188960
 41
-1.000000000000000
 50
180.000000000000030
  0
INSERT
  8
0
  2
SYM1
 10
34.552959800804274
 20
233.299896310145190
  0
INSERT
  8
0
  2
SYM24
 10
34.552959800804274
 20
123.698345226230450
  0
ARC
  8
0
  6
CONTINUOUS
 62
3
 10
-170.447040199195730
 20
247.999120768187590
 40
5.000000000000000
 50
180.000000000000000
 51
270.000000000000000
  0
LINE
  8
0
  6
CONTINUOUS
 62
3
 10
-175.447040199195730
 20
237.999120768187590
 11
-175.447040199195730
 21
242.999120768187590
  0
LINE
  8
0
  6
DASHDOT
 62
3
 10
-51.447040199195726
 20
237.999120768187590
 11
-51.447040199195726
 21
242.999120768187590
  0
ARC
  8
0
  6
CONTINUOUS
 62
3
 10
-56.447040199195726
 20
247.999120768187590
 40
5.000000000000000
 50
270.000000000000000
 51
0.000000000000000
  0
LINE
  8
0
  6
DASHDOT
 62
3
 10
-51.447040199195726
 20
237.999120768187590
 11
-51.447040199195726
 21
242.999120768187590
  0
LINE
  8
0
  6
CONTINUOUS
 62
3
 10
-175.447040199195730
 20
242.999120768187590
 11
-51.447040199195726
 21
242.999120768187590
  0
LINE
  8
0
  6
CONTINUOUS
 62
3
 10
-61.947040199195726
 20
261.660145827874430
 11
-164.947040199195730
 21
261.660145827874430
  0
ARC
  8
0
  6
CONTINUOUS
 62
3
 10
-56.447040199195726
 20
266.660145827874430
 40
5.000000000000072
 50
287.457603123721870
 51
0.000000000000000
  0
ARC
  8
0
  6
CONTINUOUS
 62
3
 10
-56.247040199195908
 20
262.336691953616760
 40
1.300000000000182
 50
0.000000000000000
 51
73.398450400977637
  0
ARC
  8
0
  6
CONTINUOUS
 62
3
 10
-58.447040199195726
 20
254.957667627867290
 40
9.000000000000123
 50
73.398450400980877
 51
106.601549599019120
  0
ARC
  8
0
  6
CONTINUOUS
 62
3
 10
-60.647040199195544
 20
262.336691953616760
 40
1.300000000000019
 50
106.601549599022360
 51
180.000000000000000
  0
LINE
  8
0
  6
CONTINUOUS
 62
3
 10
-54.947040199195726
 20
262.336691953616760
 11
-54.947040199195726
 21
261.349682215692380
  0
POLYLINE
  8
0
  6
CONTINUOUS
 62
3
 66
1
  0
VERTEX
  8
0
  6
CONTINUOUS
 62
3
 10
-61.947040199195726
 20
261.349682215692380
  0
VERTEX
  8
0
  6
CONTINUOUS
 62
3
 10
-61.879788680607035
 20
261.315584005496420
  0
VERTEX
  8
0
  6
CONTINUOUS
 62
3
 10
-61.680618562985231
 20
261.282796170395780
  0
VERTEX
  8
0
  6
CONTINUOUS
 62
3
 10
-61.357183842254635
 20
261.252578728505740
  0
VERTEX
  8
0
  6
CONTINUOUS
 62
3
 10
-60.921913933348641
 20
261.226092919172060
  0
VERTEX
  8
0
  6
CONTINUOUS
 62
3
 10
-60.391536014764334
 20
261.204356577193950
  0
VERTEX
  8
0
  6
CONTINUOUS
 62
3
 10
-59.786432212473542
 20
261.188205018003770
  0
VERTEX
  8
0
  6
CONTINUOUS
 62
3
 10
-59.129856326252174
 20
261.178258936963350
  0
VERTEX
  8
0
  6
CONTINUOUS
 62
3
 10
-58.447040199195726
 20
261.174900556389160
  0
VERTEX
  8
0
  6
CONTINUOUS
 62
3
 10
-57.764224072139278
 20
261.178258936963350
  0
VERTEX
  8
0
  6
CONTINUOUS
 62
3
 10
-57.107648185917910
 20
261.188205018003770
  0
VERTEX
  8
0
  6
CONTINUOUS
 62
3
 10
-56.502544383627118
 20
261.204356577193950
  0
VERTEX
  8
0
  6
CONTINUOUS
 62
3
 10
-55.972166465042811
 20
261.226092919172060
  0
VERTEX
  8
0
  6
CONTINUOUS
 62
3
 10
-55.536896556136817
 20
261.252578728505740
  0
VERTEX
  8
0
  6
CONTINUOUS
 62
3
 10
-55.213461835406221
 20
261.282796170395780
  0
VERTEX
  8
0
  6
CONTINUOUS
 62
3
 10
-55.014291717784424
 20
261.315584005496420
  0
VERTEX
  8
0
  6
CONTINUOUS
 62
3
 10
-54.947040199195726
 20
261.349682215692380
  0
SEQEND
  8
0
  6
CONTINUOUS
 62
3
  0
LINE
  8
0
  6
CONTINUOUS
 62
3
 10
-61.947040199195726
 20
262.336691953616760
 11
-61.947040199195726
 21
261.349682215692380
  0
ARC
  8
0
  6
CONTINUOUS
 62
3
 10
-170.447040199195730
 20
266.660145827874430
 40
5.000000000000000
 50
180.000000000000000
 51
252.542396876278160
  0
LINE
  8
0
  6
CONTINUOUS
 62
3
 10
-171.947040199195730
 20
262.336691953616760
 11
-171.947040199195730
 21
261.349682215692380
  0
LINE
  8
0
  6
CONTINUOUS
 62
3
 10
-164.947040199195730
 20
262.336691953616760
 11
-164.947040199195730
 21
261.349682215692380
  0
ARC
  8
0
  6
CONTINUOUS
 62
3
 10
-170.647040199195540
 20
262.336691953616760
 40
1.300000000000019
 50
106.601549599022360
 51
180.000000000000000
  0
ARC
  8
0
  6
CONTINUOUS
 62
3
 10
-168.447040199195730
 20
254.957667627867290
 40
9.000000000000123
 50
73.398450400980877
 51
106.601549599019120
  0
ARC
  8
0
  6
CONTINUOUS
 62
3
 10
-166.247040199195910
 20
262.336691953616760
 40
1.300000000000182
 50
0.000000000000000
 51
73.398450400977637
  0
POLYLINE
  8
0
  6
CONTINUOUS
 62
3
 66
1
  0
VERTEX
  8
0
  6
CONTINUOUS
 62
3
 10
-171.947040199195730
 20
261.349682215692380
  0
VERTEX
  8
0
  6
CONTINUOUS
 62
3
 10
-171.879788680607020
 20
261.315584005496420
  0
VERTEX
  8
0
  6
CONTINUOUS
 62
3
 10
-171.680618562985220
 20
261.282796170395780
  0
VERTEX
  8
0
  6
CONTINUOUS
 62
3
 10
-171.357183842254640
 20
261.252578728505740
  0
VERTEX
  8
0
  6
CONTINUOUS
 62
3
 10
-170.921913933348630
 20
261.226092919172060
  0
VERTEX
  8
0
  6
CONTINUOUS
 62
3
 10
-170.391536014764340
 20
261.204356577193950
  0
VERTEX
  8
0
  6
CONTINUOUS
 62
3
 10
-169.786432212473530
 20
261.188205018003770
  0
VERTEX
  8
0
  6
CONTINUOUS
 62
3
 10
-169.129856326252170
 20
261.178258936963350
  0
VERTEX
  8
0
  6
CONTINUOUS
 62
3
 10
-168.447040199195730
 20
261.174900556389160
  0
VERTEX
  8
0
  6
CONTINUOUS
 62
3
 10
-167.764224072139290
 20
261.178258936963350
  0
VERTEX
  8
0
  6
CONTINUOUS
 62
3
 10
-167.107648185917920
 20
261.188205018003770
  0
VERTEX
  8
0
  6
CONTINUOUS
 62
3
 10
-166.502544383627110
 20
261.204356577193950
  0
VERTEX
  8
0
  6
CONTINUOUS
 62
3
 10
-165.972166465042820
 20
261.226092919172060
  0
VERTEX
  8
0
  6
CONTINUOUS
 62
3
 10
-165.536896556136810
 20
261.252578728505740
  0
VERTEX
  8
0
  6
CONTINUOUS
 62
3
 10
-165.213461835406240
 20
261.282796170395780
  0
VERTEX
  8
0
  6
CONTINUOUS
 62
3
 10
-165.014291717784430
 20
261.315584005496420
  0
VERTEX
  8
0
  6
CONTINUOUS
 62
3
 10
-164.947040199195730
 20
261.349682215692380
  0
SEQEND
  8
0
  6
CONTINUOUS
 62
3
  0
LINE
  8
0
  6
CONTINUOUS
 62
3
 10
-51.447040199195726
 20
266.660145827874430
 11
-51.447040199195726
 21
279.599120768187500
  0
LINE
  8
0
  6
CONTINUOUS
 62
3
 10
-175.447040199195730
 20
266.660145827874430
 11
-175.447040199195730
 21
279.599120768187500
  0
LINE
  8
0
  6
CONTINUOUS
 62
3
 10
-175.447040199195730
 20
266.193631059249810
 11
-176.447040199195730
 21
266.193631059249810
  0
LINE
  8
0
  6
CONTINUOUS
 62
3
 10
-50.447040199195726
 20
261.099994130972620
 11
-176.447040199195730
 21
261.099994130972620
  0
ARC
  8
0
  6
CONTINUOUS
 62
3
 10
-170.447040199195730
 20
279.599120768187500
 40
5.000000000000000
 50
90.000000000000000
 51
180.000000000000000
  0
ARC
  8
0
  6
CONTINUOUS
 62
3
 10
-176.447040199195730
 20
264.193631059249810
 40
2.000000000000000
 50
90.000000000000000
 51
180.000000000000000
  0
ARC
  8
0
  6
CONTINUOUS
 62
3
 10
-176.447040199195730
 20
263.099994130972620
 40
2.000000000000000
 50
180.000000000000000
 51
270.000000000000000
  0
ARC
  8
0
  6
CONTINUOUS
 62
3
 10
-176.447040199195730
 20
262.300992259887380
 40
2.000000000000000
 50
180.000000000000000
 51
270.000000000000000
  0
LINE
  8
0
  6
CONTINUOUS
 62
3
 10
-178.447040199195730
 20
264.193631059249810
 11
-178.447040199195730
 21
261.501990388768490
  0
ARC
  8
0
  6
CONTINUOUS
 62
3
 10
-176.447040199195730
 20
261.501990388768490
 40
2.000000000000000
 50
180.000000000000000
 51
270.000000000000000
  0
LINE
  8
0
  6
CONTINUOUS
 62
3
 10
-175.447040199195730
 20
247.999120768187590
 11
-175.447040199195730
 21
259.501990388768490
  0
ARC
  8
0
  6
CONTINUOUS
 62
3
 10
-56.447040199195726
 20
279.599120768187500
 40
5.000000000000000
 50
0.000000000000000
 51
90.000000000000000
  0
LINE
  8
0
  6
CONTINUOUS
 62
3
 10
-170.447040199195730
 20
284.599120768187500
 11
-56.447040199195726
 21
284.599120768187500
  0
LINE
  8
0
  6
CONTINUOUS
 62
3
 10
-51.447040199195726
 20
247.999120768187590
 11
-51.447040199195726
 21
259.300992259887380
  0
LINE
  8
0
  6
CONTINUOUS
 62
3
 10
-48.447040199195726
 20
264.193631059249810
 11
-48.447040199195726
 21
261.501990388768490
  0
LINE
  8
0
  6
CONTINUOUS
 62
3
 10
-50.447040199195726
 20
260.300992259870550
 11
-176.447040199195730
 21
260.300992259870550
  0
LINE
  8
0
  6
CONTINUOUS
 62
3
 10
-50.447040199195726
 20
259.501990388768490
 11
-176.447040199195730
 21
259.501990388768490
  0
LINE
  8
0
  6
CONTINUOUS
 62
3
 10
-51.447040199195726
 20
266.193631059249810
 11
-50.447040199195726
 21
266.193631059249810
  0
ARC
  8
0
  6
CONTINUOUS
 62
3
 10
-50.447040199195726
 20
264.193631059249810
 40
2.000000000000000
 50
0.000000000000000
 51
90.000000000000000
  0
ARC
  8
0
  6
CONTINUOUS
 62
3
 10
-50.447040199195726
 20
263.099994130972620
 40
2.000000000000000
 50
270.000000000000000
 51
0.000000000000000
  0
ARC
  8
0
  6
CONTINUOUS
 62
3
 10
-50.447040199195726
 20
262.300992259887380
 40
2.000000000000000
 50
270.000000000000000
 51
0.000000000000000
  0
ARC
  8
0
  6
CONTINUOUS
 62
3
 10
-50.447040199195726
 20
261.501990388768490
 40
2.000000000000000
 50
270.000000000000000
 51
0.000000000000000
  0
LINE
  8
0
  6
CONTINUOUS
 62
3
 10
-182.947040199195500
 20
116.879899851315030
 11
-178.947040199195610
 21
116.879899851315030
  0
LINE
  8
0
  6
CONTINUOUS
 62
3
 10
-278.947040199145480
 20
178.499120768187820
 11
-278.947040199145480
 21
126.055915710942370
  0
LINE
  8
0
  6
CONTINUOUS
 62
3
 10
-26.947040199195726
 20
118.999120768187820
 11
-26.947040199195726
 21
178.499120768187820
  0
LINE
  8
0
  6
CONTINUOUS
 62
3
 10
-175.947040199195610
 20
178.499120768187820
 11
-175.947040199195610
 21
119.879899851315030
  0
ARC
  8
0
  6
CONTINUOUS
 62
3
 10
-182.947040199195500
 20
113.879899851315030
 40
3.000000000000000
 50
90.000000000000000
 51
180.000000000000000
  0
ARC
  8
0
  6
CONTINUOUS
 62
3
 10
-178.947040199195610
 20
119.879899851315030
 40
3.000000000000000
 50
270.000000000000000
 51
0.000000000000000
  0
ARC
  8
0
  6
CONTINUOUS
 62
3
 10
-276.347040199145340
 20
230.942325825433270
 40
2.599999999999721
 50
125.000000000001370
 51
180.000000000000000
  0
LINE
  8
0
  6
CONTINUOUS
 62
3
 10
-268.112593148636960
 20
239.882161653967610
 11
-277.838338933657950
 21
233.072121140584390
  0
ARC
  8
0
  6
CONTINUOUS
 62
3
 10
-256.641064421615970
 20
223.499120768187820
 40
20.000000000000000
 50
90.000000000000000
 51
125.000000000000240
  0
LINE
  8
0
  6
CONTINUOUS
 62
3
 10
-278.947040199145480
 20
178.499120768187820
 11
-278.947040199145480
 21
230.942325825433270
  0
LINE
  8
0
  6
CONTINUOUS
 62
3
 10
-175.947040199195610
 20
243.499120768187820
 11
-256.641064421615970
 21
243.499120768187820
  0
LINE
  8
0
  6
CONTINUOUS
 62
3
 10
-108.947040199195610
 20
237.999120768187820
 11
-26.947040199195726
 21
237.999120768187820
  0
LINE
  8
0
  6
CONTINUOUS
 62
4
 10
-175.947040199195610
 20
235.499120768187820
 11
-26.947040199195726
 21
235.499120768187820
  0
LINE
  8
0
  6
CONTINUOUS
 62
4
 10
-175.947040199195610
 20
234.499120768187820
 11
-26.947040199195726
 21
234.499120768187820
  0
LINE
  8
0
  6
CONTINUOUS
 62
4
 10
-175.947040199195610
 20
233.499120768187820
 11
-26.947040199195726
 21
233.499120768187820
  0
LINE
  8
0
  6
CONTINUOUS
 62
3
 10
-175.947040199195610
 20
178.499120768187820
 11
-175.947040199195610
 21
243.499120768187820
  0
LINE
  8
0
  6
CONTINUOUS
 62
4
 10
-175.947040199195610
 20
228.814654954963540
 11
-26.947040199195726
 21
228.814654954963540
  0
LINE
  8
0
  6
CONTINUOUS
 62
4
 10
-175.947040199195610
 20
223.864907486657780
 11
-26.947040199195726
 21
223.864907486657780
  0
LINE
  8
0
  6
CONTINUOUS
 62
4
 10
-175.947040199195610
 20
193.499120768187820
 11
-26.947040199195726
 21
193.499120768187820
  0
LINE
  8
0
  6
CONTINUOUS
 62
4
 10
-175.947040199195610
 20
197.872382577689000
 11
-26.947040199195726
 21
197.872382577689000
  0
LINE
  8
0
  6
CONTINUOUS
 62
4
 10
-175.947040199195610
 20
199.138620493776220
 11
-26.947040199195726
 21
199.138620493776220
  0
LINE
  8
0
  6
CONTINUOUS
 62
4
 10
-175.947040199195610
 20
203.329174225318410
 11
-26.947040199195726
 21
203.329174225318410
  0
LINE
  8
0
  6
CONTINUOUS
 62
4
 10
-175.947040199195610
 20
204.691054560667680
 11
-26.947040199195726
 21
204.691054560667680
  0
LINE
  8
0
  6
CONTINUOUS
 62
4
 10
-175.947040199195610
 20
208.781555094757550
 11
-26.947040199195726
 21
208.781555094757550
  0
LINE
  8
0
  6
CONTINUOUS
 62
4
 10
-175.947040199195610
 20
210.249912484562170
 11
-26.947040199195726
 21
210.249912484562170
  0
LINE
  8
0
  6
CONTINUOUS
 62
4
 10
-175.947040199195610
 20
214.213657908361710
 11
-26.947040199195726
 21
214.213657908361710
  0
LINE
  8
0
  6
CONTINUOUS
 62
4
 10
-175.947040199195610
 20
215.818305823923770
 11
-26.947040199195726
 21
215.818305823923770
  0
LINE
  8
0
  6
CONTINUOUS
 62
4
 10
-175.947040199195610
 20
163.499120768187820
 11
-26.947040199195726
 21
163.499120768187820
  0
LINE
  8
0
  6
CONTINUOUS
 62
4
 10
-175.947040199195610
 20
159.125858958686650
 11
-26.947040199195726
 21
159.125858958686650
  0
LINE
  8
0
  6
CONTINUOUS
 62
4
 10
-175.947040199195610
 20
157.859621042599430
 11
-26.947040199195726
 21
157.859621042599430
  0
LINE
  8
0
  6
CONTINUOUS
 62
4
 10
-175.947040199195610
 20
153.669067311057230
 11
-26.947040199195726
 21
153.669067311057230
  0
LINE
  8
0
  6
CONTINUOUS
 62
4
 10
-175.947040199195610
 20
152.307186975707960
 11
-26.947040199195726
 21
152.307186975707960
  0
LINE
  8
0
  6
CONTINUOUS
 62
4
 10
-175.947040199195610
 20
148.216686441618090
 11
-26.947040199195726
 21
148.216686441618090
  0
LINE
  8
0
  6
CONTINUOUS
 62
4
 10
-175.947040199195610
 20
146.748329051813470
 11
-26.947040199195726
 21
146.748329051813470
  0
LINE
  8
0
  6
CONTINUOUS
 62
4
 10
-175.947040199195610
 20
142.784583628013930
 11
-26.947040199195726
 21
142.784583628013930
  0
LINE
  8
0
  6
CONTINUOUS
 62
4
 10
-175.947040199195610
 20
141.179935712451880
 11
-26.947040199195726
 21
141.179935712451880
  0
LINE
  8
0
  6
CONTINUOUS
 62
4
 10
-175.947040199195610
 20
133.133334049717860
 11
-26.947040199195726
 21
133.133334049717860
  0
LINE
  8
0
  6
CONTINUOUS
 62
4
 10
-175.947040199195610
 20
123.499120768187820
 11
-26.947040199195726
 21
123.499120768187820
  0
LINE
  8
0
  6
CONTINUOUS
 62
4
 10
-175.947040199195610
 20
122.499120768187820
 11
-26.947040199195726
 21
122.499120768187820
  0
LINE
  8
0
  6
CONTINUOUS
 62
4
 10
-175.947040199195610
 20
121.499120768187820
 11
-26.947040199195726
 21
121.499120768187820
  0
LINE
  8
0
  6
CONTINUOUS
 62
3
 10
-186.947040199195040
 20
232.239235868625430
 11
-188.947040199195040
 21
230.586594229502000
  0
LINE
  8
0
  6
CONTINUOUS
 62
3
 10
-184.947040199195040
 20
233.415021354248210
 11
-186.947040199195040
 21
232.239235868625430
  0
LINE
  8
0
  6
CONTINUOUS
 62
3
 10
-186.947040199195040
 20
232.239235868625430
 11
-184.947040199195040
 21
230.586594229502000
  0
LINE
  8
0
  6
CONTINUOUS
 62
3
 10
-188.947040199195040
 20
233.415021354248210
 11
-186.947040199195040
 21
232.239235868625430
  0
POLYLINE
  8
0
  6
CONTINUOUS
 62
3
 66
1
 70
1
  0
VERTEX
  8
0
  6
CONTINUOUS
 62
3
 10
-182.247040199195060
 20
230.422645800247890
  0
VERTEX
  8
0
  6
CONTINUOUS
 62
3
 10
-182.337349381299870
 20
231.125602766448250
  0
VERTEX
  8
0
  6
CONTINUOUS
 62
3
 10
-182.604806396392010
 20
231.801545490660350
  0
VERTEX
  8
0
  6
CONTINUOUS
 62
3
 10
-183.039133021373090
 20
232.424497873065750
  0
VERTEX
  8
0
  6
CONTINUOUS
 62
3
 10
-183.623638327618270
 20
232.970520202964340
  0
VERTEX
  8
0
  6
CONTINUOUS
 62
3
 10
-184.335860104002930
 20
233.418629148430970
  0
VERTEX
  8
0
  6
CONTINUOUS
 62
3
 10
-185.148428067079120
 20
233.751604133993710
  0
VERTEX
  8
0
  6
CONTINUOUS
 62
3
 10
-186.030115685719240
 20
233.956649117691970
  0
VERTEX
  8
0
  6
CONTINUOUS
 62
3
 10
-186.947040199195040
 20
234.025884335792740
  0
VERTEX
  8
0
  6
CONTINUOUS
 62
3
 10
-187.863964712670850
 20
233.956649117691970
  0
VERTEX
  8
0
  6
CONTINUOUS
 62
3
 10
-188.745652331310960
 20
233.751604133993710
  0
VERTEX
  8
0
  6
CONTINUOUS
 62
3
 10
-189.558220294387160
 20
233.418629148430970
  0
VERTEX
  8
0
  6
CONTINUOUS
 62
3
 10
-190.270442070771820
 20
232.970520202964340
  0
VERTEX
  8
0
  6
CONTINUOUS
 62
3
 10
-190.854947377017000
 20
232.424497873065750
  0
VERTEX
  8
0
  6
CONTINUOUS
 62
3
 10
-191.289274001998080
 20
231.801545490660350
  0
VERTEX
  8
0
  6
CONTINUOUS
 62
3
 10
-191.556731017090210
 20
231.125602766448250
  0
VERTEX
  8
0
  6
CONTINUOUS
 62
3
 10
-191.647040199195030
 20
230.422645800247890
  0
VERTEX
  8
0
  6
CONTINUOUS
 62
3
 10
-191.556731017090210
 20
229.719688834047530
  0
VERTEX
  8
0
  6
CONTINUOUS
 62
3
 10
-191.289274001998080
 20
229.043746109835440
  0
VERTEX
  8
0
  6
CONTINUOUS
 62
3
 10
-190.854947377017000
 20
228.420793727430040
  0
VERTEX
  8
0
  6
CONTINUOUS
 62
3
 10
-190.270442070771790
 20
227.874771397531450
  0
VERTEX
  8
0
  6
CONTINUOUS
 62
3
 10
-189.558220294387160
 20
227.426662452064820
  0
VERTEX
  8
0
  6
CONTINUOUS
 62
3
 10
-188.745652331310960
 20
227.093687466502080
  0
VERTEX
  8
0
  6
CONTINUOUS
 62
3
 10
-187.863964712670850
 20
226.888642482803820
  0
VERTEX
  8
0
  6
CONTINUOUS
 62
3
 10
-186.947040199195040
 20
226.819407264703050
  0
VERTEX
  8
0
  6
CONTINUOUS
 62
3
 10
-186.030115685719240
 20
226.888642482803820
  0
VERTEX
  8
0
  6
CONTINUOUS
 62
3
 10
-185.148428067079120
 20
227.093687466502080
  0
VERTEX
  8
0
  6
CONTINUOUS
 62
3
 10
-184.335860104002930
 20
227.426662452064820
  0
VERTEX
  8
0
  6
CONTINUOUS
 62
3
 10
-183.623638327618290
 20
227.874771397531450
  0
VERTEX
  8
0
  6
CONTINUOUS
 62
3
 10
-183.039133021373090
 20
228.420793727430040
  0
VERTEX
  8
0
  6
CONTINUOUS
 62
3
 10
-182.604806396392010
 20
229.043746109835440
  0
VERTEX
  8
0
  6
CONTINUOUS
 62
3
 10
-182.337349381299870
 20
229.719688834047530
  0
SEQEND
  8
0
  6
CONTINUOUS
 62
3
  0
LINE
  8
0
  6
CONTINUOUS
 62
3
 10
-186.947040199195040
 20
124.759005667749980
 11
-188.947040199195040
 21
126.411647306873410
  0
LINE
  8
0
  6
CONTINUOUS
 62
3
 10
-184.947040199195040
 20
123.583220182127660
 11
-186.947040199195040
 21
124.759005667749980
  0
LINE
  8
0
  6
CONTINUOUS
 62
3
 10
-93.747040199195794
 20
118.999120768187820
 11
-26.947040199195726
 21
118.999120768187820
  0
ARC
  8
0
  6
CONTINUOUS
 62
3
 10
-256.641064421615970
 20
133.499120768187820
 40
20.000000000000007
 50
234.999999999999740
 51
270.000000000000000
  0
LINE
  8
0
  6
CONTINUOUS
 62
3
 10
-186.947040199195040
 20
124.759005667749980
 11
-184.947040199195040
 21
126.411647306873410
  0
LINE
  8
0
  6
CONTINUOUS
 62
3
 10
-188.947040199195040
 20
123.583220182127660
 11
-186.947040199195040
 21
124.759005667749980
  0
POLYLINE
  8
0
  6
CONTINUOUS
 62
3
 66
1
 70
1
  0
VERTEX
  8
0
  6
CONTINUOUS
 62
3
 10
-182.247040199195060
 20
126.575595736127980
  0
VERTEX
  8
0
  6
CONTINUOUS
 62
3
 10
-182.337349381299870
 20
127.278552702328340
  0
VERTEX
  8
0
  6
CONTINUOUS
 62
3
 10
-182.604806396392010
 20
127.954495426540440
  0
VERTEX
  8
0
  6
CONTINUOUS
 62
3
 10
-183.039133021373090
 20
128.577447808945830
  0
VERTEX
  8
0
  6
CONTINUOUS
 62
3
 10
-183.623638327618270
 20
129.123470138844430
  0
VERTEX
  8
0
  6
CONTINUOUS
 62
3
 10
-184.335860104002930
 20
129.571579084311050
  0
VERTEX
  8
0
  6
CONTINUOUS
 62
3
 10
-185.148428067079120
 20
129.904554069873800
  0
VERTEX
  8
0
  6
CONTINUOUS
 62
3
 10
-186.030115685719240
 20
130.109599053572050
  0
VERTEX
  8
0
  6
CONTINUOUS
 62
3
 10
-186.947040199195040
 20
130.178834271672830
  0
VERTEX
  8
0
  6
CONTINUOUS
 62
3
 10
-187.863964712670850
 20
130.109599053572050
  0
VERTEX
  8
0
  6
CONTINUOUS
 62
3
 10
-188.745652331310960
 20
129.904554069873800
  0
VERTEX
  8
0
  6
CONTINUOUS
 62
3
 10
-189.558220294387160
 20
129.571579084311050
  0
VERTEX
  8
0
  6
CONTINUOUS
 62
3
 10
-190.270442070771820
 20
129.123470138844430
  0
VERTEX
  8
0
  6
CONTINUOUS
 62
3
 10
-190.854947377017000
 20
128.577447808945830
  0
VERTEX
  8
0
  6
CONTINUOUS
 62
3
 10
-191.289274001998080
 20
127.954495426540440
  0
VERTEX
  8
0
  6
CONTINUOUS
 62
3
 10
-191.556731017090210
 20
127.278552702328340
  0
VERTEX
  8
0
  6
CONTINUOUS
 62
3
 10
-191.647040199195030
 20
126.575595736127980
  0
VERTEX
  8
0
  6
CONTINUOUS
 62
3
 10
-191.556731017090210
 20
125.872638769927610
  0
VERTEX
  8
0
  6
CONTINUOUS
 62
3
 10
-191.289274001998080
 20
125.196696045715510
  0
VERTEX
  8
0
  6
CONTINUOUS
 62
3
 10
-190.854947377017000
 20
124.573743663310120
  0
VERTEX
  8
0
  6
CONTINUOUS
 62
3
 10
-190.270442070771790
 20
124.027721333411530
  0
VERTEX
  8
0
  6
CONTINUOUS
 62
3
 10
-189.558220294387160
 20
123.579612387944920
  0
VERTEX
  8
0
  6
CONTINUOUS
 62
3
 10
-188.745652331310960
 20
123.246637402382160
  0
VERTEX
  8
0
  6
CONTINUOUS
 62
3
 10
-187.863964712670850
 20
123.041592418683900
  0
VERTEX
  8
0
  6
CONTINUOUS
 62
3
 10
-186.947040199195040
 20
122.972357200583130
  0
VERTEX
  8
0
  6
CONTINUOUS
 62
3
 10
-186.030115685719240
 20
123.041592418683900
  0
VERTEX
  8
0
  6
CONTINUOUS
 62
3
 10
-185.148428067079120
 20
123.246637402382160
  0
VERTEX
  8
0
  6
CONTINUOUS
 62
3
 10
-184.335860104002930
 20
123.579612387944920
  0
VERTEX
  8
0
  6
CONTINUOUS
 62
3
 10
-183.623638327618290
 20
124.027721333411530
  0
VERTEX
  8
0
  6
CONTINUOUS
 62
3
 10
-183.039133021373090
 20
124.573743663310120
  0
VERTEX
  8
0
  6
CONTINUOUS
 62
3
 10
-182.604806396392010
 20
125.196696045715510
  0
VERTEX
  8
0
  6
CONTINUOUS
 62
3
 10
-182.337349381299870
 20
125.872638769927610
  0
SEQEND
  8
0
  6
CONTINUOUS
 62
3
  0
LINE
  8
0
  6
CONTINUOUS
 62
3
 10
-185.947040199195500
 20
113.499120768187820
 11
-256.641064421615970
 21
113.499120768187820
  0
ARC
  8
0
  6
CONTINUOUS
 62
3
 10
-276.347040199145340
 20
126.055915710942370
 40
2.600000000000136
 50
180.000000000000000
 51
234.999999999998610
  0
LINE
  8
0
  6
CONTINUOUS
 62
3
 10
-268.112593148636960
 20
117.116079882408030
 11
-277.838338933657950
 21
123.926120395791250
  0
LINE
  8
0
  6
CONTINUOUS
 62
3
 10
-175.947040199195610
 20
237.999120768187590
 11
-26.947040199195726
 21
237.999120768187590
  0
LINE
  8
0
  6
CONTINUOUS
 62
3
 10
-185.947040199195500
 20
113.499120768187820
 11
-185.947040199195500
 21
113.879899851315030
  0
LINE
  8
0
  6
CONTINUOUS
 62
4
 10
-175.947040199195610
 20
128.183586581412100
 11
-26.947040199195726
 21
128.183586581412100
  0
LINE
  8
0
  6
CONTINUOUS
 62
3
 10
-183.747040199195790
 20
114.999120768187820
 11
-93.747040199195794
 21
114.999120768187820
  0
LINE
  8
0
  6
CONTINUOUS
 62
3
 10
-183.747040199195790
 20
118.050790866344860
 11
-183.747040199195790
 21
81.999120768187822
  0
LINE
  8
0
  6
CONTINUOUS
 62
3
 10
-176.747040199195790
 20
80.999120768187822
 11
-176.747040199195790
 21
80.499120768187822
  0
LINE
  8
0
  6
CONTINUOUS
 62
3
 10
-168.747040199195790
 20
80.999120768187822
 11
-168.747040199195790
 21
80.499120768187822
  0
LINE
  8
0
  6
CONTINUOUS
 62
3
 10
-100.747040199195790
 20
80.999120768187822
 11
-100.747040199195790
 21
80.499120768187822
  0
LINE
  8
0
  6
CONTINUOUS
 62
3
 10
-108.747040199195790
 20
80.999120768187822
 11
-108.747040199195790
 21
80.499120768187822
  0
LINE
  8
0
  6
CONTINUOUS
 62
3
 10
-108.747040199195790
 20
80.499120768187822
 11
-100.747040199195790
 21
80.499120768187822
  0
LINE
  8
0
  6
CONTINUOUS
 62
3
 10
-176.747040199195790
 20
80.499120768187822
 11
-168.747040199195790
 21
80.499120768187822
  0
ARC
  8
0
  6
CONTINUOUS
 62
3
 10
-182.747040199195790
 20
81.999120768187822
 40
1.000000000000000
 50
180.000000000000000
 51
270.000000000000000
  0
LINE
  8
0
  6
CONTINUOUS
 62
3
 10
-182.747040199195790
 20
80.999120768187822
 11
-94.747040199195794
 21
80.999120768187822
  0
ARC
  8
0
  6
CONTINUOUS
 62
3
 10
-94.747040199195794
 20
81.999120768187822
 40
1.000000000000000
 50
270.000000000000000
 51
0.000000000000000
  0
LINE
  8
0
  6
CONTINUOUS
 62
3
 10
-93.747040199195794
 20
119.999120768187820
 11
-93.747040199195794
 21
81.999120768187822
  0
LINE
  8
0
  6
CONTINUOUS
 62
3
 10
-93.747040199195794
 20
119.999120768187820
 11
-175.947040199216990
 21
119.999120768187820
  0
INSERT
  8
0
  2
SYM25
 10
66.052959800822464
 20
-79.000880044705582
  0
INSERT
  8
0
  2
SYM26
 10
49.552959800818826
 20
-78.000879231813769
  0
INSERT
  8
0
  2
SYM27
 10
66.052959800822407
 20
-329.000879231811950
  0
CIRCLE
  8
0
  6
DASHED
 62
4
 10
-171.747040199195790
 20
94.999120768187822
 40
6.000000000000000
  0
ARC
  8
0
  6
DASHED
 62
4
 10
-171.747040199195790
 20
94.999120768187822
 40
7.000000000000000
 50
180.000000000000000
 51
0.000000000000000
  0
LINE
  8
0
  6
DASHED
 62
4
 10
-164.747040199195790
 20
114.999120768187820
 11
-164.747040199195790
 21
94.999120768187822
  0
LINE
  8
0
  6
DASHED
 62
4
 10
-178.747040199195790
 20
114.999120768187820
 11
-178.747040199195790
 21
94.999120768187822
  0
LINE
  8
0
  6
DASHDOT
 62
4
 10
-171.747040199195790
 20
85.999120768187822
 11
-171.747040199195790
 21
113.000720090737550
  0
LINE
  8
0
  6
DASHDOT
 62
4
 10
-162.747040199195790
 20
94.999120768187822
 11
-180.747040199195790
 21
94.999120768187822
  0
LINE
  8
0
  6
CONTINUOUS
 62
3
 10
-186.947040199195040
 20
-117.760764131374620
 11
-188.947040199195040
 21
-119.413405770498050
  0
LINE
  8
0
  6
CONTINUOUS
 62
3
 10
-184.947040199195040
 20
-116.584978645751840
 11
-186.947040199195040
 21
-117.760764131374620
  0
LINE
  8
0
  6
CONTINUOUS
 62
3
 10
-186.947040199195040
 20
-117.760764131374620
 11
-184.947040199195040
 21
-119.413405770498050
  0
LINE
  8
0
  6
CONTINUOUS
 62
3
 10
-188.947040199195040
 20
-116.584978645751840
 11
-186.947040199195040
 21
-117.760764131374620
  0
POLYLINE
  8
0
  6
CONTINUOUS
 62
3
 66
1
 70
1
  0
VERTEX
  8
0
  6
CONTINUOUS
 62
3
 10
-182.247040199195060
 20
-119.577354199752160
  0
VERTEX
  8
0
  6
CONTINUOUS
 62
3
 10
-182.337349381299870
 20
-118.874397233551800
  0
VERTEX
  8
0
  6
CONTINUOUS
 62
3
 10
-182.604806396392010
 20
-118.198454509339710
  0
VERTEX
  8
0
  6
CONTINUOUS
 62
3
 10
-183.039133021373090
 20
-117.575502126934310
  0
VERTEX
  8
0
  6
CONTINUOUS
 62
3
 10
-183.623638327618270
 20
-117.029479797035730
  0
VERTEX
  8
0
  6
CONTINUOUS
 62
3
 10
-184.335860104002930
 20
-116.581370851569110
  0
VERTEX
  8
0
  6
CONTINUOUS
 62
3
 10
-185.148428067079120
 20
-116.248395866006340
  0
VERTEX
  8
0
  6
CONTINUOUS
 62
3
 10
-186.030115685719240
 20
-116.043350882308100
  0
VERTEX
  8
0
  6
CONTINUOUS
 62
3
 10
-186.947040199195040
 20
-115.974115664207330
  0
VERTEX
  8
0
  6
CONTINUOUS
 62
3
 10
-187.863964712670850
 20
-116.043350882308100
  0
VERTEX
  8
0
  6
CONTINUOUS
 62
3
 10
-188.745652331310960
 20
-116.248395866006340
  0
VERTEX
  8
0
  6
CONTINUOUS
 62
3
 10
-189.558220294387160
 20
-116.581370851569110
  0
VERTEX
  8
0
  6
CONTINUOUS
 62
3
 10
-190.270442070771820
 20
-117.029479797035730
  0
VERTEX
  8
0
  6
CONTINUOUS
 62
3
 10
-190.854947377017000
 20
-117.575502126934310
  0
VERTEX
  8
0
  6
CONTINUOUS
 62
3
 10
-191.289274001998080
 20
-118.198454509339710
  0
VERTEX
  8
0
  6
CONTINUOUS
 62
3
 10
-191.556731017090210
 20
-118.874397233551800
  0
VERTEX
  8
0
  6
CONTINUOUS
 62
3
 10
-191.647040199195030
 20
-119.577354199752160
  0
VERTEX
  8
0
  6
CONTINUOUS
 62
3
 10
-191.556731017090210
 20
-120.280311165952520
  0
VERTEX
  8
0
  6
CONTINUOUS
 62
3
 10
-191.289274001998080
 20
-120.956253890164610
  0
VERTEX
  8
0
  6
CONTINUOUS
 62
3
 10
-190.854947377017000
 20
-121.579206272570010
  0
VERTEX
  8
0
  6
CONTINUOUS
 62
3
 10
-190.270442070771790
 20
-122.125228602468590
  0
VERTEX
  8
0
  6
CONTINUOUS
 62
3
 10
-189.558220294387160
 20
-122.573337547935210
  0
VERTEX
  8
0
  6
CONTINUOUS
 62
3
 10
-188.745652331310960
 20
-122.906312533497980
  0
VERTEX
  8
0
  6
CONTINUOUS
 62
3
 10
-187.863964712670850
 20
-123.111357517196220
  0
VERTEX
  8
0
  6
CONTINUOUS
 62
3
 10
-186.947040199195040
 20
-123.180592735296990
  0
VERTEX
  8
0
  6
CONTINUOUS
 62
3
 10
-186.030115685719240
 20
-123.111357517196220
  0
VERTEX
  8
0
  6
CONTINUOUS
 62
3
 10
-185.148428067079120
 20
-122.906312533497980
  0
VERTEX
  8
0
  6
CONTINUOUS
 62
3
 10
-184.335860104002930
 20
-122.573337547935210
  0
VERTEX
  8
0
  6
CONTINUOUS
 62
3
 10
-183.623638327618290
 20
-122.125228602468590
  0
VERTEX
  8
0
  6
CONTINUOUS
 62
3
 10
-183.039133021373090
 20
-121.579206272570010
  0
VERTEX
  8
0
  6
CONTINUOUS
 62
3
 10
-182.604806396392010
 20
-120.956253890164610
  0
VERTEX
  8
0
  6
CONTINUOUS
 62
3
 10
-182.337349381299870
 20
-120.280311165952520
  0
SEQEND
  8
0
  6
CONTINUOUS
 62
3
  0
ARC
  8
0
  6
CONTINUOUS
 62
3
 10
-276.347040199145340
 20
-124.057674174566780
 40
2.599999999999721
 50
125.000000000001370
 51
180.000000000000000
  0
LINE
  8
0
  6
CONTINUOUS
 62
3
 10
-268.112593148636960
 20
-115.117838346032440
 11
-277.838338933657950
 21
-121.927878859415670
  0
ARC
  8
0
  6
CONTINUOUS
 62
3
 10
-256.641064421615970
 20
-131.500879231812230
 40
20.000000000000000
 50
90.000000000000000
 51
125.000000000000240
  0
LINE
  8
0
  6
CONTINUOUS
 62
3
 10
-278.947040199145480
 20
-171.500879231812180
 11
-278.947040199145480
 21
-124.057674174566780
  0
LINE
  8
0
  6
CONTINUOUS
 62
3
 10
-175.947040199195610
 20
-111.500879231812230
 11
-256.641064421615970
 21
-111.500879231812230
  0
LINE
  8
0
  6
CONTINUOUS
 62
3
 10
-175.947040199195610
 20
-130.500879231812230
 11
-175.947040199195610
 21
-111.500879231812230
  0
ARC
  8
0
  6
CONTINUOUS
 62
3
 10
-178.947040199195610
 20
-212.500879231812180
 40
3.000000000000000
 50
0.000000000000000
 51
90.000000000000000
  0
LINE
  8
0
  6
CONTINUOUS
 62
3
 10
-178.947040199195610
 20
-209.500879231812180
 11
-182.947040199195500
 21
-209.500879231812180
  0
LINE
  8
0
  6
CONTINUOUS
 62
3
 10
-175.947040199195610
 20
-212.500879231812180
 11
-175.947040199195610
 21
-231.500879231812180
  0
ARC
  8
0
  6
CONTINUOUS
 62
3
 10
-276.347040199145340
 20
-218.944084289057630
 40
2.600000000000136
 50
180.000000000000000
 51
234.999999999998610
  0
LINE
  8
0
  6
CONTINUOUS
 62
3
 10
-268.112593148636960
 20
-227.883920117591970
 11
-277.838338933657950
 21
-221.073879604208740
  0
ARC
  8
0
  6
CONTINUOUS
 62
3
 10
-256.641064421615970
 20
-211.500879231812180
 40
20.000000000000007
 50
234.999999999999740
 51
270.000000000000000
  0
LINE
  8
0
  6
CONTINUOUS
 62
3
 10
-278.947040199145480
 20
-171.500879231812180
 11
-278.947040199145480
 21
-218.944084289057630
  0
LINE
  8
0
  6
CONTINUOUS
 62
3
 10
-175.947040199195610
 20
-231.500879231812180
 11
-256.641064421615970
 21
-231.500879231812180
  0
LINE
  8
0
  6
CONTINUOUS
 62
3
 10
-186.947040199195040
 20
-225.240994332250010
 11
-188.947040199195040
 21
-223.588352693126580
  0
LINE
  8
0
  6
CONTINUOUS
 62
3
 10
-184.947040199195040
 20
-226.416779817872340
 11
-186.947040199195040
 21
-225.240994332250010
  0
LINE
  8
0
  6
CONTINUOUS
 62
3
 10
-186.947040199195040
 20
-225.240994332250010
 11
-184.947040199195040
 21
-223.588352693126580
  0
LINE
  8
0
  6
CONTINUOUS
 62
3
 10
-188.947040199195040
 20
-226.416779817872340
 11
-186.947040199195040
 21
-225.240994332250010
  0
POLYLINE
  8
0
  6
CONTINUOUS
 62
3
 66
1
 70
1
  0
VERTEX
  8
0
  6
CONTINUOUS
 62
3
 10
-182.247040199195060
 20
-223.424404263872020
  0
VERTEX
  8
0
  6
CONTINUOUS
 62
3
 10
-182.337349381299870
 20
-222.721447297671660
  0
VERTEX
  8
0
  6
CONTINUOUS
 62
3
 10
-182.604806396392010
 20
-222.045504573459570
  0
VERTEX
  8
0
  6
CONTINUOUS
 62
3
 10
-183.039133021373090
 20
-221.422552191054170
  0
VERTEX
  8
0
  6
CONTINUOUS
 62
3
 10
-183.623638327618270
 20
-220.876529861155570
  0
VERTEX
  8
0
  6
CONTINUOUS
 62
3
 10
-184.335860104002930
 20
-220.428420915688950
  0
VERTEX
  8
0
  6
CONTINUOUS
 62
3
 10
-185.148428067079120
 20
-220.095445930126200
  0
VERTEX
  8
0
  6
CONTINUOUS
 62
3
 10
-186.030115685719240
 20
-219.890400946427950
  0
VERTEX
  8
0
  6
CONTINUOUS
 62
3
 10
-186.947040199195040
 20
-219.821165728327170
  0
VERTEX
  8
0
  6
CONTINUOUS
 62
3
 10
-187.863964712670850
 20
-219.890400946427950
  0
VERTEX
  8
0
  6
CONTINUOUS
 62
3
 10
-188.745652331310960
 20
-220.095445930126200
  0
VERTEX
  8
0
  6
CONTINUOUS
 62
3
 10
-189.558220294387160
 20
-220.428420915688950
  0
VERTEX
  8
0
  6
CONTINUOUS
 62
3
 10
-190.270442070771820
 20
-220.876529861155570
  0
VERTEX
  8
0
  6
CONTINUOUS
 62
3
 10
-190.854947377017000
 20
-221.422552191054170
  0
VERTEX
  8
0
  6
CONTINUOUS
 62
3
 10
-191.289274001998080
 20
-222.045504573459570
  0
VERTEX
  8
0
  6
CONTINUOUS
 62
3
 10
-191.556731017090210
 20
-222.721447297671660
  0
VERTEX
  8
0
  6
CONTINUOUS
 62
3
 10
-191.647040199195030
 20
-223.424404263872020
  0
VERTEX
  8
0
  6
CONTINUOUS
 62
3
 10
-191.556731017090210
 20
-224.127361230072380
  0
VERTEX
  8
0
  6
CONTINUOUS
 62
3
 10
-191.289274001998080
 20
-224.803303954284470
  0
VERTEX
  8
0
  6
CONTINUOUS
 62
3
 10
-190.854947377017000
 20
-225.426256336689870
  0
VERTEX
  8
0
  6
CONTINUOUS
 62
3
 10
-190.270442070771790
 20
-225.972278666588470
  0
VERTEX
  8
0
  6
CONTINUOUS
 62
3
 10
-189.558220294387160
 20
-226.420387612055090
  0
VERTEX
  8
0
  6
CONTINUOUS
 62
3
 10
-188.745652331310960
 20
-226.753362597617840
  0
VERTEX
  8
0
  6
CONTINUOUS
 62
3
 10
-187.863964712670850
 20
-226.958407581316100
  0
VERTEX
  8
0
  6
CONTINUOUS
 62
3
 10
-186.947040199195040
 20
-227.027642799416870
  0
VERTEX
  8
0
  6
CONTINUOUS
 62
3
 10
-186.030115685719240
 20
-226.958407581316100
  0
VERTEX
  8
0
  6
CONTINUOUS
 62
3
 10
-185.148428067079120
 20
-226.753362597617840
  0
VERTEX
  8
0
  6
CONTINUOUS
 62
3
 10
-184.335860104002930
 20
-226.420387612055090
  0
VERTEX
  8
0
  6
CONTINUOUS
 62
3
 10
-183.623638327618290
 20
-225.972278666588470
  0
VERTEX
  8
0
  6
CONTINUOUS
 62
3
 10
-183.039133021373090
 20
-225.426256336689870
  0
VERTEX
  8
0
  6
CONTINUOUS
 62
3
 10
-182.604806396392010
 20
-224.803303954284470
  0
VERTEX
  8
0
  6
CONTINUOUS
 62
3
 10
-182.337349381299870
 20
-224.127361230072380
  0
SEQEND
  8
0
  6
CONTINUOUS
 62
3
  0
ARC
  8
0
  6
CONTINUOUS
 62
3
 10
61.052959800822464
 20
-311.254646079699110
 40
5.000000000000000
 50
0.000000000000000
 51
87.000000000004846
  0
ARC
  8
0
  6
CONTINUOUS
 62
3
 10
61.052959800822464
 20
-299.267653761405880
 40
5.000000000000000
 50
0.000000000000000
 51
87.000000000004846
  0
ARC
  8
0
  6
CONTINUOUS
 62
3
 10
61.052959800822464
 20
-120.734104702218920
 40
5.000000000000018
 50
272.999999999995110
 51
0.000000000000000
  0
ARC
  8
0
  6
CONTINUOUS
 62
3
 10
57.052959800822464
 20
-87.000879231812860
 40
3.000000000000000
 50
180.000000000000000
 51
270.000000000000000
  0
ARC
  8
0
  6
CONTINUOUS
 62
3
 10
55.052959800822464
 20
-92.657733481304376
 40
3.000000000000000
 50
0.000000000000000
 51
70.528779365506566
  0
ARC
  8
0
  6
CONTINUOUS
 62
3
 10
61.052959800822464
 20
-95.000879231812860
 40
5.000000000000000
 50
0.000000000000000
 51
90.000000000000000
  0
ARC
  8
0
  6
CONTINUOUS
 62
3
 10
56.052959800822464
 20
-67.000879231812860
 40
2.000000000000000
 50
90.000000000000000
 51
180.000000000000000
  0
ARC
  8
0
  6
CONTINUOUS
 62
3
 10
68.052959800822464
 20
-67.000879231812860
 40
2.000000000000000
 50
90.000000000000000
 51
180.000000000000000
  0
ARC
  8
0
  6
CONTINUOUS
 62
3
 10
64.052959800822464
 20
-207.000879231811040
 40
2.999999999999756
 50
99.594068226861253
 51
180.000000000000000
  0
ARC
  8
0
  6
CONTINUOUS
 62
3
 10
64.052959800822464
 20
-221.000879231811040
 40
3.000000000000000
 50
180.000000000000000
 51
260.405931773138780
  0
ARC
  8
0
  6
CONTINUOUS
 62
3
 10
63.052959800822464
 20
-201.084799448711010
 40
3.000000000000653
 50
279.594068226858330
 51
0.000000000000000
  0
ARC
  8
0
  6
CONTINUOUS
 62
3
 10
63.052959800822464
 20
-226.916959014910160
 40
3.000000000000000
 50
0.000000000000000
 51
80.405931773138747
  0
ARC
  8
0
  6
CONTINUOUS
 62
3
 10
68.052959800822464
 20
-336.000879231812860
 40
2.000000000000000
 50
180.000000000000000
 51
270.000000000000000
  0
ARC
  8
0
  6
CONTINUOUS
 62
3
 10
237.052552421681410
 20
-170.032111783077880
 40
7.000000000000000
 50
90.000000000000000
 51
270.000000000000000
  0
ARC
  8
0
  6
CONTINUOUS
 62
3
 10
299.652959800822830
 20
-146.400879231813410
 40
0.399999999999636
 50
0.000000000000000
 51
90.000000000000000
  0
ARC
  8
0
  6
CONTINUOUS
 62
3
 10
299.652959800822830
 20
-193.600879231812310
 40
0.400000000000546
 50
270.000000000000000
 51
0.000000000000000
  0
ARC
  8
0
  6
CONTINUOUS
 62
3
 10
225.852959800822650
 20
-194.650879231813410
 40
0.800000000001091
 50
90.000000000000000
 51
180.000000000000000
  0
ARC
  8
0
  6
CONTINUOUS
 62
3
 10
225.852959800822650
 20
-145.350879231812310
 40
0.800000000000182
 50
180.000000000000000
 51
270.000000000000000
  0
ARC
  8
0
  6
CONTINUOUS
 62
3
 10
208.552959800822460
 20
-290.145540172485430
 40
2.000000000000000
 50
180.000000000000000
 51
270.000000000000000
  0
ARC
  8
0
  6
CONTINUOUS
 62
3
 10
208.552959800822460
 20
-254.905713018908730
 40
2.000000000000000
 50
180.000000000000000
 51
270.000000000000000
  0
ARC
  8
0
  6
CONTINUOUS
 62
3
 10
208.552959800822460
 20
-177.000879231812860
 40
2.000000000000000
 50
90.000000000000000
 51
180.000000000000000
  0
ARC
  8
0
  6
CONTINUOUS
 62
3
 10
208.552959800822460
 20
-49.856218291140294
 40
2.000000000000000
 50
90.000000000000000
 51
180.000000000000000
  0
ARC
  8
0
  6
CONTINUOUS
 62
3
 10
208.552959800822460
 20
-85.096045444716992
 40
2.000000000000000
 50
90.000000000000000
 51
180.000000000000000
  0
ARC
  8
0
  6
CONTINUOUS
 62
3
 10
208.552959800822460
 20
-163.000879231812860
 40
2.000000000000000
 50
180.000000000000000
 51
270.000000000000000
  0
ARC
  8
0
  6
CONTINUOUS
 62
3
 10
221.552959800822460
 20
-243.352525776057970
 40
5.000000000000034
 50
123.367012969231490
 51
143.130102354155980
  0
ARC
  8
0
  6
CONTINUOUS
 62
3
 10
196.552959800822460
 20
-324.500879231812860
 40
3.000000000000000
 50
180.000000000000000
 51
270.000000000000000
  0
ARC
  8
0
  6
CONTINUOUS
 62
3
 10
216.052959800822460
 20
-104.745702065387370
 40
5.000000000000000
 50
0.000000000000000
 51
72.542396876277792
  0
ARC
  8
0
  6
CONTINUOUS
 62
3
 10
222.052959800822460
 20
-215.000879231812860
 40
1.000000000000000
 50
90.000000000000000
 51
180.000000000000000
  0
ARC
  8
0
  6
CONTINUOUS
 62
3
 10
222.052959800822460
 20
-125.000879231812860
 40
1.000000000000000
 50
180.000000000000000
 51
270.000000000000000
  0
ARC
  8
0
  6
CONTINUOUS
 62
3
 10
196.552959800822460
 20
-15.500879231812860
 40
3.000000000000000
 50
90.000000000000000
 51
180.000000000000000
  0
ARC
  8
0
  6
CONTINUOUS
 62
3
 10
202.552959800822460
 20
-330.500879231812630
 40
3.000000000000000
 50
90.000000000000000
 51
180.000000000000000
  0
ARC
  8
0
  6
CONTINUOUS
 62
3
 10
196.552959800822460
 20
-338.900906539419340
 40
2.999999999999973
 50
268.122122552718340
 51
0.000000000000000
  0
ARC
  8
0
  6
CONTINUOUS
 62
3
 10
188.552959800822460
 20
-22.912361671596045
 40
5.000000000000121
 50
315.000000000000910
 51
0.000000000000000
  0
ARC
  8
0
  6
CONTINUOUS
 62
3
 10
154.160131739532060
 20
-57.305189732887129
 40
4.999999999999909
 50
271.999999999998470
 51
315.000000000001820
  0
ARC
  8
0
  6
CONTINUOUS
 62
3
 10
216.052959800822460
 20
-235.000879231812860
 40
5.000000000000034
 50
303.367012969231500
 51
0.000000000000000
  0
ARC
  8
0
  6
CONTINUOUS
 62
3
 10
154.714553931319190
 20
-75.346526411692594
 40
5.000000000000000
 50
270.000000000000000
 51
305.248603455041290
  0
ARC
  8
0
  6
CONTINUOUS
 62
3
 10
154.714553931319190
 20
-80.547648069288243
 40
5.000000000000000
 50
270.000000000000000
 51
305.248603455041290
  0
ARC
  8
0
  6
CONTINUOUS
 62
3
 10
188.552959800822460
 20
-51.433142253268784
 40
5.000000000000051
 50
305.248603455045550
 51
0.000000000000000
  0
ARC
  8
0
  6
CONTINUOUS
 62
3
 10
188.552959800822460
 20
-56.634263910864433
 40
5.000000000000051
 50
305.248603455045550
 51
0.000000000000000
  0
CIRCLE
  8
0
  6
CONTINUOUS
 62
3
 10
507.556348033798260
 20
-170.000879231813310
 40
3.324999999999989
  0
CIRCLE
  8
0
  6
CONTINUOUS
 62
4
 10
507.556348033798260
 20
-170.000879231813310
 40
4.000000000000000
  0
ARC
  8
0
  6
CONTINUOUS
 62
3
 10
507.556348033798260
 20
-170.032111783077430
 40
23.999999999999723
 50
196.957763300004330
 51
163.042236699995670
  0
ARC
  8
0
  6
CONTINUOUS
 62
3
 10
400.031169705736430
 20
-239.443920823598550
 40
10.000000000000092
 50
212.855608111867750
 51
339.806925700099780
  0
ARC
  8
0
  6
CONTINUOUS
 62
3
 10
596.463176062672120
 20
-262.085492114988030
 40
9.999999999999867
 50
186.015134369631200
 51
313.994123956684400
  0
ARC
  8
0
  6
CONTINUOUS
 62
3
 10
538.782509559976920
 20
-268.163379231812540
 40
48.000000000000185
 50
6.015134369631197
 51
56.987251938308155
  0
ARC
  8
0
  6
CONTINUOUS
 62
3
 10
380.216666443840550
 20
-178.500879231812860
 40
5.000000000000000
 50
90.000000000000000
 51
180.000000000000000
  0
ARC
  8
0
  6
CONTINUOUS
 62
3
 10
381.198263786359410
 20
-161.500879231812860
 40
4.999999999999872
 50
172.056783216977010
 51
270.000000000000000
  0
ARC
  8
0
  6
CONTINUOUS
 62
3
 10
482.525115482534830
 20
-175.639049907129450
 40
107.308449038694240
 50
92.924523789728326
 51
172.056783216978630
  0
ARC
  8
0
  6
CONTINUOUS
 62
3
 10
499.056348033798260
 20
-72.752976086074909
 40
5.000000000000000
 50
0.000000000000000
 51
90.819237286262435
  0
ARC
  8
0
  6
CONTINUOUS
 62
3
 10
507.525115482535510
 20
-665.000879231812630
 40
597.308449038694790
 50
90.819237286262435
 51
92.924523789728312
  0
ARC
  8
0
  6
CONTINUOUS
 62
3
 10
516.056348033798260
 20
-72.752976086074909
 40
5.000000000000082
 50
89.180762713737565
 51
180.000000000000000
  0
ARC
  8
0
  6
CONTINUOUS
 62
3
 10
507.587580585061230
 20
-665.000879231812630
 40
597.308449038694680
 50
87.075476210271702
 51
89.180762713737593
  0
ARC
  8
0
  6
CONTINUOUS
 62
3
 10
372.712920311124490
 20
-176.500879231812860
 40
3.000000000000000
 50
90.000000000000000
 51
182.759752678235600
  0
ARC
  8
0
  6
CONTINUOUS
 62
3
 10
372.712920311124490
 20
-163.500879231812860
 40
3.000000000000145
 50
177.240247321764400
 51
270.000000000000000
  0
ARC
  8
0
  6
CONTINUOUS
 62
3
 10
514.056348033798260
 20
-97.290838659688234
 40
3.000000000000000
 50
180.000000000000000
 51
264.891555549113550
  0
ARC
  8
0
  6
CONTINUOUS
 62
3
 10
501.056348033798260
 20
-97.290838659688234
 40
3.000000000000029
 50
275.108444450886450
 51
0.000000000000000
  0
ARC
  8
0
  6
CONTINUOUS
 62
3
 10
501.056348033798260
 20
-35.157451509138923
 40
3.000000000000000
 50
0.000000000000000
 51
92.759752678235699
  0
ARC
  8
0
  6
CONTINUOUS
 62
3
 10
514.056348033798260
 20
-35.157451509138923
 40
3.000000000000043
 50
87.240247321759966
 51
180.000000000000000
  0
ARC
  8
0
  6
CONTINUOUS
 62
3
 10
634.896029623756020
 20
-178.500879231812860
 40
5.000000000000000
 50
0.000000000000000
 51
90.000000000000000
  0
ARC
  8
0
  6
CONTINUOUS
 62
3
 10
633.914432281237170
 20
-161.500879231812860
 40
5.000000000000000
 50
270.000000000000000
 51
7.943216783020048
  0
ARC
  8
0
  6
CONTINUOUS
 62
3
 10
642.399775756472080
 20
-176.500879231812860
 40
3.000000000000145
 50
357.240247321764400
 51
90.000000000000000
  0
ARC
  8
0
  6
CONTINUOUS
 62
3
 10
642.399775756472080
 20
-163.500879231812860
 40
3.000000000000000
 50
270.000000000000000
 51
2.759752678235591
  0
ARC
  8
0
  6
CONTINUOUS
 62
3
 10
352.056348033798320
 20
-173.000879231812860
 40
2.000000000000000
 50
180.000000000000000
 51
270.000000000000000
  0
ARC
  8
0
  6
CONTINUOUS
 62
3
 10
352.056348033798320
 20
-167.000879231812860
 40
2.000000000000000
 50
90.000000000000000
 51
180.000000000000000
  0
ARC
  8
0
  6
CONTINUOUS
 62
3
 10
663.056348033798260
 20
-173.000879231812860
 40
2.000000000000000
 50
270.000000000000000
 51
0.000000000000000
  0
ARC
  8
0
  6
CONTINUOUS
 62
3
 10
663.056348033798260
 20
-167.000879231812860
 40
2.000000000000000
 50
0.000000000000000
 51
90.000000000000000
  0
ARC
  8
0
  6
CONTINUOUS
 62
3
 10
380.216666443840550
 20
-208.388448737684940
 40
5.000000000000000
 50
180.000000000000000
 51
196.775854678354560
  0
ARC
  8
0
  6
CONTINUOUS
 62
3
 10
634.896029623756020
 20
-208.388448737684940
 40
5.000000000000024
 50
343.224145321645440
 51
0.000000000000000
  0
ARC
  8
0
  6
CONTINUOUS
 62
3
 10
660.347054557460980
 20
-178.000879231812860
 40
3.000000000000000
 50
90.000000000000000
 51
177.002775457333090
  0
ARC
  8
0
  6
CONTINUOUS
 62
3
 10
660.347054557460980
 20
-162.000879231812860
 40
2.999999999999966
 50
182.997224542666910
 51
270.000000000000000
  0
ARC
  8
0
  6
CONTINUOUS
 62
3
 10
354.765641510135590
 20
-162.000879231812860
 40
3.000000000000000
 50
270.000000000000000
 51
357.002775457333310
  0
ARC
  8
0
  6
CONTINUOUS
 62
3
 10
354.765641510135590
 20
-178.000879231812860
 40
3.000000000000193
 50
2.997224542666690
 51
90.000000000000000
  0
ARC
  8
0
  6
CONTINUOUS
 62
3
 10
605.031942020394580
 20
-329.937906888314050
 40
5.999999999999934
 50
156.035453827466310
 51
177.015999552707170
  0
ARC
  8
0
  6
CONTINUOUS
 62
3
 10
587.056348033798260
 20
-330.000879231812410
 40
12.000000000000000
 50
270.000000000000000
 51
2.865983982598435
  0
ARC
  8
0
  6
CONTINUOUS
 62
3
 10
410.080754047201990
 20
-329.937906888314050
 40
5.999999999999909
 50
2.984000447292837
 51
23.964546172534565
  0
ARC
  8
0
  6
CONTINUOUS
 62
3
 10
428.056348033798320
 20
-330.000879231812410
 40
11.999999999999970
 50
177.134016017401560
 51
270.000000000000000
  0
ARC
  8
0
  6
CONTINUOUS
 62
3
 10
507.556348033798260
 20
-170.000879231812860
 40
149.999999999999910
 50
2.997224542665233
 51
32.364374906978924
  0
ARC
  8
0
  6
CONTINUOUS
 62
3
 10
507.556348033798260
 20
-170.000879231812860
 40
149.999999999999860
 50
182.997224542665240
 51
212.364374906978950
  0
CIRCLE
  8
0
  6
CONTINUOUS
 62
3
 10
507.556348033798260
 20
-170.000879231813310
 40
34.000000000000000
  0
CIRCLE
  8
0
  6
CONTINUOUS
 62
3
 10
373.206059608354340
 20
-304.351167657256840
 40
12.000000000000000
  0
ARC
  8
0
  6
CONTINUOUS
 62
3
 10
365.056348033798320
 20
-27.500879231812860
 40
15.000000000000000
 50
90.000000000000000
 51
180.000000000000000
  0
ARC
  8
0
  6
CONTINUOUS
 62
3
 10
365.056348033798320
 20
-312.500879231812860
 40
15.000000000000000
 50
180.000000000000000
 51
270.000000000000000
  0
ARC
  8
0
  6
CONTINUOUS
 62
3
 10
650.056348033798260
 20
-312.500879231812860
 40
15.000000000000000
 50
270.000000000000000
 51
0.000000000000000
  0
ARC
  8
0
  6
CONTINUOUS
 62
3
 10
650.056348033798260
 20
-27.500879231812860
 40
15.000000000000000
 50
0.000000000000000
 51
90.000000000000000
  0
ARC
  8
0
  6
CONTINUOUS
 62
3
 10
507.556348033798260
 20
-170.000879231812860
 40
149.999999999999910
 50
237.635625093021160
 51
302.364374906978870
  0
ARC
  8
0
  6
CONTINUOUS
 62
3
 10
355.056348033798320
 20
-294.216607984350960
 40
5.000000000000041
 50
135.000000000001820
 51
180.000000000000000
  0
ARC
  8
0
  6
CONTINUOUS
 62
3
 10
383.340619281260220
 20
-322.500879231812860
 40
5.000000000000000
 50
270.000000000000000
 51
315.000000000000000
  0
ARC
  8
0
  6
CONTINUOUS
 62
3
 10
421.908074546229330
 20
-305.146627402440120
 40
10.000000000000107
 50
57.635625093020330
 51
134.999999999999090
  0
ARC
  8
0
  6
CONTINUOUS
 62
3
 10
372.410599863171290
 20
-255.649152719381850
 40
9.999999999999758
 50
315.000000000000000
 51
32.364374906979279
  0
ARC
  8
0
  6
CONTINUOUS
 62
3
 10
593.204621521367240
 20
-305.146627402439890
 40
9.999999999999758
 50
45.000000000000000
 51
122.364374906979250
  0
ARC
  8
0
  6
CONTINUOUS
 62
3
 10
507.556348033798260
 20
-170.000879231812860
 40
150.000000000000060
 50
327.635625093021080
 51
357.002775457334740
  0
ARC
  8
0
  6
CONTINUOUS
 62
3
 10
642.702096204425520
 20
-255.649152719381850
 40
9.999999999999984
 50
147.635625093021420
 51
224.999999999999090
  0
ARC
  8
0
  6
CONTINUOUS
 62
3
 10
631.772076786336360
 20
-322.500879231812860
 40
5.000000000000041
 50
225.000000000001850
 51
270.000000000000000
  0
ARC
  8
0
  6
DASHDOT
 62
4
 10
507.556348033798260
 20
-170.000879231812860
 40
190.000000000000140
 50
309.119041968700400
 51
320.880958031302550
  0
CIRCLE
  8
0
  6
CONTINUOUS
 62
3
 10
641.906636459242240
 20
-304.351167657256840
 40
12.000000000000000
  0
ARC
  8
0
  6
CONTINUOUS
 62
3
 10
660.056348033798260
 20
-294.216607984351190
 40
5.000000000000000
 50
0.000000000002606
 51
45.000000000001855
  0
ARC
  8
0
  6
CONTINUOUS
 62
3
 10
642.702096204425290
 20
-84.352605744243874
 40
9.999999999999758
 50
135.000000000000000
 51
212.364374906979260
  0
ARC
  8
0
  6
CONTINUOUS
 62
3
 10
507.556348033798260
 20
-170.000879231812860
 40
150.000000000000060
 50
57.635625093021090
 51
122.364374906978950
  0
ARC
  8
0
  6
CONTINUOUS
 62
3
 10
593.204621521367240
 20
-34.855131061185602
 40
9.999999999999984
 50
237.635625093021450
 51
314.999999999999090
  0
ARC
  8
0
  6
CONTINUOUS
 62
3
 10
660.056348033798260
 20
-45.785150479274762
 40
5.000000000000201
 50
315.000000000000000
 51
0.000000000000000
  0
CIRCLE
  8
0
  6
CONTINUOUS
 62
3
 10
641.906636459242240
 20
-35.650590806368882
 40
12.000000000000000
  0
ARC
  8
0
  6
CONTINUOUS
 62
3
 10
631.772076786336580
 20
-17.500879231812860
 40
5.000000000000000
 50
90.000000000000000
 51
135.000000000001820
  0
ARC
  8
0
  6
CONTINUOUS
 62
3
 10
421.908074546229330
 20
-34.855131061185602
 40
9.999999999999758
 50
225.000000000000000
 51
302.364374906978530
  0
ARC
  8
0
  6
CONTINUOUS
 62
3
 10
507.556348033798260
 20
-170.000879231812860
 40
149.999999999999890
 50
147.635625093021160
 51
177.002775457334760
  0
ARC
  8
0
  6
CONTINUOUS
 62
3
 10
372.410599863171060
 20
-84.352605744243874
 40
10.000000000000107
 50
327.635625093020340
 51
45.000000000000000
  0
ARC
  8
0
  6
CONTINUOUS
 62
3
 10
383.340619281260220
 20
-17.500879231812632
 40
5.000000000000041
 50
44.999999999998167
 51
90.000000000000000
  0
ARC
  8
0
  6
DASHDOT
 62
4
 10
507.556348033798260
 20
-170.000879231812860
 40
189.999999999999970
 50
129.119041968700370
 51
140.880958031302580
  0
CIRCLE
  8
0
  6
CONTINUOUS
 62
3
 10
373.206059608354340
 20
-35.650590806368655
 40
12.000000000000000
  0
ARC
  8
0
  6
CONTINUOUS
 62
3
 10
355.056348033798320
 20
-45.785150479274762
 40
5.000000000000000
 50
180.000000000000000
 51
225.000000000000000
  0
CIRCLE
  8
0
  6
CONTINUOUS
 62
3
 10
507.556348033798260
 20
-170.000879231812860
 40
145.000000000000000
  0
CIRCLE
  8
0
  6
CONTINUOUS
 62
3
 10
507.556348033798260
 20
-170.000879231812860
 40
138.000000000000000
  0
ARC
  8
0
  6
CONTINUOUS
 62
3
 10
538.782509559976920
 20
-268.163379231812540
 40
40.999999999999964
 50
0.074478852621535
 51
58.061807908989444
  0
ARC
  8
0
  6
CONTINUOUS
 62
3
 10
461.035928732734190
 20
-261.880929894727390
 40
47.999999999999993
 50
113.824470809971170
 51
164.803706655299460
  0
ARC
  8
0
  6
CONTINUOUS
 62
3
 10
589.782466471533100
 20
-268.097084289213630
 40
10.000000000000052
 50
180.074478852622290
 51
309.970383425430270
  0
ARC
  8
0
  6
CONTINUOUS
 62
3
 10
565.761719828223700
 20
-224.883797287185190
 40
10.000000000000068
 50
136.682825299161440
 51
238.061807908989040
  0
ARC
  8
0
  6
CONTINUOUS
 62
3
 10
405.063988380645070
 20
-246.677578513463690
 40
9.999999999999950
 50
216.800938413478920
 51
344.803706655300350
  0
CIRCLE
  8
0
  6
CONTINUOUS
 62
3
 10
507.556348033798260
 20
-170.000879231813310
 40
44.000000000000000
  0
LINE
  8
0
  6
CONTINUOUS
 62
3
 10
57.052959800822464
 20
-90.000879231812860
 11
61.052959800822464
 21
-90.000879231812860
  0
LINE
  8
0
  6
CONTINUOUS
 62
3
 10
54.052959800822464
 20
-87.000879231812860
 11
54.052959800822464
 21
-67.000879231812860
  0
LINE
  8
0
  6
CONTINUOUS
 62
3
 10
66.052959800822464
 20
-201.084799448711010
 11
66.052959800822464
 21
-67.000879231812860
  0
LINE
  8
0
  6
CONTINUOUS
 62
3
 10
56.052959800822464
 20
-65.000879231812860
 11
77.552959800822691
 21
-65.000879231812860
  0
LINE
  8
0
  6
CONTINUOUS
 62
3
 10
77.052959800822464
 20
-210.000879231812860
 11
77.052959800822464
 21
-65.000879231812860
  0
LINE
  8
0
  6
CONTINUOUS
 62
3
 10
66.052959800822464
 20
-226.916959014910160
 11
66.052959800822464
 21
-336.000879231812860
  0
LINE
  8
0
  6
CONTINUOUS
 62
3
 10
61.052959800822464
 20
-207.000879231811040
 11
61.052959800822464
 21
-214.000879231811040
  0
LINE
  8
0
  6
CONTINUOUS
 62
3
 10
61.052959800822464
 20
-221.000879231811040
 11
61.052959800822464
 21
-214.000879231811040
  0
LINE
  8
0
  6
CONTINUOUS
 62
3
 10
77.052959800822464
 20
-210.000879231812860
 11
77.052959800822464
 21
-338.000879231812860
  0
LINE
  8
0
  6
CONTINUOUS
 62
3
 10
68.052959800822464
 20
-338.000879231812860
 11
77.552959800822691
 21
-338.000879231812860
  0
LINE
  8
0
  6
CONTINUOUS
 62
3
 10
49.552959800818826
 20
-88.000879231813769
 11
54.052959800818826
 21
-88.000879231813769
  0
LINE
  8
0
  6
DASHDOT
 62
4
 10
43.822712400008641
 20
-50.000879231813769
 11
61.921978415300146
 21
-50.000879231813769
  0
LINE
  8
0
  6
CONTINUOUS
 62
3
 10
54.052959800822464
 20
-30.000879231813769
 11
54.052959800822464
 21
-88.000879231813769
  0
LINE
  8
0
  6
CONTINUOUS
 62
3
 10
49.552959800822464
 20
-30.000879231813769
 11
54.052959800822464
 21
-30.000879231813769
  0
LINE
  8
0
  6
CONTINUOUS
 62
3
 10
49.552959800818826
 20
-88.000879231813769
 11
49.552959800822464
 21
-30.000879231813769
  0
LINE
  8
0
  6
DASHDOT
 62
4
 10
34.061315586134697
 20
-78.000879231812860
 11
60.375975464389739
 21
-78.000879231812860
  0
LINE
  8
0
  6
CONTINUOUS
 62
3
 10
300.052959800822460
 20
-163.032111783077880
 11
237.052552421681410
 21
-163.032111783077880
  0
LINE
  8
0
  6
CONTINUOUS
 62
3
 10
300.052959800822460
 20
-177.032111783077880
 11
237.052552421681410
 21
-177.032111783077880
  0
LINE
  8
0
  6
CONTINUOUS
 62
3
 10
300.052959800822460
 20
-170.000879231812860
 11
300.052959800822460
 21
-146.400879231813410
  0
LINE
  8
0
  6
CONTINUOUS
 62
3
 10
299.652959800822830
 20
-146.000879231812860
 11
227.612767421957870
 21
-146.000879231812860
  0
LINE
  8
0
  6
CONTINUOUS
 62
3
 10
300.052959800822460
 20
-170.000879231812860
 11
300.052959800822460
 21
-193.600879231812310
  0
LINE
  8
0
  6
CONTINUOUS
 62
3
 10
299.652959800822830
 20
-194.000879231812860
 11
227.612767421957870
 21
-194.000879231812860
  0
LINE
  8
0
  6
CONTINUOUS
 62
3
 10
224.852959800822650
 20
-145.000879231812860
 11
223.052959800822460
 21
-145.000879231812860
  0
LINE
  8
0
  6
CONTINUOUS
 62
3
 10
224.852959800822650
 20
-195.000879231812860
 11
223.052959800822460
 21
-195.000879231812860
  0
LINE
  8
0
  6
CONTINUOUS
 62
3
 10
225.052959800822460
 20
-194.800879231813040
 11
224.852959800822650
 21
-195.000879231812860
  0
LINE
  8
0
  6
CONTINUOUS
 62
3
 10
225.052959800822460
 20
-194.650879231813410
 11
225.052959800822460
 21
-194.800879231813040
  0
LINE
  8
0
  6
CONTINUOUS
 62
3
 10
227.052959800822460
 20
-193.850879231812310
 11
225.852959800822650
 21
-193.850879231812310
  0
LINE
  8
0
  6
CONTINUOUS
 62
3
 10
227.052959800822460
 20
-193.850879231812310
 11
227.612767421957870
 21
-194.000879231812860
  0
LINE
  8
0
  6
CONTINUOUS
 62
3
 10
225.052959800822460
 20
-170.000879231812860
 11
225.052959800822460
 21
-194.650879231813410
  0
LINE
  8
0
  6
CONTINUOUS
 62
3
 10
225.052959800822460
 20
-145.200879231812680
 11
224.852959800822650
 21
-145.000879231812860
  0
LINE
  8
0
  6
CONTINUOUS
 62
3
 10
225.052959800822460
 20
-145.350879231812310
 11
225.052959800822460
 21
-145.200879231812680
  0
LINE
  8
0
  6
CONTINUOUS
 62
3
 10
227.052959800822460
 20
-146.150879231813410
 11
225.852959800822650
 21
-146.150879231813410
  0
LINE
  8
0
  6
CONTINUOUS
 62
3
 10
227.052959800822460
 20
-146.150879231813410
 11
227.612767421957870
 21
-146.000879231812860
  0
LINE
  8
0
  6
CONTINUOUS
 62
3
 10
225.052959800822460
 20
-170.000879231812860
 11
225.052959800822460
 21
-145.350879231812310
  0
LINE
  8
0
  6
CONTINUOUS
 62
3
 10
213.552959800822460
 20
-175.000879231812860
 11
208.552959800822460
 21
-175.000879231812860
  0
LINE
  8
0
  6
CONTINUOUS
 62
3
 10
213.552959800822460
 20
-256.905713018908730
 11
208.552959800822460
 21
-256.905713018908730
  0
LINE
  8
0
  6
CONTINUOUS
 62
3
 10
213.552959800822460
 20
-292.145540172485430
 11
208.552959800822460
 21
-292.145540172485430
  0
LINE
  8
0
  6
CONTINUOUS
 62
3
 10
206.552959800822460
 20
-177.000879231812860
 11
206.552959800822460
 21
-290.145540172485430
  0
LINE
  8
0
  6
CONTINUOUS
 62
3
 10
213.552959800822460
 20
-165.000879231812860
 11
208.552959800822460
 21
-165.000879231812860
  0
LINE
  8
0
  6
CONTINUOUS
 62
3
 10
213.552959800822460
 20
-83.096045444716992
 11
208.552959800822460
 21
-83.096045444716992
  0
LINE
  8
0
  6
CONTINUOUS
 62
3
 10
213.552959800822460
 20
-47.856218291140294
 11
208.552959800822460
 21
-47.856218291140294
  0
LINE
  8
0
  6
CONTINUOUS
 62
3
 10
206.552959800822460
 20
-163.000879231812860
 11
206.552959800822460
 21
-49.856218291140294
  0
LINE
  8
0
  6
DASHDOT
 62
4
 10
231.690829431804560
 20
-304.351167657256840
 11
179.535784310121930
 21
-304.351167657256840
  0
LINE
  8
0
  6
DASHDOT
 62
4
 10
231.690829431804560
 20
-35.650590806368655
 11
179.535784310121930
 21
-35.650590806368655
  0
LINE
  8
0
  6
CONTINUOUS
 62
3
 10
193.552959800822460
 20
-324.500879231812860
 11
193.552959800822460
 21
-15.500879231812860
  0
LINE
  8
0
  6
CONTINUOUS
 62
3
 10
183.266143557421860
 20
-61.291833124864752
 11
77.552655214332162
 21
-64.983429483461578
  0
LINE
  8
0
  6
DASHDOT
 62
4
 10
311.390682662746260
 20
-170.000879231812860
 11
166.321948248174520
 21
-170.000879231812860
  0
LINE
  8
0
  6
CONTINUOUS
 62
3
 10
213.552959800822460
 20
-170.000879231812860
 11
213.552959800822460
 21
-327.500879231812410
  0
LINE
  8
0
  6
CONTINUOUS
 62
3
 10
217.552959800822460
 20
-170.000879231812860
 11
217.552959800822460
 21
-314.000879231812410
  0
LINE
  8
0
  6
CONTINUOUS
 62
3
 10
221.052959800822460
 20
-170.000879231812860
 11
221.052959800822460
 21
-235.000879231812860
  0
LINE
  8
0
  6
CONTINUOUS
 62
3
 10
213.552959800822460
 20
-327.500879231812630
 11
196.552959800822460
 21
-327.500879231812630
  0
LINE
  8
0
  6
CONTINUOUS
 62
3
 10
217.552959800822460
 20
-170.000879231812860
 11
217.552959800822460
 21
-26.000879231812860
  0
LINE
  8
0
  6
CONTINUOUS
 62
3
 10
221.052959800822920
 20
-170.000879231812860
 11
221.052959800822460
 21
-104.745702065387370
  0
LINE
  8
0
  6
CONTINUOUS
 62
3
 10
213.552959800822460
 20
-170.000879231812860
 11
213.552959800822460
 21
-12.500879231812860
  0
LINE
  8
0
  6
CONTINUOUS
 62
3
 10
216.552959800822460
 20
-315.000879231812410
 11
213.552959800822460
 21
-315.000879231812410
  0
LINE
  8
0
  6
CONTINUOUS
 62
3
 10
213.552959800822460
 20
-12.500879231812860
 11
196.552959800822460
 21
-12.500879231812860
  0
LINE
  8
0
  6
CONTINUOUS
 62
3
 10
216.552959800822460
 20
-25.000879231812860
 11
213.552959800822460
 21
-25.000879231812860
  0
LINE
  8
0
  6
CONTINUOUS
 62
3
 10
223.052959800822460
 20
-214.000879231812860
 11
223.052959800822460
 21
-126.000879231813080
  0
LINE
  8
0
  6
CONTINUOUS
 62
3
 10
77.552959800822691
 20
-338.000879231812860
 11
77.552959800822691
 21
-64.983418847066787
  0
LINE
  8
0
  6
CONTINUOUS
 62
3
 10
199.552959800822460
 20
-338.900906539419340
 11
199.552959800822460
 21
-330.500879231812630
  0
LINE
  8
0
  6
CONTINUOUS
 62
3
 10
77.552959800822691
 20
-338.000879231812860
 11
196.454651970360370
 21
-341.899295368519010
  0
LINE
  8
0
  6
CONTINUOUS
 62
3
 10
217.552959800822460
 20
-314.000879231812410
 11
216.552959800822460
 21
-315.000879231812410
  0
LINE
  8
0
  6
CONTINUOUS
 62
3
 10
217.552959800822460
 20
-26.000879231812860
 11
216.552959800822460
 21
-25.000879231812860
  0
LINE
  8
0
  6
CONTINUOUS
 62
3
 10
222.052959800822460
 20
-126.000879231812860
 11
223.052959800822460
 21
-126.000879231813080
  0
LINE
  8
0
  6
CONTINUOUS
 62
3
 10
222.052959800822460
 20
-214.000879231812860
 11
223.052959800822460
 21
-214.000879231812860
  0
LINE
  8
0
  6
CONTINUOUS
 62
3
 10
192.088493706755340
 20
-26.447895577528811
 11
157.695665645464940
 21
-60.840723638819782
  0
LINE
  8
0
  6
CONTINUOUS
 62
3
 10
188.858279946528460
 20
-85.547648069288243
 11
161.014769836167940
 21
-85.547648069288243
  0
LINE
  8
0
  6
CONTINUOUS
 62
3
 10
191.438586224789110
 20
-55.516420365436261
 11
157.600180355285370
 21
-79.429804523860071
  0
LINE
  8
0
  6
CONTINUOUS
 62
3
 10
191.438586224789110
 20
-60.717542023031911
 11
157.600180355285370
 21
-84.630926181455720
  0
LINE
  8
0
  6
CONTINUOUS
 62
3
 10
480.056348033798260
 20
-177.032111783077430
 11
489.056348033798260
 21
-177.032111783077430
  0
LINE
  8
0
  6
CONTINUOUS
 62
3
 10
480.056348033798260
 20
-163.032111783077430
 11
489.056348033798260
 21
-163.032111783077430
  0
LINE
  8
0
  6
CONTINUOUS
 62
3
 10
489.056348033798260
 20
-163.032111783077430
 11
489.056348033798260
 21
-177.032111783077430
  0
LINE
  8
0
  6
CONTINUOUS
 62
3
 10
480.056348033798260
 20
-163.032111783077430
 11
480.056348033798260
 21
-177.032111783077430
  0
LINE
  8
0
  6
CONTINUOUS
 62
3
 10
375.216666443840550
 20
-178.500879231812860
 11
375.216666443840550
 21
-208.388448737684940
  0
LINE
  8
0
  6
CONTINUOUS
 62
3
 10
511.056348033798260
 20
-35.157451509138923
 11
511.056348033798260
 21
-97.290838659688234
  0
LINE
  8
0
  6
CONTINUOUS
 62
3
 10
504.056348033798260
 20
-35.157451509138923
 11
504.056348033798260
 21
-97.290838659688234
  0
LINE
  8
0
  6
CONTINUOUS
 62
3
 10
639.896029623756020
 20
-178.500879231812860
 11
639.896029623756020
 21
-208.388448737684940
  0
LINE
  8
0
  6
CONTINUOUS
 62
3
 10
660.347054557460980
 20
-175.000879231812860
 11
663.056348033798260
 21
-175.000879231812860
  0
LINE
  8
0
  6
CONTINUOUS
 62
3
 10
660.347054557460980
 20
-165.000879231812860
 11
663.056348033798260
 21
-165.000879231812860
  0
LINE
  8
0
  6
CONTINUOUS
 62
3
 10
354.765641510135590
 20
-175.000879231812860
 11
352.056348033798320
 21
-175.000879231812860
  0
LINE
  8
0
  6
CONTINUOUS
 62
3
 10
354.765641510135590
 20
-165.000879231812860
 11
352.056348033798320
 21
-165.000879231812860
  0
LINE
  8
0
  6
CONTINUOUS
 62
3
 10
587.056348033798260
 20
-342.000879231812860
 11
507.556348033798260
 21
-342.000879231812860
  0
LINE
  8
0
  6
CONTINUOUS
 62
3
 10
428.056348033798320
 20
-342.000879231812860
 11
507.556348033798260
 21
-342.000879231812860
  0
LINE
  8
0
  6
DASHDOT
 62
4
 10
507.556348033798260
 20
6.021010683538407
 11
507.556348033798260
 21
-355.149795107292450
  0
LINE
  8
0
  6
CONTINUOUS
 62
3
 10
665.056348033798260
 20
-27.500879231812860
 11
665.056348033798260
 21
-312.500879231812860
  0
LINE
  8
0
  6
CONTINUOUS
 62
3
 10
350.056348033798320
 20
-27.500879231812860
 11
350.056348033798320
 21
-312.500879231812860
  0
LINE
  8
0
  6
CONTINUOUS
 62
3
 10
650.056348033798260
 20
-12.500879231812860
 11
365.056348033798320
 21
-12.500879231812860
  0
LINE
  8
0
  6
CONTINUOUS
 62
3
 10
650.056348033798260
 20
-327.500879231812860
 11
365.056348033798320
 21
-327.500879231812860
  0
LINE
  8
0
  6
DASHDOT
 62
4
 10
386.994641841491840
 20
-290.562585424119110
 11
359.417477375216610
 21
-318.139749890394570
  0
LINE
  8
0
  6
CONTINUOUS
 62
3
 10
379.481667675036590
 20
-262.720220531247150
 11
351.520814127865440
 21
-290.681074078418310
  0
LINE
  8
0
  6
CONTINUOUS
 62
3
 10
414.837006734364020
 20
-298.075559590574580
 11
386.876153187192870
 21
-326.036413137745510
  0
LINE
  8
0
  6
CONTINUOUS
 62
3
 10
635.631028392559980
 20
-262.720220531247150
 11
663.591881939730910
 21
-290.681074078418310
  0
LINE
  8
0
  6
CONTINUOUS
 62
3
 10
600.275689333232550
 20
-298.075559590574580
 11
628.236542880403700
 21
-326.036413137745740
  0
LINE
  8
0
  6
DASHDOT
 62
4
 10
628.118054226104500
 20
-290.562585424119330
 11
655.695218692379970
 21
-318.139749890394570
  0
LINE
  8
0
  6
CONTINUOUS
 62
3
 10
600.275689333232550
 20
-41.926198873051135
 11
628.236542880403700
 21
-13.965345325880207
  0
LINE
  8
0
  6
CONTINUOUS
 62
3
 10
635.631028392559980
 20
-77.281537932378569
 11
663.591881939731140
 21
-49.320684385207642
  0
LINE
  8
0
  6
DASHDOT
 62
4
 10
628.118054226104730
 20
-49.439173039506613
 11
655.695218692379970
 21
-21.862008573231378
  0
LINE
  8
0
  6
CONTINUOUS
 62
3
 10
379.481667675036590
 20
-77.281537932378342
 11
351.520814127865660
 21
-49.320684385207414
  0
LINE
  8
0
  6
CONTINUOUS
 62
3
 10
414.837006734364020
 20
-41.926198873050907
 11
386.876153187193100
 21
-13.965345325879980
  0
LINE
  8
0
  6
DASHDOT
 62
4
 10
386.994641841492070
 20
-49.439173039506386
 11
359.417477375216830
 21
-21.862008573230924
  0
ENDSEC
  0
EOF
