  0
SECTION
  2
HEADER
  9
$TEXTSIZE
 40
2.5
  9
$ACADVER
  1
AC1009
  9
$DIMASZ
 40
1.931851648807023
  9
$DIMEXE
 40
2.000000000000000
  9
$DIMEXO
 40
1.000000000000000
  9
$DIMLFAC
 40
1.000000000000000
  9
$DIMSCALE
 40
1.000000000000000
  9
$DIMTAD
 70
1
  9
$DIMTFAC
 40
0.625000000000000
  9
$DIMTXT
 40
2.799999952316284
  9
$LUPREC
 70
3
  9
$REGENMODE
 70
1
  9
$TEXTSTYLE
  7
STANDARD1
  0
ENDSEC
  0
SECTION
  2
TABLES
  0
TABLE
  2
LTYPE
 70
4
  0
LTYPE
  2
CONTINUOUS
 70
64
  3
Solid line
 72
65
 73
0
 40
0.0
  0
LTYPE
  2
DASHED
 70
64
  3
-- -- -- -- -- -- -- -- -- -- -- -- -- -- --
 72
65
 73
2
 40
0.75
 49
0.5
 49
-0.25
  0
LTYPE
  2
DASHDOT
 70
64
  3
__ . __ . __ . __ . __ . __ . __ . __ . __ . __
 72
65
 73
4
 40
1.0
 49
0.5
 49
-0.25
 49
0.0
 49
-0.25
  0
LTYPE
  2
DIVIDE
 70
64
  3
__ . . __ . . __ . . __ . . __ . . __ . . __
 72
65
 73
6
 40
1.25
 49
0.5
 49
-0.25
 49
0.0
 49
-0.25
 49
0.0
 49
-0.25
  0
ENDTAB
  0
TABLE
  2
LAYER
 70
2
  0
LAYER
  2
0
 70
64
 62
53
  6
CONTINUOUS
  0
LAYER
  2
1
 70
64
 62
102
  6
CONTINUOUS
  0
ENDTAB
  0
TABLE
  2
STYLE
 70
4
  0
STYLE
  2
STANDARD1
 70
64
 40
0.0
 41
1.0
 50
0.0
 71
0
 42
3.200000047683716
  3
MONOTXT
  4
BIGFONT
  0
STYLE
  2
STANDARD2
 70
68
 40
0.0
 41
1.0
 50
0.0
 71
0
 42
3.200000047683716
  3
MONOTXT
  4
BIGFONT
  0
STYLE
  2
STANDARD3
 70
64
 40
0.0
 41
1.0
 50
0.0
 71
0
 42
3.200000047683716
  3
MONOTXT
  4

  0
STYLE
  2
STANDARD4
 70
68
 40
0.0
 41
1.0
 50
0.0
 71
0
 42
3.200000047683716
  3
MONOTXT
  4

  0
ENDTAB
  0
TABLE
  2
VIEW
 70
0
  0
ENDTAB
  0
ENDSEC
  0
SECTION
  2
BLOCKS
  0
BLOCK
  8
0
  2
ZU_SYM_1
 70
64
 10
0.000000000000000
 20
0.000000000000000
  0
POINT
  8
0
  6
CONTINUOUS
 62
256
 10
0.000000000000000
 20
0.000000000000000
  0
LINE
  8
0
  6
CONTINUOUS
 62
256
 10
-0.000025000000000
 20
-4.599994000000000
 11
-4.300015000000000
 21
-4.599977000000000
  0
LINE
  8
0
  6
CONTINUOUS
 62
256
 10
-4.299996000000000
 20
-4.599962000000000
 11
-4.799990000000000
 21
-3.899959000000000
  0
LINE
  8
0
  6
CONTINUOUS
 62
256
 10
-4.800010000000000
 20
-3.899973000000000
 11
-4.799979000000000
 21
3.900012000000000
  0
LINE
  8
0
  6
CONTINUOUS
 62
256
 10
-4.799962000000000
 20
3.900001000000000
 11
-4.299962000000000
 21
4.599999000000000
  0
LINE
  8
0
  6
CONTINUOUS
 62
256
 10
-4.299978000000000
 20
4.600015000000000
 11
0.000013000000000
 21
4.599998000000000
  0
LINE
  8
0
  6
CONTINUOUS
 62
256
 10
0.000016000000000
 20
4.599992000000000
 11
-0.000021000000000
 21
-4.599992000000000
  0
LINE
  8
0
  6
CONTINUOUS
 62
256
 10
-4.300006000000000
 20
-2.299980000000000
 11
-1.300007000000000
 21
-2.299992000000000
  0
LINE
  8
0
  6
CONTINUOUS
 62
256
 10
-4.299987000000000
 20
2.300014000000000
 11
-1.299990000000000
 21
2.300004000000000
  0
ARC
  8
0
  6
CONTINUOUS
 62
256
 10
-3.230014000000000
 20
-3.449986000000000
 40
1.570000000000000
 50
132.899744000000000
 51
179.999744999999990
  0
ARC
  8
0
  6
CONTINUOUS
 62
256
 10
-3.229986000000000
 20
3.450012000000000
 40
1.570000000000000
 50
179.999744999999990
 51
227.099745999999980
  0
ARC
  8
0
  6
CONTINUOUS
 62
256
 10
0.740001000000000
 20
-0.000003000000000
 40
5.539999000000000
 50
155.470187000000040
 51
204.529249999999960
  0
LINE
  8
0
  6
CONTINUOUS
 62
256
 10
-1.300018000000000
 20
-4.599993000000000
 11
-1.299981000000000
 21
4.600004000000000
  0
LINE
  8
0
  6
CONTINUOUS
 62
256
 10
-1.300000000000000
 20
-0.299995000000000
 11
-0.000004000000000
 21
-0.000001000000000
  0
LINE
  8
0
  6
CONTINUOUS
 62
256
 10
-1.299999000000000
 20
0.300007000000000
 11
-0.000001000000000
 21
0.600002000000000
  0
ENDBLK
  8
0
  0
BLOCK
  8
0
  2
ZU_SYM_2
 70
64
 10
0.000000000000000
 20
0.000000000000000
  0
POINT
  8
0
  6
CONTINUOUS
 62
256
 10
0.000000000000000
 20
0.000000000000000
  0
LINE
  8
0
  6
CONTINUOUS
 62
256
 10
-0.000025000000000
 20
-4.599994000000000
 11
-4.300015000000000
 21
-4.599977000000000
  0
LINE
  8
0
  6
CONTINUOUS
 62
256
 10
-4.299996000000000
 20
-4.599962000000000
 11
-4.799990000000000
 21
-3.899959000000000
  0
LINE
  8
0
  6
CONTINUOUS
 62
256
 10
-4.800010000000000
 20
-3.899973000000000
 11
-4.799979000000000
 21
3.900012000000000
  0
LINE
  8
0
  6
CONTINUOUS
 62
256
 10
-4.799962000000000
 20
3.900001000000000
 11
-4.299962000000000
 21
4.599999000000000
  0
LINE
  8
0
  6
CONTINUOUS
 62
256
 10
-4.299978000000000
 20
4.600015000000000
 11
0.000013000000000
 21
4.599998000000000
  0
LINE
  8
0
  6
CONTINUOUS
 62
256
 10
0.000016000000000
 20
4.599992000000000
 11
-0.000021000000000
 21
-4.599992000000000
  0
LINE
  8
0
  6
CONTINUOUS
 62
256
 10
-4.300006000000000
 20
-2.299980000000000
 11
-1.300007000000000
 21
-2.299992000000000
  0
LINE
  8
0
  6
CONTINUOUS
 62
256
 10
-4.299987000000000
 20
2.300014000000000
 11
-1.299990000000000
 21
2.300004000000000
  0
ARC
  8
0
  6
CONTINUOUS
 62
256
 10
-3.230014000000000
 20
-3.449986000000000
 40
1.570000000000000
 50
132.899744000000000
 51
179.999744999999990
  0
ARC
  8
0
  6
CONTINUOUS
 62
256
 10
-3.229986000000000
 20
3.450012000000000
 40
1.570000000000000
 50
179.999744999999990
 51
227.099745999999980
  0
ARC
  8
0
  6
CONTINUOUS
 62
256
 10
0.740001000000000
 20
-0.000003000000000
 40
5.539999000000000
 50
155.470187000000040
 51
204.529249999999960
  0
LINE
  8
0
  6
CONTINUOUS
 62
256
 10
-1.300018000000000
 20
-4.599993000000000
 11
-1.299981000000000
 21
4.600004000000000
  0
LINE
  8
0
  6
CONTINUOUS
 62
256
 10
-1.300000000000000
 20
-0.299995000000000
 11
-0.000004000000000
 21
-0.000001000000000
  0
LINE
  8
0
  6
CONTINUOUS
 62
256
 10
-1.299999000000000
 20
0.300007000000000
 11
-0.000001000000000
 21
0.600002000000000
  0
ENDBLK
  8
0
  0
BLOCK
  8
0
  2
ZU_SYM_3
 70
64
 10
0.000000000000000
 20
0.000000000000000
  0
CIRCLE
  8
0
  6
CONTINUOUS
 62
256
 10
0.000000000000000
 20
0.000000000000000
 40
4.249999000000000
  0
POINT
  8
0
  6
CONTINUOUS
 62
256
 10
0.000000000000000
 20
0.000000000000000
  0
LINE
  8
0
  6
CONTINUOUS
 62
256
 10
-1.999998000000000
 20
-1.154696000000000
 11
-1.999999000000000
 21
1.154700000000000
  0
LINE
  8
0
  6
CONTINUOUS
 62
256
 10
1.999998000000000
 20
1.154695000000000
 11
1.999999000000000
 21
-1.154699000000000
  0
LINE
  8
0
  6
CONTINUOUS
 62
256
 10
1.999998000000000
 20
1.154696000000000
 11
0.000002000000000
 21
2.309399000000000
  0
LINE
  8
0
  6
CONTINUOUS
 62
256
 10
-0.000002000000000
 20
-2.309397000000000
 11
-1.999997000000000
 21
-1.154696000000000
  0
LINE
  8
0
  6
CONTINUOUS
 62
256
 10
-1.999999000000000
 20
1.154700000000000
 11
0.000002000000000
 21
2.309399000000000
  0
LINE
  8
0
  6
CONTINUOUS
 62
256
 10
1.999999000000000
 20
-1.154699000000000
 11
-0.000002000000000
 21
-2.309398000000000
  0
ENDBLK
  8
0
  0
BLOCK
  8
0
  2
ZU_SYM_4
 70
64
 10
0.000000000000000
 20
0.000000000000000
  0
CIRCLE
  8
0
  6
CONTINUOUS
 62
256
 10
0.000000000000000
 20
0.000000000000000
 40
4.249999000000000
  0
POINT
  8
0
  6
CONTINUOUS
 62
256
 10
0.000000000000000
 20
0.000000000000000
  0
LINE
  8
0
  6
CONTINUOUS
 62
256
 10
-1.999998000000000
 20
-1.154696000000000
 11
-1.999999000000000
 21
1.154700000000000
  0
LINE
  8
0
  6
CONTINUOUS
 62
256
 10
1.999998000000000
 20
1.154695000000000
 11
1.999999000000000
 21
-1.154699000000000
  0
LINE
  8
0
  6
CONTINUOUS
 62
256
 10
1.999998000000000
 20
1.154696000000000
 11
0.000002000000000
 21
2.309399000000000
  0
LINE
  8
0
  6
CONTINUOUS
 62
256
 10
-0.000002000000000
 20
-2.309397000000000
 11
-1.999997000000000
 21
-1.154696000000000
  0
LINE
  8
0
  6
CONTINUOUS
 62
256
 10
-1.999999000000000
 20
1.154700000000000
 11
0.000002000000000
 21
2.309399000000000
  0
LINE
  8
0
  6
CONTINUOUS
 62
256
 10
1.999999000000000
 20
-1.154699000000000
 11
-0.000002000000000
 21
-2.309398000000000
  0
ENDBLK
  8
0
  0
BLOCK
  8
0
  2
ZU_SYM_5
 70
64
 10
0.000000000000000
 20
0.000000000000000
  0
CIRCLE
  8
0
  6
CONTINUOUS
 62
256
 10
0.000000000000000
 20
0.000000000000000
 40
4.249999000000000
  0
POINT
  8
0
  6
CONTINUOUS
 62
256
 10
0.000000000000000
 20
0.000000000000000
  0
LINE
  8
0
  6
CONTINUOUS
 62
256
 10
-1.999998000000000
 20
-1.154696000000000
 11
-1.999999000000000
 21
1.154700000000000
  0
LINE
  8
0
  6
CONTINUOUS
 62
256
 10
1.999998000000000
 20
1.154695000000000
 11
1.999999000000000
 21
-1.154699000000000
  0
LINE
  8
0
  6
CONTINUOUS
 62
256
 10
1.999998000000000
 20
1.154696000000000
 11
0.000002000000000
 21
2.309399000000000
  0
LINE
  8
0
  6
CONTINUOUS
 62
256
 10
-0.000002000000000
 20
-2.309397000000000
 11
-1.999997000000000
 21
-1.154696000000000
  0
LINE
  8
0
  6
CONTINUOUS
 62
256
 10
-1.999999000000000
 20
1.154700000000000
 11
0.000002000000000
 21
2.309399000000000
  0
LINE
  8
0
  6
CONTINUOUS
 62
256
 10
1.999999000000000
 20
-1.154699000000000
 11
-0.000002000000000
 21
-2.309398000000000
  0
ENDBLK
  8
0
  0
BLOCK
  8
0
  2
ZU_SYM_6
 70
64
 10
0.000000000000000
 20
0.000000000000000
  0
CIRCLE
  8
0
  6
CONTINUOUS
 62
256
 10
0.000000000000000
 20
0.000000000000000
 40
4.249999000000000
  0
POINT
  8
0
  6
CONTINUOUS
 62
256
 10
0.000000000000000
 20
0.000000000000000
  0
LINE
  8
0
  6
CONTINUOUS
 62
256
 10
-1.999998000000000
 20
-1.154696000000000
 11
-1.999999000000000
 21
1.154700000000000
  0
LINE
  8
0
  6
CONTINUOUS
 62
256
 10
1.999998000000000
 20
1.154695000000000
 11
1.999999000000000
 21
-1.154699000000000
  0
LINE
  8
0
  6
CONTINUOUS
 62
256
 10
1.999998000000000
 20
1.154696000000000
 11
0.000002000000000
 21
2.309399000000000
  0
LINE
  8
0
  6
CONTINUOUS
 62
256
 10
-0.000002000000000
 20
-2.309397000000000
 11
-1.999997000000000
 21
-1.154696000000000
  0
LINE
  8
0
  6
CONTINUOUS
 62
256
 10
-1.999999000000000
 20
1.154700000000000
 11
0.000002000000000
 21
2.309399000000000
  0
LINE
  8
0
  6
CONTINUOUS
 62
256
 10
1.999999000000000
 20
-1.154699000000000
 11
-0.000002000000000
 21
-2.309398000000000
  0
ENDBLK
  8
0
  0
BLOCK
  8
0
  2
ZU_SYM_7
 70
64
 10
0.000000000000000
 20
0.000000000000000
  0
CIRCLE
  8
0
  6
CONTINUOUS
 62
256
 10
0.000000000000000
 20
0.000000000000000
 40
4.000000000000000
  0
LINE
  8
0
  6
CONTINUOUS
 62
256
 10
2.299999000000000
 20
-4.000000000000000
 11
-2.299999000000000
 21
-4.000000000000000
  0
LINE
  8
0
  6
CONTINUOUS
 62
256
 10
4.600000000000000
 20
-0.000001000000000
 11
2.300001000000000
 21
-4.000000000000000
  0
LINE
  8
0
  6
CONTINUOUS
 62
256
 10
2.300001000000000
 20
4.000000000000000
 11
4.600000000000000
 21
0.000001000000000
  0
LINE
  8
0
  6
CONTINUOUS
 62
256
 10
-2.299999000000000
 20
4.000000000000000
 11
2.299999000000000
 21
4.000000000000000
  0
LINE
  8
0
  6
CONTINUOUS
 62
256
 10
-4.600000000000000
 20
0.000001000000000
 11
-2.300001000000000
 21
4.000000000000000
  0
LINE
  8
0
  6
CONTINUOUS
 62
256
 10
-2.300001000000000
 20
-4.000000000000000
 11
-4.600000000000000
 21
-0.000001000000000
  0
POINT
  8
0
  6
CONTINUOUS
 62
256
 10
0.000000000000000
 20
0.000000000000000
  0
ENDBLK
  8
0
  0
BLOCK
  8
0
  2
ZU_SYM_8
 70
64
 10
0.000000000000000
 20
0.000000000000000
  0
CIRCLE
  8
0
  6
CONTINUOUS
 62
256
 10
0.000000000000000
 20
0.000000000000000
 40
4.000000000000000
  0
LINE
  8
0
  6
CONTINUOUS
 62
256
 10
2.299999000000000
 20
-4.000000000000000
 11
-2.299999000000000
 21
-4.000000000000000
  0
LINE
  8
0
  6
CONTINUOUS
 62
256
 10
4.600000000000000
 20
-0.000001000000000
 11
2.300001000000000
 21
-4.000000000000000
  0
LINE
  8
0
  6
CONTINUOUS
 62
256
 10
2.300001000000000
 20
4.000000000000000
 11
4.600000000000000
 21
0.000001000000000
  0
LINE
  8
0
  6
CONTINUOUS
 62
256
 10
-2.299999000000000
 20
4.000000000000000
 11
2.299999000000000
 21
4.000000000000000
  0
LINE
  8
0
  6
CONTINUOUS
 62
256
 10
-4.600000000000000
 20
0.000001000000000
 11
-2.300001000000000
 21
4.000000000000000
  0
LINE
  8
0
  6
CONTINUOUS
 62
256
 10
-2.300001000000000
 20
-4.000000000000000
 11
-4.600000000000000
 21
-0.000001000000000
  0
POINT
  8
0
  6
CONTINUOUS
 62
256
 10
0.000000000000000
 20
0.000000000000000
  0
ENDBLK
  8
0
  0
BLOCK
  8
0
  2
ZU_SYM_9
 70
64
 10
0.000000000000000
 20
0.000000000000000
  0
CIRCLE
  8
0
  6
CONTINUOUS
 62
256
 10
0.000000000000000
 20
0.000000000000000
 40
4.000000000000000
  0
LINE
  8
0
  6
CONTINUOUS
 62
256
 10
2.299999000000000
 20
-4.000000000000000
 11
-2.299999000000000
 21
-4.000000000000000
  0
LINE
  8
0
  6
CONTINUOUS
 62
256
 10
4.600000000000000
 20
-0.000001000000000
 11
2.300001000000000
 21
-4.000000000000000
  0
LINE
  8
0
  6
CONTINUOUS
 62
256
 10
2.300001000000000
 20
4.000000000000000
 11
4.600000000000000
 21
0.000001000000000
  0
LINE
  8
0
  6
CONTINUOUS
 62
256
 10
-2.299999000000000
 20
4.000000000000000
 11
2.299999000000000
 21
4.000000000000000
  0
LINE
  8
0
  6
CONTINUOUS
 62
256
 10
-4.600000000000000
 20
0.000001000000000
 11
-2.300001000000000
 21
4.000000000000000
  0
LINE
  8
0
  6
CONTINUOUS
 62
256
 10
-2.300001000000000
 20
-4.000000000000000
 11
-4.600000000000000
 21
-0.000001000000000
  0
POINT
  8
0
  6
CONTINUOUS
 62
256
 10
0.000000000000000
 20
0.000000000000000
  0
ENDBLK
  8
0
  0
BLOCK
  8
0
  2
ZU_SYM_10
 70
64
 10
0.000000000000000
 20
0.000000000000000
  0
CIRCLE
  8
0
  6
CONTINUOUS
 62
256
 10
0.000000000000000
 20
0.000000000000000
 40
4.000000000000000
  0
LINE
  8
0
  6
CONTINUOUS
 62
256
 10
2.299999000000000
 20
-4.000000000000000
 11
-2.299999000000000
 21
-4.000000000000000
  0
LINE
  8
0
  6
CONTINUOUS
 62
256
 10
4.600000000000000
 20
-0.000001000000000
 11
2.300001000000000
 21
-4.000000000000000
  0
LINE
  8
0
  6
CONTINUOUS
 62
256
 10
2.300001000000000
 20
4.000000000000000
 11
4.600000000000000
 21
0.000001000000000
  0
LINE
  8
0
  6
CONTINUOUS
 62
256
 10
-2.299999000000000
 20
4.000000000000000
 11
2.299999000000000
 21
4.000000000000000
  0
LINE
  8
0
  6
CONTINUOUS
 62
256
 10
-4.600000000000000
 20
0.000001000000000
 11
-2.300001000000000
 21
4.000000000000000
  0
LINE
  8
0
  6
CONTINUOUS
 62
256
 10
-2.300001000000000
 20
-4.000000000000000
 11
-4.600000000000000
 21
-0.000001000000000
  0
POINT
  8
0
  6
CONTINUOUS
 62
256
 10
0.000000000000000
 20
0.000000000000000
  0
ENDBLK
  8
0
  0
BLOCK
  8
0
  2
ZU_SYM_11
 70
64
 10
0.000000000000000
 20
0.000000000000000
  0
POINT
  8
0
  6
CONTINUOUS
 62
256
 10
0.000000000000000
 20
0.000000000000000
  0
LINE
  8
0
  6
CONTINUOUS
 62
256
 10
-0.000025000000000
 20
-4.599994000000000
 11
-4.300015000000000
 21
-4.599977000000000
  0
LINE
  8
0
  6
CONTINUOUS
 62
256
 10
-4.299996000000000
 20
-4.599962000000000
 11
-4.799990000000000
 21
-3.899959000000000
  0
LINE
  8
0
  6
CONTINUOUS
 62
256
 10
-4.800010000000000
 20
-3.899973000000000
 11
-4.799979000000000
 21
3.900012000000000
  0
LINE
  8
0
  6
CONTINUOUS
 62
256
 10
-4.799962000000000
 20
3.900001000000000
 11
-4.299962000000000
 21
4.599999000000000
  0
LINE
  8
0
  6
CONTINUOUS
 62
256
 10
-4.299978000000000
 20
4.600015000000000
 11
0.000013000000000
 21
4.599998000000000
  0
LINE
  8
0
  6
CONTINUOUS
 62
256
 10
0.000016000000000
 20
4.599992000000000
 11
-0.000021000000000
 21
-4.599992000000000
  0
LINE
  8
0
  6
CONTINUOUS
 62
256
 10
-4.300006000000000
 20
-2.299980000000000
 11
-1.300007000000000
 21
-2.299992000000000
  0
LINE
  8
0
  6
CONTINUOUS
 62
256
 10
-4.299987000000000
 20
2.300014000000000
 11
-1.299990000000000
 21
2.300004000000000
  0
ARC
  8
0
  6
CONTINUOUS
 62
256
 10
-3.230014000000000
 20
-3.449986000000000
 40
1.570000000000000
 50
132.899744000000000
 51
179.999744999999990
  0
ARC
  8
0
  6
CONTINUOUS
 62
256
 10
-3.229986000000000
 20
3.450012000000000
 40
1.570000000000000
 50
179.999744999999990
 51
227.099745999999980
  0
ARC
  8
0
  6
CONTINUOUS
 62
256
 10
0.740001000000000
 20
-0.000003000000000
 40
5.539999000000000
 50
155.470187000000040
 51
204.529249999999960
  0
LINE
  8
0
  6
CONTINUOUS
 62
256
 10
-1.300018000000000
 20
-4.599993000000000
 11
-1.299981000000000
 21
4.600004000000000
  0
LINE
  8
0
  6
CONTINUOUS
 62
256
 10
-1.300000000000000
 20
-0.299995000000000
 11
-0.000004000000000
 21
-0.000001000000000
  0
LINE
  8
0
  6
CONTINUOUS
 62
256
 10
-1.299999000000000
 20
0.300007000000000
 11
-0.000001000000000
 21
0.600002000000000
  0
ENDBLK
  8
0
  0
BLOCK
  8
0
  2
ZU_SYM_12
 70
64
 10
0.000000000000000
 20
0.000000000000000
  0
POINT
  8
0
  6
CONTINUOUS
 62
256
 10
0.000000000000000
 20
0.000000000000000
  0
LINE
  8
0
  6
CONTINUOUS
 62
256
 10
-0.000025000000000
 20
-4.599994000000000
 11
-4.300015000000000
 21
-4.599977000000000
  0
LINE
  8
0
  6
CONTINUOUS
 62
256
 10
-4.299996000000000
 20
-4.599962000000000
 11
-4.799990000000000
 21
-3.899959000000000
  0
LINE
  8
0
  6
CONTINUOUS
 62
256
 10
-4.800010000000000
 20
-3.899973000000000
 11
-4.799979000000000
 21
3.900012000000000
  0
LINE
  8
0
  6
CONTINUOUS
 62
256
 10
-4.799962000000000
 20
3.900001000000000
 11
-4.299962000000000
 21
4.599999000000000
  0
LINE
  8
0
  6
CONTINUOUS
 62
256
 10
-4.299978000000000
 20
4.600015000000000
 11
0.000013000000000
 21
4.599998000000000
  0
LINE
  8
0
  6
CONTINUOUS
 62
256
 10
0.000016000000000
 20
4.599992000000000
 11
-0.000021000000000
 21
-4.599992000000000
  0
LINE
  8
0
  6
CONTINUOUS
 62
256
 10
-4.300006000000000
 20
-2.299980000000000
 11
-1.300007000000000
 21
-2.299992000000000
  0
LINE
  8
0
  6
CONTINUOUS
 62
256
 10
-4.299987000000000
 20
2.300014000000000
 11
-1.299990000000000
 21
2.300004000000000
  0
ARC
  8
0
  6
CONTINUOUS
 62
256
 10
-3.230014000000000
 20
-3.449986000000000
 40
1.570000000000000
 50
132.899744000000000
 51
179.999744999999990
  0
ARC
  8
0
  6
CONTINUOUS
 62
256
 10
-3.229986000000000
 20
3.450012000000000
 40
1.570000000000000
 50
179.999744999999990
 51
227.099745999999980
  0
ARC
  8
0
  6
CONTINUOUS
 62
256
 10
0.740001000000000
 20
-0.000003000000000
 40
5.539999000000000
 50
155.470187000000040
 51
204.529249999999960
  0
LINE
  8
0
  6
CONTINUOUS
 62
256
 10
-1.300018000000000
 20
-4.599993000000000
 11
-1.299981000000000
 21
4.600004000000000
  0
LINE
  8
0
  6
CONTINUOUS
 62
256
 10
-1.300000000000000
 20
-0.299995000000000
 11
-0.000004000000000
 21
-0.000001000000000
  0
LINE
  8
0
  6
CONTINUOUS
 62
256
 10
-1.299999000000000
 20
0.300007000000000
 11
-0.000001000000000
 21
0.600002000000000
  0
ENDBLK
  8
0
  0
ENDSEC
  0
SECTION
  2
ENTITIES
  0
LINE
  8
0
  6
DASHDOT
 62
256
 10
-253.742885000000000
 20
-155.666851000000010
 11
-253.742885000000000
 21
-183.646199999999990
  0
LINE
  8
0
  6
DASHED
 62
256
 10
-246.742885000000000
 20
-158.450702000000010
 11
-246.742885000000000
 21
-172.950702000000010
  0
LINE
  8
0
  6
DASHED
 62
256
 10
-260.742885000000000
 20
-158.450702000000010
 11
-260.742885000000000
 21
-172.950702000000010
  0
ARC
  8
0
  6
DASHED
 62
256
 10
-253.742885000000000
 20
-172.950702000000010
 40
7.000000000000000
 50
180.000000000000000
 51
0.000000000000000
  0
CIRCLE
  8
0
  6
DASHED
 62
256
 10
-203.742885000000000
 20
-172.950702000000010
 40
6.000000000000000
  0
LINE
  8
0
  6
DASHDOT
 62
256
 10
-243.332585999999990
 20
-172.950702000000010
 11
-263.706768000000010
 21
-172.950702000000010
  0
LINE
  8
0
  6
DASHDOT
 62
256
 10
-203.742885000000000
 20
-155.666851000000010
 11
-203.742885000000000
 21
-183.646199999999990
  0
LINE
  8
0
  6
DASHDOT
 62
256
 10
-194.434551000000000
 20
-172.950702000000010
 11
-213.623591000000000
 21
-172.950702000000010
  0
LINE
  8
0
  6
DASHED
 62
256
 10
-196.742885000000000
 20
-158.450702000000010
 11
-196.742885000000000
 21
-172.950702000000010
  0
LINE
  8
0
  6
DASHED
 62
256
 10
-210.742885000000000
 20
-158.450702000000010
 11
-210.742885000000000
 21
-172.950702000000010
  0
ARC
  8
0
  6
DASHED
 62
256
 10
-203.742885000000000
 20
-172.950702000000010
 40
7.000000000000000
 50
180.000000000000000
 51
0.000000000000000
  0
LINE
  8
0
  6
DASHDOT
 62
256
 10
390.907989999999980
 20
-150.950702000000010
 11
437.031127000000030
 21
-150.950702000000010
  0
LINE
  8
0
  6
DASHDOT
 62
256
 10
390.907989999999980
 20
-45.950702000000000
 11
435.687175000000020
 21
-45.950702000000000
  0
CIRCLE
  8
0
  6
CONTINUOUS
 62
256
 10
-134.242885000000000
 20
-45.950702000000000
 40
4.000000000000000
  0
CIRCLE
  8
0
  6
CONTINUOUS
 62
256
 10
-134.242885000000000
 20
-45.950702000000000
 40
3.323499999999996
  0
CIRCLE
  8
0
  6
CONTINUOUS
 62
256
 10
-134.242885000000000
 20
-150.950702000000010
 40
4.000000000000000
  0
CIRCLE
  8
0
  6
CONTINUOUS
 62
256
 10
-134.242885000000000
 20
-150.950702000000010
 40
3.323499999999996
  0
CIRCLE
  8
0
  6
CONTINUOUS
 62
256
 10
-16.242885000000001
 20
-150.950702000000010
 40
4.000000000000000
  0
CIRCLE
  8
0
  6
CONTINUOUS
 62
256
 10
-16.242885000000001
 20
-150.950702000000010
 40
3.323499999999999
  0
CIRCLE
  8
0
  6
CONTINUOUS
 62
256
 10
-16.242885000000001
 20
-45.950702000000000
 40
4.000000000000000
  0
CIRCLE
  8
0
  6
CONTINUOUS
 62
256
 10
-16.242885000000001
 20
-45.950702000000000
 40
3.323499999999999
  0
LINE
  8
0
  6
DASHDOT
 62
256
 10
403.406112000000010
 20
-100.950702000000010
 11
377.120640999999980
 21
-100.950702000000010
  0
LINE
  8
0
  6
DASHDOT
 62
256
 10
345.870220000000020
 20
-45.950702000000000
 11
390.907989999999980
 21
-45.950702000000000
  0
LINE
  8
0
  6
DASHDOT
 62
256
 10
345.947182000000000
 20
-150.950702000000010
 11
390.907989999999980
 21
-150.950702000000010
  0
LINE
  8
0
  6
DASHDOT
 62
256
 10
449.410822000000000
 20
-87.950702000000007
 11
333.810360000000000
 21
-87.950702000000007
  0
LINE
  8
0
  6
CONTINUOUS
 62
256
 10
360.907989999999980
 20
-161.915792000000010
 11
360.907989999999980
 21
-181.889470999999990
  0
LINE
  8
0
  6
CONTINUOUS
 62
256
 10
420.907989999999980
 20
-160.868488000000010
 11
420.907989999999980
 21
-181.889470999999990
  0
LINE
  8
0
  6
CONTINUOUS
 62
256
 10
388.407989999999980
 20
-188.450702000000010
 11
393.407989999999980
 21
-188.450702000000010
  0
LINE
  8
0
  6
CONTINUOUS
 62
256
 10
388.407989999999980
 20
-187.940284999999990
 11
388.407989999999980
 21
-188.450702000000010
  0
LINE
  8
0
  6
CONTINUOUS
 62
256
 10
393.407989999999980
 20
-187.940284999999990
 11
393.407989999999980
 21
-188.450702000000010
  0
ARC
  8
0
  6
CONTINUOUS
 62
256
 10
390.907989999999980
 20
112.049297999999990
 40
300.000000000000000
 50
265.138595000000010
 51
274.861404999999990
  0
ARC
  8
0
  6
CONTINUOUS
 62
256
 10
415.907989999999980
 20
-181.889470999999990
 40
4.999999999999989
 50
274.861405000000100
 51
0.000000000000000
  0
ARC
  8
0
  6
CONTINUOUS
 62
256
 10
365.907989999999980
 20
-181.889470999999990
 40
5.000000000000000
 50
180.000000000000000
 51
265.138594999999900
  0
ARC
  8
0
  6
CONTINUOUS
 62
256
 10
390.907989999999980
 20
-100.950702000000010
 40
53.499999999999986
 50
324.398360999999970
 51
15.715855999999983
  0
ARC
  8
0
  6
CONTINUOUS
 62
256
 10
441.407989999999980
 20
-69.950702000000007
 40
1.000000000000000
 50
0.000000000000000
 51
90.000000000000000
  0
LINE
  8
0
  6
CONTINUOUS
 62
256
 10
441.407989999999980
 20
-68.950702000000007
 11
438.407989999999980
 21
-68.950702000000007
  0
LINE
  8
0
  6
CONTINUOUS
 62
256
 10
442.407989999999980
 20
-69.950702000000007
 11
442.407989999999980
 21
-87.950702000000007
  0
LINE
  8
0
  6
CONTINUOUS
 62
256
 10
442.407989999999980
 20
-105.950702000000010
 11
442.407989999999980
 21
-87.950702000000007
  0
ARC
  8
0
  6
CONTINUOUS
 62
256
 10
441.407989999999980
 20
-105.950702000000010
 40
1.000000000000000
 50
270.000000000000000
 51
0.000000000000000
  0
LINE
  8
0
  6
CONTINUOUS
 62
256
 10
441.407989999999980
 20
-106.950702000000010
 11
438.407989999999980
 21
-106.950702000000010
  0
ARC
  8
0
  6
CONTINUOUS
 62
256
 10
390.907989999999980
 20
-100.950702000000010
 40
53.500000000000028
 50
164.284144000000030
 51
215.601639000000010
  0
LINE
  8
0
  6
CONTINUOUS
 62
256
 10
339.407989999999980
 20
-105.950702000000010
 11
339.407989999999980
 21
-87.950702000000007
  0
ARC
  8
0
  6
CONTINUOUS
 62
256
 10
340.407989999999980
 20
-105.950702000000010
 40
1.000000000000000
 50
180.000000000000000
 51
270.000000000000000
  0
LINE
  8
0
  6
CONTINUOUS
 62
256
 10
340.407989999999980
 20
-106.950702000000010
 11
343.407989999999980
 21
-106.950702000000010
  0
LINE
  8
0
  6
CONTINUOUS
 62
256
 10
339.407989999999980
 20
-69.950702000000007
 11
339.407989999999980
 21
-87.950702000000007
  0
ARC
  8
0
  6
CONTINUOUS
 62
256
 10
340.407989999999980
 20
-69.950702000000007
 40
1.000000000000000
 50
90.000000000000000
 51
180.000000000000000
  0
LINE
  8
0
  6
CONTINUOUS
 62
256
 10
340.407989999999980
 20
-68.950702000000007
 11
343.407989999999980
 21
-68.950702000000007
  0
LINE
  8
0
  6
CONTINUOUS
 62
256
 10
358.657989999999980
 20
-161.955065999999990
 11
347.407989999999980
 21
-161.758695999999990
  0
LINE
  8
0
  6
CONTINUOUS
 62
256
 10
357.907989999999980
 20
-161.968156999999990
 11
357.907989999999980
 21
-152.838199000000000
  0
LINE
  8
0
  6
CONTINUOUS
 62
256
 10
357.907989999999980
 20
-161.968156999999990
 11
357.907989999999980
 21
-157.459430000000000
  0
LINE
  8
0
  6
CONTINUOUS
 62
256
 10
357.907989999999980
 20
-161.968156999999990
 11
424.907989999999980
 21
-160.798667999999990
  0
LINE
  8
0
  6
CONTINUOUS
 62
256
 10
434.407989999999980
 20
-160.798667999999990
 11
434.407989999999980
 21
-147.232341999999990
  0
LINE
  8
0
  6
CONTINUOUS
 62
256
 10
424.907989999999980
 20
-160.798667999999990
 11
434.407989999999980
 21
-160.798667999999990
  0
LINE
  8
0
  6
CONTINUOUS
 62
256
 10
434.407989999999980
 20
-125.441975000000000
 11
438.407989999999980
 21
-125.441975000000000
  0
LINE
  8
0
  6
CONTINUOUS
 62
256
 10
357.907989999999980
 20
-34.959429999999998
 11
347.407989999999980
 21
-35.142707999999999
  0
LINE
  8
0
  6
CONTINUOUS
 62
256
 10
357.907989999999980
 20
-34.950702000000000
 11
424.907989999999980
 21
-36.120190999999998
  0
LINE
  8
0
  6
CONTINUOUS
 62
256
 10
357.907989999999980
 20
-152.838199000000000
 11
357.907989999999980
 21
-38.441974999999999
  0
LINE
  8
0
  6
CONTINUOUS
 62
256
 10
357.907989999999980
 20
-34.941974999999999
 11
357.907989999999980
 21
-39.450702000000000
  0
LINE
  8
0
  6
CONTINUOUS
 62
256
 10
434.407989999999980
 20
-147.232341999999990
 11
434.407989999999980
 21
-36.120190999999998
  0
LINE
  8
0
  6
CONTINUOUS
 62
256
 10
424.907989999999980
 20
-36.120190999999998
 11
434.407989999999980
 21
-36.120190999999998
  0
LINE
  8
0
  6
CONTINUOUS
 62
256
 10
438.407989999999980
 20
-50.459429999999998
 11
438.407989999999980
 21
-125.441975000000000
  0
LINE
  8
0
  6
CONTINUOUS
 62
256
 10
434.407989999999980
 20
-50.459429999999998
 11
438.407989999999980
 21
-50.459429999999998
  0
LINE
  8
0
  6
CONTINUOUS
 62
256
 10
343.407989999999980
 20
-125.450702000000010
 11
347.407989999999980
 21
-125.450702000000010
  0
LINE
  8
0
  6
CONTINUOUS
 62
256
 10
347.407989999999980
 20
-35.142707999999999
 11
347.407989999999980
 21
-161.758695999999990
  0
LINE
  8
0
  6
CONTINUOUS
 62
256
 10
343.407989999999980
 20
-50.450702000000000
 11
347.407989999999980
 21
-50.450702000000000
  0
LINE
  8
0
  6
CONTINUOUS
 62
256
 10
343.407989999999980
 20
-50.450702000000000
 11
343.407989999999980
 21
-125.450702000000010
  0
ARC
  8
0
  6
CONTINUOUS
 62
256
 10
345.875634999999990
 20
-60.160986999999999
 40
2.999999999999981
 50
145.340699999999710
 51
214.659300000000290
  0
LINE
  8
0
  6
CONTINUOUS
 62
256
 10
434.407989999999980
 20
-135.965420999999990
 11
438.061666000000000
 21
-139.619096000000010
  0
LINE
  8
0
  6
CONTINUOUS
 62
256
 10
347.407989999999980
 20
-135.965420999999990
 11
343.754315000000020
 21
-139.619096000000010
  0
LINE
  8
0
  6
CONTINUOUS
 62
256
 10
444.407989999999980
 20
-120.450702000000010
 11
444.407989999999980
 21
-81.450702000000007
  0
LINE
  8
0
  6
CONTINUOUS
 62
256
 10
337.407989999999980
 20
-81.450702000000007
 11
337.407989999999980
 21
-120.450702000000010
  0
ARC
  8
0
  6
CONTINUOUS
 62
256
 10
418.407989999999980
 20
-73.450702000000007
 40
24.999999999999979
 50
5.730175000000014
 51
36.869897999999985
  0
ARC
  8
0
  6
CONTINUOUS
 62
256
 10
43.407989999999998
 20
-80.950702000000007
 40
399.999999999999940
 50
0.053000000000000
 51
1.431984000000000
  0
ARC
  8
0
  6
CONTINUOUS
 62
256
 10
418.407989999999980
 20
-128.450702000000010
 40
24.999999999999986
 50
309.791818999999920
 51
354.269824999999970
  0
ARC
  8
0
  6
CONTINUOUS
 62
256
 10
43.407989999999998
 20
-120.950702000000010
 40
400.000000000000000
 50
358.568016000000060
 51
359.928470000000000
  0
ARC
  8
0
  6
CONTINUOUS
 62
256
 10
363.407989999999980
 20
-128.450702000000010
 40
25.000000000000007
 50
176.561350000000000
 51
230.208181000000000
  0
ARC
  8
0
  6
CONTINUOUS
 62
256
 10
738.407990000000040
 20
-120.950702000000010
 40
400.000000000000000
 50
180.071529999999970
 51
180.859540999999980
  0
ARC
  8
0
  6
CONTINUOUS
 62
256
 10
363.407989999999980
 20
-73.450702000000007
 40
25.000000000000011
 50
143.130101999999990
 51
174.269825000000000
  0
ARC
  8
0
  6
CONTINUOUS
 62
256
 10
738.407990000000040
 20
-80.950702000000007
 40
400.000000000000000
 50
178.568016000000000
 51
179.928470000000000
  0
ARC
  8
0
  6
CONTINUOUS
 62
256
 10
435.940345999999980
 20
-60.160986999999999
 40
2.999999999999981
 50
325.340699999999740
 51
34.659300000000293
  0
ARC
  8
0
  6
CONTINUOUS
 62
256
 10
435.940345999999980
 20
-141.740417000000010
 40
2.999999999999989
 50
322.837479999999800
 51
44.999999999999616
  0
ARC
  8
0
  6
CONTINUOUS
 62
256
 10
433.999709999999990
 20
-143.971600000000000
 40
2.999999999999995
 50
277.821860000000410
 51
315.130421000000180
  0
ARC
  8
0
  6
CONTINUOUS
 62
256
 10
347.816270999999970
 20
-143.971600000000000
 40
3.000000000000027
 50
224.869578999999760
 51
262.178139999999590
  0
ARC
  8
0
  6
CONTINUOUS
 62
256
 10
345.875634999999990
 20
-141.740417000000010
 40
3.000000000000004
 50
135.000000000000370
 51
217.162520000000170
  0
ARC
  8
0
  6
CONTINUOUS
 62
256
 10
443.907989999999980
 20
-80.450702000000007
 40
0.500000000000000
 50
180.000000000000000
 51
270.000000000000000
  0
ARC
  8
0
  6
CONTINUOUS
 62
256
 10
443.907989999999980
 20
-121.450702000000010
 40
0.500000000000000
 50
90.000000000000000
 51
180.000000000000000
  0
ARC
  8
0
  6
CONTINUOUS
 62
256
 10
443.907989999999980
 20
-120.450702000000010
 40
0.500000000000000
 50
270.000000000000000
 51
0.000000000000000
  0
ARC
  8
0
  6
CONTINUOUS
 62
256
 10
337.907989999999980
 20
-121.450702000000010
 40
0.500000000000000
 50
0.000000000000000
 51
90.000000000000000
  0
ARC
  8
0
  6
CONTINUOUS
 62
256
 10
337.907989999999980
 20
-80.450702000000007
 40
0.500000000000000
 50
270.000000000000000
 51
0.000000000000000
  0
ARC
  8
0
  6
CONTINUOUS
 62
256
 10
337.907989999999980
 20
-81.450702000000007
 40
0.500000000000000
 50
90.000000000000000
 51
180.000000000000000
  0
ARC
  8
0
  6
CONTINUOUS
 62
256
 10
337.907989999999980
 20
-120.450702000000010
 40
0.500000000000000
 50
180.000000000000000
 51
270.000000000000000
  0
ARC
  8
0
  6
CONTINUOUS
 62
256
 10
443.907989999999980
 20
-81.450702000000007
 40
0.500000000000000
 50
0.000000000000000
 51
90.000000000000000
  0
LINE
  8
0
  6
DASHDOT
 62
256
 10
390.907989999999980
 20
-192.985488000000000
 11
390.907989999999980
 21
-31.953561000000001
  0
LINE
  8
0
  6
CONTINUOUS
 62
256
 10
-273.242885000000000
 20
-100.950702000000010
 11
-273.242885000000000
 21
-154.450702000000010
  0
LINE
  8
0
  6
CONTINUOUS
 62
256
 10
-174.242885000000000
 20
-154.450702000000010
 11
-174.242885000000000
 21
-100.950702000000010
  0
LINE
  8
0
  6
DASHDOT
 62
256
 10
-165.014034000000010
 20
-100.950702000000010
 11
-285.203342000000020
 21
-100.950702000000010
  0
LINE
  8
0
  6
CONTINUOUS
 62
256
 10
-191.242885000000000
 20
-153.450702000000010
 11
-266.242885000000000
 21
-153.450702000000010
  0
LINE
  8
0
  6
CONTINUOUS
 62
256
 10
-266.242885000000000
 20
-158.450702000000010
 11
-191.242885000000000
 21
-158.450702000000010
  0
LINE
  8
0
  6
CONTINUOUS
 62
256
 10
-266.242885000000000
 20
-158.450702000000010
 11
-266.242885000000000
 21
-153.450702000000010
  0
LINE
  8
0
  6
CONTINUOUS
 62
256
 10
-191.242885000000000
 20
-158.450702000000010
 11
-191.242885000000000
 21
-153.450702000000010
  0
LINE
  8
0
  6
CONTINUOUS
 62
256
 10
-192.242885000000000
 20
-186.950702000000010
 11
-192.242885000000000
 21
-158.450702000000010
  0
LINE
  8
0
  6
CONTINUOUS
 62
256
 10
-265.242885000000000
 20
-186.950702000000010
 11
-265.242885000000000
 21
-158.450702000000010
  0
LINE
  8
0
  6
CONTINUOUS
 62
256
 10
-174.242885000000000
 20
-154.450702000000010
 11
-191.242885000000000
 21
-154.450702000000010
  0
LINE
  8
0
  6
CONTINUOUS
 62
256
 10
-266.242885000000000
 20
-154.450702000000010
 11
-273.242885000000000
 21
-154.450702000000010
  0
LINE
  8
0
  6
CONTINUOUS
 62
256
 10
-273.242885000000000
 20
-114.950702000000010
 11
-174.242885000000000
 21
-114.950702000000010
  0
LINE
  8
0
  6
CONTINUOUS
 62
256
 10
-273.242885000000000
 20
-119.336817000000000
 11
-174.242885000000000
 21
-119.336817000000000
  0
LINE
  8
0
  6
CONTINUOUS
 62
256
 10
-273.242885000000000
 20
-120.578737000000000
 11
-174.242885000000000
 21
-120.578737000000000
  0
LINE
  8
0
  6
CONTINUOUS
 62
256
 10
-273.242885000000000
 20
-123.788942000000010
 11
-174.242885000000000
 21
-123.788942000000010
  0
LINE
  8
0
  6
CONTINUOUS
 62
256
 10
-273.242885000000000
 20
-125.135343000000010
 11
-174.242885000000000
 21
-125.135343000000010
  0
LINE
  8
0
  6
CONTINUOUS
 62
256
 10
-273.242885000000000
 20
-128.228073999999990
 11
-174.242885000000000
 21
-128.228073999999990
  0
LINE
  8
0
  6
CONTINUOUS
 62
256
 10
-273.242885000000000
 20
-129.707098000000000
 11
-174.242885000000000
 21
-129.707098000000000
  0
LINE
  8
0
  6
CONTINUOUS
 62
256
 10
-273.242885000000000
 20
-132.665093000000010
 11
-174.242885000000000
 21
-132.665093000000010
  0
LINE
  8
0
  6
CONTINUOUS
 62
256
 10
-273.242885000000000
 20
-134.254302999999990
 11
-174.242885000000000
 21
-134.254302999999990
  0
LINE
  8
0
  6
CONTINUOUS
 62
256
 10
-273.242885000000000
 20
-141.992616000000000
 11
-174.242885000000000
 21
-141.992616000000000
  0
LINE
  8
0
  6
CONTINUOUS
 62
256
 10
-273.242885000000000
 20
-147.083785000000010
 11
-174.242885000000000
 21
-147.083785000000010
  0
LINE
  8
0
  6
CONTINUOUS
 62
256
 10
-273.242885000000000
 20
-151.450702000000010
 11
-174.242885000000000
 21
-151.450702000000010
  0
LINE
  8
0
  6
CONTINUOUS
 62
256
 10
-273.242885000000000
 20
-151.950702000000010
 11
-174.242885000000000
 21
-151.950702000000010
  0
LINE
  8
0
  6
CONTINUOUS
 62
256
 10
-273.242885000000000
 20
-154.450702000000010
 11
-275.840399999999990
 21
-154.450702000000010
  0
ARC
  8
0
  6
CONTINUOUS
 62
256
 10
-275.840399999999990
 20
-152.450702000000010
 40
1.999999999999991
 50
184.231256000000140
 51
270.000000000000000
  0
ARC
  8
0
  6
CONTINUOUS
 62
256
 10
420.257115000000000
 20
-100.950702000000010
 40
700.000000000000000
 50
183.620061999999960
 51
184.231255999999970
  0
ARC
  8
0
  6
CONTINUOUS
 62
256
 10
420.257115000000000
 20
-100.950702000000010
 40
700.000000000000000
 50
181.652906999999970
 51
182.865818999999960
  0
LINE
  8
0
  6
DASHDOT
 62
256
 10
-270.185482999999980
 20
-140.548682000000010
 11
-284.816647999999990
 21
-140.548682000000010
  0
ARC
  8
0
  6
CONTINUOUS
 62
256
 10
-279.242885000000000
 20
-130.149344000000010
 40
1.000000000000000
 50
0.000000000000000
 51
58.640964000000714
  0
ARC
  8
0
  6
CONTINUOUS
 62
256
 10
-288.242885000000000
 20
-147.078242999999990
 40
10.000000000000000
 50
0.000000000000000
 51
3.725037000000060
  0
ARC
  8
0
  6
CONTINUOUS
 62
256
 10
-278.202086000000010
 20
-128.441497000000000
 40
1.000000000000004
 50
182.253953000000080
 51
238.640964000000680
  0
LINE
  8
0
  6
CONTINUOUS
 62
256
 10
-278.242885000000000
 20
-145.548682000000010
 11
-278.242885000000000
 21
-130.149344000000010
  0
ARC
  8
0
  6
CONTINUOUS
 62
256
 10
-277.742885000000000
 20
-145.548682000000010
 40
0.500000000000000
 50
180.000000000000000
 51
270.000000000000000
  0
LINE
  8
0
  6
CONTINUOUS
 62
256
 10
-273.742885000000000
 20
-146.048682000000010
 11
-277.742885000000000
 21
-146.048682000000010
  0
ARC
  8
0
  6
CONTINUOUS
 62
256
 10
-279.951411000000010
 20
-121.156386000000000
 40
0.500000000000022
 50
1.652906999999268
 51
44.884861999997973
  0
ARC
  8
0
  6
CONTINUOUS
 62
256
 10
-279.242885000000000
 20
-120.450702000000010
 40
0.500000000000000
 50
180.000000000000000
 51
224.884861999997950
  0
LINE
  8
0
  6
CONTINUOUS
 62
256
 10
-279.742885000000000
 20
-100.950702000000010
 11
-279.742885000000000
 21
-120.450702000000010
  0
LINE
  8
0
  6
CONTINUOUS
 62
256
 10
-273.742885000000000
 20
-144.290100999999990
 11
-273.242885000000000
 21
-144.290100999999990
  0
LINE
  8
0
  6
CONTINUOUS
 62
256
 10
-273.242885000000000
 20
-137.199101000000010
 11
-273.742885000000000
 21
-137.199101000000010
  0
LINE
  8
0
  6
CONTINUOUS
 62
256
 10
-273.742885000000000
 20
-146.048682000000010
 11
-273.742885000000000
 21
-137.199101000000010
  0
LINE
  8
0
  6
CONTINUOUS
 62
256
 10
-174.242885000000000
 20
-47.450702000000000
 11
-174.242885000000000
 21
-100.950702000000010
  0
LINE
  8
0
  6
CONTINUOUS
 62
256
 10
-273.242885000000000
 20
-100.950702000000010
 11
-273.242885000000000
 21
-47.450702000000000
  0
LINE
  8
0
  6
CONTINUOUS
 62
256
 10
-273.242885000000000
 20
-47.450702000000000
 11
-275.840399999999990
 21
-47.450702000000000
  0
ARC
  8
0
  6
CONTINUOUS
 62
256
 10
-275.840399999999990
 20
-49.450702000000000
 40
2.000000000000000
 50
90.000000000000000
 51
175.768744000000050
  0
ARC
  8
0
  6
CONTINUOUS
 62
256
 10
420.257115000000000
 20
-100.950702000000010
 40
700.000000000000000
 50
175.768744000000000
 51
176.379938000000010
  0
ARC
  8
0
  6
CONTINUOUS
 62
256
 10
420.257115000000000
 20
-100.950702000000010
 40
700.000000000000000
 50
177.134181000000010
 51
178.347093000000000
  0
LINE
  8
0
  6
DASHDOT
 62
256
 10
-270.185482999999980
 20
-61.352722000000000
 11
-284.816647999999990
 21
-61.352722000000000
  0
ARC
  8
0
  6
CONTINUOUS
 62
256
 10
-279.242885000000000
 20
-71.752060999999998
 40
0.999999999999990
 50
301.359035999999260
 51
0.000000000000000
  0
ARC
  8
0
  6
CONTINUOUS
 62
256
 10
-288.242885000000000
 20
-54.823160999999999
 40
9.999999999999993
 50
356.274963000000010
 51
0.000000000000000
  0
ARC
  8
0
  6
CONTINUOUS
 62
256
 10
-278.202086000000010
 20
-73.459907000000001
 40
0.999999999999990
 50
121.359035999999310
 51
177.746046999999920
  0
LINE
  8
0
  6
CONTINUOUS
 62
256
 10
-278.242885000000000
 20
-56.352722000000000
 11
-278.242885000000000
 21
-71.752060999999998
  0
ARC
  8
0
  6
CONTINUOUS
 62
256
 10
-277.742885000000000
 20
-56.352722000000000
 40
0.500000000000000
 50
90.000000000000000
 51
180.000000000000000
  0
LINE
  8
0
  6
CONTINUOUS
 62
256
 10
-273.742885000000000
 20
-55.852722000000000
 11
-277.742885000000000
 21
-55.852722000000000
  0
ARC
  8
0
  6
CONTINUOUS
 62
256
 10
-279.951411000000010
 20
-80.745018000000002
 40
0.500000000000015
 50
315.115138000002050
 51
358.347093000000770
  0
ARC
  8
0
  6
CONTINUOUS
 62
256
 10
-279.242885000000000
 20
-81.450702000000007
 40
0.500000000000015
 50
135.115138000002050
 51
180.000000000000000
  0
LINE
  8
0
  6
CONTINUOUS
 62
256
 10
-279.742885000000000
 20
-100.950702000000010
 11
-279.742885000000000
 21
-81.450702000000007
  0
LINE
  8
0
  6
CONTINUOUS
 62
256
 10
-273.742885000000000
 20
-57.611302999999999
 11
-273.242885000000000
 21
-57.611302999999999
  0
LINE
  8
0
  6
CONTINUOUS
 62
256
 10
-273.242885000000000
 20
-64.702303000000001
 11
-273.742885000000000
 21
-64.702303000000001
  0
LINE
  8
0
  6
CONTINUOUS
 62
256
 10
-273.742885000000000
 20
-55.852722000000000
 11
-273.742885000000000
 21
-64.702303000000001
  0
LINE
  8
0
  6
CONTINUOUS
 62
256
 10
-273.242885000000000
 20
-49.950702000000000
 11
-174.242885000000000
 21
-49.950702000000000
  0
LINE
  8
0
  6
CONTINUOUS
 62
256
 10
-273.242885000000000
 20
-50.450702000000000
 11
-174.242885000000000
 21
-50.450702000000000
  0
LINE
  8
0
  6
CONTINUOUS
 62
256
 10
-273.242885000000000
 20
-54.817619000000001
 11
-174.242885000000000
 21
-54.817619000000001
  0
LINE
  8
0
  6
CONTINUOUS
 62
256
 10
-273.242885000000000
 20
-59.908788000000001
 11
-174.242885000000000
 21
-59.908788000000001
  0
LINE
  8
0
  6
CONTINUOUS
 62
256
 10
-273.242885000000000
 20
-67.647101000000006
 11
-174.242885000000000
 21
-67.647101000000006
  0
LINE
  8
0
  6
CONTINUOUS
 62
256
 10
-273.242885000000000
 20
-69.236311000000001
 11
-174.242885000000000
 21
-69.236311000000001
  0
LINE
  8
0
  6
CONTINUOUS
 62
256
 10
-273.242885000000000
 20
-72.194305999999997
 11
-174.242885000000000
 21
-72.194305999999997
  0
LINE
  8
0
  6
CONTINUOUS
 62
256
 10
-273.242885000000000
 20
-73.673330000000007
 11
-174.242885000000000
 21
-73.673330000000007
  0
LINE
  8
0
  6
CONTINUOUS
 62
256
 10
-273.242885000000000
 20
-76.766060999999993
 11
-174.242885000000000
 21
-76.766060999999993
  0
LINE
  8
0
  6
CONTINUOUS
 62
256
 10
-273.242885000000000
 20
-78.112461999999994
 11
-174.242885000000000
 21
-78.112461999999994
  0
LINE
  8
0
  6
CONTINUOUS
 62
256
 10
-273.242885000000000
 20
-82.564587000000003
 11
-174.242885000000000
 21
-82.564587000000003
  0
LINE
  8
0
  6
CONTINUOUS
 62
256
 10
-273.242885000000000
 20
-81.322666999999996
 11
-174.242885000000000
 21
-81.322666999999996
  0
LINE
  8
0
  6
CONTINUOUS
 62
256
 10
-273.242885000000000
 20
-86.950702000000007
 11
-174.242885000000000
 21
-86.950702000000007
  0
LINE
  8
0
  6
CONTINUOUS
 62
256
 10
-174.242885000000000
 20
-47.450702000000000
 11
-273.242885000000000
 21
-47.450702000000000
  0
CIRCLE
  8
0
  6
CONTINUOUS
 62
256
 10
-58.242885000000001
 20
-87.950702000000007
 40
19.000000000000000
  0
LINE
  8
0
  6
CONTINUOUS
 62
256
 10
-64.857263000000003
 20
-44.450702000000000
 11
-42.315314999999998
 21
-44.450702000000000
  0
ARC
  8
0
  6
CONTINUOUS
 62
256
 10
-31.527979999999999
 20
-143.509877999999990
 40
3.500000000000000
 50
275.267653000000000
 51
334.043062000000130
  0
ARC
  8
0
  6
CONTINUOUS
 62
256
 10
-16.242885000000001
 20
-150.950702000000010
 40
11.000000000000000
 50
93.372287000000000
 51
154.043061999999990
  0
ARC
  8
0
  6
CONTINUOUS
 62
256
 10
-134.242885000000000
 20
-45.950702000000000
 40
13.499999999999996
 50
273.372286999999910
 51
334.043062000000020
  0
ARC
  8
0
  6
CONTINUOUS
 62
256
 10
-159.242885000000000
 20
-70.058536000000004
 40
3.000000000000000
 50
0.000000000000000
 51
90.000000000000000
  0
ARC
  8
0
  6
CONTINUOUS
 62
256
 10
-159.242885000000000
 20
-131.842868000000010
 40
3.000000000000000
 50
270.000000000000000
 51
0.000000000000000
  0
ARC
  8
0
  6
CONTINUOUS
 62
256
 10
-159.242885000000000
 20
-50.189332999999998
 40
3.000000000000000
 50
0.000000000000000
 51
80.279896999999892
  0
ARC
  8
0
  6
CONTINUOUS
 62
256
 10
-159.242885000000000
 20
-151.712071000000010
 40
3.000000000000000
 50
279.720103000000110
 51
0.000000000000000
  0
LINE
  8
0
  6
CONTINUOUS
 62
256
 10
-156.242885000000000
 20
-151.712071000000010
 11
-156.242885000000000
 21
-100.950702000000010
  0
LINE
  8
0
  6
CONTINUOUS
 62
256
 10
-156.242885000000000
 20
-50.189332999999998
 11
-156.242885000000000
 21
-100.950702000000010
  0
ARC
  8
0
  6
CONTINUOUS
 62
256
 10
-167.242885000000000
 20
-140.380354000000010
 40
2.000000000000000
 50
180.000000000000000
 51
270.000000000000000
  0
ARC
  8
0
  6
CONTINUOUS
 62
256
 10
-166.242885000000000
 20
-148.450702000000010
 40
3.000000000000000
 50
90.000000000000000
 51
180.000000000000000
  0
ARC
  8
0
  6
CONTINUOUS
 62
256
 10
-161.242885000000000
 20
-140.450702000000010
 40
5.000000000000000
 50
270.000000000000000
 51
0.000000000000000
  0
ARC
  8
0
  6
CONTINUOUS
 62
256
 10
-161.242885000000000
 20
-137.380354000000010
 40
5.000000000000000
 50
270.000000000000000
 51
0.000000000000000
  0
ARC
  8
0
  6
CONTINUOUS
 62
256
 10
-166.242885000000000
 20
-131.842868000000010
 40
3.000000000000000
 50
180.000000000000000
 51
270.000000000000000
  0
ARC
  8
0
  6
CONTINUOUS
 62
256
 10
-161.242885000000000
 20
-61.450702000000000
 40
5.000000000000000
 50
0.000000000000000
 51
90.000000000000000
  0
ARC
  8
0
  6
CONTINUOUS
 62
256
 10
-161.242885000000000
 20
-64.521050000000002
 40
5.000000000000000
 50
0.000000000000000
 51
90.000000000000000
  0
ARC
  8
0
  6
CONTINUOUS
 62
256
 10
-167.242885000000000
 20
-61.521050000000002
 40
2.000000000000000
 50
90.000000000000000
 51
180.000000000000000
  0
ARC
  8
0
  6
CONTINUOUS
 62
256
 10
-166.242885000000000
 20
-53.450702000000000
 40
3.000000000000000
 50
180.000000000000000
 51
270.000000000000000
  0
ARC
  8
0
  6
CONTINUOUS
 62
256
 10
-166.242885000000000
 20
-70.058536000000004
 40
3.000000000000000
 50
90.000000000000000
 51
180.000000000000000
  0
ARC
  8
0
  6
CONTINUOUS
 62
256
 10
-172.242885000000000
 20
-151.485154999999990
 40
3.000000000000000
 50
279.720103000000110
 51
0.000000000000000
  0
ARC
  8
0
  6
CONTINUOUS
 62
256
 10
-172.242885000000000
 20
-50.416249000000001
 40
3.000000000000000
 50
0.000000000000000
 51
80.279896999999892
  0
LINE
  8
0
  6
CONTINUOUS
 62
256
 10
-169.242885000000000
 20
-148.450702000000010
 11
-169.242885000000000
 21
-151.485154999999990
  0
LINE
  8
0
  6
CONTINUOUS
 62
256
 10
-167.242885000000000
 20
-142.380354000000010
 11
-161.242885000000000
 21
-142.380354000000010
  0
LINE
  8
0
  6
CONTINUOUS
 62
256
 10
-166.242885000000000
 20
-145.450702000000010
 11
-161.242885000000000
 21
-145.450702000000010
  0
LINE
  8
0
  6
CONTINUOUS
 62
256
 10
-169.242885000000000
 20
-100.950702000000010
 11
-169.242885000000000
 21
-140.380354000000010
  0
LINE
  8
0
  6
CONTINUOUS
 62
256
 10
-159.242885000000000
 20
-134.842868000000010
 11
-166.242885000000000
 21
-134.842868000000010
  0
LINE
  8
0
  6
CONTINUOUS
 62
256
 10
-156.242885000000000
 20
-137.842868000000010
 11
-156.242885000000000
 21
-140.450702000000010
  0
LINE
  8
0
  6
CONTINUOUS
 62
256
 10
-169.242885000000000
 20
-120.950702000000010
 11
-174.242885000000000
 21
-120.950702000000010
  0
LINE
  8
0
  6
CONTINUOUS
 62
256
 10
-169.242885000000000
 20
-100.950702000000010
 11
-169.242885000000000
 21
-61.521050000000002
  0
LINE
  8
0
  6
CONTINUOUS
 62
256
 10
-169.242885000000000
 20
-80.950702000000007
 11
-174.242885000000000
 21
-80.950702000000007
  0
LINE
  8
0
  6
CONTINUOUS
 62
256
 10
-159.242885000000000
 20
-67.058536000000004
 11
-166.242885000000000
 21
-67.058536000000004
  0
LINE
  8
0
  6
CONTINUOUS
 62
256
 10
-156.242885000000000
 20
-64.058536000000004
 11
-156.242885000000000
 21
-61.450702000000000
  0
LINE
  8
0
  6
CONTINUOUS
 62
256
 10
-167.242885000000000
 20
-59.521050000000002
 11
-161.242885000000000
 21
-59.521050000000002
  0
LINE
  8
0
  6
CONTINUOUS
 62
256
 10
-166.242885000000000
 20
-56.450702000000000
 11
-161.242885000000000
 21
-56.450702000000000
  0
LINE
  8
0
  6
CONTINUOUS
 62
256
 10
-169.242885000000000
 20
-53.450702000000000
 11
-169.242885000000000
 21
-50.416249000000001
  0
CIRCLE
  8
0
  6
CONTINUOUS
 62
256
 10
-58.242885000000001
 20
-87.950702000000007
 40
37.500000000000000
  0
CIRCLE
  8
0
  6
CONTINUOUS
 62
256
 10
-58.242885000000001
 20
-87.950702000000007
 40
42.000000000000000
  0
LINE
  8
0
  6
DASHDOT
 62
256
 10
-190.321831000000000
 20
-100.950702000000010
 11
-138.719725000000010
 21
-100.950702000000010
  0
LINE
  8
0
  6
DASHDOT
 62
256
 10
-58.242885000000001
 20
-142.719467000000010
 11
-58.242885000000001
 21
-26.078419000000000
  0
ARC
  8
0
  6
CONTINUOUS
 62
256
 10
-148.815594000000000
 20
-157.842628999999990
 40
2.999999999999990
 50
16.809629000000072
 51
88.999999999999858
  0
LINE
  8
0
  6
DASHDOT
 62
256
 10
-106.200829000000000
 20
-87.950702000000007
 11
-2.667809000000000
 21
-87.950702000000007
  0
LINE
  8
0
  6
CONTINUOUS
 62
256
 10
-149.190528000000000
 20
-47.065776999999997
 11
-174.242885000000000
 21
-47.503067000000001
  0
LINE
  8
0
  6
CONTINUOUS
 62
256
 10
-148.763237000000000
 20
-154.843086000000000
 11
-174.242885000000000
 21
-154.398337000000000
  0
ARC
  8
0
  6
CONTINUOUS
 62
256
 10
-149.242885000000000
 20
-44.066234000000001
 40
2.999999999999997
 50
271.000000000000110
 51
0.000000000000000
  0
LINE
  8
0
  6
DASHDOT
 62
256
 10
-30.242661999999999
 20
-46.411299999999997
 11
-30.242661999999999
 21
-32.219020999999998
  0
ARC
  8
0
  6
CONTINUOUS
 62
256
 10
-134.242885000000000
 20
-45.950702000000000
 40
11.000000000000000
 50
273.372286999999860
 51
334.043061999999960
  0
ARC
  8
0
  6
CONTINUOUS
 62
256
 10
-109.118848000000000
 20
-47.950702000000000
 40
6.000000000000000
 50
90.000000000000000
 51
142.616543999999980
  0
ARC
  8
0
  6
CONTINUOUS
 62
256
 10
-109.118848000000000
 20
-148.950702000000010
 40
5.999999999999990
 50
217.383455999999910
 51
270.000000000000000
  0
ARC
  8
0
  6
CONTINUOUS
 62
256
 10
-133.242885000000000
 20
-133.980139000000010
 40
6.000000000000000
 50
180.000000000000000
 51
266.627712999999970
  0
ARC
  8
0
  6
CONTINUOUS
 62
256
 10
-134.242885000000000
 20
-150.950702000000010
 40
10.999999999999996
 50
25.956938000000029
 51
86.627712999999986
  0
ARC
  8
0
  6
CONTINUOUS
 62
256
 10
-118.957789000000010
 20
-143.509877999999990
 40
6.000000000000003
 50
205.956938000000010
 51
264.732346999999950
  0
ARC
  8
0
  6
CONTINUOUS
 62
256
 10
-41.366922000000002
 20
-148.950702000000010
 40
6.000000000000000
 50
270.000000000000000
 51
322.616544000000030
  0
ARC
  8
0
  6
CONTINUOUS
 62
256
 10
-31.527979999999999
 20
-143.509877999999990
 40
5.999999999999987
 50
275.267653000000000
 51
334.043061999999960
  0
ARC
  8
0
  6
CONTINUOUS
 62
256
 10
-17.242885000000001
 20
-133.980139000000010
 40
5.999999999999992
 50
273.372286999999970
 51
0.000000000000000
  0
ARC
  8
0
  6
CONTINUOUS
 62
256
 10
-120.243106999999990
 20
-157.450751999999990
 40
8.000000000000005
 50
37.383455999999988
 51
84.732347000000047
  0
LINE
  8
0
  6
CONTINUOUS
 62
256
 10
-125.242885000000000
 20
-35.350701999999998
 11
-125.642885000000010
 21
-34.950702000000000
  0
LINE
  8
0
  6
CONTINUOUS
 62
256
 10
-114.842885000000000
 20
-34.950702000000000
 11
-115.242885000000000
 21
-35.350701999999998
  0
LINE
  8
0
  6
CONTINUOUS
 62
256
 10
-35.242662000000003
 20
-35.350701999999998
 11
-35.642662000000001
 21
-34.950702000000000
  0
LINE
  8
0
  6
CONTINUOUS
 62
256
 10
-24.842662000000001
 20
-34.950702000000000
 11
-25.242661999999999
 21
-35.350701999999998
  0
LINE
  8
0
  6
CONTINUOUS
 62
256
 10
-25.242661999999999
 20
-161.550751999999990
 11
-24.842662000000001
 21
-161.950751999999990
  0
LINE
  8
0
  6
CONTINUOUS
 62
256
 10
-35.242662000000003
 20
-161.550751999999990
 11
-35.642662000000001
 21
-161.950751999999990
  0
LINE
  8
0
  6
CONTINUOUS
 62
256
 10
-125.242885000000000
 20
-161.550702000000000
 11
-125.642885000000010
 21
-161.950702000000010
  0
LINE
  8
0
  6
CONTINUOUS
 62
256
 10
-115.242885000000000
 20
-161.550702000000000
 11
-114.842885000000000
 21
-161.950702000000010
  0
ARC
  8
0
  6
CONTINUOUS
 62
256
 10
-12.242884999999999
 20
-154.950702000000010
 40
7.000000000000000
 50
270.000000000000000
 51
0.000000000000000
  0
LINE
  8
0
  6
CONTINUOUS
 62
256
 10
-125.242885000000000
 20
-160.950702000000010
 11
-139.242885000000000
 21
-160.950702000000010
  0
LINE
  8
0
  6
CONTINUOUS
 62
256
 10
-35.242662000000003
 20
-160.950702000000010
 11
-115.242885000000000
 21
-160.950702000000010
  0
LINE
  8
0
  6
DASHDOT
 62
256
 10
-24.499711999999999
 20
-150.950702000000010
 11
-2.290527000000000
 21
-150.950702000000010
  0
LINE
  8
0
  6
DASHDOT
 62
256
 10
-16.242885000000001
 20
-159.460583000000010
 11
-16.242885000000001
 21
-143.626569999999990
  0
LINE
  8
0
  6
DASHDOT
 62
256
 10
-30.242661999999999
 20
-164.550751999999990
 11
-30.242661999999999
 21
-149.731095000000010
  0
LINE
  8
0
  6
DASHDOT
 62
256
 10
-23.142662000000001
 20
-157.450751999999990
 11
-37.342661999999997
 21
-157.450751999999990
  0
ARC
  8
0
  6
CONTINUOUS
 62
256
 10
-30.242661999999999
 20
-157.450751999999990
 40
8.000000000000011
 50
95.267652999999996
 51
142.616544000000000
  0
ARC
  8
0
  6
CONTINUOUS
 62
256
 10
-30.242661999999999
 20
-157.450751999999990
 40
5.000000000000000
 50
0.000000000000000
 51
180.000000000000000
  0
LINE
  8
0
  6
CONTINUOUS
 62
256
 10
-25.242661999999999
 20
-157.450751999999990
 11
-25.242661999999999
 21
-161.550751999999990
  0
LINE
  8
0
  6
CONTINUOUS
 62
256
 10
-35.242662000000003
 20
-157.450751999999990
 11
-35.242662000000003
 21
-161.550751999999990
  0
LINE
  8
0
  6
DASHDOT
 62
256
 10
-134.242885000000000
 20
-159.460583000000010
 11
-134.242885000000000
 21
-141.734491999999990
  0
LINE
  8
0
  6
DASHDOT
 62
256
 10
-126.012754000000000
 20
-150.950702000000010
 11
-143.179074000000010
 21
-150.950702000000010
  0
LINE
  8
0
  6
DASHDOT
 62
256
 10
-120.242885000000000
 20
-164.950702000000010
 11
-120.242885000000000
 21
-149.950702000000010
  0
LINE
  8
0
  6
DASHDOT
 62
256
 10
-112.742885000000000
 20
-157.450702000000010
 11
-127.742885000000000
 21
-157.450702000000010
  0
LINE
  8
0
  6
CONTINUOUS
 62
256
 10
-115.242885000000000
 20
-157.450702000000010
 11
-115.242885000000000
 21
-161.550702000000000
  0
LINE
  8
0
  6
CONTINUOUS
 62
256
 10
-125.242885000000000
 20
-157.450702000000010
 11
-125.242885000000000
 21
-161.550702000000000
  0
ARC
  8
0
  6
CONTINUOUS
 62
256
 10
-120.242885000000000
 20
-157.450702000000010
 40
5.000000000000000
 50
0.000000000000000
 51
180.000000000000000
  0
LINE
  8
0
  6
CONTINUOUS
 62
256
 10
-115.242885000000000
 20
-35.950702000000000
 11
-35.242662000000003
 21
-35.950702000000000
  0
LINE
  8
0
  6
CONTINUOUS
 62
256
 10
-115.242885000000000
 20
-39.450702000000000
 11
-115.242885000000000
 21
-35.350701999999998
  0
LINE
  8
0
  6
CONTINUOUS
 62
256
 10
-125.242885000000000
 20
-39.450702000000000
 11
-125.242885000000000
 21
-35.350701999999998
  0
ARC
  8
0
  6
CONTINUOUS
 62
256
 10
-120.242885000000000
 20
-39.450702000000000
 40
5.000000000000000
 50
180.000000000000000
 51
0.000000000000000
  0
LINE
  8
0
  6
CONTINUOUS
 62
256
 10
-25.242661999999999
 20
-35.950702000000000
 11
-12.242884999999999
 21
-35.950702000000000
  0
LINE
  8
0
  6
CONTINUOUS
 62
256
 10
-35.242662000000003
 20
-39.450651999999998
 11
-35.242662000000003
 21
-35.350701999999998
  0
LINE
  8
0
  6
CONTINUOUS
 62
256
 10
-25.242661999999999
 20
-39.450651999999998
 11
-25.242661999999999
 21
-35.350701999999998
  0
LINE
  8
0
  6
CONTINUOUS
 62
256
 10
-41.366922000000002
 20
-154.950702000000010
 11
-109.118848000000000
 21
-154.950702000000010
  0
LINE
  8
0
  6
CONTINUOUS
 62
256
 10
-11.242884999999999
 20
-62.921264999999998
 11
-11.242884999999999
 21
-133.980139000000010
  0
ARC
  8
0
  6
CONTINUOUS
 62
256
 10
-12.242884999999999
 20
-41.950702000000000
 40
6.000000000000000
 50
0.000000000000000
 51
90.000000000000000
  0
LINE
  8
0
  6
CONTINUOUS
 62
256
 10
-139.242885000000000
 20
-35.950702000000000
 11
-125.242885000000000
 21
-35.950702000000000
  0
ARC
  8
0
  6
CONTINUOUS
 62
256
 10
-139.242885000000000
 20
-41.950702000000000
 40
6.000000000000000
 50
90.000000000000000
 51
180.000000000000000
  0
LINE
  8
0
  6
CONTINUOUS
 62
256
 10
-145.242885000000000
 20
-154.950702000000010
 11
-145.242885000000000
 21
-41.950702000000000
  0
ARC
  8
0
  6
CONTINUOUS
 62
256
 10
-139.242885000000000
 20
-154.950702000000010
 40
6.000000000000000
 50
180.000000000000000
 51
270.000000000000000
  0
LINE
  8
0
  6
CONTINUOUS
 62
256
 10
-12.242884999999999
 20
-160.950702000000010
 11
-25.242661999999999
 21
-160.950702000000010
  0
ARC
  8
0
  6
CONTINUOUS
 62
256
 10
-12.242884999999999
 20
-154.950702000000010
 40
6.000000000000000
 50
270.000000000000000
 51
0.000000000000000
  0
LINE
  8
0
  6
CONTINUOUS
 62
256
 10
-6.242885000000000
 20
-41.950702000000000
 11
-6.242885000000000
 21
-154.950702000000010
  0
LINE
  8
0
  6
DASHDOT
 62
256
 10
-112.742885000000000
 20
-39.450702000000000
 11
-127.742885000000000
 21
-39.450702000000000
  0
LINE
  8
0
  6
DASHDOT
 62
256
 10
-120.242885000000000
 20
-31.950702000000000
 11
-120.242885000000000
 21
-46.950702000000000
  0
LINE
  8
0
  6
DASHDOT
 62
256
 10
-23.142662000000001
 20
-39.450651999999998
 11
-37.342661999999997
 21
-39.450651999999998
  0
LINE
  8
0
  6
CONTINUOUS
 62
256
 10
-146.242885000000000
 20
-154.950702000000010
 11
-146.242885000000000
 21
-41.950702000000000
  0
ARC
  8
0
  6
CONTINUOUS
 62
256
 10
-139.242885000000000
 20
-154.950702000000010
 40
7.000000000000000
 50
180.000000000000000
 51
270.000000000000000
  0
LINE
  8
0
  6
CONTINUOUS
 62
256
 10
-139.242885000000000
 20
-161.950702000000010
 11
-12.242884999999999
 21
-161.950702000000010
  0
ARC
  8
0
  6
CONTINUOUS
 62
256
 10
-12.242884999999999
 20
-41.950702000000000
 40
7.000000000000000
 50
0.000000000000000
 51
90.000000000000000
  0
LINE
  8
0
  6
CONTINUOUS
 62
256
 10
-5.242885000000000
 20
-41.950702000000000
 11
-5.242885000000000
 21
-154.950702000000010
  0
LINE
  8
0
  6
CONTINUOUS
 62
256
 10
-12.242884999999999
 20
-34.950702000000000
 11
-139.242885000000000
 21
-34.950702000000000
  0
LINE
  8
0
  6
DASHDOT
 62
256
 10
-126.012754000000000
 20
-45.950702000000000
 11
-143.179074000000010
 21
-45.950702000000000
  0
ARC
  8
0
  6
CONTINUOUS
 62
256
 10
-139.242885000000000
 20
-41.950702000000000
 40
7.000000000000000
 50
90.000000000000000
 51
180.000000000000000
  0
LINE
  8
0
  6
CONTINUOUS
 62
256
 10
-13.742884999999999
 20
-62.921264999999998
 11
-13.742884999999999
 21
-133.980139000000010
  0
ARC
  8
0
  6
CONTINUOUS
 62
256
 10
-17.242885000000001
 20
-62.921264999999998
 40
3.500000000000000
 50
0.000000000000000
 51
86.627712999999986
  0
ARC
  8
0
  6
CONTINUOUS
 62
256
 10
-16.242885000000001
 20
-45.950702000000000
 40
13.499999999999998
 50
205.956938000000010
 51
266.627713000000030
  0
ARC
  8
0
  6
CONTINUOUS
 62
256
 10
-31.527979999999999
 20
-53.391525999999999
 40
3.499999999999999
 50
25.956937999999965
 51
84.732347000000019
  0
ARC
  8
0
  6
CONTINUOUS
 62
256
 10
-30.242661999999999
 20
-39.450651999999998
 40
10.500000000000004
 50
221.014736999999970
 51
264.732347000000000
  0
ARC
  8
0
  6
CONTINUOUS
 62
256
 10
-42.315314999999998
 20
-146.950702000000010
 40
5.500000000000000
 50
270.000000000000000
 51
318.985263000000030
  0
ARC
  8
0
  6
CONTINUOUS
 62
256
 10
-42.315314999999998
 20
-49.950702000000000
 40
5.500000000000000
 50
41.014737000000025
 51
90.000000000000000
  0
LINE
  8
0
  6
DASHDOT
 62
256
 10
-16.242885000000001
 20
-27.315904000000000
 11
-16.242885000000001
 21
-57.438848999999998
  0
LINE
  8
0
  6
DASHDOT
 62
256
 10
-24.499711999999999
 20
-45.950702000000000
 11
-2.290527000000000
 21
-45.950702000000000
  0
ARC
  8
0
  6
CONTINUOUS
 62
256
 10
-30.242661999999999
 20
-39.450651999999998
 40
4.999999999999996
 50
180.000000000000000
 51
0.000000000000000
  0
ARC
  8
0
  6
CONTINUOUS
 62
256
 10
-30.242661999999999
 20
-39.450651999999998
 40
7.999999999999998
 50
217.383455999999940
 51
264.732347000000000
  0
ARC
  8
0
  6
CONTINUOUS
 62
256
 10
-16.242885000000001
 20
-45.950702000000000
 40
11.000000000000002
 50
205.956938000000010
 51
266.627713000000030
  0
ARC
  8
0
  6
CONTINUOUS
 62
256
 10
-17.242885000000001
 20
-62.921264999999998
 40
6.000000000000000
 50
0.000000000000000
 51
86.627713000000014
  0
ARC
  8
0
  6
CONTINUOUS
 62
256
 10
-31.527979999999999
 20
-53.391525999999999
 40
5.999999999999999
 50
25.956937999999973
 51
84.732346999999990
  0
ARC
  8
0
  6
CONTINUOUS
 62
256
 10
-41.366922000000002
 20
-47.950702000000000
 40
5.999999999999999
 50
37.383456000000024
 51
90.000000000000000
  0
ARC
  8
0
  6
CONTINUOUS
 62
256
 10
-17.242885000000001
 20
-133.980139000000010
 40
3.500000000000003
 50
273.372286999999970
 51
0.000000000000000
  0
ARC
  8
0
  6
CONTINUOUS
 62
256
 10
-16.242885000000001
 20
-150.950702000000010
 40
13.499999999999989
 50
93.372287000000000
 51
154.043062000000050
  0
ARC
  8
0
  6
CONTINUOUS
 62
256
 10
-30.242661999999999
 20
-157.450751999999990
 40
10.500000000000000
 50
95.267652999999996
 51
138.985262999999970
  0
LINE
  8
0
  6
CONTINUOUS
 62
256
 10
-42.315314999999998
 20
-152.450702000000010
 11
-108.170454000000010
 21
-152.450702000000010
  0
ARC
  8
0
  6
CONTINUOUS
 62
256
 10
-108.170454000000010
 20
-146.950702000000010
 40
5.500000000000001
 50
221.014736999999910
 51
270.000000000000000
  0
ARC
  8
0
  6
CONTINUOUS
 62
256
 10
-120.243106999999990
 20
-157.450751999999990
 40
10.500000000000004
 50
41.014737000000025
 51
84.732347000000033
  0
ARC
  8
0
  6
CONTINUOUS
 62
256
 10
-118.957789000000010
 20
-143.509877999999990
 40
3.499999999999993
 50
205.956937999999890
 51
264.732346999999950
  0
ARC
  8
0
  6
CONTINUOUS
 62
256
 10
-134.242885000000000
 20
-150.950702000000010
 40
13.499999999999993
 50
25.956937999999962
 51
86.627712999999972
  0
ARC
  8
0
  6
CONTINUOUS
 62
256
 10
-133.242885000000000
 20
-133.980139000000010
 40
3.500000000000000
 50
180.000000000000000
 51
266.627713000000030
  0
LINE
  8
0
  6
CONTINUOUS
 62
256
 10
-136.742885000000000
 20
-133.980139000000010
 11
-136.742885000000000
 21
-62.921264999999998
  0
ARC
  8
0
  6
CONTINUOUS
 62
256
 10
-118.957789000000010
 20
-53.391525999999999
 40
3.500000000000000
 50
95.267653000000053
 51
154.043062000000020
  0
ARC
  8
0
  6
CONTINUOUS
 62
256
 10
-133.242885000000000
 20
-62.921264999999998
 40
3.500000000000003
 50
93.372286999999972
 51
180.000000000000000
  0
LINE
  8
0
  6
DASHDOT
 62
256
 10
-134.242885000000000
 20
-37.440821000000000
 11
-134.242885000000000
 21
-55.166912000000004
  0
LINE
  8
0
  6
CONTINUOUS
 62
256
 10
-139.242885000000000
 20
-133.980139000000010
 11
-139.242885000000000
 21
-62.921264999999998
  0
ARC
  8
0
  6
CONTINUOUS
 62
256
 10
-133.242885000000000
 20
-62.921264999999998
 40
5.999999999999999
 50
93.372287000000000
 51
180.000000000000000
  0
ARC
  8
0
  6
CONTINUOUS
 62
256
 10
-118.957789000000010
 20
-53.391525999999999
 40
6.000000000000002
 50
95.267653000000010
 51
154.043062000000020
  0
ARC
  8
0
  6
CONTINUOUS
 62
256
 10
-120.243106999999990
 20
-39.450651999999998
 40
10.499999999999998
 50
275.267653000000000
 51
318.985262999999970
  0
ARC
  8
0
  6
CONTINUOUS
 62
256
 10
-120.243106999999990
 20
-39.450651999999998
 40
7.999999999999996
 50
275.267653000000000
 51
322.616544000000030
  0
LINE
  8
0
  6
CONTINUOUS
 62
256
 10
-109.118848000000000
 20
-41.950702000000000
 11
-41.366922000000002
 21
-41.950702000000000
  0
LINE
  8
0
  6
CONTINUOUS
 62
256
 10
-108.170454000000010
 20
-44.450702000000000
 11
-64.857263000000003
 21
-44.450702000000000
  0
ARC
  8
0
  6
CONTINUOUS
 62
256
 10
-108.170454000000010
 20
-49.950702000000000
 40
5.500000000000000
 50
90.000000000000000
 51
138.985263000000030
  0
INSERT
  8
0
  2
ZU_SYM_1
 10
-278.242882000000010
 20
-140.548682000000010
 41
-1.000000000000000
 50
180.000000000000000
  0
INSERT
  8
0
  2
ZU_SYM_2
 10
-278.242882000000010
 20
-61.352722000000000
  0
INSERT
  8
0
  2
ZU_SYM_3
 10
-30.242661999999999
 20
-39.450651999999998
  0
INSERT
  8
0
  2
ZU_SYM_4
 10
-30.242661999999999
 20
-157.450751999999990
  0
INSERT
  8
0
  2
ZU_SYM_5
 10
-120.242885000000000
 20
-157.450702000000010
  0
INSERT
  8
0
  2
ZU_SYM_6
 10
-120.242885000000000
 20
-39.450702000000000
  0
LINE
  8
0
  6
CONTINUOUS
 62
256
 10
-193.242885000000000
 20
-187.950702000000010
 11
-264.242885000000000
 21
-187.950702000000010
  0
ARC
  8
0
  6
CONTINUOUS
 62
256
 10
-264.242885000000000
 20
-186.950702000000010
 40
1.000000000000000
 50
180.000000000000000
 51
270.000000000000000
  0
ARC
  8
0
  6
CONTINUOUS
 62
256
 10
-193.242885000000000
 20
-186.950702000000010
 40
1.000000000000000
 50
270.000000000000000
 51
0.000000000000000
  0
LINE
  8
0
  6
CONTINUOUS
 62
256
 10
-199.242885000000000
 20
-188.450702000000010
 11
-199.242885000000000
 21
-187.950702000000010
  0
LINE
  8
0
  6
CONTINUOUS
 62
256
 10
-207.242885000000000
 20
-188.450702000000010
 11
-207.242885000000000
 21
-187.950702000000010
  0
CIRCLE
  8
0
  6
CONTINUOUS
 62
256
 10
258.812333000000020
 20
-87.950702000000007
 40
19.000000000000000
  0
LINE
  8
0
  6
CONTINUOUS
 62
256
 10
254.812333000000000
 20
-72.150701999999995
 11
254.812333000000000
 21
-76.107983000000004
  0
LINE
  8
0
  6
CONTINUOUS
 62
256
 10
262.812333000000020
 20
-72.150701999999995
 11
262.812333000000020
 21
-76.107983000000004
  0
LINE
  8
0
  6
CONTINUOUS
 62
256
 10
262.812333000000020
 20
-72.150701999999995
 11
254.812333000000000
 21
-72.150701999999995
  0
ARC
  8
0
  6
CONTINUOUS
 62
256
 10
258.812333000000020
 20
-87.950702000000007
 40
12.500000000000002
 50
108.662925000000020
 51
71.337074999999999
  0
LINE
  8
0
  6
DASHDOT
 62
256
 10
279.790123999999990
 20
-87.950702000000007
 11
237.131470000000010
 21
-87.950702000000007
  0
LINE
  8
0
  6
DASHDOT
 62
256
 10
258.812333000000020
 20
-61.723154999999998
 11
258.812333000000020
 21
-111.182614000000000
  0
POINT
  8
0
  6
DASHDOT
 62
256
 10
271.312333000000020
 20
-87.950702000000007
  0
LINE
  8
0
  6
CONTINUOUS
 62
256
 10
-54.242885000000001
 20
-72.150701999999995
 11
-62.242885000000001
 21
-72.150701999999995
  0
LINE
  8
0
  6
CONTINUOUS
 62
256
 10
-62.242885000000001
 20
-72.150701999999995
 11
-62.242885000000001
 21
-76.107983000000004
  0
ARC
  8
0
  6
CONTINUOUS
 62
256
 10
-58.242885000000001
 20
-87.950702000000007
 40
12.500000000000002
 50
108.662925000000020
 51
71.337074999999999
  0
LINE
  8
0
  6
CONTINUOUS
 62
256
 10
-54.242885000000001
 20
-72.150701999999995
 11
-54.242885000000001
 21
-76.107983000000004
  0
LINE
  8
0
  6
CONTINUOUS
 62
256
 10
85.859125000000006
 20
-100.450702000000010
 11
101.859125000000010
 21
-100.450702000000010
  0
LINE
  8
0
  6
CONTINUOUS
 62
256
 10
85.859125000000006
 20
-75.450702000000007
 11
101.859125000000010
 21
-75.450702000000007
  0
LINE
  8
0
  6
CONTINUOUS
 62
256
 10
146.859125000000010
 20
-100.450702000000010
 11
166.859125000000010
 21
-100.450702000000010
  0
LINE
  8
0
  6
CONTINUOUS
 62
256
 10
146.859125000000010
 20
-75.450702000000007
 11
166.859125000000010
 21
-75.450702000000007
  0
LINE
  8
0
  6
CONTINUOUS
 62
256
 10
144.859125000000010
 20
-74.450702000000007
 11
146.859125000000010
 21
-74.450702000000007
  0
LINE
  8
0
  6
CONTINUOUS
 62
256
 10
144.859125000000010
 20
-101.450702000000010
 11
146.859125000000010
 21
-101.450702000000010
  0
LINE
  8
0
  6
CONTINUOUS
 62
256
 10
83.859125000000006
 20
-74.450702000000007
 11
85.859125000000006
 21
-74.450702000000007
  0
LINE
  8
0
  6
CONTINUOUS
 62
256
 10
83.859125000000006
 20
-101.450702000000010
 11
85.859125000000006
 21
-101.450702000000010
  0
LINE
  8
0
  6
CONTINUOUS
 62
256
 10
83.859125000000006
 20
-101.450702000000010
 11
83.859125000000006
 21
-74.450702000000007
  0
LINE
  8
0
  6
CONTINUOUS
 62
256
 10
146.859125000000010
 20
-101.450702000000010
 11
146.859125000000010
 21
-74.450702000000007
  0
LINE
  8
0
  6
CONTINUOUS
 62
256
 10
85.859125000000006
 20
-101.450702000000010
 11
85.859125000000006
 21
-74.450702000000007
  0
LINE
  8
0
  6
CONTINUOUS
 62
256
 10
144.859125000000010
 20
-101.450702000000010
 11
144.859125000000010
 21
-74.450702000000007
  0
LINE
  8
0
  6
CONTINUOUS
 62
256
 10
101.859125000000010
 20
-100.950702000000010
 11
101.859125000000010
 21
-74.950702000000007
  0
LINE
  8
0
  6
CONTINUOUS
 62
256
 10
128.859125000000010
 20
-100.950702000000010
 11
128.859125000000010
 21
-74.950702000000007
  0
LINE
  8
0
  6
CONTINUOUS
 62
256
 10
106.359125000000010
 20
-66.600701999999998
 11
136.359150000000000
 21
-66.600701999999998
  0
LINE
  8
0
  6
CONTINUOUS
 62
256
 10
63.859124999999999
 20
-100.450702000000010
 11
83.859125000000006
 21
-100.450702000000010
  0
LINE
  8
0
  6
CONTINUOUS
 62
256
 10
63.859124999999999
 20
-75.450702000000007
 11
83.859125000000006
 21
-75.450702000000007
  0
LINE
  8
0
  6
CONTINUOUS
 62
256
 10
100.359125000000010
 20
-72.150701999999995
 11
166.859125000000010
 21
-72.150701999999995
  0
LINE
  8
0
  6
DASHDOT
 62
256
 10
61.466326000000002
 20
-87.950702000000007
 11
169.799659999999990
 21
-87.950702000000007
  0
LINE
  8
0
  6
CONTINUOUS
 62
256
 10
106.359125000000010
 20
-66.600701999999998
 11
106.359125000000010
 21
-67.900701999999995
  0
LINE
  8
0
  6
CONTINUOUS
 62
256
 10
78.859125000000006
 20
-106.950702000000010
 11
78.859125000000006
 21
-108.000702000000000
  0
LINE
  8
0
  6
CONTINUOUS
 62
256
 10
78.859125000000006
 20
-68.950702000000007
 11
78.859125000000006
 21
-67.900701999999995
  0
LINE
  8
0
  6
CONTINUOUS
 62
256
 10
151.859125000000010
 20
-67.950702000000007
 11
136.359150000000000
 21
-67.950702000000007
  0
LINE
  8
0
  6
CONTINUOUS
 62
256
 10
151.859125000000010
 20
-107.950702000000010
 11
136.359150000000000
 21
-107.950702000000010
  0
LINE
  8
0
  6
CONTINUOUS
 62
256
 10
151.859125000000010
 20
-68.950702000000007
 11
151.859125000000010
 21
-67.950700999999995
  0
LINE
  8
0
  6
CONTINUOUS
 62
256
 10
151.859125000000010
 20
-106.950702000000010
 11
151.859125000000010
 21
-107.950702000000010
  0
LINE
  8
0
  6
CONTINUOUS
 62
256
 10
63.859124999999999
 20
-106.950702000000010
 11
63.859124999999999
 21
-68.950702000000007
  0
LINE
  8
0
  6
CONTINUOUS
 62
256
 10
63.859124999999999
 20
-106.950702000000010
 11
78.859125000000006
 21
-106.950702000000010
  0
LINE
  8
0
  6
CONTINUOUS
 62
256
 10
63.859124999999999
 20
-68.950702000000007
 11
78.859125000000006
 21
-68.950702000000007
  0
LINE
  8
0
  6
CONTINUOUS
 62
256
 10
166.859125000000010
 20
-106.950702000000010
 11
166.859125000000010
 21
-68.950702000000007
  0
LINE
  8
0
  6
CONTINUOUS
 62
256
 10
166.859125000000010
 20
-68.950702000000007
 11
151.859125000000010
 21
-68.950702000000007
  0
LINE
  8
0
  6
CONTINUOUS
 62
256
 10
63.859124999999999
 20
-72.150701999999995
 11
100.359125000000010
 21
-72.150701999999995
  0
LINE
  8
0
  6
CONTINUOUS
 62
256
 10
166.859125000000010
 20
-106.950702000000010
 11
151.859125000000010
 21
-106.950702000000010
  0
LINE
  8
0
  6
CONTINUOUS
 62
256
 10
78.859125000000006
 20
-67.900701999999995
 11
106.359125000000010
 21
-67.900701999999995
  0
LINE
  8
0
  6
CONTINUOUS
 62
256
 10
78.859125000000006
 20
-108.000702000000000
 11
106.359125000000010
 21
-108.000702000000000
  0
LINE
  8
0
  6
CONTINUOUS
 62
256
 10
106.359125000000010
 20
-109.300702000000000
 11
136.359150000000000
 21
-109.300702000000000
  0
LINE
  8
0
  6
CONTINUOUS
 62
256
 10
106.359125000000010
 20
-109.300702000000000
 11
106.359125000000010
 21
-108.000702000000000
  0
LINE
  8
0
  6
CONTINUOUS
 62
256
 10
136.359150000000000
 20
-107.950702000000010
 11
136.359150000000000
 21
-109.300702000000000
  0
LINE
  8
0
  6
CONTINUOUS
 62
256
 10
136.359150000000000
 20
-67.950702000000007
 11
136.359150000000000
 21
-66.600701999999998
  0
LINE
  8
0
  6
CONTINUOUS
 62
256
 10
101.859125000000010
 20
-74.950702000000007
 11
128.859125000000010
 21
-74.950702000000007
  0
LINE
  8
0
  6
CONTINUOUS
 62
256
 10
101.859125000000010
 20
-100.950702000000010
 11
128.859125000000010
 21
-100.950702000000010
  0
LINE
  8
0
  6
CONTINUOUS
 62
256
 10
128.859125000000010
 20
-75.450702000000007
 11
144.859125000000010
 21
-75.450702000000007
  0
LINE
  8
0
  6
CONTINUOUS
 62
256
 10
128.859125000000010
 20
-100.450702000000010
 11
144.859125000000010
 21
-100.450702000000010
  0
INSERT
  8
0
  2
ZU_SYM_7
 10
-361.596953999999980
 20
-140.548682000000010
 50
270.000000000000000
  0
INSERT
  8
0
  2
ZU_SYM_8
 10
-440.792913000000000
 20
-140.548682000000010
 41
-1.000000000000000
 50
90.000000000000000
  0
ARC
  8
0
  6
CONTINUOUS
 62
256
 10
-376.194932999999990
 20
-181.889470999999990
 40
4.999999999999989
 50
274.861405000000100
 51
0.000000000000000
  0
ARC
  8
0
  6
CONTINUOUS
 62
256
 10
-426.194932999999990
 20
-181.889470999999990
 40
5.000000000000000
 50
180.000000000000000
 51
265.138594999999900
  0
LINE
  8
0
  6
CONTINUOUS
 62
256
 10
-371.194932999999990
 20
-158.450702000000010
 11
-371.194932999999990
 21
-181.889470999999990
  0
LINE
  8
0
  6
CONTINUOUS
 62
256
 10
-431.194932999999990
 20
-158.450702000000010
 11
-431.194932999999990
 21
-181.889470999999990
  0
LINE
  8
0
  6
CONTINUOUS
 62
256
 10
-382.444932999999990
 20
-154.950702000000010
 11
-382.444932999999990
 21
-154.450702000000010
  0
LINE
  8
0
  6
CONTINUOUS
 62
256
 10
-419.944932999999990
 20
-154.950702000000010
 11
-419.944932999999990
 21
-154.450702000000010
  0
LINE
  8
0
  6
CONTINUOUS
 62
256
 10
-429.393575000000000
 20
-137.042067000000000
 11
-440.536047000000000
 21
-147.074794000000000
  0
LINE
  8
0
  6
CONTINUOUS
 62
256
 10
-437.286297999999990
 20
-129.149344000000010
 11
-447.319025000000010
 21
-140.291816000000010
  0
ARC
  8
0
  6
CONTINUOUS
 62
256
 10
-401.194932999999990
 20
-100.950702000000010
 40
52.500000000000007
 50
203.136888999999970
 51
203.663704999999990
  0
ARC
  8
0
  6
CONTINUOUS
 62
256
 10
-445.278766000000020
 20
-131.263499999999990
 40
0.999999999999989
 50
37.785802999999802
 51
87.000000000000909
  0
ARC
  8
0
  6
CONTINUOUS
 62
256
 10
-445.344584000000000
 20
-131.167556999999990
 40
0.999999999999996
 50
272.999999999999090
 51
31.115752999998847
  0
ARC
  8
0
  6
CONTINUOUS
 62
256
 10
-452.172869999999990
 20
-115.450702000000010
 40
0.500000000000015
 50
15.877701999999818
 51
90.000000000000000
  0
LINE
  8
0
  6
CONTINUOUS
 62
256
 10
-452.274850000000010
 20
-114.950702000000010
 11
-452.172869999999990
 21
-114.950702000000010
  0
ARC
  8
0
  6
CONTINUOUS
 62
256
 10
-452.274850000000010
 20
-114.450702000000010
 40
0.499999999999976
 50
187.797849999999870
 51
270.000000000000000
  0
ARC
  8
0
  6
CONTINUOUS
 62
256
 10
-353.694932999999990
 20
-100.950702000000010
 40
100.000000000000000
 50
180.000000000000000
 51
187.797850000000010
  0
ARC
  8
0
  6
CONTINUOUS
 62
256
 10
-401.194932999999990
 20
-100.950702000000010
 40
52.500000000000021
 50
195.877701999999970
 51
198.664571000000000
  0
ARC
  8
0
  6
CONTINUOUS
 62
256
 10
-401.194932999999990
 20
-100.950702000000010
 40
52.500000000000014
 50
208.562833999999980
 51
208.973449000000020
  0
ARC
  8
0
  6
CONTINUOUS
 62
256
 10
-451.194932999999990
 20
-124.450702000000010
 40
0.999999999999996
 50
92.999999999999091
 51
267.000000000000910
  0
ARC
  8
0
  6
CONTINUOUS
 62
256
 10
-448.045208000000000
 20
-126.782887000000000
 40
0.999999999999996
 50
272.999999999999090
 51
28.871352000000165
  0
LINE
  8
0
  6
CONTINUOUS
 62
256
 10
-448.085788999999980
 20
-125.615018000000010
 11
-451.247269000000020
 21
-125.449332000000000
  0
ARC
  8
0
  6
CONTINUOUS
 62
256
 10
-448.138125000000000
 20
-126.613647000000000
 40
1.000000000000009
 50
28.664584000000026
 51
87.000000000000909
  0
ARC
  8
0
  6
CONTINUOUS
 62
256
 10
-450.208582999999980
 20
-122.396265000000000
 40
0.999999999999996
 50
272.999999999999090
 51
23.631430000000389
  0
ARC
  8
0
  6
CONTINUOUS
 62
256
 10
-451.881280000000000
 20
-118.072158000000000
 40
1.000000000000005
 50
290.070332000000060
 51
18.664571000000766
  0
ARC
  8
0
  6
CONTINUOUS
 62
256
 10
-450.381748000000020
 20
-121.996064000000000
 40
0.999999999999977
 50
23.164432000000296
 51
87.000000000000909
  0
LINE
  8
0
  6
CONTINUOUS
 62
256
 10
-450.329411999999990
 20
-120.997434000000000
 11
-451.247269000000020
 21
-120.949332000000000
  0
ARC
  8
0
  6
CONTINUOUS
 62
256
 10
-451.194932999999990
 20
-119.950702000000010
 40
1.000000000000005
 50
110.070332000000090
 51
267.000000000000910
  0
LINE
  8
0
  6
CONTINUOUS
 62
256
 10
-450.156247000000010
 20
-123.394893999999990
 11
-451.247269000000020
 21
-123.452073000000000
  0
ARC
  8
0
  6
CONTINUOUS
 62
256
 10
-451.194932999999990
 20
-128.950702000000010
 40
0.999999999999996
 50
92.999999999999091
 51
267.000000000000910
  0
LINE
  8
0
  6
CONTINUOUS
 62
256
 10
-447.992871999999980
 20
-127.781516999999990
 11
-451.247269000000020
 21
-127.952073000000000
  0
ARC
  8
0
  6
CONTINUOUS
 62
256
 10
-450.694932999999990
 20
-133.450702000000010
 40
0.999999999999996
 50
92.999999999999091
 51
267.000000000000910
  0
LINE
  8
0
  6
CONTINUOUS
 62
256
 10
-445.292247999999970
 20
-132.166187000000010
 11
-450.747269000000020
 21
-132.452073000000010
  0
LINE
  8
0
  6
CONTINUOUS
 62
256
 10
-445.226429999999990
 20
-130.264870000000000
 11
-451.247269000000020
 21
-129.949332000000000
  0
ARC
  8
0
  6
CONTINUOUS
 62
256
 10
-401.194932999999990
 20
-100.950702000000010
 40
52.499999999999986
 50
246.304919000000040
 51
246.888398000000000
  0
ARC
  8
0
  6
CONTINUOUS
 62
256
 10
-422.194932999999990
 20
-150.156901000000000
 40
1.000000000000000
 50
0.000000000000000
 51
66.888398000001317
  0
ARC
  8
0
  6
CONTINUOUS
 62
256
 10
-401.194932999999990
 20
-100.950702000000010
 40
52.500000000000000
 50
246.336295000000040
 51
246.888398000000000
  0
ARC
  8
0
  6
CONTINUOUS
 62
256
 10
-401.194932999999990
 20
-100.950702000000010
 40
52.500000000000028
 50
241.026550999999960
 51
241.437165999999990
  0
ARC
  8
0
  6
CONTINUOUS
 62
256
 10
-401.194932999999990
 20
-100.950702000000010
 40
52.500000000000028
 50
241.026550999999960
 51
241.437165999999990
  0
ARC
  8
0
  6
CONTINUOUS
 62
256
 10
-433.694932999999990
 20
-150.450702000000010
 40
0.999999999999997
 50
183.000000000000710
 51
356.999999999999260
  0
ARC
  8
0
  6
CONTINUOUS
 62
256
 10
-429.194932999999990
 20
-150.950702000000010
 40
0.999999999999997
 50
183.000000000000710
 51
356.999999999999260
  0
LINE
  8
0
  6
CONTINUOUS
 62
256
 10
-432.410417999999990
 20
-145.048016999999990
 11
-432.696304000000000
 21
-150.503038000000000
  0
LINE
  8
0
  6
CONTINUOUS
 62
256
 10
-430.509101999999980
 20
-144.982199000000010
 11
-430.193562999999980
 21
-151.003038000000000
  0
LINE
  8
0
  6
CONTINUOUS
 62
256
 10
-428.025748000000020
 20
-147.748639999999990
 11
-428.196304000000000
 21
-151.003038000000000
  0
ARC
  8
0
  6
CONTINUOUS
 62
256
 10
-427.027117999999970
 20
-147.800975999999990
 40
0.999999999999988
 50
61.128648000000545
 51
176.999999999999290
  0
LINE
  8
0
  6
CONTINUOUS
 62
256
 10
-425.859248999999980
 20
-147.841557999999990
 11
-425.693562999999980
 21
-151.003038000000000
  0
ARC
  8
0
  6
CONTINUOUS
 62
256
 10
-426.857878000000030
 20
-147.893893999999990
 40
0.999999999999997
 50
3.000000000000716
 51
61.335416000001402
  0
ARC
  8
0
  6
CONTINUOUS
 62
256
 10
-424.694932999999990
 20
-150.950702000000010
 40
0.999999999999997
 50
183.000000000000710
 51
356.999999999999260
  0
ARC
  8
0
  6
CONTINUOUS
 62
256
 10
-422.640495999999980
 20
-149.964350999999990
 40
1.000000000000003
 50
66.368570000001014
 51
176.999999999999290
  0
LINE
  8
0
  6
CONTINUOUS
 62
256
 10
-423.639125999999980
 20
-149.912015999999990
 11
-423.696304000000000
 21
-151.003038000000000
  0
ARC
  8
0
  6
CONTINUOUS
 62
256
 10
-431.411789000000000
 20
-145.100353000000010
 40
1.000000000000002
 50
55.611524000000401
 51
176.999999999999290
  0
ARC
  8
0
  6
CONTINUOUS
 62
256
 10
-431.507730999999980
 20
-145.034534000000010
 40
0.999999999999997
 50
3.000000000000716
 51
55.486921000000805
  0
ARC
  8
0
  6
CONTINUOUS
 62
256
 10
-446.575879999999980
 20
-140.960946000000010
 40
0.999999999999987
 50
137.999999999999010
 51
221.401106000000030
  0
LINE
  8
0
  6
CONTINUOUS
 62
256
 10
-444.543634000000000
 20
-134.774450000000000
 11
-450.747269000000020
 21
-134.449332000000000
  0
ARC
  8
0
  6
CONTINUOUS
 62
256
 10
-444.595970000000020
 20
-135.773079999999990
 40
0.999999999999987
 50
317.999999999998980
 51
87.000000000000909
  0
ARC
  8
0
  6
CONTINUOUS
 62
256
 10
-441.205177999999990
 20
-146.331649000000000
 40
0.999999999999988
 50
228.598894000001170
 51
311.999999999999940
  0
ARC
  8
0
  6
CONTINUOUS
 62
256
 10
-401.194932999999990
 20
-100.950702000000010
 40
61.500000000000007
 50
221.401105999999970
 51
228.598894000000000
  0
LINE
  8
0
  6
CONTINUOUS
 62
256
 10
-435.018682000000010
 20
-144.299403000000010
 11
-434.693562999999980
 21
-150.503038000000000
  0
ARC
  8
0
  6
CONTINUOUS
 62
256
 10
-436.017311000000010
 20
-144.351739000000010
 40
0.999999999999997
 50
3.000000000000716
 51
131.999999999999940
  0
LINE
  8
0
  6
CONTINUOUS
 62
256
 10
-372.996291999999980
 20
-137.042067000000000
 11
-361.853819999999980
 21
-147.074794000000000
  0
LINE
  8
0
  6
CONTINUOUS
 62
256
 10
-365.103568000000000
 20
-129.149344000000010
 11
-355.070840999999970
 21
-140.291816000000010
  0
ARC
  8
0
  6
CONTINUOUS
 62
256
 10
-401.194932999999990
 20
-100.950702000000010
 40
52.500000000000000
 50
336.336295000000010
 51
336.863111000000000
  0
ARC
  8
0
  6
CONTINUOUS
 62
256
 10
-357.111101000000020
 20
-131.263499999999990
 40
0.999999999999996
 50
92.999999999999091
 51
142.214197000000180
  0
ARC
  8
0
  6
CONTINUOUS
 62
256
 10
-357.045282999999980
 20
-131.167556999999990
 40
1.000000000000017
 50
148.884247000001180
 51
267.000000000000910
  0
ARC
  8
0
  6
CONTINUOUS
 62
256
 10
-350.216996999999990
 20
-115.450702000000010
 40
0.500000000000000
 50
90.000000000000000
 51
164.122298000000200
  0
LINE
  8
0
  6
CONTINUOUS
 62
256
 10
-350.115016000000030
 20
-114.950702000000010
 11
-350.216996999999990
 21
-114.950702000000010
  0
ARC
  8
0
  6
CONTINUOUS
 62
256
 10
-350.115016000000030
 20
-114.450702000000010
 40
0.500000000000000
 50
270.000000000000000
 51
352.202150000000130
  0
ARC
  8
0
  6
CONTINUOUS
 62
256
 10
-448.694932999999990
 20
-100.950702000000010
 40
100.000000000000010
 50
352.202150000000020
 51
0.000000000000000
  0
ARC
  8
0
  6
CONTINUOUS
 62
256
 10
-401.194932999999990
 20
-100.950702000000010
 40
52.499999999999979
 50
341.335429000000030
 51
344.122298000000000
  0
ARC
  8
0
  6
CONTINUOUS
 62
256
 10
-401.194932999999990
 20
-100.950702000000010
 40
52.499999999999986
 50
331.026550999999980
 51
331.437165999999990
  0
ARC
  8
0
  6
CONTINUOUS
 62
256
 10
-351.194932999999990
 20
-124.450702000000010
 40
0.999999999999996
 50
272.999999999999090
 51
87.000000000000909
  0
ARC
  8
0
  6
CONTINUOUS
 62
256
 10
-354.344658999999980
 20
-126.782887000000000
 40
0.999999999999995
 50
151.128647999999830
 51
267.000000000000910
  0
LINE
  8
0
  6
CONTINUOUS
 62
256
 10
-354.304078000000000
 20
-125.615018000000010
 11
-351.142597000000020
 21
-125.449332000000000
  0
ARC
  8
0
  6
CONTINUOUS
 62
256
 10
-354.251741999999980
 20
-126.613647000000000
 40
0.999999999999996
 50
92.999999999999091
 51
151.335415999999980
  0
ARC
  8
0
  6
CONTINUOUS
 62
256
 10
-352.181284000000010
 20
-122.396265000000000
 40
0.999999999999982
 50
156.368569999999610
 51
267.000000000000910
  0
ARC
  8
0
  6
CONTINUOUS
 62
256
 10
-350.508585999999980
 20
-118.072158000000000
 40
0.999999999999979
 50
161.335428999999240
 51
249.929667999999880
  0
ARC
  8
0
  6
CONTINUOUS
 62
256
 10
-352.008119000000020
 20
-121.996064000000000
 40
0.999999999999996
 50
92.999999999999091
 51
156.835567999999710
  0
LINE
  8
0
  6
CONTINUOUS
 62
256
 10
-352.060454999999990
 20
-120.997434000000000
 11
-351.142597000000020
 21
-120.949332000000000
  0
ARC
  8
0
  6
CONTINUOUS
 62
256
 10
-351.194932999999990
 20
-119.950702000000010
 40
0.999999999999996
 50
272.999999999999090
 51
69.929667999999921
  0
LINE
  8
0
  6
CONTINUOUS
 62
256
 10
-352.233619999999970
 20
-123.394893999999990
 11
-351.142597000000020
 21
-123.452073000000000
  0
ARC
  8
0
  6
CONTINUOUS
 62
256
 10
-351.194932999999990
 20
-128.950702000000010
 40
0.999999999999996
 50
272.999999999999090
 51
87.000000000000909
  0
LINE
  8
0
  6
CONTINUOUS
 62
256
 10
-354.396995000000000
 20
-127.781516999999990
 11
-351.142597000000020
 21
-127.952073000000000
  0
ARC
  8
0
  6
CONTINUOUS
 62
256
 10
-351.694932999999990
 20
-133.450702000000010
 40
0.999999999999996
 50
272.999999999999090
 51
87.000000000000909
  0
LINE
  8
0
  6
CONTINUOUS
 62
256
 10
-357.097619000000010
 20
-132.166187000000010
 11
-351.642597000000020
 21
-132.452073000000010
  0
LINE
  8
0
  6
CONTINUOUS
 62
256
 10
-357.163436999999990
 20
-130.264870000000000
 11
-351.142597000000020
 21
-129.949332000000000
  0
ARC
  8
0
  6
CONTINUOUS
 62
256
 10
-401.194932999999990
 20
-100.950702000000010
 40
52.499999999999993
 50
293.111602000000000
 51
293.695081000000020
  0
ARC
  8
0
  6
CONTINUOUS
 62
256
 10
-380.194932999999990
 20
-150.156901000000000
 40
1.000000000000001
 50
113.111601999998680
 51
180.000000000000000
  0
ARC
  8
0
  6
CONTINUOUS
 62
256
 10
-401.194932999999990
 20
-100.950702000000010
 40
52.499999999999993
 50
293.111602000000000
 51
293.663705000000050
  0
ARC
  8
0
  6
CONTINUOUS
 62
256
 10
-401.194932999999990
 20
-100.950702000000010
 40
52.499999999999979
 50
298.562833999999950
 51
298.973448999999960
  0
ARC
  8
0
  6
CONTINUOUS
 62
256
 10
-401.194932999999990
 20
-100.950702000000010
 40
52.499999999999979
 50
298.562833999999950
 51
298.973448999999960
  0
ARC
  8
0
  6
CONTINUOUS
 62
256
 10
-368.694932999999990
 20
-150.450702000000010
 40
0.999999999999997
 50
183.000000000000710
 51
356.999999999999260
  0
ARC
  8
0
  6
CONTINUOUS
 62
256
 10
-373.194932999999990
 20
-150.950702000000010
 40
0.999999999999997
 50
183.000000000000710
 51
356.999999999999260
  0
LINE
  8
0
  6
CONTINUOUS
 62
256
 10
-369.979447999999990
 20
-145.048016999999990
 11
-369.693562999999980
 21
-150.503038000000000
  0
LINE
  8
0
  6
CONTINUOUS
 62
256
 10
-371.880765000000000
 20
-144.982199000000010
 11
-372.196304000000000
 21
-151.003038000000000
  0
LINE
  8
0
  6
CONTINUOUS
 62
256
 10
-374.364119000000020
 20
-147.748639999999990
 11
-374.193562999999980
 21
-151.003038000000000
  0
ARC
  8
0
  6
CONTINUOUS
 62
256
 10
-375.362748000000010
 20
-147.800975999999990
 40
0.999999999999997
 50
3.000000000000716
 51
118.871351999999450
  0
LINE
  8
0
  6
CONTINUOUS
 62
256
 10
-376.530618000000000
 20
-147.841557999999990
 11
-376.696304000000000
 21
-151.003038000000000
  0
ARC
  8
0
  6
CONTINUOUS
 62
256
 10
-375.531988000000010
 20
-147.893893999999990
 40
0.999999999999996
 50
118.664583999998610
 51
176.999999999999290
  0
ARC
  8
0
  6
CONTINUOUS
 62
256
 10
-377.694932999999990
 20
-150.950702000000010
 40
0.999999999999997
 50
183.000000000000710
 51
356.999999999999260
  0
ARC
  8
0
  6
CONTINUOUS
 62
256
 10
-379.749370000000000
 20
-149.964350999999990
 40
0.999999999999997
 50
3.000000000000716
 51
113.631429999999000
  0
LINE
  8
0
  6
CONTINUOUS
 62
256
 10
-378.750741000000000
 20
-149.912015999999990
 11
-378.693562999999980
 21
-151.003038000000000
  0
ARC
  8
0
  6
CONTINUOUS
 62
256
 10
-370.978077999999980
 20
-145.100353000000010
 40
0.999999999999997
 50
3.000000000000716
 51
124.388475999999600
  0
ARC
  8
0
  6
CONTINUOUS
 62
256
 10
-370.882135000000010
 20
-145.034534000000010
 40
0.999999999999985
 50
124.513078999999190
 51
176.999999999999290
  0
ARC
  8
0
  6
CONTINUOUS
 62
256
 10
-355.813986000000000
 20
-140.960946000000010
 40
1.000000000000007
 50
318.598893999999970
 51
42.000000000001023
  0
LINE
  8
0
  6
CONTINUOUS
 62
256
 10
-357.846232999999980
 20
-134.774450000000000
 11
-351.642597000000020
 21
-134.449332000000000
  0
ARC
  8
0
  6
CONTINUOUS
 62
256
 10
-357.793897000000020
 20
-135.773079999999990
 40
0.999999999999996
 50
92.999999999999091
 51
222.000000000000990
  0
ARC
  8
0
  6
CONTINUOUS
 62
256
 10
-361.184688999999990
 20
-146.331649000000000
 40
1.000000000000008
 50
228.000000000000060
 51
311.401105999998780
  0
ARC
  8
0
  6
CONTINUOUS
 62
256
 10
-401.194932999999990
 20
-100.950702000000010
 40
61.500000000000007
 50
311.401106000000030
 51
318.598893999999970
  0
LINE
  8
0
  6
CONTINUOUS
 62
256
 10
-367.371185000000030
 20
-144.299403000000010
 11
-367.696304000000000
 21
-150.503038000000000
  0
ARC
  8
0
  6
CONTINUOUS
 62
256
 10
-366.372554999999980
 20
-144.351739000000010
 40
1.000000000000008
 50
48.000000000000071
 51
176.999999999999290
  0
ARC
  8
0
  6
CONTINUOUS
 62
256
 10
-448.694932999999990
 20
-100.950702000000010
 40
100.000000000000000
 50
0.000000000000000
 51
7.797850000000000
  0
ARC
  8
0
  6
CONTINUOUS
 62
256
 10
-353.694932999999990
 20
-100.950702000000010
 40
100.000000000000010
 50
172.202150000000020
 51
180.000000000000000
  0
ARC
  8
0
  6
CONTINUOUS
 62
256
 10
-401.194932999999990
 20
-100.950702000000010
 40
52.500000000000014
 50
23.136889000000000
 51
23.663704999999993
  0
ARC
  8
0
  6
CONTINUOUS
 62
256
 10
-350.216996999999990
 20
-86.450702000000007
 40
0.500000000000015
 50
195.877701999999800
 51
270.000000000000000
  0
LINE
  8
0
  6
CONTINUOUS
 62
256
 10
-350.115016000000030
 20
-86.950702000000007
 11
-350.216996999999990
 21
-86.950702000000007
  0
ARC
  8
0
  6
CONTINUOUS
 62
256
 10
-350.115016000000030
 20
-87.450702000000007
 40
0.499999999999976
 50
7.797849999999888
 51
90.000000000000000
  0
ARC
  8
0
  6
CONTINUOUS
 62
256
 10
-401.194932999999990
 20
-100.950702000000010
 40
52.500000000000021
 50
15.877701999999992
 51
18.664571000000006
  0
ARC
  8
0
  6
CONTINUOUS
 62
256
 10
-401.194932999999990
 20
-100.950702000000010
 40
52.500000000000014
 50
28.562833999999995
 51
28.973449000000016
  0
ARC
  8
0
  6
CONTINUOUS
 62
256
 10
-351.194932999999990
 20
-77.450702000000007
 40
0.999999999999996
 50
272.999999999999090
 51
87.000000000000909
  0
ARC
  8
0
  6
CONTINUOUS
 62
256
 10
-354.344658999999980
 20
-75.118516999999997
 40
0.999999999999996
 50
92.999999999999091
 51
208.871352000000170
  0
LINE
  8
0
  6
CONTINUOUS
 62
256
 10
-354.304078000000000
 20
-76.286385999999993
 11
-351.142597000000020
 21
-76.452072999999999
  0
ARC
  8
0
  6
CONTINUOUS
 62
256
 10
-354.251741999999980
 20
-75.287756999999999
 40
1.000000000000009
 50
208.664584000000020
 51
267.000000000000910
  0
ARC
  8
0
  6
CONTINUOUS
 62
256
 10
-352.181284000000010
 20
-79.505139000000000
 40
0.999999999999996
 50
92.999999999999091
 51
203.631430000000390
  0
ARC
  8
0
  6
CONTINUOUS
 62
256
 10
-350.508585999999980
 20
-83.829245999999998
 40
1.000000000000005
 50
110.070332000000090
 51
198.664571000000760
  0
ARC
  8
0
  6
CONTINUOUS
 62
256
 10
-352.008119000000020
 20
-79.905339999999995
 40
0.999999999999977
 50
203.164432000000290
 51
267.000000000000910
  0
LINE
  8
0
  6
CONTINUOUS
 62
256
 10
-352.060454999999990
 20
-80.903970000000001
 11
-351.142597000000020
 21
-80.952072999999999
  0
ARC
  8
0
  6
CONTINUOUS
 62
256
 10
-351.194932999999990
 20
-81.950702000000007
 40
1.000000000000005
 50
290.070332000000060
 51
87.000000000000909
  0
LINE
  8
0
  6
CONTINUOUS
 62
256
 10
-352.233619999999970
 20
-78.506510000000006
 11
-351.142597000000020
 21
-78.449331999999998
  0
LINE
  8
0
  6
CONTINUOUS
 62
256
 10
-354.396995000000000
 20
-74.119887000000006
 11
-351.142597000000020
 21
-73.949331999999998
  0
ARC
  8
0
  6
CONTINUOUS
 62
256
 10
-401.194932999999990
 20
-100.950702000000010
 40
52.500000000000007
 50
156.336295000000010
 51
156.863111000000000
  0
ARC
  8
0
  6
CONTINUOUS
 62
256
 10
-452.172869999999990
 20
-86.450702000000007
 40
0.500000000000000
 50
270.000000000000000
 51
344.122298000000230
  0
LINE
  8
0
  6
CONTINUOUS
 62
256
 10
-452.274850000000010
 20
-86.950702000000007
 11
-452.172869999999990
 21
-86.950702000000007
  0
ARC
  8
0
  6
CONTINUOUS
 62
256
 10
-452.274850000000010
 20
-87.450702000000007
 40
0.500000000000000
 50
90.000000000000000
 51
172.202150000000130
  0
ARC
  8
0
  6
CONTINUOUS
 62
256
 10
-401.194932999999990
 20
-100.950702000000010
 40
52.499999999999979
 50
161.335429000000000
 51
164.122298000000000
  0
ARC
  8
0
  6
CONTINUOUS
 62
256
 10
-401.194932999999990
 20
-100.950702000000010
 40
52.499999999999979
 50
151.026550999999980
 51
151.437166000000020
  0
ARC
  8
0
  6
CONTINUOUS
 62
256
 10
-451.194932999999990
 20
-77.450702000000007
 40
0.999999999999996
 50
92.999999999999091
 51
267.000000000000910
  0
ARC
  8
0
  6
CONTINUOUS
 62
256
 10
-448.045208000000000
 20
-75.118516999999997
 40
0.999999999999995
 50
331.128647999999880
 51
87.000000000000909
  0
LINE
  8
0
  6
CONTINUOUS
 62
256
 10
-448.085788999999980
 20
-76.286385999999993
 11
-451.247269000000020
 21
-76.452072999999999
  0
ARC
  8
0
  6
CONTINUOUS
 62
256
 10
-448.138125000000000
 20
-75.287756999999999
 40
0.999999999999996
 50
272.999999999999090
 51
331.335416000000010
  0
ARC
  8
0
  6
CONTINUOUS
 62
256
 10
-450.208582999999980
 20
-79.505139000000000
 40
0.999999999999982
 50
336.368569999999640
 51
87.000000000000909
  0
ARC
  8
0
  6
CONTINUOUS
 62
256
 10
-451.881280000000000
 20
-83.829245999999998
 40
0.999999999999979
 50
341.335428999999240
 51
69.929667999999921
  0
ARC
  8
0
  6
CONTINUOUS
 62
256
 10
-450.381748000000020
 20
-79.905339999999995
 40
0.999999999999996
 50
272.999999999999090
 51
336.835567999999680
  0
LINE
  8
0
  6
CONTINUOUS
 62
256
 10
-450.329411999999990
 20
-80.903970000000001
 11
-451.247269000000020
 21
-80.952072999999999
  0
ARC
  8
0
  6
CONTINUOUS
 62
256
 10
-451.194932999999990
 20
-81.950702000000007
 40
0.999999999999996
 50
92.999999999999091
 51
249.929667999999880
  0
LINE
  8
0
  6
CONTINUOUS
 62
256
 10
-450.156247000000010
 20
-78.506510000000006
 11
-451.247269000000020
 21
-78.449331999999998
  0
LINE
  8
0
  6
CONTINUOUS
 62
256
 10
-447.992871999999980
 20
-74.119887000000006
 11
-451.247269000000020
 21
-73.949331999999998
  0
LINE
  8
0
  6
CONTINUOUS
 62
256
 10
-369.694932999999990
 20
-158.450702000000010
 11
-432.694932999999990
 21
-158.450702000000010
  0
LINE
  8
0
  6
CONTINUOUS
 62
256
 10
-380.694932999999990
 20
-153.450702000000010
 11
-380.694932999999990
 21
-154.750701999999990
  0
ARC
  8
0
  6
CONTINUOUS
 62
256
 10
-380.894932999999980
 20
-154.750701999999990
 40
0.199999999999989
 50
270.000000000000000
 51
0.000000000000000
  0
LINE
  8
0
  6
CONTINUOUS
 62
256
 10
-421.694932999999990
 20
-153.450702000000010
 11
-432.694932999999990
 21
-153.450702000000010
  0
LINE
  8
0
  6
CONTINUOUS
 62
256
 10
-421.694932999999990
 20
-153.450702000000010
 11
-421.694932999999990
 21
-154.750701999999990
  0
LINE
  8
0
  6
CONTINUOUS
 62
256
 10
-380.894932999999980
 20
-154.950702000000010
 11
-421.494933000000000
 21
-154.950702000000010
  0
ARC
  8
0
  6
CONTINUOUS
 62
256
 10
-421.494933000000000
 20
-154.750701999999990
 40
0.199999999999989
 50
180.000000000000000
 51
270.000000000000000
  0
LINE
  8
0
  6
CONTINUOUS
 62
256
 10
-380.694932999999990
 20
-153.450702000000010
 11
-369.694932999999990
 21
-153.450702000000010
  0
LINE
  8
0
  6
CONTINUOUS
 62
256
 10
-432.694932999999990
 20
-153.450702000000010
 11
-432.694932999999990
 21
-158.450702000000010
  0
LINE
  8
0
  6
CONTINUOUS
 62
256
 10
-369.694932999999990
 20
-153.450702000000010
 11
-369.694932999999990
 21
-158.450702000000010
  0
ARC
  8
0
  6
CONTINUOUS
 62
256
 10
-401.194932999999990
 20
112.049297999999990
 40
300.000000000000000
 50
265.138595000000010
 51
274.861404999999990
  0
LINE
  8
0
  6
CONTINUOUS
 62
256
 10
-403.694932999999990
 20
-187.940284999999990
 11
-403.694932999999990
 21
-188.450702000000010
  0
LINE
  8
0
  6
CONTINUOUS
 62
256
 10
-398.694932999999990
 20
-188.450702000000010
 11
-403.694932999999990
 21
-188.450702000000010
  0
LINE
  8
0
  6
CONTINUOUS
 62
256
 10
-381.894932999999980
 20
-154.450702000000010
 11
-401.194932999999990
 21
-154.450702000000010
  0
ARC
  8
0
  6
CONTINUOUS
 62
256
 10
-381.894932999999980
 20
-153.750701999999990
 40
0.699999999999989
 50
270.000000000000000
 51
0.000000000000000
  0
LINE
  8
0
  6
CONTINUOUS
 62
256
 10
-381.194932999999990
 20
-153.750701999999990
 11
-381.194932999999990
 21
-150.156901000000000
  0
LINE
  8
0
  6
CONTINUOUS
 62
256
 10
-420.494933000000000
 20
-154.450702000000010
 11
-401.194932999999990
 21
-154.450702000000010
  0
ARC
  8
0
  6
CONTINUOUS
 62
256
 10
-420.494933000000000
 20
-153.750701999999990
 40
0.699999999999989
 50
180.000000000000000
 51
270.000000000000000
  0
LINE
  8
0
  6
CONTINUOUS
 62
256
 10
-421.194932999999990
 20
-153.750701999999990
 11
-421.194932999999990
 21
-150.156901000000000
  0
LINE
  8
0
  6
CONTINUOUS
 62
256
 10
-454.694932999999990
 20
-120.450702000000010
 11
-454.694932999999990
 21
-81.450702000000007
  0
LINE
  8
0
  6
CONTINUOUS
 62
256
 10
-347.694932999999990
 20
-81.450702000000007
 11
-347.694932999999990
 21
-120.450702000000010
  0
LINE
  8
0
  6
CONTINUOUS
 62
256
 10
-420.694932999999990
 20
-154.450702000000010
 11
-381.694932999999990
 21
-154.450702000000010
  0
ARC
  8
0
  6
CONTINUOUS
 62
256
 10
-421.194932999999990
 20
246.549297999999990
 40
400.000000000000000
 50
268.568016000000060
 51
269.928470000000000
  0
ARC
  8
0
  6
CONTINUOUS
 62
256
 10
-53.694932999999999
 20
-120.950702000000010
 40
400.000000000000000
 50
180.071529999999970
 51
181.431983999999970
  0
ARC
  8
0
  6
CONTINUOUS
 62
256
 10
-748.694932999999990
 20
-120.950702000000010
 40
400.000000000000000
 50
358.568016000000060
 51
359.928470000000000
  0
ARC
  8
0
  6
CONTINUOUS
 62
256
 10
-373.694932999999990
 20
-128.450702000000010
 40
25.000000000000011
 50
275.730175000000030
 51
354.269824999999970
  0
ARC
  8
0
  6
CONTINUOUS
 62
256
 10
-381.194932999999990
 20
246.549297999999990
 40
400.000000000000000
 50
270.071530000000000
 51
271.431984000000000
  0
ARC
  8
0
  6
CONTINUOUS
 62
256
 10
-454.194932999999990
 20
-80.450702000000007
 40
0.500000000000000
 50
270.000000000000000
 51
0.000000000000000
  0
ARC
  8
0
  6
CONTINUOUS
 62
256
 10
-454.194932999999990
 20
-121.450702000000010
 40
0.500000000000000
 50
0.000000000000000
 51
90.000000000000000
  0
ARC
  8
0
  6
CONTINUOUS
 62
256
 10
-454.194932999999990
 20
-120.450702000000010
 40
0.500000000000000
 50
180.000000000000000
 51
270.000000000000000
  0
ARC
  8
0
  6
CONTINUOUS
 62
256
 10
-348.194932999999990
 20
-121.450702000000010
 40
0.500000000000000
 50
90.000000000000000
 51
180.000000000000000
  0
ARC
  8
0
  6
CONTINUOUS
 62
256
 10
-348.194932999999990
 20
-80.450702000000007
 40
0.500000000000000
 50
180.000000000000000
 51
270.000000000000000
  0
ARC
  8
0
  6
CONTINUOUS
 62
256
 10
-348.194932999999990
 20
-81.450702000000007
 40
0.500000000000000
 50
0.000000000000000
 51
90.000000000000000
  0
ARC
  8
0
  6
CONTINUOUS
 62
256
 10
-348.194932999999990
 20
-120.450702000000010
 40
0.500000000000000
 50
270.000000000000000
 51
0.000000000000000
  0
ARC
  8
0
  6
CONTINUOUS
 62
256
 10
-381.694932999999990
 20
-153.950702000000010
 40
0.500000000000000
 50
270.000000000000000
 51
0.000000000000000
  0
ARC
  8
0
  6
CONTINUOUS
 62
256
 10
-380.694932999999990
 20
-153.950702000000010
 40
0.500000000000000
 50
90.000000000000000
 51
180.000000000000000
  0
ARC
  8
0
  6
CONTINUOUS
 62
256
 10
-421.694932999999990
 20
-153.950702000000010
 40
0.500000000000000
 50
0.000000000000000
 51
90.000000000000000
  0
ARC
  8
0
  6
CONTINUOUS
 62
256
 10
-420.694932999999990
 20
-153.950702000000010
 40
0.500000000000000
 50
180.000000000000000
 51
270.000000000000000
  0
ARC
  8
0
  6
CONTINUOUS
 62
256
 10
-454.194932999999990
 20
-81.450702000000007
 40
0.500000000000000
 50
90.000000000000000
 51
180.000000000000000
  0
ARC
  8
0
  6
CONTINUOUS
 62
256
 10
-428.694932999999990
 20
-128.450702000000010
 40
24.999999999999979
 50
185.730174999999970
 51
264.269825000000080
  0
LINE
  8
0
  6
CONTINUOUS
 62
256
 10
-357.694932999999990
 20
-161.758695999999990
 11
-357.694932999999990
 21
-147.660075000000010
  0
LINE
  8
0
  6
CONTINUOUS
 62
256
 10
-368.694932999999990
 20
-161.959430000000000
 11
-368.694932999999990
 21
-157.459430000000000
  0
LINE
  8
0
  6
CONTINUOUS
 62
256
 10
-368.694932999999990
 20
-161.968156999999990
 11
-368.694932999999990
 21
-152.945598999999990
  0
LINE
  8
0
  6
CONTINUOUS
 62
256
 10
-368.694932999999990
 20
-161.950702000000010
 11
-357.694932999999990
 21
-161.758695999999990
  0
LINE
  8
0
  6
CONTINUOUS
 62
256
 10
-368.694932999999990
 20
-161.959430000000000
 11
-371.194932999999990
 21
-161.915792000000010
  0
LINE
  8
0
  6
CONTINUOUS
 62
256
 10
-435.194932999999990
 20
-160.798667999999990
 11
-444.694932999999990
 21
-160.798667999999990
  0
LINE
  8
0
  6
CONTINUOUS
 62
256
 10
-444.694932999999990
 20
-160.798667999999990
 11
-444.694932999999990
 21
-147.660075000000010
  0
LINE
  8
0
  6
DASHDOT
 62
256
 10
-344.399265000000010
 20
-100.950702000000010
 11
-460.536907999999980
 21
-100.950702000000010
  0
LINE
  8
0
  6
CONTINUOUS
 62
256
 10
-431.194932999999990
 20
-160.868488000000010
 11
-435.194932999999990
 21
-160.798667999999990
  0
LINE
  8
0
  6
CONTINUOUS
 62
256
 10
-398.694932999999990
 20
-187.940284999999990
 11
-398.694932999999990
 21
-188.450702000000010
  0
LINE
  8
0
  6
CONTINUOUS
 62
256
 10
-435.694932999999990
 20
-36.111463999999998
 11
-444.694932999999990
 21
-36.111463999999998
  0
LINE
  8
0
  6
CONTINUOUS
 62
256
 10
-368.694932999999990
 20
-34.941974999999999
 11
-435.694932999999990
 21
-36.111463999999998
  0
ARC
  8
0
  6
CONTINUOUS
 62
256
 10
-373.694932999999990
 20
-73.450702000000007
 40
25.000000000000007
 50
356.561350000000000
 51
84.269824999999955
  0
LINE
  8
0
  6
CONTINUOUS
 62
256
 10
-381.894932999999980
 20
-47.450702000000000
 11
-401.194932999999990
 21
-47.450702000000000
  0
ARC
  8
0
  6
CONTINUOUS
 62
256
 10
-381.894932999999980
 20
-48.150702000000003
 40
0.699999999999989
 50
0.000000000000000
 51
90.000000000000000
  0
LINE
  8
0
  6
CONTINUOUS
 62
256
 10
-381.194932999999990
 20
-48.150702000000003
 11
-381.194932999999990
 21
-51.744503000000002
  0
LINE
  8
0
  6
CONTINUOUS
 62
256
 10
-381.694932999999990
 20
-47.450702000000000
 11
-420.694932999999990
 21
-47.450702000000000
  0
ARC
  8
0
  6
CONTINUOUS
 62
256
 10
-381.194932999999990
 20
-448.450701999999980
 40
400.000000000000000
 50
88.568016000000000
 51
89.928470000000004
  0
ARC
  8
0
  6
CONTINUOUS
 62
256
 10
-381.694932999999990
 20
-47.950702000000000
 40
0.500000000000000
 50
0.000000000000000
 51
90.000000000000000
  0
ARC
  8
0
  6
CONTINUOUS
 62
256
 10
-380.694932999999990
 20
-47.950702000000000
 40
0.500000000000000
 50
180.000000000000000
 51
270.000000000000000
  0
LINE
  8
0
  6
CONTINUOUS
 62
256
 10
-420.494933000000000
 20
-47.450702000000000
 11
-401.194932999999990
 21
-47.450702000000000
  0
ARC
  8
0
  6
CONTINUOUS
 62
256
 10
-420.494933000000000
 20
-48.150702000000003
 40
0.700000000000003
 50
90.000000000000000
 51
180.000000000000000
  0
LINE
  8
0
  6
CONTINUOUS
 62
256
 10
-421.194932999999990
 20
-48.150702000000003
 11
-421.194932999999990
 21
-51.744503000000002
  0
ARC
  8
0
  6
CONTINUOUS
 62
256
 10
-421.194932999999990
 20
-448.450701999999980
 40
400.000000000000000
 50
90.071529999999996
 51
90.859540999999993
  0
ARC
  8
0
  6
CONTINUOUS
 62
256
 10
-420.694932999999990
 20
-47.950702000000000
 40
0.500000000000000
 50
90.000000000000000
 51
180.000000000000000
  0
ARC
  8
0
  6
CONTINUOUS
 62
256
 10
-421.694932999999990
 20
-47.950702000000000
 40
0.500000000000000
 50
270.000000000000000
 51
0.000000000000000
  0
ARC
  8
0
  6
CONTINUOUS
 62
256
 10
-428.694932999999990
 20
-73.450702000000007
 40
25.000000000000000
 50
86.561350000000019
 51
174.269825000000000
  0
LINE
  8
0
  6
CONTINUOUS
 62
256
 10
-372.996291999999980
 20
-64.859336999999996
 11
-361.853819999999980
 21
-54.826610000000002
  0
LINE
  8
0
  6
CONTINUOUS
 62
256
 10
-365.103568000000000
 20
-72.752060999999998
 11
-355.070840999999970
 21
-61.609588000000002
  0
ARC
  8
0
  6
CONTINUOUS
 62
256
 10
-357.111101000000020
 20
-70.637904000000006
 40
0.999999999999998
 50
217.785803000000440
 51
267.000000000000910
  0
ARC
  8
0
  6
CONTINUOUS
 62
256
 10
-357.045282999999980
 20
-70.733846999999997
 40
0.999999999999996
 50
92.999999999999091
 51
211.115752999999530
  0
ARC
  8
0
  6
CONTINUOUS
 62
256
 10
-351.194932999999990
 20
-72.950702000000007
 40
0.999999999999996
 50
272.999999999999090
 51
87.000000000000909
  0
ARC
  8
0
  6
CONTINUOUS
 62
256
 10
-351.694932999999990
 20
-68.450702000000007
 40
0.999999999999996
 50
272.999999999999090
 51
87.000000000000909
  0
LINE
  8
0
  6
CONTINUOUS
 62
256
 10
-357.097619000000010
 20
-69.735217000000006
 11
-351.642597000000020
 21
-69.449331999999998
  0
LINE
  8
0
  6
CONTINUOUS
 62
256
 10
-357.163436999999990
 20
-71.636533999999997
 11
-351.142597000000020
 21
-71.952072999999999
  0
ARC
  8
0
  6
CONTINUOUS
 62
256
 10
-401.194932999999990
 20
-100.950702000000010
 40
52.499999999999986
 50
61.026551000000019
 51
61.437166000000026
  0
ARC
  8
0
  6
CONTINUOUS
 62
256
 10
-401.194932999999990
 20
-100.950702000000010
 40
52.499999999999986
 50
61.026551000000019
 51
61.437166000000026
  0
LINE
  8
0
  6
CONTINUOUS
 62
256
 10
-369.979447999999990
 20
-56.853386999999998
 11
-369.693562999999980
 21
-51.398366000000003
  0
LINE
  8
0
  6
CONTINUOUS
 62
256
 10
-371.880765000000000
 20
-56.919206000000003
 11
-372.196304000000000
 21
-50.898366000000003
  0
ARC
  8
0
  6
CONTINUOUS
 62
256
 10
-375.362748000000010
 20
-54.100428000000001
 40
0.999999999999995
 50
241.128648000000770
 51
357.000000000000060
  0
ARC
  8
0
  6
CONTINUOUS
 62
256
 10
-375.531988000000010
 20
-54.007510000000003
 40
0.999999999999997
 50
182.999999999999890
 51
241.335416000001200
  0
ARC
  8
0
  6
CONTINUOUS
 62
256
 10
-370.978077999999980
 20
-56.801051000000001
 40
0.999999999999996
 50
235.611524000000170
 51
357.000000000000060
  0
ARC
  8
0
  6
CONTINUOUS
 62
256
 10
-370.882135000000010
 20
-56.866869999999999
 40
0.999999999999997
 50
182.999999999999890
 51
235.486921000001050
  0
ARC
  8
0
  6
CONTINUOUS
 62
256
 10
-355.813986000000000
 20
-60.940458000000000
 40
0.999999999999982
 50
317.999999999999320
 51
41.401105999999722
  0
LINE
  8
0
  6
CONTINUOUS
 62
256
 10
-357.846232999999980
 20
-67.126953999999998
 11
-351.642597000000020
 21
-67.452072999999999
  0
ARC
  8
0
  6
CONTINUOUS
 62
256
 10
-357.793897000000020
 20
-66.128324000000006
 40
0.999999999999987
 50
137.999999999999010
 51
267.000000000000910
  0
ARC
  8
0
  6
CONTINUOUS
 62
256
 10
-361.184688999999990
 20
-55.569755000000001
 40
0.999999999999983
 50
48.598894000000925
 51
132.000000000000200
  0
ARC
  8
0
  6
CONTINUOUS
 62
256
 10
-401.194932999999990
 20
-100.950702000000010
 40
61.499999999999979
 50
41.401106000000013
 51
48.598894000000001
  0
LINE
  8
0
  6
CONTINUOUS
 62
256
 10
-367.371185000000030
 20
-57.602001000000001
 11
-367.696304000000000
 21
-51.398366000000003
  0
ARC
  8
0
  6
CONTINUOUS
 62
256
 10
-366.372554999999980
 20
-57.549664999999997
 40
0.999999999999997
 50
182.999999999999890
 51
312.000000000000170
  0
LINE
  8
0
  6
CONTINUOUS
 62
256
 10
-429.393575000000000
 20
-64.859336999999996
 11
-440.536047000000000
 21
-54.826610000000002
  0
LINE
  8
0
  6
CONTINUOUS
 62
256
 10
-437.286297999999990
 20
-72.752060999999998
 11
-447.319025000000010
 21
-61.609588000000002
  0
ARC
  8
0
  6
CONTINUOUS
 62
256
 10
-445.278766000000020
 20
-70.637904000000006
 40
0.999999999999996
 50
272.999999999999090
 51
322.214196999999560
  0
ARC
  8
0
  6
CONTINUOUS
 62
256
 10
-445.344584000000000
 20
-70.733846999999997
 40
1.000000000000025
 50
328.884247000000410
 51
87.000000000000909
  0
ARC
  8
0
  6
CONTINUOUS
 62
256
 10
-451.194932999999990
 20
-72.950702000000007
 40
0.999999999999996
 50
92.999999999999091
 51
267.000000000000910
  0
ARC
  8
0
  6
CONTINUOUS
 62
256
 10
-450.694932999999990
 20
-68.450702000000007
 40
0.999999999999996
 50
92.999999999999091
 51
267.000000000000910
  0
LINE
  8
0
  6
CONTINUOUS
 62
256
 10
-445.292247999999970
 20
-69.735217000000006
 11
-450.747269000000020
 21
-69.449331999999998
  0
LINE
  8
0
  6
CONTINUOUS
 62
256
 10
-445.226429999999990
 20
-71.636533999999997
 11
-451.247269000000020
 21
-71.952072999999999
  0
ARC
  8
0
  6
CONTINUOUS
 62
256
 10
-401.194932999999990
 20
-100.950702000000010
 40
52.499999999999993
 50
118.562833999999970
 51
118.973448999999970
  0
ARC
  8
0
  6
CONTINUOUS
 62
256
 10
-401.194932999999990
 20
-100.950702000000010
 40
52.499999999999993
 50
118.562833999999970
 51
118.973448999999970
  0
LINE
  8
0
  6
CONTINUOUS
 62
256
 10
-432.410417999999990
 20
-56.853386999999998
 11
-432.696304000000000
 21
-51.398366000000003
  0
LINE
  8
0
  6
CONTINUOUS
 62
256
 10
-430.509101999999980
 20
-56.919206000000003
 11
-430.193562999999980
 21
-50.898366000000003
  0
ARC
  8
0
  6
CONTINUOUS
 62
256
 10
-427.027117999999970
 20
-54.100428000000001
 40
0.999999999999997
 50
182.999999999999890
 51
298.871351999999210
  0
ARC
  8
0
  6
CONTINUOUS
 62
256
 10
-426.857878000000030
 20
-54.007510000000003
 40
0.999999999999989
 50
298.664583999998800
 51
357.000000000000060
  0
ARC
  8
0
  6
CONTINUOUS
 62
256
 10
-431.411789000000000
 20
-56.801051000000001
 40
0.999999999999997
 50
182.999999999999890
 51
304.388475999999800
  0
ARC
  8
0
  6
CONTINUOUS
 62
256
 10
-431.507730999999980
 20
-56.866869999999999
 40
0.999999999999990
 50
304.513078999998980
 51
357.000000000000060
  0
ARC
  8
0
  6
CONTINUOUS
 62
256
 10
-446.575879999999980
 20
-60.940458000000000
 40
1.000000000000002
 50
138.598894000000290
 51
222.000000000000680
  0
LINE
  8
0
  6
CONTINUOUS
 62
256
 10
-444.543634000000000
 20
-67.126953999999998
 11
-450.747269000000020
 21
-67.452072999999999
  0
ARC
  8
0
  6
CONTINUOUS
 62
256
 10
-444.595970000000020
 20
-66.128324000000006
 40
0.999999999999996
 50
272.999999999999090
 51
42.000000000001023
  0
ARC
  8
0
  6
CONTINUOUS
 62
256
 10
-441.205177999999990
 20
-55.569755000000001
 40
1.000000000000003
 50
47.999999999999801
 51
131.401105999999090
  0
ARC
  8
0
  6
CONTINUOUS
 62
256
 10
-401.194932999999990
 20
-100.950702000000010
 40
61.500000000000007
 50
131.401106000000000
 51
138.598893999999970
  0
LINE
  8
0
  6
CONTINUOUS
 62
256
 10
-435.018682000000010
 20
-57.602001000000001
 11
-434.693562999999980
 21
-51.398366000000003
  0
ARC
  8
0
  6
CONTINUOUS
 62
256
 10
-436.017311000000010
 20
-57.549664999999997
 40
1.000000000000003
 50
227.999999999999800
 51
357.000000000000060
  0
ARC
  8
0
  6
CONTINUOUS
 62
256
 10
-401.194932999999990
 20
-100.950702000000010
 40
52.500000000000007
 50
66.304918999999984
 51
66.888397999999981
  0
ARC
  8
0
  6
CONTINUOUS
 62
256
 10
-380.194932999999990
 20
-51.744503000000002
 40
1.000000000000000
 50
180.000000000000000
 51
246.888398000001160
  0
ARC
  8
0
  6
CONTINUOUS
 62
256
 10
-401.194932999999990
 20
-100.950702000000010
 40
52.499999999999993
 50
66.336295000000021
 51
66.888397999999981
  0
ARC
  8
0
  6
CONTINUOUS
 62
256
 10
-368.694932999999990
 20
-51.450702000000000
 40
0.999999999999997
 50
2.999999999999903
 51
177.000000000000110
  0
ARC
  8
0
  6
CONTINUOUS
 62
256
 10
-373.194932999999990
 20
-50.950702000000000
 40
0.999999999999997
 50
2.999999999999903
 51
177.000000000000110
  0
LINE
  8
0
  6
CONTINUOUS
 62
256
 10
-374.364119000000020
 20
-54.152763999999998
 11
-374.193562999999980
 21
-50.898366000000003
  0
LINE
  8
0
  6
CONTINUOUS
 62
256
 10
-376.530618000000000
 20
-54.059846000000000
 11
-376.696304000000000
 21
-50.898366000000003
  0
ARC
  8
0
  6
CONTINUOUS
 62
256
 10
-377.694932999999990
 20
-50.950702000000000
 40
0.999999999999997
 50
2.999999999999903
 51
177.000000000000110
  0
ARC
  8
0
  6
CONTINUOUS
 62
256
 10
-379.749370000000000
 20
-51.937052999999999
 40
0.999999999999996
 50
246.368570000000860
 51
357.000000000000060
  0
LINE
  8
0
  6
CONTINUOUS
 62
256
 10
-378.750741000000000
 20
-51.989389000000003
 11
-378.693562999999980
 21
-50.898366000000003
  0
ARC
  8
0
  6
CONTINUOUS
 62
256
 10
-401.194932999999990
 20
-100.950702000000010
 40
52.500000000000007
 50
113.111602000000020
 51
113.695081000000030
  0
ARC
  8
0
  6
CONTINUOUS
 62
256
 10
-422.194932999999990
 20
-51.744503000000002
 40
0.999999999999995
 50
293.111601999998870
 51
0.000000000000000
  0
ARC
  8
0
  6
CONTINUOUS
 62
256
 10
-401.194932999999990
 20
-100.950702000000010
 40
52.500000000000007
 50
113.111602000000020
 51
113.663704999999980
  0
ARC
  8
0
  6
CONTINUOUS
 62
256
 10
-433.694932999999990
 20
-51.450702000000000
 40
0.999999999999997
 50
2.999999999999903
 51
177.000000000000110
  0
ARC
  8
0
  6
CONTINUOUS
 62
256
 10
-429.194932999999990
 20
-50.950702000000000
 40
0.999999999999997
 50
2.999999999999903
 51
177.000000000000110
  0
LINE
  8
0
  6
CONTINUOUS
 62
256
 10
-428.025748000000020
 20
-54.152763999999998
 11
-428.196304000000000
 21
-50.898366000000003
  0
LINE
  8
0
  6
CONTINUOUS
 62
256
 10
-425.859248999999980
 20
-54.059846000000000
 11
-425.693562999999980
 21
-50.898366000000003
  0
ARC
  8
0
  6
CONTINUOUS
 62
256
 10
-424.694932999999990
 20
-50.950702000000000
 40
0.999999999999997
 50
2.999999999999903
 51
177.000000000000110
  0
ARC
  8
0
  6
CONTINUOUS
 62
256
 10
-422.640495999999980
 20
-51.937052999999999
 40
0.999999999999997
 50
182.999999999999890
 51
293.631429999999170
  0
LINE
  8
0
  6
CONTINUOUS
 62
256
 10
-423.639125999999980
 20
-51.989389000000003
 11
-423.696304000000000
 21
-50.898366000000003
  0
LINE
  8
0
  6
DASHDOT
 62
256
 10
-401.194932999999990
 20
-29.472493000000000
 11
-401.194932999999990
 21
-191.522220000000000
  0
ARC
  8
0
  6
CONTINUOUS
 62
256
 10
-53.694932999999999
 20
-80.950702000000007
 40
400.000000000000000
 50
178.568016000000000
 51
179.947000000000000
  0
ARC
  8
0
  6
CONTINUOUS
 62
256
 10
-748.694932999999990
 20
-80.950702000000007
 40
400.000000000000000
 50
0.071529999999999
 51
1.431984000000000
  0
LINE
  8
0
  6
CONTINUOUS
 62
256
 10
-353.694932999999990
 20
-50.450702000000000
 11
-353.694932999999990
 21
-58.450702000000000
  0
LINE
  8
0
  6
CONTINUOUS
 62
256
 10
-353.694932999999990
 20
-50.450702000000000
 11
-357.694932999999990
 21
-50.450702000000000
  0
LINE
  8
0
  6
CONTINUOUS
 62
256
 10
-368.694932999999990
 20
-34.941974999999999
 11
-368.694932999999990
 21
-39.450702000000000
  0
LINE
  8
0
  6
CONTINUOUS
 62
256
 10
-368.694932999999990
 20
-48.955804999999998
 11
-368.694932999999990
 21
-38.441974999999999
  0
LINE
  8
0
  6
CONTINUOUS
 62
256
 10
-368.694932999999990
 20
-34.950702000000000
 11
-357.694932999999990
 21
-35.142707999999999
  0
LINE
  8
0
  6
CONTINUOUS
 62
256
 10
-357.694932999999990
 20
-35.142707999999999
 11
-357.694932999999990
 21
-54.241329000000000
  0
LINE
  8
0
  6
CONTINUOUS
 62
256
 10
-444.694932999999990
 20
-54.241329000000000
 11
-444.694932999999990
 21
-36.120190999999998
  0
LINE
  8
0
  6
CONTINUOUS
 62
256
 10
-448.694932999999990
 20
-50.459429999999998
 11
-448.694932999999990
 21
-58.450702000000000
  0
LINE
  8
0
  6
CONTINUOUS
 62
256
 10
-444.694932999999990
 20
-50.459429999999998
 11
-448.694932999999990
 21
-50.459429999999998
  0
INSERT
  8
0
  2
ZU_SYM_9
 10
-361.596953999999980
 20
-61.352722000000000
 41
-1.000000000000000
 50
270.000000000000000
  0
INSERT
  8
0
  2
ZU_SYM_10
 10
-440.792913000000000
 20
-61.352722000000000
 50
90.000000000000000
  0
TEXT
  8
0
  6
CONTINUOUS
 62
256
 10
475.785644531250000
 20
-212.143203735351560
 40
3.299999952316284
  1
1/1
 50
0.000002504478167
 41
0.850909097352304
  7
STANDARD1
  0
TEXT
  8
0
  6
CONTINUOUS
 62
256
 10
473.367645263671870
 20
-212.143203735351560
 40
3.299999952316284
  1
 
 50
0.000002504478167
 41
1.733333298293026
  7
STANDARD1
  0
TEXT
  8
0
  6
CONTINUOUS
 62
256
 10
460.317016601562500
 20
-212.143203735351560
 40
3.299999952316284
  1
SCALE
 50
0.000002504478167
 41
0.821052645401140
  7
STANDARD1
  0
TEXT
  8
0
  6
CONTINUOUS
 62
256
 10
457.065643310546870
 20
-212.143203735351560
 40
3.299999952316284
  1
 
 50
0.000002504478167
 41
1.733333298293026
  7
STANDARD1
  0
TEXT
  8
0
  6
CONTINUOUS
 62
256
 10
469.345825195312500
 20
-206.843200683593750
 40
3.299999952316284
  1
1/240
 50
0.000002504478167
 41
0.821052645401140
  7
STANDARD1
  0
TEXT
  8
0
  6
CONTINUOUS
 62
256
 10
465.563812255859370
 20
-206.843200683593750
 40
3.299999952316284
  1
ü`
 50
0.000002504478167
 41
1.176000019651471
  7
STANDARD1
  0
TEXT
  8
0
  6
CONTINUOUS
 62
256
 10
457.065643310546870
 20
-206.843200683593750
 40
3.299999952316284
  1
1/5
 50
0.000002504478167
 41
0.850909097352304
  7
STANDARD1
  0
TEXT
  8
0
  6
CONTINUOUS
 62
256
 10
457.065643310546870
 20
-201.543197631835940
 40
3.299999952316284
  1
GM-SHYM-RH
 50
0.000002504478167
 41
0.799999980493025
  7
STANDARD1
  0
TEXT
  8
0
  6
CONTINUOUS
 62
256
 10
462.891021728515620
 20
-196.243209838867190
 40
3.299999952316284
  1
0.1kW
 50
0.000002504478167
 41
0.821052645401140
  7
STANDARD1
  0
TEXT
  8
0
  6
CONTINUOUS
 62
256
 10
457.065643310546870
 20
-196.243209838867190
 40
3.299999952316284
  1
  
 50
0.000002504478167
 41
1.485714400175845
  7
STANDARD1
  0
TEXT
  8
0
  6
CONTINUOUS
 62
256
 10
462.885131835937500
 20
-190.943206787109370
 40
3.299999952316284
  1
SHY001
 50
0.000002504478167
 41
0.813913121261144
  7
STANDARD1
  0
TEXT
  8
0
  6
CONTINUOUS
 62
256
 10
457.065643310546870
 20
-190.943206787109370
 40
3.299999952316284
  1
  
 50
0.000002504478167
 41
1.485714400175845
  7
STANDARD1
  0
LINE
  8
0
  6
DASHDOT
 62
256
 10
-58.242885000000001
 20
36.581648000000001
 11
-58.242885000000001
 21
151.019306000000000
  0
LINE
  8
0
  6
DASHDOT
 62
256
 10
-291.782207000000030
 20
91.601303999999999
 11
1.817814000000000
 21
91.601303999999999
  0
INSERT
  8
0
  2
ZU_SYM_11
 10
-278.242882000000010
 20
131.199284000000010
  0
INSERT
  8
0
  2
ZU_SYM_12
 10
-278.242882000000010
 20
52.003323999999999
 41
-1.000000000000000
 50
180.000000000000000
  0
ARC
  8
0
  6
CONTINUOUS
 62
256
 10
420.257115000000000
 20
91.601303999999999
 40
700.000000000000000
 50
177.134181000000010
 51
178.347093000000000
  0
ARC
  8
0
  6
CONTINUOUS
 62
256
 10
420.257115000000000
 20
91.601303999999999
 40
700.000000000000000
 50
175.851049999999990
 51
176.379938000000010
  0
LINE
  8
0
  6
CONTINUOUS
 62
256
 10
-174.242885000000000
 20
144.101304000000000
 11
-273.242885000000000
 21
144.101304000000000
  0
LINE
  8
0
  6
CONTINUOUS
 62
256
 10
-273.242885000000000
 20
144.101304000000000
 11
-273.242885000000000
 21
91.601303999999999
  0
LINE
  8
0
  6
DASHDOT
 62
256
 10
-270.185482999999980
 20
131.199284000000010
 11
-284.816647999999990
 21
131.199284000000010
  0
LINE
  8
0
  6
CONTINUOUS
 62
256
 10
-273.742885000000000
 20
134.940703000000010
 11
-273.242885000000000
 21
134.940703000000010
  0
LINE
  8
0
  6
CONTINUOUS
 62
256
 10
-273.242885000000000
 20
127.849703000000010
 11
-273.742885000000000
 21
127.849703000000010
  0
LINE
  8
0
  6
CONTINUOUS
 62
256
 10
-273.742885000000000
 20
136.699284000000010
 11
-273.742885000000000
 21
127.849703000000010
  0
ARC
  8
0
  6
CONTINUOUS
 62
256
 10
-275.913660999999990
 20
142.101304000000000
 40
2.000000000000000
 50
90.000000000000000
 51
175.851050000000300
  0
LINE
  8
0
  6
CONTINUOUS
 62
256
 10
-273.242885000000000
 20
144.101304000000000
 11
-275.913660999999990
 21
144.101304000000000
  0
ARC
  8
0
  6
CONTINUOUS
 62
256
 10
-279.242885000000000
 20
120.799944999999990
 40
0.999999999999990
 50
301.359035999999260
 51
0.000000000000000
  0
ARC
  8
0
  6
CONTINUOUS
 62
256
 10
-288.242885000000000
 20
137.728844000000010
 40
9.999999999999993
 50
356.274962999999960
 51
0.000000000000000
  0
ARC
  8
0
  6
CONTINUOUS
 62
256
 10
-278.202086000000010
 20
119.092099000000000
 40
0.999999999999990
 50
121.359035999999310
 51
177.746046999999920
  0
LINE
  8
0
  6
CONTINUOUS
 62
256
 10
-278.242885000000000
 20
136.199284000000010
 11
-278.242885000000000
 21
120.799944999999990
  0
ARC
  8
0
  6
CONTINUOUS
 62
256
 10
-277.742885000000000
 20
136.199284000000010
 40
0.500000000000000
 50
90.000000000000000
 51
180.000000000000000
  0
LINE
  8
0
  6
CONTINUOUS
 62
256
 10
-273.742885000000000
 20
136.699284000000010
 11
-277.742885000000000
 21
136.699284000000010
  0
ARC
  8
0
  6
CONTINUOUS
 62
256
 10
-279.951411000000010
 20
111.806988000000000
 40
0.500000000000015
 50
315.115138000002050
 51
358.347093000000770
  0
ARC
  8
0
  6
CONTINUOUS
 62
256
 10
-279.242885000000000
 20
111.101304000000000
 40
0.500000000000015
 50
135.115138000002050
 51
180.000000000000000
  0
LINE
  8
0
  6
CONTINUOUS
 62
256
 10
-279.742885000000000
 20
91.601303999999999
 11
-279.742885000000000
 21
111.101304000000000
  0
LINE
  8
0
  6
CONTINUOUS
 62
256
 10
-273.242885000000000
 20
142.101304000000000
 11
-276.055853000000010
 21
142.101304000000000
  0
LINE
  8
0
  6
CONTINUOUS
 62
256
 10
-273.242885000000000
 20
142.601304000000000
 11
-276.020847000000000
 21
142.601304000000000
  0
ARC
  8
0
  6
CONTINUOUS
 62
256
 10
-276.055853000000010
 20
140.101304000000000
 40
2.000000000000000
 50
90.000000000000000
 51
176.015636000000140
  0
ARC
  8
0
  6
CONTINUOUS
 62
256
 10
-276.020847000000000
 20
140.601304000000000
 40
2.000000000000000
 50
90.000000000000000
 51
175.974492000000280
  0
LINE
  8
0
  6
CONTINUOUS
 62
256
 10
-273.242885000000000
 20
142.101304000000000
 11
-174.242885000000000
 21
142.101304000000000
  0
LINE
  8
0
  6
CONTINUOUS
 62
256
 10
-273.242885000000000
 20
142.601304000000000
 11
-174.242885000000000
 21
142.601304000000000
  0
LINE
  8
0
  6
CONTINUOUS
 62
256
 10
-273.242885000000000
 20
137.734386000000000
 11
-174.242885000000000
 21
137.734386000000000
  0
LINE
  8
0
  6
CONTINUOUS
 62
256
 10
-273.242885000000000
 20
132.643217999999990
 11
-174.242885000000000
 21
132.643217999999990
  0
LINE
  8
0
  6
CONTINUOUS
 62
256
 10
-273.242885000000000
 20
124.904905000000000
 11
-174.242885000000000
 21
124.904905000000000
  0
LINE
  8
0
  6
CONTINUOUS
 62
256
 10
-273.242885000000000
 20
123.315695000000010
 11
-174.242885000000000
 21
123.315695000000010
  0
LINE
  8
0
  6
CONTINUOUS
 62
256
 10
-273.242885000000000
 20
136.105959000000010
 11
-174.242885000000000
 21
136.105959000000010
  0
LINE
  8
0
  6
CONTINUOUS
 62
256
 10
-273.242885000000000
 20
131.641739000000000
 11
-174.242885000000000
 21
131.641739000000000
  0
LINE
  8
0
  6
CONTINUOUS
 62
256
 10
-278.242885000000000
 20
125.425051999999990
 11
-273.242885000000000
 21
125.425051999999990
  0
LINE
  8
0
  6
CONTINUOUS
 62
256
 10
-278.242885000000000
 20
122.816789000000000
 11
-273.242885000000000
 21
122.816789000000000
  0
LINE
  8
0
  6
CONTINUOUS
 62
256
 10
-278.242885000000000
 20
120.915471999999990
 11
-273.242885000000000
 21
120.915471999999990
  0
LINE
  8
0
  6
CONTINUOUS
 62
256
 10
-279.228486999999970
 20
118.432119000000000
 11
-273.242885000000000
 21
118.432119000000000
  0
LINE
  8
0
  6
CONTINUOUS
 62
256
 10
-279.308229999999980
 20
116.265620000000000
 11
-273.242885000000000
 21
116.265620000000000
  0
LINE
  8
0
  6
CONTINUOUS
 62
256
 10
-279.382976999999980
 20
114.045496000000000
 11
-273.242885000000000
 21
114.045496000000000
  0
LINE
  8
0
  6
CONTINUOUS
 62
256
 10
-279.495677000000000
 20
111.601304000000000
 11
-273.242885000000000
 21
111.601304000000000
  0
LINE
  8
0
  6
CONTINUOUS
 62
256
 10
-273.242885000000000
 20
39.101303999999999
 11
-273.242885000000000
 21
91.601303999999999
  0
LINE
  8
0
  6
CONTINUOUS
 62
256
 10
-279.495677000000000
 20
71.601303999999999
 11
-273.242885000000000
 21
71.601303999999999
  0
LINE
  8
0
  6
CONTINUOUS
 62
256
 10
-279.382976999999980
 20
69.157111000000000
 11
-273.242885000000000
 21
69.157111000000000
  0
LINE
  8
0
  6
CONTINUOUS
 62
256
 10
-279.308229999999980
 20
66.936987999999999
 11
-273.242885000000000
 21
66.936987999999999
  0
LINE
  8
0
  6
CONTINUOUS
 62
256
 10
-279.228486999999970
 20
64.770488999999998
 11
-273.242885000000000
 21
64.770488999999998
  0
LINE
  8
0
  6
CONTINUOUS
 62
256
 10
-278.242885000000000
 20
62.287134999999999
 11
-273.242885000000000
 21
62.287134999999999
  0
LINE
  8
0
  6
CONTINUOUS
 62
256
 10
-278.242885000000000
 20
60.385818999999998
 11
-273.242885000000000
 21
60.385818999999998
  0
LINE
  8
0
  6
CONTINUOUS
 62
256
 10
-278.242885000000000
 20
57.777555999999997
 11
-273.242885000000000
 21
57.777555999999997
  0
LINE
  8
0
  6
CONTINUOUS
 62
256
 10
-273.242885000000000
 20
59.886913000000000
 11
-174.242885000000000
 21
59.886913000000000
  0
LINE
  8
0
  6
CONTINUOUS
 62
256
 10
-273.242885000000000
 20
58.297702999999998
 11
-174.242885000000000
 21
58.297702999999998
  0
LINE
  8
0
  6
CONTINUOUS
 62
256
 10
-273.242885000000000
 20
51.560867999999999
 11
-174.242885000000000
 21
51.560867999999999
  0
LINE
  8
0
  6
CONTINUOUS
 62
256
 10
-273.242885000000000
 20
50.559390000000000
 11
-174.242885000000000
 21
50.559390000000000
  0
LINE
  8
0
  6
CONTINUOUS
 62
256
 10
-273.242885000000000
 20
45.468221000000000
 11
-174.242885000000000
 21
45.468221000000000
  0
LINE
  8
0
  6
CONTINUOUS
 62
256
 10
-273.242885000000000
 20
47.096648000000002
 11
-174.242885000000000
 21
47.096648000000002
  0
LINE
  8
0
  6
CONTINUOUS
 62
256
 10
-273.242885000000000
 20
40.601303999999999
 11
-174.242885000000000
 21
40.601303999999999
  0
LINE
  8
0
  6
CONTINUOUS
 62
256
 10
-273.242885000000000
 20
41.101303999999999
 11
-174.242885000000000
 21
41.101303999999999
  0
LINE
  8
0
  6
CONTINUOUS
 62
256
 10
-273.242885000000000
 20
40.601303999999999
 11
-276.020847000000000
 21
40.601303999999999
  0
LINE
  8
0
  6
CONTINUOUS
 62
256
 10
-273.242885000000000
 20
41.101303999999999
 11
-276.055853000000010
 21
41.101303999999999
  0
ARC
  8
0
  6
CONTINUOUS
 62
256
 10
-276.020847000000000
 20
42.601303999999999
 40
1.999999999999989
 50
184.025507999999920
 51
270.000000000000000
  0
ARC
  8
0
  6
CONTINUOUS
 62
256
 10
-276.055853000000010
 20
43.101303999999999
 40
2.000000000000023
 50
183.984363999999860
 51
270.000000000000000
  0
ARC
  8
0
  6
CONTINUOUS
 62
256
 10
420.257115000000000
 20
91.601303999999999
 40
700.000000000000000
 50
181.652906999999970
 51
182.865818999999960
  0
ARC
  8
0
  6
CONTINUOUS
 62
256
 10
420.257115000000000
 20
91.601303999999999
 40
700.000000000000000
 50
183.620061999999960
 51
184.148949999999990
  0
LINE
  8
0
  6
CONTINUOUS
 62
256
 10
-174.242885000000000
 20
39.101303999999999
 11
-273.242885000000000
 21
39.101303999999999
  0
LINE
  8
0
  6
DASHDOT
 62
256
 10
-270.185482999999980
 20
52.003323999999999
 11
-284.816647999999990
 21
52.003323999999999
  0
LINE
  8
0
  6
CONTINUOUS
 62
256
 10
-273.742885000000000
 20
48.261904000000001
 11
-273.242885000000000
 21
48.261904000000001
  0
LINE
  8
0
  6
CONTINUOUS
 62
256
 10
-273.242885000000000
 20
55.352904000000002
 11
-273.742885000000000
 21
55.352904000000002
  0
LINE
  8
0
  6
CONTINUOUS
 62
256
 10
-273.742885000000000
 20
46.503323999999999
 11
-273.742885000000000
 21
55.352904000000002
  0
ARC
  8
0
  6
CONTINUOUS
 62
256
 10
-275.913660999999990
 20
41.101303999999999
 40
1.999999999999982
 50
184.148950000000070
 51
270.000000000000000
  0
LINE
  8
0
  6
CONTINUOUS
 62
256
 10
-273.242885000000000
 20
39.101303999999999
 11
-275.913660999999990
 21
39.101303999999999
  0
ARC
  8
0
  6
CONTINUOUS
 62
256
 10
-279.242885000000000
 20
62.402661999999999
 40
1.000000000000000
 50
0.000000000000000
 51
58.640964000000714
  0
ARC
  8
0
  6
CONTINUOUS
 62
256
 10
-288.242885000000000
 20
45.473762999999998
 40
10.000000000000000
 50
0.000000000000000
 51
3.725037000000020
  0
ARC
  8
0
  6
CONTINUOUS
 62
256
 10
-278.202086000000010
 20
64.110508999999993
 40
1.000000000000004
 50
182.253953000000080
 51
238.640964000000680
  0
LINE
  8
0
  6
CONTINUOUS
 62
256
 10
-278.242885000000000
 20
47.003323999999999
 11
-278.242885000000000
 21
62.402661999999999
  0
ARC
  8
0
  6
CONTINUOUS
 62
256
 10
-277.742885000000000
 20
47.003323999999999
 40
0.500000000000000
 50
180.000000000000000
 51
270.000000000000000
  0
LINE
  8
0
  6
CONTINUOUS
 62
256
 10
-273.742885000000000
 20
46.503323999999999
 11
-277.742885000000000
 21
46.503323999999999
  0
ARC
  8
0
  6
CONTINUOUS
 62
256
 10
-279.951411000000010
 20
71.395618999999996
 40
0.500000000000022
 50
1.652906999999268
 51
44.884861999997973
  0
ARC
  8
0
  6
CONTINUOUS
 62
256
 10
-279.242885000000000
 20
72.101303999999999
 40
0.500000000000000
 50
180.000000000000000
 51
224.884861999997950
  0
LINE
  8
0
  6
CONTINUOUS
 62
256
 10
-279.742885000000000
 20
91.601303999999999
 11
-279.742885000000000
 21
72.101303999999999
  0
LINE
  8
0
  6
CONTINUOUS
 62
256
 10
-273.242885000000000
 20
120.357699000000000
 11
-174.242885000000000
 21
120.357699000000000
  0
LINE
  8
0
  6
CONTINUOUS
 62
256
 10
-273.242885000000000
 20
118.878676000000000
 11
-174.242885000000000
 21
118.878676000000000
  0
LINE
  8
0
  6
CONTINUOUS
 62
256
 10
-273.242885000000000
 20
115.785945000000000
 11
-174.242885000000000
 21
115.785945000000000
  0
LINE
  8
0
  6
CONTINUOUS
 62
256
 10
-273.242885000000000
 20
114.439544000000000
 11
-174.242885000000000
 21
114.439544000000000
  0
LINE
  8
0
  6
CONTINUOUS
 62
256
 10
-273.242885000000000
 20
111.601304000000000
 11
-174.242885000000000
 21
111.601304000000000
  0
LINE
  8
0
  6
CONTINUOUS
 62
256
 10
-273.242885000000000
 20
71.601303999999999
 11
-174.242885000000000
 21
71.601303999999999
  0
LINE
  8
0
  6
CONTINUOUS
 62
256
 10
-273.242885000000000
 20
68.763064000000000
 11
-174.242885000000000
 21
68.763064000000000
  0
LINE
  8
0
  6
CONTINUOUS
 62
256
 10
-273.242885000000000
 20
67.416662000000002
 11
-174.242885000000000
 21
67.416662000000002
  0
LINE
  8
0
  6
CONTINUOUS
 62
256
 10
-273.242885000000000
 20
64.323931000000002
 11
-174.242885000000000
 21
64.323931000000002
  0
LINE
  8
0
  6
CONTINUOUS
 62
256
 10
-273.242885000000000
 20
62.844907999999997
 11
-174.242885000000000
 21
62.844907999999997
  0
LINE
  8
0
  6
CONTINUOUS
 62
256
 10
-76.242885000000001
 20
40.101303999999999
 11
-58.242885000000001
 21
40.101303999999999
  0
ARC
  8
0
  6
CONTINUOUS
 62
256
 10
-76.242885000000001
 20
41.101303999999999
 40
1.000000000000000
 50
180.000000000000000
 51
270.000000000000000
  0
LINE
  8
0
  6
CONTINUOUS
 62
256
 10
-77.242885000000001
 20
41.101303999999999
 11
-77.242885000000001
 21
44.101303999999999
  0
LINE
  8
0
  6
CONTINUOUS
 62
256
 10
-40.242885000000001
 20
40.101303999999999
 11
-58.242885000000001
 21
40.101303999999999
  0
LINE
  8
0
  6
CONTINUOUS
 62
256
 10
-39.242885000000001
 20
41.101303999999999
 11
-39.242885000000001
 21
44.101303999999999
  0
ARC
  8
0
  6
CONTINUOUS
 62
256
 10
-40.242885000000001
 20
41.101303999999999
 40
1.000000000000000
 50
270.000000000000000
 51
0.000000000000000
  0
LINE
  8
0
  6
CONTINUOUS
 62
256
 10
-76.242885000000001
 20
143.101304000000000
 11
-58.242885000000001
 21
143.101304000000000
  0
ARC
  8
0
  6
CONTINUOUS
 62
256
 10
-76.242885000000001
 20
142.101304000000000
 40
1.000000000000000
 50
90.000000000000000
 51
180.000000000000000
  0
LINE
  8
0
  6
CONTINUOUS
 62
256
 10
-77.242885000000001
 20
142.101304000000000
 11
-77.242885000000001
 21
139.101304000000000
  0
ARC
  8
0
  6
CONTINUOUS
 62
256
 10
-40.242885000000001
 20
142.101304000000000
 40
1.000000000000000
 50
0.000000000000000
 51
90.000000000000000
  0
LINE
  8
0
  6
CONTINUOUS
 62
256
 10
-39.242885000000001
 20
142.101304000000000
 11
-39.242885000000001
 21
139.101304000000000
  0
LINE
  8
0
  6
CONTINUOUS
 62
256
 10
-40.242885000000001
 20
143.101304000000000
 11
-58.242885000000001
 21
143.101304000000000
  0
LINE
  8
0
  6
CONTINUOUS
 62
256
 10
-169.242885000000000
 20
139.101304000000000
 11
-169.242885000000000
 21
142.135757000000010
  0
LINE
  8
0
  6
CONTINUOUS
 62
256
 10
-166.242885000000000
 20
136.101304000000000
 11
-161.242885000000000
 21
136.101304000000000
  0
LINE
  8
0
  6
CONTINUOUS
 62
256
 10
-167.242885000000000
 20
133.030955000000010
 11
-161.242885000000000
 21
133.030955000000010
  0
LINE
  8
0
  6
CONTINUOUS
 62
256
 10
-156.242885000000000
 20
128.493470000000000
 11
-156.242885000000000
 21
131.101304000000000
  0
LINE
  8
0
  6
CONTINUOUS
 62
256
 10
-159.242885000000000
 20
125.493470000000000
 11
-166.242885000000000
 21
125.493470000000000
  0
LINE
  8
0
  6
CONTINUOUS
 62
256
 10
-169.242885000000000
 20
111.601304000000000
 11
-174.242885000000000
 21
111.601304000000000
  0
LINE
  8
0
  6
CONTINUOUS
 62
256
 10
-169.242885000000000
 20
91.601303999999999
 11
-169.242885000000000
 21
131.030955000000010
  0
LINE
  8
0
  6
CONTINUOUS
 62
256
 10
-169.242885000000000
 20
71.601303999999999
 11
-174.242885000000000
 21
71.601303999999999
  0
LINE
  8
0
  6
CONTINUOUS
 62
256
 10
-156.242885000000000
 20
54.709138000000003
 11
-156.242885000000000
 21
52.101303999999999
  0
LINE
  8
0
  6
CONTINUOUS
 62
256
 10
-159.242885000000000
 20
57.709138000000003
 11
-166.242885000000000
 21
57.709138000000003
  0
LINE
  8
0
  6
CONTINUOUS
 62
256
 10
-169.242885000000000
 20
91.601303999999999
 11
-169.242885000000000
 21
52.171652000000002
  0
LINE
  8
0
  6
CONTINUOUS
 62
256
 10
-166.242885000000000
 20
47.101303999999999
 11
-161.242885000000000
 21
47.101303999999999
  0
LINE
  8
0
  6
CONTINUOUS
 62
256
 10
-167.242885000000000
 20
50.171652000000002
 11
-161.242885000000000
 21
50.171652000000002
  0
LINE
  8
0
  6
CONTINUOUS
 62
256
 10
-169.242885000000000
 20
44.101303999999999
 11
-169.242885000000000
 21
41.066851000000000
  0
ARC
  8
0
  6
CONTINUOUS
 62
256
 10
-172.242885000000000
 20
142.135757000000010
 40
3.000000000000000
 50
0.000000000000000
 51
91.000000000000142
  0
ARC
  8
0
  6
CONTINUOUS
 62
256
 10
-172.242885000000000
 20
41.066851000000000
 40
2.999999999999997
 50
268.999999999999830
 51
0.000000000000000
  0
ARC
  8
0
  6
CONTINUOUS
 62
256
 10
-166.242885000000000
 20
122.493470000000000
 40
3.000000000000000
 50
90.000000000000000
 51
180.000000000000000
  0
ARC
  8
0
  6
CONTINUOUS
 62
256
 10
-166.242885000000000
 20
139.101304000000000
 40
3.000000000000000
 50
180.000000000000000
 51
270.000000000000000
  0
ARC
  8
0
  6
CONTINUOUS
 62
256
 10
-167.242885000000000
 20
131.030955000000010
 40
2.000000000000000
 50
90.000000000000000
 51
180.000000000000000
  0
ARC
  8
0
  6
CONTINUOUS
 62
256
 10
-161.242885000000000
 20
128.030955000000010
 40
5.000000000000000
 50
0.000000000000000
 51
90.000000000000000
  0
ARC
  8
0
  6
CONTINUOUS
 62
256
 10
-161.242885000000000
 20
131.101304000000000
 40
5.000000000000000
 50
0.000000000000000
 51
90.000000000000000
  0
ARC
  8
0
  6
CONTINUOUS
 62
256
 10
-166.242885000000000
 20
60.709138000000003
 40
3.000000000000000
 50
180.000000000000000
 51
270.000000000000000
  0
ARC
  8
0
  6
CONTINUOUS
 62
256
 10
-161.242885000000000
 20
55.171652000000002
 40
5.000000000000000
 50
270.000000000000000
 51
0.000000000000000
  0
ARC
  8
0
  6
CONTINUOUS
 62
256
 10
-161.242885000000000
 20
52.101303999999999
 40
5.000000000000000
 50
270.000000000000000
 51
0.000000000000000
  0
ARC
  8
0
  6
CONTINUOUS
 62
256
 10
-166.242885000000000
 20
44.101303999999999
 40
3.000000000000000
 50
90.000000000000000
 51
180.000000000000000
  0
ARC
  8
0
  6
CONTINUOUS
 62
256
 10
-167.242885000000000
 20
52.171652000000002
 40
2.000000000000000
 50
180.000000000000000
 51
270.000000000000000
  0
LINE
  8
0
  6
CONTINUOUS
 62
256
 10
-156.242885000000000
 20
142.362673000000000
 11
-156.242885000000000
 21
91.601303999999999
  0
LINE
  8
0
  6
CONTINUOUS
 62
256
 10
-156.242885000000000
 20
40.839934999999997
 11
-156.242885000000000
 21
91.601303999999999
  0
ARC
  8
0
  6
CONTINUOUS
 62
256
 10
-159.242885000000000
 20
40.839934999999997
 40
2.999999999999997
 50
268.999999999999830
 51
0.000000000000000
  0
ARC
  8
0
  6
CONTINUOUS
 62
256
 10
-159.242885000000000
 20
142.362673000000000
 40
3.000000000000000
 50
0.000000000000000
 51
91.000000000000142
  0
ARC
  8
0
  6
CONTINUOUS
 62
256
 10
-159.242885000000000
 20
60.709138000000003
 40
3.000000000000000
 50
270.000000000000000
 51
0.000000000000000
  0
ARC
  8
0
  6
CONTINUOUS
 62
256
 10
-159.242885000000000
 20
122.493470000000000
 40
3.000000000000000
 50
0.000000000000000
 51
90.000000000000000
  0
LINE
  8
0
  6
CONTINUOUS
 62
256
 10
-174.242885000000000
 20
91.601303999999999
 11
-174.242885000000000
 21
38.101303999999999
  0
LINE
  8
0
  6
CONTINUOUS
 62
256
 10
-174.242885000000000
 20
91.601303999999999
 11
-174.242885000000000
 21
145.101304000000000
  0
LINE
  8
0
  6
CONTINUOUS
 62
256
 10
-156.242885000000000
 20
40.839934999999997
 11
-156.242885000000000
 21
47.101303999999999
  0
LINE
  8
0
  6
CONTINUOUS
 62
256
 10
-156.242885000000000
 20
142.362673000000000
 11
-156.242885000000000
 21
125.101304000000000
  0
ARC
  8
0
  6
CONTINUOUS
 62
256
 10
-159.242885000000000
 20
142.362673000000000
 40
3.000000000000000
 50
0.000000000000000
 51
91.000000000000142
  0
ARC
  8
0
  6
CONTINUOUS
 62
256
 10
-153.242885000000000
 20
58.101303999999999
 40
3.000000000000000
 50
90.000000000000000
 51
180.000000000000000
  0
LINE
  8
0
  6
CONTINUOUS
 62
256
 10
-148.234462000000010
 20
61.101303999999999
 11
-153.242885000000000
 21
61.101303999999999
  0
ARC
  8
0
  6
CONTINUOUS
 62
256
 10
-159.242885000000000
 20
40.839934999999997
 40
2.999999999999997
 50
268.999999999999830
 51
0.000000000000000
  0
ARC
  8
0
  6
CONTINUOUS
 62
256
 10
-153.242885000000000
 20
136.101304000000000
 40
3.000000000000000
 50
180.000000000000000
 51
270.000000000000000
  0
LINE
  8
0
  6
CONTINUOUS
 62
256
 10
-147.073395000000000
 20
133.101304000000000
 11
-153.242885000000000
 21
133.101304000000000
  0
LINE
  8
0
  6
CONTINUOUS
 62
256
 10
-146.225429999999990
 20
59.101303999999999
 11
-146.033424000000000
 21
48.101303999999999
  0
LINE
  8
0
  6
CONTINUOUS
 62
256
 10
-5.242885000000000
 20
48.101303999999999
 11
-146.033424000000000
 21
48.101303999999999
  0
LINE
  8
0
  6
CONTINUOUS
 62
256
 10
-5.050879000000000
 20
59.101303999999999
 11
-5.242885000000000
 21
48.101303999999999
  0
LINE
  8
0
  6
CONTINUOUS
 62
256
 10
-95.742885000000001
 20
135.101304000000000
 11
-95.742885000000001
 21
139.101304000000000
  0
LINE
  8
0
  6
CONTINUOUS
 62
256
 10
-20.742885000000001
 20
139.101304000000000
 11
-95.742885000000001
 21
139.101304000000000
  0
LINE
  8
0
  6
CONTINUOUS
 62
256
 10
-20.742885000000001
 20
135.101304000000000
 11
-20.742885000000001
 21
139.101304000000000
  0
LINE
  8
0
  6
CONTINUOUS
 62
256
 10
-95.742885000000001
 20
44.101303999999999
 11
-95.742885000000001
 21
48.101303999999999
  0
LINE
  8
0
  6
CONTINUOUS
 62
256
 10
-20.742885000000001
 20
44.101303999999999
 11
-20.742885000000001
 21
48.101303999999999
  0
LINE
  8
0
  6
CONTINUOUS
 62
256
 10
-131.367676999999990
 20
48.101303999999999
 11
-117.332519000000000
 21
48.101303999999999
  0
LINE
  8
0
  6
CONTINUOUS
 62
256
 10
-20.742885000000001
 20
44.101303999999999
 11
-95.742885000000001
 21
44.101303999999999
  0
ARC
  8
0
  6
CONTINUOUS
 62
256
 10
-147.073395000000000
 20
135.101304000000000
 40
2.000000000000000
 50
270.000000000000000
 51
0.000000000000000
  0
ARC
  8
0
  6
CONTINUOUS
 62
256
 10
-148.234462000000010
 20
59.101303999999999
 40
2.000000000000000
 50
0.000000000000000
 51
90.000000000000000
  0
LINE
  8
0
  6
CONTINUOUS
 62
256
 10
-158.736379000000000
 20
145.319605999999990
 11
-174.242885000000000
 21
145.048938999999990
  0
LINE
  8
0
  6
CONTINUOUS
 62
256
 10
-158.736379000000000
 20
37.883001999999998
 11
-174.242885000000000
 21
38.153669000000001
  0
LINE
  8
0
  6
CONTINUOUS
 62
256
 10
-145.073395000000000
 20
125.601304000000000
 11
-145.073395000000000
 21
135.101304000000000
  0
LINE
  8
0
  6
CONTINUOUS
 62
256
 10
-145.073395000000000
 20
135.101304000000000
 11
-58.242885000000001
 21
135.101304000000000
  0
LINE
  8
0
  6
CONTINUOUS
 62
256
 10
-146.234157000000010
 20
59.101303999999999
 11
-145.073395000000000
 21
125.601304000000000
  0
LINE
  8
0
  6
CONTINUOUS
 62
256
 10
-146.234462000000010
 20
59.101303999999999
 11
-5.050879000000000
 21
59.101303999999999
  0
LINE
  8
0
  6
CONTINUOUS
 62
256
 10
-5.059607000000000
 20
59.101303999999999
 11
-6.220368000000000
 21
125.601304000000000
  0
LINE
  8
0
  6
CONTINUOUS
 62
256
 10
-6.220368000000000
 20
125.601304000000000
 11
-6.220368000000000
 21
135.101304000000000
  0
LINE
  8
0
  6
CONTINUOUS
 62
256
 10
-58.242885000000001
 20
135.101304000000000
 11
-6.220368000000000
 21
135.101304000000000
  0
LINE
  8
0
  6
CONTINUOUS
 62
256
 10
-199.242885000000000
 20
-188.450702000000010
 11
-207.242885000000000
 21
-188.450702000000010
  0
ENDSEC
  0
EOF
