  0
SECTION
  2
HEADER
  9
$TEXTSIZE
 40
2.5
  9
$ACADVER
  1
AC1009
  9
$DIMASZ
 40
3.863703297614046
  9
$DIMEXE
 40
2.000000000000000
  9
$DIMEXO
 40
1.000000000000000
  9
$DIMLFAC
 40
1.000000000000000
  9
$DIMSCALE
 40
1.000000000000000
  9
$DIMTAD
 70
1
  9
$DIMTFAC
 40
0.625000000000000
  9
$DIMTXT
 40
3.200000047683716
  9
$LUPREC
 70
3
  9
$REGENMODE
 70
1
  9
$TEXTSTYLE
  7
STANDARD1
  0
ENDSEC
  0
SECTION
  2
TABLES
  0
TABLE
  2
LTYPE
 70
4
  0
LTYPE
  2
CONTINUOUS
 70
64
  3
Solid line
 72
65
 73
0
 40
0.0
  0
LTYPE
  2
DASHED
 70
64
  3
-- -- -- -- -- -- -- -- -- -- -- -- -- -- --
 72
65
 73
2
 40
0.75
 49
0.5
 49
-0.25
  0
LTYPE
  2
DASHDOT
 70
64
  3
__ . __ . __ . __ . __ . __ . __ . __ . __ . __
 72
65
 73
4
 40
1.0
 49
0.5
 49
-0.25
 49
0.0
 49
-0.25
  0
LTYPE
  2
DIVIDE
 70
64
  3
__ . . __ . . __ . . __ . . __ . . __ . . __
 72
65
 73
6
 40
1.25
 49
0.5
 49
-0.25
 49
0.0
 49
-0.25
 49
0.0
 49
-0.25
  0
ENDTAB
  0
TABLE
  2
LAYER
 70
2
  0
LAYER
  2
0
 70
64
 62
53
  6
CONTINUOUS
  0
LAYER
  2
1
 70
64
 62
102
  6
CONTINUOUS
  0
ENDTAB
  0
TABLE
  2
STYLE
 70
4
  0
STYLE
  2
STANDARD1
 70
64
 40
0.0
 41
1.0
 50
0.0
 71
0
 42
3.200000047683716
  3
MONOTXT
  4
BIGFONT
  0
STYLE
  2
STANDARD2
 70
68
 40
0.0
 41
1.0
 50
0.0
 71
0
 42
3.200000047683716
  3
MONOTXT
  4
BIGFONT
  0
STYLE
  2
STANDARD3
 70
64
 40
0.0
 41
1.0
 50
0.0
 71
0
 42
3.200000047683716
  3
MONOTXT
  4

  0
STYLE
  2
STANDARD4
 70
68
 40
0.0
 41
1.0
 50
0.0
 71
0
 42
3.200000047683716
  3
MONOTXT
  4

  0
ENDTAB
  0
TABLE
  2
VIEW
 70
0
  0
ENDTAB
  0
ENDSEC
  0
SECTION
  2
BLOCKS
  0
BLOCK
  8
0
  2
ZU_SYM_1
 70
64
 10
0.000000000000000
 20
0.000000000000000
  0
CIRCLE
  8
0
  6
CONTINUOUS
 62
256
 10
0.000000000000000
 20
0.000000000000000
 40
4.249999000000000
  0
POINT
  8
0
  6
CONTINUOUS
 62
256
 10
0.000000000000000
 20
0.000000000000000
  0
LINE
  8
0
  6
CONTINUOUS
 62
256
 10
-1.999998000000000
 20
-1.154696000000000
 11
-1.999999000000000
 21
1.154700000000000
  0
LINE
  8
0
  6
CONTINUOUS
 62
256
 10
1.999998000000000
 20
1.154695000000000
 11
1.999999000000000
 21
-1.154699000000000
  0
LINE
  8
0
  6
CONTINUOUS
 62
256
 10
1.999998000000000
 20
1.154696000000000
 11
0.000002000000000
 21
2.309399000000000
  0
LINE
  8
0
  6
CONTINUOUS
 62
256
 10
-0.000002000000000
 20
-2.309397000000000
 11
-1.999997000000000
 21
-1.154696000000000
  0
LINE
  8
0
  6
CONTINUOUS
 62
256
 10
-1.999999000000000
 20
1.154700000000000
 11
0.000002000000000
 21
2.309399000000000
  0
LINE
  8
0
  6
CONTINUOUS
 62
256
 10
1.999999000000000
 20
-1.154699000000000
 11
-0.000002000000000
 21
-2.309398000000000
  0
ENDBLK
  8
0
  0
BLOCK
  8
0
  2
ZU_SYM_2
 70
64
 10
0.000000000000000
 20
0.000000000000000
  0
CIRCLE
  8
0
  6
CONTINUOUS
 62
256
 10
0.000000000000000
 20
0.000000000000000
 40
4.249999000000000
  0
POINT
  8
0
  6
CONTINUOUS
 62
256
 10
0.000000000000000
 20
0.000000000000000
  0
LINE
  8
0
  6
CONTINUOUS
 62
256
 10
-1.999998000000000
 20
-1.154696000000000
 11
-1.999999000000000
 21
1.154700000000000
  0
LINE
  8
0
  6
CONTINUOUS
 62
256
 10
1.999998000000000
 20
1.154695000000000
 11
1.999999000000000
 21
-1.154699000000000
  0
LINE
  8
0
  6
CONTINUOUS
 62
256
 10
1.999998000000000
 20
1.154696000000000
 11
0.000002000000000
 21
2.309399000000000
  0
LINE
  8
0
  6
CONTINUOUS
 62
256
 10
-0.000002000000000
 20
-2.309397000000000
 11
-1.999997000000000
 21
-1.154696000000000
  0
LINE
  8
0
  6
CONTINUOUS
 62
256
 10
-1.999999000000000
 20
1.154700000000000
 11
0.000002000000000
 21
2.309399000000000
  0
LINE
  8
0
  6
CONTINUOUS
 62
256
 10
1.999999000000000
 20
-1.154699000000000
 11
-0.000002000000000
 21
-2.309398000000000
  0
ENDBLK
  8
0
  0
BLOCK
  8
0
  2
ZU_SYM_3
 70
64
 10
0.000000000000000
 20
0.000000000000000
  0
CIRCLE
  8
0
  6
CONTINUOUS
 62
256
 10
0.000000000000000
 20
0.000000000000000
 40
4.249999000000000
  0
POINT
  8
0
  6
CONTINUOUS
 62
256
 10
0.000000000000000
 20
0.000000000000000
  0
LINE
  8
0
  6
CONTINUOUS
 62
256
 10
-1.999998000000000
 20
-1.154696000000000
 11
-1.999999000000000
 21
1.154700000000000
  0
LINE
  8
0
  6
CONTINUOUS
 62
256
 10
1.999998000000000
 20
1.154695000000000
 11
1.999999000000000
 21
-1.154699000000000
  0
LINE
  8
0
  6
CONTINUOUS
 62
256
 10
1.999998000000000
 20
1.154696000000000
 11
0.000002000000000
 21
2.309399000000000
  0
LINE
  8
0
  6
CONTINUOUS
 62
256
 10
-0.000002000000000
 20
-2.309397000000000
 11
-1.999997000000000
 21
-1.154696000000000
  0
LINE
  8
0
  6
CONTINUOUS
 62
256
 10
-1.999999000000000
 20
1.154700000000000
 11
0.000002000000000
 21
2.309399000000000
  0
LINE
  8
0
  6
CONTINUOUS
 62
256
 10
1.999999000000000
 20
-1.154699000000000
 11
-0.000002000000000
 21
-2.309398000000000
  0
ENDBLK
  8
0
  0
BLOCK
  8
0
  2
ZU_SYM_4
 70
64
 10
0.000000000000000
 20
0.000000000000000
  0
CIRCLE
  8
0
  6
CONTINUOUS
 62
256
 10
0.000000000000000
 20
0.000000000000000
 40
4.249999000000000
  0
POINT
  8
0
  6
CONTINUOUS
 62
256
 10
0.000000000000000
 20
0.000000000000000
  0
LINE
  8
0
  6
CONTINUOUS
 62
256
 10
-1.999998000000000
 20
-1.154696000000000
 11
-1.999999000000000
 21
1.154700000000000
  0
LINE
  8
0
  6
CONTINUOUS
 62
256
 10
1.999998000000000
 20
1.154695000000000
 11
1.999999000000000
 21
-1.154699000000000
  0
LINE
  8
0
  6
CONTINUOUS
 62
256
 10
1.999998000000000
 20
1.154696000000000
 11
0.000002000000000
 21
2.309399000000000
  0
LINE
  8
0
  6
CONTINUOUS
 62
256
 10
-0.000002000000000
 20
-2.309397000000000
 11
-1.999997000000000
 21
-1.154696000000000
  0
LINE
  8
0
  6
CONTINUOUS
 62
256
 10
-1.999999000000000
 20
1.154700000000000
 11
0.000002000000000
 21
2.309399000000000
  0
LINE
  8
0
  6
CONTINUOUS
 62
256
 10
1.999999000000000
 20
-1.154699000000000
 11
-0.000002000000000
 21
-2.309398000000000
  0
ENDBLK
  8
0
  0
ENDSEC
  0
SECTION
  2
ENTITIES
  0
ARC
  8
0
  6
CONTINUOUS
 62
256
 10
728.433471000000050
 20
-107.388301000000000
 40
400.600000000000080
 50
179.070297000000010
 51
180.000000000000000
  0
ARC
  8
0
  6
CONTINUOUS
 62
256
 10
336.411523999999990
 20
-146.819167999999990
 40
6.599999999999971
 50
185.743681999999920
 51
224.999999999999830
  0
ARC
  8
0
  6
CONTINUOUS
 62
256
 10
728.433471000000050
 20
-107.388301000000000
 40
400.600000000000020
 50
180.000000000000000
 51
185.743681999999980
  0
LINE
  8
0
  6
CONTINUOUS
 62
256
 10
338.333470999999970
 20
-158.074925000000010
 11
331.744619000000000
 21
-151.486073000000000
  0
LINE
  8
0
  6
CONTINUOUS
 62
256
 10
425.333470999999970
 20
-158.074925000000010
 11
431.922322000000010
 21
-151.486073000000000
  0
LINE
  8
0
  6
CONTINUOUS
 62
256
 10
379.333470999999970
 20
-194.888301000000010
 11
384.333470999999970
 21
-194.888301000000010
  0
LINE
  8
0
  6
CONTINUOUS
 62
256
 10
379.333470999999970
 20
-194.377884999999990
 11
379.333470999999970
 21
-194.888301000000010
  0
LINE
  8
0
  6
CONTINUOUS
 62
256
 10
384.333470999999970
 20
-194.377884999999990
 11
384.333470999999970
 21
-194.888301000000010
  0
ARC
  8
0
  6
CONTINUOUS
 62
256
 10
381.833470999999970
 20
105.611699000000000
 40
300.000000000000000
 50
265.138595000000010
 51
274.861404999999990
  0
LINE
  8
0
  6
CONTINUOUS
 62
256
 10
411.833470999999970
 20
-167.306086999999990
 11
411.833470999999970
 21
-188.327069999999990
  0
LINE
  8
0
  6
CONTINUOUS
 62
256
 10
351.833470999999970
 20
-168.353390999999990
 11
351.833470999999970
 21
-188.327069999999990
  0
ARC
  8
0
  6
CONTINUOUS
 62
256
 10
406.833470999999970
 20
-188.327069999999990
 40
4.999999999999989
 50
274.861405000000100
 51
0.000000000000000
  0
ARC
  8
0
  6
CONTINUOUS
 62
256
 10
356.833470999999970
 20
-188.327069999999990
 40
5.000000000000000
 50
180.000000000000000
 51
265.138594999999900
  0
ARC
  8
0
  6
CONTINUOUS
 62
256
 10
427.255418000000020
 20
-146.819167999999990
 40
6.600000000000017
 50
315.000000000000170
 51
354.256318000000020
  0
ARC
  8
0
  6
CONTINUOUS
 62
256
 10
35.233471000000002
 20
-107.388301000000000
 40
400.600000000000020
 50
354.256318000000020
 51
357.137059000000020
  0
LINE
  8
0
  6
DASHDOT
 62
256
 10
336.872661999999990
 20
-157.388301000000010
 11
381.833470999999970
 21
-157.388301000000010
  0
LINE
  8
0
  6
DASHDOT
 62
256
 10
336.795701000000010
 20
-52.388300999999998
 11
381.833470999999970
 21
-52.388300999999998
  0
CIRCLE
  8
0
  6
CONTINUOUS
 62
256
 10
264.737814000000010
 20
-94.388300999999998
 40
19.000000000000000
  0
LINE
  8
0
  6
CONTINUOUS
 62
256
 10
260.737814000000010
 20
-78.588301000000001
 11
260.737814000000010
 21
-82.545581999999996
  0
LINE
  8
0
  6
CONTINUOUS
 62
256
 10
268.737814000000010
 20
-78.588301000000001
 11
268.737814000000010
 21
-82.545581999999996
  0
LINE
  8
0
  6
CONTINUOUS
 62
256
 10
268.737814000000010
 20
-78.588301000000001
 11
260.737814000000010
 21
-78.588301000000001
  0
ARC
  8
0
  6
CONTINUOUS
 62
256
 10
264.737814000000010
 20
-94.388300999999998
 40
12.500000000000002
 50
108.662925000000020
 51
71.337074999999999
  0
LINE
  8
0
  6
DASHDOT
 62
256
 10
285.715604999999980
 20
-94.388300999999998
 11
243.056951000000000
 21
-94.388300999999998
  0
LINE
  8
0
  6
DASHDOT
 62
256
 10
264.737814000000010
 20
-68.160753999999997
 11
264.737814000000010
 21
-117.620213000000010
  0
POINT
  8
0
  6
DASHDOT
 62
256
 10
277.237814000000010
 20
-94.388300999999998
  0
ARC
  8
0
  6
CONTINUOUS
 62
256
 10
35.233471000000002
 20
-94.388300999999998
 40
400.599999999999970
 50
357.137059000000020
 51
359.070296999999980
  0
ARC
  8
0
  6
CONTINUOUS
 62
256
 10
728.433471000000050
 20
-94.388300999999998
 40
400.600000000000080
 50
180.929702999999960
 51
182.862940999999980
  0
ARC
  8
0
  6
CONTINUOUS
 62
256
 10
381.833470999999970
 20
-107.388301000000000
 40
53.499999999999979
 50
324.398361000000020
 51
15.715855999999999
  0
ARC
  8
0
  6
CONTINUOUS
 62
256
 10
432.333470999999970
 20
-76.388300999999998
 40
1.000000000000000
 50
0.000000000000000
 51
90.000000000000000
  0
LINE
  8
0
  6
CONTINUOUS
 62
256
 10
432.333470999999970
 20
-75.388300999999998
 11
429.333470999999970
 21
-75.388300999999998
  0
LINE
  8
0
  6
CONTINUOUS
 62
256
 10
433.333470999999970
 20
-76.388300999999998
 11
433.333470999999970
 21
-94.388300999999998
  0
LINE
  8
0
  6
CONTINUOUS
 62
256
 10
433.333470999999970
 20
-112.388301000000000
 11
433.333470999999970
 21
-94.388300999999998
  0
ARC
  8
0
  6
CONTINUOUS
 62
256
 10
432.333470999999970
 20
-112.388301000000000
 40
1.000000000000000
 50
270.000000000000000
 51
0.000000000000000
  0
LINE
  8
0
  6
CONTINUOUS
 62
256
 10
432.333470999999970
 20
-113.388301000000000
 11
429.333470999999970
 21
-113.388301000000000
  0
ARC
  8
0
  6
CONTINUOUS
 62
256
 10
381.833470999999970
 20
-107.388301000000000
 40
53.500000000000028
 50
164.284144000000030
 51
215.601638999999980
  0
LINE
  8
0
  6
CONTINUOUS
 62
256
 10
330.333470999999970
 20
-112.388301000000000
 11
330.333470999999970
 21
-94.388300999999998
  0
ARC
  8
0
  6
CONTINUOUS
 62
256
 10
331.333470999999970
 20
-112.388301000000000
 40
1.000000000000000
 50
180.000000000000000
 51
270.000000000000000
  0
LINE
  8
0
  6
CONTINUOUS
 62
256
 10
331.333470999999970
 20
-113.388301000000000
 11
334.333470999999970
 21
-113.388301000000000
  0
LINE
  8
0
  6
CONTINUOUS
 62
256
 10
330.333470999999970
 20
-76.388300999999998
 11
330.333470999999970
 21
-94.388300999999998
  0
ARC
  8
0
  6
CONTINUOUS
 62
256
 10
331.333470999999970
 20
-76.388300999999998
 40
1.000000000000000
 50
90.000000000000000
 51
180.000000000000000
  0
LINE
  8
0
  6
CONTINUOUS
 62
256
 10
331.333470999999970
 20
-75.388300999999998
 11
334.333470999999970
 21
-75.388300999999998
  0
LINE
  8
0
  6
CONTINUOUS
 62
256
 10
349.583470999999970
 20
-168.392664999999990
 11
338.333470999999970
 21
-168.196295999999990
  0
LINE
  8
0
  6
CONTINUOUS
 62
256
 10
348.833470999999970
 20
-168.405756000000000
 11
348.833470999999970
 21
-159.275798000000010
  0
LINE
  8
0
  6
CONTINUOUS
 62
256
 10
348.833470999999970
 20
-168.405756000000000
 11
348.833470999999970
 21
-163.897029000000000
  0
LINE
  8
0
  6
CONTINUOUS
 62
256
 10
348.833470999999970
 20
-168.405756000000000
 11
415.833470999999970
 21
-167.236267000000000
  0
LINE
  8
0
  6
CONTINUOUS
 62
256
 10
425.333470999999970
 20
-167.236267000000000
 11
425.333470999999970
 21
-153.669940999999990
  0
LINE
  8
0
  6
CONTINUOUS
 62
256
 10
415.833470999999970
 20
-167.236267000000000
 11
425.333470999999970
 21
-167.236267000000000
  0
LINE
  8
0
  6
CONTINUOUS
 62
256
 10
425.333470999999970
 20
-131.879573999999990
 11
429.333470999999970
 21
-131.879573999999990
  0
LINE
  8
0
  6
CONTINUOUS
 62
256
 10
348.833470999999970
 20
-41.397029000000003
 11
338.333470999999970
 21
-41.580306999999998
  0
LINE
  8
0
  6
CONTINUOUS
 62
256
 10
348.833470999999970
 20
-41.388300999999998
 11
415.833470999999970
 21
-42.557791000000002
  0
LINE
  8
0
  6
CONTINUOUS
 62
256
 10
348.833470999999970
 20
-159.275798000000010
 11
348.833470999999970
 21
-44.879573999999998
  0
LINE
  8
0
  6
CONTINUOUS
 62
256
 10
348.833470999999970
 20
-41.379573999999998
 11
348.833470999999970
 21
-45.888300999999998
  0
LINE
  8
0
  6
CONTINUOUS
 62
256
 10
425.333470999999970
 20
-153.669940999999990
 11
425.333470999999970
 21
-42.557791000000002
  0
LINE
  8
0
  6
CONTINUOUS
 62
256
 10
415.833470999999970
 20
-42.557791000000002
 11
425.333470999999970
 21
-42.557791000000002
  0
LINE
  8
0
  6
CONTINUOUS
 62
256
 10
429.333470999999970
 20
-56.897029000000003
 11
429.333470999999970
 21
-131.879573999999990
  0
LINE
  8
0
  6
CONTINUOUS
 62
256
 10
425.333470999999970
 20
-56.897029000000003
 11
429.333470999999970
 21
-56.897029000000003
  0
LINE
  8
0
  6
CONTINUOUS
 62
256
 10
334.333470999999970
 20
-131.888301000000010
 11
338.333470999999970
 21
-131.888301000000010
  0
LINE
  8
0
  6
CONTINUOUS
 62
256
 10
338.333470999999970
 20
-41.580306999999998
 11
338.333470999999970
 21
-168.196295999999990
  0
LINE
  8
0
  6
CONTINUOUS
 62
256
 10
334.333470999999970
 20
-56.888300999999998
 11
338.333470999999970
 21
-56.888300999999998
  0
LINE
  8
0
  6
CONTINUOUS
 62
256
 10
334.333470999999970
 20
-56.888300999999998
 11
334.333470999999970
 21
-131.888301000000010
  0
ARC
  8
0
  6
CONTINUOUS
 62
256
 10
336.801115999999980
 20
-66.598586999999995
 40
2.999999999999977
 50
145.340699999999830
 51
214.659300000000170
  0
LINE
  8
0
  6
CONTINUOUS
 62
256
 10
425.333470999999970
 20
-142.403020000000000
 11
428.987146999999990
 21
-146.056695999999990
  0
LINE
  8
0
  6
CONTINUOUS
 62
256
 10
338.333470999999970
 20
-142.403020000000000
 11
334.679795000000010
 21
-146.056695999999990
  0
LINE
  8
0
  6
CONTINUOUS
 62
256
 10
435.333470999999970
 20
-126.888301000000000
 11
435.333470999999970
 21
-87.379553000000001
  0
LINE
  8
0
  6
CONTINUOUS
 62
256
 10
328.333470999999970
 20
-87.888300999999998
 11
328.333470999999970
 21
-126.888301000000000
  0
ARC
  8
0
  6
CONTINUOUS
 62
256
 10
409.333470999999970
 20
-79.888300999999998
 40
24.999999999999979
 50
5.730175000000014
 51
36.869897999999999
  0
ARC
  8
0
  6
CONTINUOUS
 62
256
 10
34.333471000000003
 20
-87.388300999999998
 40
399.999999999999940
 50
0.053000000000000
 51
1.431984000000000
  0
ARC
  8
0
  6
CONTINUOUS
 62
256
 10
409.333470999999970
 20
-134.888301000000010
 40
24.999999999999986
 50
309.791818999999920
 51
354.269824999999970
  0
ARC
  8
0
  6
CONTINUOUS
 62
256
 10
34.333471000000003
 20
-127.388301000000000
 40
400.000000000000000
 50
358.568016000000060
 51
359.928470000000000
  0
ARC
  8
0
  6
CONTINUOUS
 62
256
 10
354.333470999999970
 20
-134.888301000000010
 40
25.000000000000007
 50
176.561350000000030
 51
230.208180999999880
  0
ARC
  8
0
  6
CONTINUOUS
 62
256
 10
729.333471000000030
 20
-127.388301000000000
 40
400.000000000000000
 50
180.071529999999970
 51
180.859540999999980
  0
ARC
  8
0
  6
CONTINUOUS
 62
256
 10
354.333470999999970
 20
-79.888300999999998
 40
25.000000000000011
 50
143.130101999999990
 51
174.269825000000000
  0
ARC
  8
0
  6
CONTINUOUS
 62
256
 10
729.333471000000030
 20
-87.388300999999998
 40
400.000000000000000
 50
178.568016000000000
 51
179.928470000000000
  0
ARC
  8
0
  6
CONTINUOUS
 62
256
 10
426.865826000000030
 20
-66.598586999999995
 40
2.999999999999977
 50
325.340699999999860
 51
34.659300000000187
  0
ARC
  8
0
  6
CONTINUOUS
 62
256
 10
426.865826000000030
 20
-148.178016000000010
 40
2.999999999999989
 50
322.837479999999800
 51
44.999999999999616
  0
ARC
  8
0
  6
CONTINUOUS
 62
256
 10
424.925189999999990
 20
-150.409200000000000
 40
2.999999999999995
 50
277.821860000000410
 51
315.130421000000180
  0
ARC
  8
0
  6
CONTINUOUS
 62
256
 10
338.741752000000020
 20
-150.409200000000000
 40
3.000000000000027
 50
224.869578999999760
 51
262.178139999999590
  0
ARC
  8
0
  6
CONTINUOUS
 62
256
 10
336.801115999999980
 20
-148.178016000000010
 40
3.000000000000004
 50
135.000000000000370
 51
217.162520000000170
  0
ARC
  8
0
  6
CONTINUOUS
 62
256
 10
434.833470999999970
 20
-86.888300999999998
 40
0.500000000000000
 50
180.000000000000000
 51
270.000000000000000
  0
ARC
  8
0
  6
CONTINUOUS
 62
256
 10
434.833470999999970
 20
-127.888301000000000
 40
0.500000000000000
 50
90.000000000000000
 51
180.000000000000000
  0
ARC
  8
0
  6
CONTINUOUS
 62
256
 10
434.833470999999970
 20
-126.888301000000000
 40
0.500000000000000
 50
270.000000000000000
 51
0.000000000000000
  0
ARC
  8
0
  6
CONTINUOUS
 62
256
 10
328.833470999999970
 20
-127.888301000000000
 40
0.500000000000000
 50
0.000000000000000
 51
90.000000000000000
  0
ARC
  8
0
  6
CONTINUOUS
 62
256
 10
328.833470999999970
 20
-86.888300999999998
 40
0.500000000000000
 50
270.000000000000000
 51
0.000000000000000
  0
ARC
  8
0
  6
CONTINUOUS
 62
256
 10
328.833470999999970
 20
-87.888300999999998
 40
0.500000000000000
 50
90.000000000000000
 51
180.000000000000000
  0
ARC
  8
0
  6
CONTINUOUS
 62
256
 10
328.833470999999970
 20
-126.888301000000000
 40
0.500000000000000
 50
180.000000000000000
 51
270.000000000000000
  0
ARC
  8
0
  6
CONTINUOUS
 62
256
 10
434.833470999999970
 20
-87.888300999999998
 40
0.500000000000000
 50
0.000000000000000
 51
90.000000000000000
  0
LINE
  8
0
  6
DASHDOT
 62
256
 10
381.833470999999970
 20
-198.270635000000000
 11
381.833470999999970
 21
-32.008463999999996
  0
LINE
  8
0
  6
DASHDOT
 62
256
 10
321.212740000000000
 20
-94.388300999999998
 11
439.506503000000010
 21
-94.388300999999998
  0
LINE
  8
0
  6
DASHDOT
 62
256
 10
389.741540999999980
 20
-107.388301000000000
 11
374.240977999999980
 21
-107.388301000000000
  0
ARC
  8
0
  6
CONTINUOUS
 62
256
 10
-243.317404000000010
 20
-193.388301000000010
 40
1.000000000000000
 50
180.000000000000000
 51
270.000000000000000
  0
ARC
  8
0
  6
CONTINUOUS
 62
256
 10
-172.317404000000010
 20
-193.388301000000010
 40
1.000000000000000
 50
270.000000000000000
 51
0.000000000000000
  0
LINE
  8
0
  6
CONTINUOUS
 62
256
 10
-178.317404000000010
 20
-194.888301000000010
 11
-178.317404000000010
 21
-194.388301000000010
  0
LINE
  8
0
  6
CONTINUOUS
 62
256
 10
-186.317404000000010
 20
-194.888301000000010
 11
-178.317404000000010
 21
-194.888301000000010
  0
LINE
  8
0
  6
CONTINUOUS
 62
256
 10
-186.317404000000010
 20
-194.888301000000010
 11
-186.317404000000010
 21
-194.388301000000010
  0
LINE
  8
0
  6
CONTINUOUS
 62
256
 10
-172.317404000000010
 20
-194.388301000000010
 11
-243.317404000000010
 21
-194.388301000000010
  0
LINE
  8
0
  6
DASHDOT
 62
256
 10
381.833470999999970
 20
-157.388301000000010
 11
427.096636999999990
 21
-157.388301000000010
  0
LINE
  8
0
  6
DASHDOT
 62
256
 10
381.833470999999970
 20
-52.388300999999998
 11
426.612655000000020
 21
-52.388300999999998
  0
LINE
  8
0
  6
CONTINUOUS
 62
256
 10
429.333470999999970
 20
-60.701678000000001
 11
431.922322000000010
 21
-63.290529999999997
  0
ARC
  8
0
  6
CONTINUOUS
 62
256
 10
427.255418000000020
 20
-67.957434000000006
 40
6.599999999999973
 50
5.743682000000063
 51
44.999999999999829
  0
ARC
  8
0
  6
CONTINUOUS
 62
256
 10
35.233471000000002
 20
-107.388301000000000
 40
400.600000000000020
 50
0.000000000000000
 51
5.743682000000000
  0
LINE
  8
0
  6
CONTINUOUS
 62
256
 10
334.333470999999970
 20
-60.701678000000001
 11
331.744619000000000
 21
-63.290529999999997
  0
ARC
  8
0
  6
CONTINUOUS
 62
256
 10
336.411523999999990
 20
-67.957434000000006
 40
6.600000000000017
 50
135.000000000000170
 51
174.256317999999940
  0
ARC
  8
0
  6
CONTINUOUS
 62
256
 10
728.433471000000050
 20
-107.388301000000000
 40
400.600000000000080
 50
174.256317999999990
 51
180.000000000000000
  0
TEXT
  8
0
  6
CONTINUOUS
 62
256
 10
474.496368408203120
 20
-219.693359375000000
 40
3.299999952316284
  1
1/1
 50
0.000002504478167
 41
0.850909097352304
  7
STANDARD1
  0
TEXT
  8
0
  6
CONTINUOUS
 62
256
 10
472.078369140625000
 20
-219.693359375000000
 40
3.299999952316284
  1
 
 50
0.000002504478167
 41
1.733333298293026
  7
STANDARD1
  0
TEXT
  8
0
  6
CONTINUOUS
 62
256
 10
459.027740478515620
 20
-219.693359375000000
 40
3.299999952316284
  1
SCALE
 50
0.000002504478167
 41
0.821052645401140
  7
STANDARD1
  0
TEXT
  8
0
  6
CONTINUOUS
 62
256
 10
455.776367187500000
 20
-219.693359375000000
 40
3.299999952316284
  1
 
 50
0.000002504478167
 41
1.733333298293026
  7
STANDARD1
  0
TEXT
  8
0
  6
CONTINUOUS
 62
256
 10
470.639556884765620
 20
-214.393356323242190
 40
3.299999952316284
  1
1/60
 50
0.000002504478167
 41
0.832000075658163
  7
STANDARD1
  0
TEXT
  8
0
  6
CONTINUOUS
 62
256
 10
466.848541259765620
 20
-214.393356323242190
 40
3.299999952316284
  1
ü`
 50
0.000002504478167
 41
1.176000019651471
  7
STANDARD1
  0
TEXT
  8
0
  6
CONTINUOUS
 62
256
 10
459.052368164062500
 20
-214.393356323242190
 40
3.299999952316284
  1
1/5
 50
0.000002504478167
 41
0.850909097352304
  7
STANDARD1
  0
TEXT
  8
0
  6
CONTINUOUS
 62
256
 10
455.776367187500000
 20
-214.393356323242190
 40
3.299999952316284
  1
 
 50
0.000002504478167
 41
1.733333298293026
  7
STANDARD1
  0
TEXT
  8
0
  6
CONTINUOUS
 62
256
 10
455.776367187500000
 20
-209.093353271484370
 40
3.299999952316284
  1
GM-SHYM-RH
 50
0.000002504478167
 41
0.799999980493025
  7
STANDARD1
  0
TEXT
  8
0
  6
CONTINUOUS
 62
256
 10
461.601745605468750
 20
-203.793365478515620
 40
3.299999952316284
  1
0.2kW
 50
0.000002504478167
 41
0.821052645401140
  7
STANDARD1
  0
TEXT
  8
0
  6
CONTINUOUS
 62
256
 10
455.776367187500000
 20
-203.793365478515620
 40
3.299999952316284
  1
  
 50
0.000002504478167
 41
1.485714400175845
  7
STANDARD1
  0
TEXT
  8
0
  6
CONTINUOUS
 62
256
 10
461.595855712890620
 20
-198.493362426757810
 40
3.299999952316284
  1
SHY002
 50
0.000002504478167
 41
0.813913121261144
  7
STANDARD1
  0
TEXT
  8
0
  6
CONTINUOUS
 62
256
 10
455.776367187500000
 20
-198.493362426757810
 40
3.299999952316284
  1
  
 50
0.000002504478167
 41
1.485714400175845
  7
STANDARD1
  0
LINE
  8
0
  6
CONTINUOUS
 62
256
 10
-433.857356999999980
 20
-167.306086999999990
 11
-437.857356999999980
 21
-167.236267000000000
  0
LINE
  8
0
  6
CONTINUOUS
 62
256
 10
-447.357356999999980
 20
-167.236267000000000
 11
-447.357356999999980
 21
-158.074925000000010
  0
LINE
  8
0
  6
CONTINUOUS
 62
256
 10
-446.487512999999980
 20
-158.944768000000010
 11
-453.946208000000010
 21
-151.486073000000000
  0
LINE
  8
0
  6
CONTINUOUS
 62
256
 10
-447.552707000000000
 20
-56.897029000000003
 11
-451.357356999999980
 21
-56.897029000000003
  0
LINE
  8
0
  6
CONTINUOUS
 62
256
 10
-447.357356999999980
 20
-56.701678000000001
 11
-447.357356999999980
 21
-42.557791000000002
  0
LINE
  8
0
  6
CONTINUOUS
 62
256
 10
-451.357356999999980
 20
-56.897029000000003
 11
-451.357356999999980
 21
-60.701678000000001
  0
LINE
  8
0
  6
CONTINUOUS
 62
256
 10
-437.857356999999980
 20
-42.557791000000002
 11
-447.357356999999980
 21
-42.557791000000002
  0
LINE
  8
0
  6
CONTINUOUS
 62
256
 10
-437.857356999999980
 20
-167.236267000000000
 11
-447.357356999999980
 21
-167.236267000000000
  0
LINE
  8
0
  6
CONTINUOUS
 62
256
 10
-435.357356999999980
 20
-164.689750000000000
 11
-435.357356999999980
 21
-164.888301000000010
  0
LINE
  8
0
  6
CONTINUOUS
 62
256
 10
-435.357356999999980
 20
-164.888301000000010
 11
-433.845342000000020
 21
-164.888301000000010
  0
ARC
  8
0
  6
CONTINUOUS
 62
256
 10
-449.279303000000030
 20
-67.957434000000006
 40
6.600000000000017
 50
135.000000000000170
 51
174.256317999999940
  0
ARC
  8
0
  6
CONTINUOUS
 62
256
 10
-57.257356999999999
 20
-107.388301000000000
 40
400.600000000000080
 50
174.256317999999990
 51
180.000000000000000
  0
ARC
  8
0
  6
CONTINUOUS
 62
256
 10
-431.921112999999990
 20
-70.398234000000002
 40
20.600000000000009
 50
95.752283000000077
 51
135.000000000000000
  0
LINE
  8
0
  6
CONTINUOUS
 62
256
 10
-446.487512999999980
 20
-55.831834000000001
 11
-453.946208000000010
 21
-63.290529999999997
  0
ARC
  8
0
  6
CONTINUOUS
 62
256
 10
-403.857356999999980
 20
-348.988300999999980
 40
300.600000000000020
 50
90.000000000000000
 51
95.752283000000006
  0
ARC
  8
0
  6
CONTINUOUS
 62
256
 10
-449.279303000000030
 20
-146.819167999999990
 40
6.599999999999971
 50
185.743681999999920
 51
224.999999999999830
  0
ARC
  8
0
  6
CONTINUOUS
 62
256
 10
-57.257356999999999
 20
-107.388301000000000
 40
400.600000000000020
 50
180.000000000000000
 51
185.743681999999980
  0
ARC
  8
0
  6
CONTINUOUS
 62
256
 10
-431.921112999999990
 20
-144.378368999999990
 40
20.599999999999991
 50
225.000000000000000
 51
264.247716999999910
  0
ARC
  8
0
  6
CONTINUOUS
 62
256
 10
-403.857356999999980
 20
134.211699000000010
 40
300.600000000000020
 50
264.247717000000020
 51
270.000000000000000
  0
LINE
  8
0
  6
CONTINUOUS
 62
256
 10
-406.357356999999980
 20
-194.888301000000010
 11
-401.357356999999980
 21
-194.888301000000010
  0
LINE
  8
0
  6
CONTINUOUS
 62
256
 10
-406.357356999999980
 20
-194.377884999999990
 11
-406.357356999999980
 21
-194.888301000000010
  0
LINE
  8
0
  6
CONTINUOUS
 62
256
 10
-401.357356999999980
 20
-194.377884999999990
 11
-401.357356999999980
 21
-194.888301000000010
  0
ARC
  8
0
  6
CONTINUOUS
 62
256
 10
-403.857356999999980
 20
105.611699000000000
 40
300.000000000000000
 50
265.138595000000010
 51
274.861404999999990
  0
LINE
  8
0
  6
CONTINUOUS
 62
256
 10
-433.857356999999980
 20
-164.888301000000010
 11
-433.857356999999980
 21
-188.327069999999990
  0
ARC
  8
0
  6
CONTINUOUS
 62
256
 10
-378.857356999999980
 20
-188.327069999999990
 40
4.999999999999989
 50
274.861405000000100
 51
0.000000000000000
  0
ARC
  8
0
  6
CONTINUOUS
 62
256
 10
-428.857356999999980
 20
-188.327069999999990
 40
5.000000000000000
 50
180.000000000000000
 51
265.138594999999900
  0
ARC
  8
0
  6
CONTINUOUS
 62
256
 10
-403.857356999999980
 20
-348.988300999999980
 40
290.797000000000030
 50
90.000000000000000
 51
95.001649999999998
  0
LINE
  8
0
  6
CONTINUOUS
 62
256
 10
-442.102853999999980
 20
-65.310710999999998
 11
-445.443158999999980
 21
-68.651015999999998
  0
ARC
  8
0
  6
CONTINUOUS
 62
256
 10
-427.397154000000000
 20
-80.016411000000005
 40
20.797000000000001
 50
95.001650000000041
 51
135.000000000000030
  0
ARC
  8
0
  6
CONTINUOUS
 62
256
 10
-57.257356999999999
 20
-107.388301000000000
 40
390.797000000000030
 50
174.582035999999990
 51
180.000000000000000
  0
ARC
  8
0
  6
CONTINUOUS
 62
256
 10
-443.321839000000010
 20
-70.772335999999996
 40
3.000000000000014
 50
135.000000000000200
 51
174.582036000000070
  0
ARC
  8
0
  6
CONTINUOUS
 62
256
 10
-403.857356999999980
 20
134.211699000000010
 40
290.797000000000030
 50
264.998350000000070
 51
270.000000000000000
  0
LINE
  8
0
  6
CONTINUOUS
 62
256
 10
-442.102853999999980
 20
-149.465892000000000
 11
-445.443158999999980
 21
-146.125587000000000
  0
ARC
  8
0
  6
CONTINUOUS
 62
256
 10
-427.397154000000000
 20
-134.760191999999990
 40
20.797000000000015
 50
225.000000000000000
 51
264.998350000000070
  0
ARC
  8
0
  6
CONTINUOUS
 62
256
 10
-57.257356999999999
 20
-107.388301000000000
 40
390.797000000000030
 50
180.000000000000000
 51
185.417964000000010
  0
ARC
  8
0
  6
CONTINUOUS
 62
256
 10
-443.321839000000010
 20
-144.004266000000000
 40
2.999999999999998
 50
185.417964000000180
 51
224.999999999999630
  0
ARC
  8
0
  6
CONTINUOUS
 62
256
 10
-438.681917000000000
 20
-103.888301000000000
 40
1.000000000000000
 50
270.000000000000000
 51
354.260829999999540
  0
ARC
  8
0
  6
CONTINUOUS
 62
256
 10
-441.695829000000000
 20
-103.888301000000000
 40
1.000000000000027
 50
174.715267000000240
 51
270.000000000000000
  0
ARC
  8
0
  6
CONTINUOUS
 62
256
 10
-433.148994000000020
 20
-103.888301000000000
 40
1.000000000000019
 50
173.186146000000240
 51
270.000000000000000
  0
LINE
  8
0
  6
CONTINUOUS
 62
256
 10
-441.695829000000000
 20
-104.888301000000000
 11
-438.681917000000000
 21
-104.888301000000000
  0
ARC
  8
0
  6
CONTINUOUS
 62
256
 10
-409.654489000000010
 20
-90.347373000000005
 40
0.999999999999984
 50
210.000000000000510
 51
288.787729000000750
  0
LINE
  8
0
  6
CONTINUOUS
 62
256
 10
-412.045433000000000
 20
-88.206137999999996
 11
-410.520514999999990
 21
-90.847373000000005
  0
ARC
  8
0
  6
CONTINUOUS
 62
256
 10
-411.179407000000030
 20
-87.706137999999996
 40
0.999999999999993
 50
110.405931999999860
 51
210.000000000000510
  0
ARC
  8
0
  6
CONTINUOUS
 62
256
 10
-413.960193000000000
 20
-82.889674999999997
 40
0.999999999999984
 50
210.000000000000510
 51
292.410458000000400
  0
ARC
  8
0
  6
CONTINUOUS
 62
256
 10
-418.238547999999980
 20
-75.479347000000004
 40
0.999999999999984
 50
210.000000000000510
 51
294.260829999998690
  0
LINE
  8
0
  6
CONTINUOUS
 62
256
 10
-416.338112000000020
 20
-80.771000000000001
 11
-414.826218999999980
 21
-83.389674999999997
  0
ARC
  8
0
  6
CONTINUOUS
 62
256
 10
-415.472085999999990
 20
-80.271000000000001
 40
1.000000000000000
 50
113.186146000000120
 51
210.000000000000510
  0
LINE
  8
0
  6
CONTINUOUS
 62
256
 10
-420.611529000000020
 20
-73.369223000000005
 11
-419.104573000000020
 21
-75.979347000000004
  0
ARC
  8
0
  6
CONTINUOUS
 62
256
 10
-419.745503999999980
 20
-72.869223000000005
 40
1.000000000000004
 50
114.715267000000150
 51
210.000000000000510
  0
ARC
  8
0
  6
CONTINUOUS
 62
256
 10
-425.807682000000000
 20
-76.369223000000005
 40
0.999999999999984
 50
30.000000000000544
 51
125.284733000000970
  0
ARC
  8
0
  6
CONTINUOUS
 62
256
 10
-424.300726000000000
 20
-78.979347000000004
 40
0.999999999999998
 50
305.739170000000230
 51
30.000000000000544
  0
ARC
  8
0
  6
CONTINUOUS
 62
256
 10
-430.125207999999990
 20
-103.888301000000000
 40
1.000000000000000
 50
270.000000000000000
 51
352.410458000000010
  0
ARC
  8
0
  6
CONTINUOUS
 62
256
 10
-421.534264000000010
 20
-83.771000000000001
 40
0.999999999999984
 50
30.000000000000544
 51
126.813854000000730
  0
ARC
  8
0
  6
CONTINUOUS
 62
256
 10
-420.022371000000020
 20
-86.389674999999997
 40
0.999999999999993
 50
307.589541999998800
 51
30.000000000000544
  0
ARC
  8
0
  6
CONTINUOUS
 62
256
 10
-424.563635999999970
 20
-103.888301000000000
 40
0.999999999999978
 50
170.405932000000040
 51
270.000000000000000
  0
ARC
  8
0
  6
CONTINUOUS
 62
256
 10
-421.513800000000000
 20
-103.888301000000000
 40
1.000000000000000
 50
270.000000000000000
 51
348.787729000000300
  0
ARC
  8
0
  6
CONTINUOUS
 62
256
 10
-417.241584999999990
 20
-91.206137999999996
 40
0.999999999999984
 50
30.000000000000544
 51
129.594067999999310
  0
ARC
  8
0
  6
CONTINUOUS
 62
256
 10
-415.716666999999970
 20
-93.847373000000005
 40
1.000000000000006
 50
311.212270999999760
 51
30.000000000000544
  0
ARC
  8
0
  6
CONTINUOUS
 62
256
 10
-412.888444999999990
 20
-98.745997000000003
 40
0.999999999999984
 50
30.000000000000544
 51
136.260205000000240
  0
ARC
  8
0
  6
CONTINUOUS
 62
256
 10
-415.857356999999980
 20
-103.888301000000000
 40
0.999999999999976
 50
163.739794999999330
 51
270.000000000000000
  0
ARC
  8
0
  6
CONTINUOUS
 62
256
 10
-412.689117000000010
 20
-103.888301000000000
 40
1.000000000000000
 50
270.000000000000000
 51
338.381728000000520
  0
ARC
  8
0
  6
CONTINUOUS
 62
256
 10
-411.304326000000000
 20
-101.489772000000000
 40
0.999999999999985
 50
321.618271999998970
 51
30.000000000000544
  0
ARC
  8
0
  6
CONTINUOUS
 62
256
 10
-403.857356999999980
 20
-107.388301000000000
 40
39.000000000000000
 50
125.284733000000000
 51
174.715267000000010
  0
ARC
  8
0
  6
CONTINUOUS
 62
256
 10
-403.857356999999980
 20
-107.388301000000000
 40
30.499999999999982
 50
126.813853999999980
 51
173.186145999999980
  0
ARC
  8
0
  6
CONTINUOUS
 62
256
 10
-403.857356999999980
 20
-107.388301000000000
 40
34.000000000000007
 50
125.739170000000040
 51
174.260830000000000
  0
ARC
  8
0
  6
CONTINUOUS
 62
256
 10
-403.857356999999980
 20
-107.388301000000000
 40
25.499999999999996
 50
127.589541999999970
 51
172.410458000000010
  0
ARC
  8
0
  6
CONTINUOUS
 62
256
 10
-403.857356999999980
 20
-107.388301000000000
 40
21.999999999999986
 50
129.594067999999940
 51
170.405931999999980
  0
ARC
  8
0
  6
CONTINUOUS
 62
256
 10
-403.857356999999980
 20
-107.388301000000000
 40
17.000000000000014
 50
131.212271000000020
 51
168.787728999999980
  0
ARC
  8
0
  6
CONTINUOUS
 62
256
 10
-403.857356999999980
 20
-107.388301000000000
 40
13.500000000000004
 50
136.260205000000010
 51
163.739794999999960
  0
ARC
  8
0
  6
CONTINUOUS
 62
256
 10
-403.857356999999980
 20
-107.388301000000000
 40
8.500000000000005
 50
141.618272000000020
 51
158.381728000000040
  0
LINE
  8
0
  6
CONTINUOUS
 62
256
 10
-420.668239000000030
 20
-83.271000000000001
 11
-419.156345999999980
 21
-85.889674999999997
  0
LINE
  8
0
  6
CONTINUOUS
 62
256
 10
-424.941656000000020
 20
-75.869223000000005
 11
-423.434700000000020
 21
-78.479347000000004
  0
LINE
  8
0
  6
CONTINUOUS
 62
256
 10
-416.375560000000010
 20
-90.706137999999996
 11
-414.850641999999990
 21
-93.347373000000005
  0
LINE
  8
0
  6
CONTINUOUS
 62
256
 10
-412.022420000000010
 20
-98.245997000000003
 11
-410.438300000000030
 21
-100.989772000000000
  0
LINE
  8
0
  6
CONTINUOUS
 62
256
 10
-415.857356999999980
 20
-104.888301000000000
 11
-412.689117000000010
 21
-104.888301000000000
  0
LINE
  8
0
  6
CONTINUOUS
 62
256
 10
-424.563635999999970
 20
-104.888301000000000
 11
-421.513800000000000
 21
-104.888301000000000
  0
LINE
  8
0
  6
CONTINUOUS
 62
256
 10
-433.148994000000020
 20
-104.888301000000000
 11
-430.125207999999990
 21
-104.888301000000000
  0
ARC
  8
0
  6
CONTINUOUS
 62
256
 10
-405.242147999999990
 20
-97.989772000000002
 40
0.999999999999984
 50
210.000000000000510
 51
278.381727999998870
  0
ARC
  8
0
  6
CONTINUOUS
 62
256
 10
-403.857356999999980
 20
-107.388301000000000
 40
8.500000000000002
 50
81.618271999999948
 51
98.381728000000052
  0
LINE
  8
0
  6
CONTINUOUS
 62
256
 10
-407.692293000000010
 20
-95.745997000000003
 11
-406.108173000000020
 21
-98.489772000000002
  0
ARC
  8
0
  6
CONTINUOUS
 62
256
 10
-406.826268000000030
 20
-95.245997000000003
 40
1.000000000000011
 50
103.739795000001280
 51
210.000000000000510
  0
ARC
  8
0
  6
CONTINUOUS
 62
256
 10
-386.200913000000010
 20
-103.888301000000000
 40
1.000000000000016
 50
191.212270999999730
 51
270.000000000000000
  0
LINE
  8
0
  6
CONTINUOUS
 62
256
 10
-383.151076999999990
 20
-104.888301000000000
 11
-386.200913000000010
 21
-104.888301000000000
  0
ARC
  8
0
  6
CONTINUOUS
 62
256
 10
-383.151076999999990
 20
-103.888301000000000
 40
1.000000000000000
 50
270.000000000000000
 51
9.594067999999961
  0
ARC
  8
0
  6
CONTINUOUS
 62
256
 10
-386.180449000000010
 20
-83.771000000000001
 40
1.000000000000011
 50
53.186145999999269
 51
149.999999999999460
  0
LINE
  8
0
  6
CONTINUOUS
 62
256
 10
-387.046474999999990
 20
-83.271000000000001
 11
-388.558366999999980
 21
-85.889674999999997
  0
ARC
  8
0
  6
CONTINUOUS
 62
256
 10
-387.692342000000000
 20
-86.389674999999997
 40
0.999999999999984
 50
149.999999999999460
 51
232.410458000001200
  0
ARC
  8
0
  6
CONTINUOUS
 62
256
 10
-381.907031000000020
 20
-76.369223000000005
 40
1.000000000000016
 50
54.715266999999017
 51
149.999999999999460
  0
LINE
  8
0
  6
CONTINUOUS
 62
256
 10
-382.773056999999990
 20
-75.869223000000005
 11
-384.280013000000000
 21
-78.479347000000004
  0
ARC
  8
0
  6
CONTINUOUS
 62
256
 10
-383.413987000000020
 20
-78.979347000000004
 40
0.999999999999984
 50
149.999999999999460
 51
234.260829999999740
  0
ARC
  8
0
  6
CONTINUOUS
 62
256
 10
-396.410387000000010
 20
-101.489772000000000
 40
0.999999999999984
 50
149.999999999999460
 51
218.381728000001000
  0
LINE
  8
0
  6
CONTINUOUS
 62
256
 10
-395.692293000000010
 20
-98.245997000000003
 11
-397.276412999999990
 21
-100.989772000000000
  0
ARC
  8
0
  6
CONTINUOUS
 62
256
 10
-391.998045999999990
 20
-93.847373000000005
 40
0.999999999999984
 50
149.999999999999460
 51
228.787729000000240
  0
LINE
  8
0
  6
CONTINUOUS
 62
256
 10
-391.339153000000010
 20
-90.706137999999996
 11
-392.864071000000020
 21
-93.347373000000005
  0
ARC
  8
0
  6
CONTINUOUS
 62
256
 10
-390.473127999999970
 20
-91.206137999999996
 40
0.999999999999988
 50
50.405932000000682
 51
149.999999999999460
  0
ARC
  8
0
  6
CONTINUOUS
 62
256
 10
-395.025596000000010
 20
-103.888301000000000
 40
1.000000000000013
 50
201.618271999999450
 51
270.000000000000000
  0
ARC
  8
0
  6
CONTINUOUS
 62
256
 10
-403.857356999999980
 20
-107.388301000000000
 40
8.500000000000016
 50
21.618271999999980
 51
38.381727999999960
  0
ARC
  8
0
  6
CONTINUOUS
 62
256
 10
-394.826268000000030
 20
-98.745997000000003
 40
1.000000000000005
 50
43.739794999999773
 51
149.999999999999460
  0
LINE
  8
0
  6
CONTINUOUS
 62
256
 10
-391.857356999999980
 20
-104.888301000000000
 11
-395.025596000000010
 21
-104.888301000000000
  0
ARC
  8
0
  6
CONTINUOUS
 62
256
 10
-391.857356999999980
 20
-103.888301000000000
 40
1.000000000000000
 50
270.000000000000000
 51
16.260205000000671
  0
ARC
  8
0
  6
CONTINUOUS
 62
256
 10
-403.857356999999980
 20
-107.388301000000000
 40
13.499999999999989
 50
16.260205000000035
 51
43.739795000000001
  0
ARC
  8
0
  6
CONTINUOUS
 62
256
 10
-403.857356999999980
 20
-107.388301000000000
 40
16.999999999999993
 50
11.212271000000010
 51
48.787728999999970
  0
ARC
  8
0
  6
CONTINUOUS
 62
256
 10
-403.857356999999980
 20
-107.388301000000000
 40
21.999999999999979
 50
9.594068000000020
 51
50.405932000000064
  0
ARC
  8
0
  6
CONTINUOUS
 62
256
 10
-392.242627000000030
 20
-80.271000000000001
 40
0.999999999999984
 50
329.999999999999490
 51
66.813853999999878
  0
LINE
  8
0
  6
CONTINUOUS
 62
256
 10
-391.376601999999990
 20
-80.771000000000001
 11
-392.888494999999980
 21
-83.389674999999997
  0
ARC
  8
0
  6
CONTINUOUS
 62
256
 10
-393.754520000000010
 20
-82.889674999999997
 40
1.000000000000009
 50
247.589541999999540
 51
329.999999999999490
  0
ARC
  8
0
  6
CONTINUOUS
 62
256
 10
-387.969208999999980
 20
-72.869223000000005
 40
0.999999999999984
 50
329.999999999999490
 51
65.284732999999861
  0
LINE
  8
0
  6
CONTINUOUS
 62
256
 10
-387.103184000000000
 20
-73.369223000000005
 11
-388.610140000000000
 21
-75.979347000000004
  0
ARC
  8
0
  6
CONTINUOUS
 62
256
 10
-389.476164999999980
 20
-75.479347000000004
 40
0.999999999999992
 50
245.739170000001340
 51
329.999999999999490
  0
ARC
  8
0
  6
CONTINUOUS
 62
256
 10
-402.472564999999970
 20
-97.989772000000002
 40
0.999999999999998
 50
261.618272000001130
 51
329.999999999999490
  0
LINE
  8
0
  6
CONTINUOUS
 62
256
 10
-400.022420000000010
 20
-95.745997000000003
 11
-401.606540000000000
 21
-98.489772000000002
  0
ARC
  8
0
  6
CONTINUOUS
 62
256
 10
-398.060224000000010
 20
-90.347373000000005
 40
1.000000000000010
 50
251.212270999999220
 51
329.999999999999490
  0
LINE
  8
0
  6
CONTINUOUS
 62
256
 10
-395.669280000000010
 20
-88.206137999999996
 11
-397.194197999999970
 21
-90.847373000000005
  0
ARC
  8
0
  6
CONTINUOUS
 62
256
 10
-396.535305999999990
 20
-87.706137999999996
 40
0.999999999999984
 50
329.999999999999490
 51
69.594068000000149
  0
ARC
  8
0
  6
CONTINUOUS
 62
256
 10
-400.888444999999990
 20
-95.245997000000003
 40
0.999999999999984
 50
329.999999999999490
 51
76.260204999998734
  0
ARC
  8
0
  6
CONTINUOUS
 62
256
 10
-403.857356999999980
 20
-107.388301000000000
 40
13.499999999999989
 50
76.260205000000056
 51
103.739794999999940
  0
ARC
  8
0
  6
CONTINUOUS
 62
256
 10
-403.857356999999980
 20
-107.388301000000000
 40
16.999999999999993
 50
71.212271000000044
 51
108.787728999999960
  0
ARC
  8
0
  6
CONTINUOUS
 62
256
 10
-403.857356999999980
 20
-107.388301000000000
 40
21.999999999999996
 50
69.594067999999993
 51
110.405932000000020
  0
ARC
  8
0
  6
CONTINUOUS
 62
256
 10
-403.857356999999980
 20
-107.388301000000000
 40
30.499999999999996
 50
66.813853999999992
 51
113.186146000000020
  0
ARC
  8
0
  6
CONTINUOUS
 62
256
 10
-403.857356999999980
 20
-107.388301000000000
 40
25.500000000000007
 50
67.589541999999966
 51
112.410458000000050
  0
ARC
  8
0
  6
CONTINUOUS
 62
256
 10
-403.857356999999980
 20
-107.388301000000000
 40
34.000000000000000
 50
65.739169999999987
 51
114.260830000000010
  0
ARC
  8
0
  6
CONTINUOUS
 62
256
 10
-403.857356999999980
 20
-107.388301000000000
 40
38.999999999999993
 50
65.284733000000031
 51
114.715266999999980
  0
LINE
  8
0
  6
CONTINUOUS
 62
256
 10
-433.148994000000020
 20
-109.888301000000000
 11
-430.125207999999990
 21
-109.888301000000000
  0
LINE
  8
0
  6
CONTINUOUS
 62
256
 10
-424.563635999999970
 20
-109.888301000000000
 11
-421.513800000000000
 21
-109.888301000000000
  0
LINE
  8
0
  6
CONTINUOUS
 62
256
 10
-415.857356999999980
 20
-109.888301000000000
 11
-412.689117000000010
 21
-109.888301000000000
  0
LINE
  8
0
  6
CONTINUOUS
 62
256
 10
-412.022420000000010
 20
-116.530606000000010
 11
-410.438300000000030
 21
-113.786831000000010
  0
LINE
  8
0
  6
CONTINUOUS
 62
256
 10
-416.375560000000010
 20
-124.070465000000000
 11
-414.850641999999990
 21
-121.429230000000000
  0
LINE
  8
0
  6
CONTINUOUS
 62
256
 10
-424.941656000000020
 20
-138.907379999999990
 11
-423.434700000000020
 21
-136.297255000000010
  0
LINE
  8
0
  6
CONTINUOUS
 62
256
 10
-441.695829000000000
 20
-109.888301000000000
 11
-438.681917000000000
 21
-109.888301000000000
  0
LINE
  8
0
  6
CONTINUOUS
 62
256
 10
-420.668239000000030
 20
-131.505603000000010
 11
-419.156345999999980
 21
-128.886928000000010
  0
ARC
  8
0
  6
CONTINUOUS
 62
256
 10
-403.857356999999980
 20
-107.388301000000000
 40
8.500000000000016
 50
201.618271999999960
 51
218.381727999999950
  0
ARC
  8
0
  6
CONTINUOUS
 62
256
 10
-403.857356999999980
 20
-107.388301000000000
 40
13.499999999999989
 50
196.260205000000010
 51
223.739794999999990
  0
ARC
  8
0
  6
CONTINUOUS
 62
256
 10
-403.857356999999980
 20
-107.388301000000000
 40
16.999999999999989
 50
191.212270999999960
 51
228.787728999999960
  0
ARC
  8
0
  6
CONTINUOUS
 62
256
 10
-403.857356999999980
 20
-107.388301000000000
 40
21.999999999999975
 50
189.594067999999960
 51
230.405932000000060
  0
ARC
  8
0
  6
CONTINUOUS
 62
256
 10
-403.857356999999980
 20
-107.388301000000000
 40
25.500000000000011
 50
187.589541999999990
 51
232.410458000000030
  0
ARC
  8
0
  6
CONTINUOUS
 62
256
 10
-403.857356999999980
 20
-107.388301000000000
 40
34.000000000000028
 50
185.739169999999970
 51
234.260829999999970
  0
ARC
  8
0
  6
CONTINUOUS
 62
256
 10
-403.857356999999980
 20
-107.388301000000000
 40
30.499999999999986
 50
186.813853999999990
 51
233.186146000000040
  0
ARC
  8
0
  6
CONTINUOUS
 62
256
 10
-403.857356999999980
 20
-107.388301000000000
 40
38.999999999999986
 50
185.284732999999990
 51
234.715266999999980
  0
ARC
  8
0
  6
CONTINUOUS
 62
256
 10
-411.304326000000000
 20
-113.286831000000010
 40
0.999999999999984
 50
329.999999999999490
 51
38.381728000001026
  0
ARC
  8
0
  6
CONTINUOUS
 62
256
 10
-412.689117000000010
 20
-110.888301000000000
 40
1.000000000000013
 50
21.618271999999475
 51
90.000000000000000
  0
ARC
  8
0
  6
CONTINUOUS
 62
256
 10
-415.857356999999980
 20
-110.888301000000000
 40
1.000000000000000
 50
90.000000000000000
 51
196.260205000000670
  0
ARC
  8
0
  6
CONTINUOUS
 62
256
 10
-412.888444999999990
 20
-116.030606000000010
 40
1.000000000000005
 50
223.739794999999760
 51
329.999999999999490
  0
ARC
  8
0
  6
CONTINUOUS
 62
256
 10
-415.716666999999970
 20
-120.929230000000000
 40
0.999999999999984
 50
329.999999999999490
 51
48.787728999999715
  0
ARC
  8
0
  6
CONTINUOUS
 62
256
 10
-417.241584999999990
 20
-123.570465000000000
 40
0.999999999999988
 50
230.405932000000690
 51
329.999999999999490
  0
ARC
  8
0
  6
CONTINUOUS
 62
256
 10
-421.513800000000000
 20
-110.888301000000000
 40
1.000000000000016
 50
11.212270999999729
 51
90.000000000000000
  0
ARC
  8
0
  6
CONTINUOUS
 62
256
 10
-424.563635999999970
 20
-110.888301000000000
 40
1.000000000000000
 50
90.000000000000000
 51
189.594067999999960
  0
ARC
  8
0
  6
CONTINUOUS
 62
256
 10
-433.148994000000020
 20
-110.888301000000000
 40
1.000000000000000
 50
90.000000000000000
 51
186.813853999999760
  0
ARC
  8
0
  6
CONTINUOUS
 62
256
 10
-420.022371000000020
 20
-128.386928000000010
 40
0.999999999999984
 50
329.999999999999490
 51
52.410458000001171
  0
ARC
  8
0
  6
CONTINUOUS
 62
256
 10
-421.534264000000010
 20
-131.005603000000010
 40
1.000000000000000
 50
233.186145999998760
 51
329.999999999999490
  0
ARC
  8
0
  6
CONTINUOUS
 62
256
 10
-430.125207999999990
 20
-110.888301000000000
 40
0.999999999999990
 50
7.589541999999997
 51
90.000000000000000
  0
ARC
  8
0
  6
CONTINUOUS
 62
256
 10
-441.695829000000000
 20
-110.888301000000000
 40
1.000000000000000
 50
90.000000000000000
 51
185.284732999999760
  0
ARC
  8
0
  6
CONTINUOUS
 62
256
 10
-438.681917000000000
 20
-110.888301000000000
 40
0.999999999999978
 50
5.739170000000447
 51
90.000000000000000
  0
ARC
  8
0
  6
CONTINUOUS
 62
256
 10
-424.300726000000000
 20
-135.797255000000010
 40
0.999999999999984
 50
329.999999999999490
 51
54.260829999999778
  0
ARC
  8
0
  6
CONTINUOUS
 62
256
 10
-425.807682000000000
 20
-138.407379999999990
 40
1.000000000000016
 50
234.715266999999020
 51
329.999999999999490
  0
CIRCLE
  8
0
  6
CONTINUOUS
 62
256
 10
-403.857356999999980
 20
-107.388301000000000
 40
5.000000000000000
  0
ARC
  8
0
  6
CONTINUOUS
 62
256
 10
-419.745503999999980
 20
-141.907379999999990
 40
0.999999999999984
 50
149.999999999999460
 51
245.284732999999870
  0
LINE
  8
0
  6
CONTINUOUS
 62
256
 10
-420.611529000000020
 20
-141.407379999999990
 11
-419.104573000000020
 21
-138.797255000000010
  0
ARC
  8
0
  6
CONTINUOUS
 62
256
 10
-403.857356999999980
 20
-107.388301000000000
 40
39.000000000000000
 50
245.284732999999960
 51
294.715266999999980
  0
ARC
  8
0
  6
CONTINUOUS
 62
256
 10
-403.857356999999980
 20
-107.388301000000000
 40
34.000000000000000
 50
245.739170000000000
 51
294.260830000000000
  0
ARC
  8
0
  6
CONTINUOUS
 62
256
 10
-403.857356999999980
 20
-107.388301000000000
 40
25.499999999999993
 50
247.589541999999940
 51
292.410458000000010
  0
ARC
  8
0
  6
CONTINUOUS
 62
256
 10
-403.857356999999980
 20
-107.388301000000000
 40
30.499999999999996
 50
246.813853999999990
 51
293.186146000000010
  0
ARC
  8
0
  6
CONTINUOUS
 62
256
 10
-415.472085999999990
 20
-134.505603000000010
 40
0.999999999999984
 50
149.999999999999460
 51
246.813853999999880
  0
LINE
  8
0
  6
CONTINUOUS
 62
256
 10
-416.338112000000020
 20
-134.005603000000010
 11
-414.826218999999980
 21
-131.386928000000010
  0
ARC
  8
0
  6
CONTINUOUS
 62
256
 10
-403.857356999999980
 20
-107.388301000000000
 40
21.999999999999996
 50
249.594067999999990
 51
290.405932000000010
  0
ARC
  8
0
  6
CONTINUOUS
 62
256
 10
-418.238547999999980
 20
-139.297255000000010
 40
0.999999999999992
 50
65.739170000001337
 51
149.999999999999460
  0
ARC
  8
0
  6
CONTINUOUS
 62
256
 10
-413.960193000000000
 20
-131.886928000000010
 40
1.000000000000009
 50
67.589541999999554
 51
149.999999999999460
  0
ARC
  8
0
  6
CONTINUOUS
 62
256
 10
-411.179407000000030
 20
-127.070465000000000
 40
0.999999999999984
 50
149.999999999999460
 51
249.594068000000420
  0
ARC
  8
0
  6
CONTINUOUS
 62
256
 10
-403.857356999999980
 20
-107.388301000000000
 40
16.999999999999993
 50
251.212271000000040
 51
288.787728999999960
  0
LINE
  8
0
  6
CONTINUOUS
 62
256
 10
-412.045433000000000
 20
-126.570465000000000
 11
-410.520514999999990
 21
-123.929230000000000
  0
ARC
  8
0
  6
CONTINUOUS
 62
256
 10
-409.654489000000010
 20
-124.429230000000000
 40
1.000000000000010
 50
71.212270999999262
 51
149.999999999999460
  0
ARC
  8
0
  6
CONTINUOUS
 62
256
 10
-403.857356999999980
 20
-107.388301000000000
 40
13.499999999999989
 50
256.260205000000040
 51
283.739794999999960
  0
ARC
  8
0
  6
CONTINUOUS
 62
256
 10
-406.826268000000030
 20
-119.530606000000010
 40
0.999999999999984
 50
149.999999999999460
 51
256.260204999998730
  0
LINE
  8
0
  6
CONTINUOUS
 62
256
 10
-407.692293000000010
 20
-119.030606000000010
 11
-406.108173000000020
 21
-116.286831000000010
  0
ARC
  8
0
  6
CONTINUOUS
 62
256
 10
-400.888444999999990
 20
-119.530606000000010
 40
1.000000000000011
 50
283.739795000001270
 51
30.000000000000544
  0
ARC
  8
0
  6
CONTINUOUS
 62
256
 10
-403.857356999999980
 20
-107.388301000000000
 40
8.500000000000002
 50
261.618271999999930
 51
278.381728000000070
  0
ARC
  8
0
  6
CONTINUOUS
 62
256
 10
-405.242147999999990
 20
-116.786831000000010
 40
0.999999999999998
 50
81.618272000001099
 51
149.999999999999460
  0
ARC
  8
0
  6
CONTINUOUS
 62
256
 10
-396.535305999999990
 20
-127.070465000000000
 40
1.000000000000006
 50
290.405931999999610
 51
30.000000000000544
  0
LINE
  8
0
  6
CONTINUOUS
 62
256
 10
-395.669280000000010
 20
-126.570465000000000
 11
-397.194197999999970
 21
-123.929230000000000
  0
ARC
  8
0
  6
CONTINUOUS
 62
256
 10
-398.060224000000010
 20
-124.429230000000000
 40
0.999999999999984
 50
30.000000000000544
 51
108.787729000000750
  0
LINE
  8
0
  6
CONTINUOUS
 62
256
 10
-400.022420000000010
 20
-119.030606000000010
 11
-401.606540000000000
 21
-116.286831000000010
  0
ARC
  8
0
  6
CONTINUOUS
 62
256
 10
-402.472564999999970
 20
-116.786831000000010
 40
0.999999999999984
 50
30.000000000000544
 51
98.381727999998901
  0
ARC
  8
0
  6
CONTINUOUS
 62
256
 10
-389.476164999999980
 20
-139.297255000000010
 40
0.999999999999984
 50
30.000000000000544
 51
114.260829999998650
  0
LINE
  8
0
  6
CONTINUOUS
 62
256
 10
-387.103184000000000
 20
-141.407379999999990
 11
-388.610140000000000
 21
-138.797255000000010
  0
ARC
  8
0
  6
CONTINUOUS
 62
256
 10
-387.969208999999980
 20
-141.907379999999990
 40
1.000000000000004
 50
294.715267000000150
 51
30.000000000000544
  0
ARC
  8
0
  6
CONTINUOUS
 62
256
 10
-393.754520000000010
 20
-131.886928000000010
 40
0.999999999999984
 50
30.000000000000544
 51
112.410458000000460
  0
LINE
  8
0
  6
CONTINUOUS
 62
256
 10
-391.376601999999990
 20
-134.005603000000010
 11
-392.888494999999980
 21
-131.386928000000010
  0
ARC
  8
0
  6
CONTINUOUS
 62
256
 10
-392.242627000000030
 20
-134.505603000000010
 40
1.000000000000000
 50
293.186146000000120
 51
30.000000000000544
  0
ARC
  8
0
  6
CONTINUOUS
 62
256
 10
-403.857356999999980
 20
-107.388301000000000
 40
21.999999999999986
 50
309.594067999999940
 51
350.405932000000010
  0
ARC
  8
0
  6
CONTINUOUS
 62
256
 10
-403.857356999999980
 20
-107.388301000000000
 40
17.000000000000014
 50
311.212270999999990
 51
348.787729000000010
  0
ARC
  8
0
  6
CONTINUOUS
 62
256
 10
-403.857356999999980
 20
-107.388301000000000
 40
13.500000000000004
 50
316.260204999999980
 51
343.739794999999960
  0
ARC
  8
0
  6
CONTINUOUS
 62
256
 10
-391.857356999999980
 20
-110.888301000000000
 40
0.999999999999976
 50
343.739794999999330
 51
90.000000000000000
  0
LINE
  8
0
  6
CONTINUOUS
 62
256
 10
-391.857356999999980
 20
-109.888301000000000
 11
-395.025596000000010
 21
-109.888301000000000
  0
ARC
  8
0
  6
CONTINUOUS
 62
256
 10
-394.826268000000030
 20
-116.030606000000010
 40
0.999999999999984
 50
210.000000000000510
 51
316.260205000000270
  0
ARC
  8
0
  6
CONTINUOUS
 62
256
 10
-403.857356999999980
 20
-107.388301000000000
 40
8.500000000000005
 50
321.618272000000050
 51
338.381728000000010
  0
ARC
  8
0
  6
CONTINUOUS
 62
256
 10
-395.025596000000010
 20
-110.888301000000000
 40
1.000000000000000
 50
90.000000000000000
 51
158.381728000000550
  0
ARC
  8
0
  6
CONTINUOUS
 62
256
 10
-390.473127999999970
 20
-123.570465000000000
 40
0.999999999999984
 50
210.000000000000510
 51
309.594067999999310
  0
LINE
  8
0
  6
CONTINUOUS
 62
256
 10
-391.339153000000010
 20
-124.070465000000000
 11
-392.864071000000020
 21
-121.429230000000000
  0
ARC
  8
0
  6
CONTINUOUS
 62
256
 10
-391.998045999999990
 20
-120.929230000000000
 40
1.000000000000006
 50
131.212270999999760
 51
210.000000000000510
  0
LINE
  8
0
  6
CONTINUOUS
 62
256
 10
-395.692293000000010
 20
-116.530606000000010
 11
-397.276412999999990
 21
-113.786831000000010
  0
ARC
  8
0
  6
CONTINUOUS
 62
256
 10
-396.410387000000010
 20
-113.286831000000010
 40
0.999999999999985
 50
141.618271999999000
 51
210.000000000000510
  0
ARC
  8
0
  6
CONTINUOUS
 62
256
 10
-383.413987000000020
 20
-135.797255000000010
 40
0.999999999999998
 50
125.739170000000210
 51
210.000000000000510
  0
LINE
  8
0
  6
CONTINUOUS
 62
256
 10
-382.773056999999990
 20
-138.907379999999990
 11
-384.280013000000000
 21
-136.297255000000010
  0
ARC
  8
0
  6
CONTINUOUS
 62
256
 10
-381.907031000000020
 20
-138.407379999999990
 40
0.999999999999984
 50
210.000000000000510
 51
305.284733000000980
  0
ARC
  8
0
  6
CONTINUOUS
 62
256
 10
-387.692342000000000
 20
-128.386928000000010
 40
0.999999999999993
 50
127.589541999998830
 51
210.000000000000510
  0
LINE
  8
0
  6
CONTINUOUS
 62
256
 10
-387.046474999999990
 20
-131.505603000000010
 11
-388.558366999999980
 21
-128.886928000000010
  0
ARC
  8
0
  6
CONTINUOUS
 62
256
 10
-386.180449000000010
 20
-131.005603000000010
 40
0.999999999999984
 50
210.000000000000510
 51
306.813854000001190
  0
ARC
  8
0
  6
CONTINUOUS
 62
256
 10
-383.151076999999990
 20
-110.888301000000000
 40
0.999999999999978
 50
350.405932000000010
 51
90.000000000000000
  0
LINE
  8
0
  6
CONTINUOUS
 62
256
 10
-383.151076999999990
 20
-109.888301000000000
 11
-386.200913000000010
 21
-109.888301000000000
  0
ARC
  8
0
  6
CONTINUOUS
 62
256
 10
-386.200913000000010
 20
-110.888301000000000
 40
1.000000000000000
 50
90.000000000000000
 51
168.787729000000270
  0
LINE
  8
0
  6
DASHDOT
 62
256
 10
-403.857356999999980
 20
-39.038694000000000
 11
-403.857356999999980
 21
-202.073541000000010
  0
ARC
  8
0
  6
DASHED
 62
256
 10
-232.817404000000010
 20
-179.388301000000010
 40
7.000000000000000
 50
180.000000000000000
 51
0.000000000000000
  0
LINE
  8
0
  6
DASHDOT
 62
256
 10
-242.125738000000010
 20
-179.388301000000010
 11
-222.936698000000010
 21
-179.388301000000010
  0
ARC
  8
0
  6
DASHED
 62
256
 10
-182.817404000000010
 20
-179.388301000000010
 40
7.000000000000000
 50
180.000000000000000
 51
0.000000000000000
  0
CIRCLE
  8
0
  6
DASHED
 62
256
 10
-182.817404000000010
 20
-179.388301000000010
 40
6.000000000000000
  0
LINE
  8
0
  6
DASHDOT
 62
256
 10
-193.227702999999990
 20
-179.388301000000010
 11
-172.853521000000000
 21
-179.388301000000010
  0
LINE
  8
0
  6
DASHDOT
 62
256
 10
-37.317404000000003
 20
29.615583000000001
 11
-37.317404000000003
 21
145.429189000000010
  0
LINE
  8
0
  6
DASHDOT
 62
256
 10
-297.703768000000030
 20
84.635238999999999
 11
19.648371999999998
 21
84.635238999999999
  0
POLYLINE
  8
0
  6
CONTINUOUS
 62
256
 66
1
 70
1
  0
VERTEX
  8
0
  6
CONTINUOUS
 62
256
 10
-243.617404000000020
 20
37.307907999999998
  0
VERTEX
  8
0
  6
CONTINUOUS
 62
256
 10
-243.707713182104840
 20
38.010864510558164
  0
VERTEX
  8
0
  6
CONTINUOUS
 62
256
 10
-243.975170197196970
 20
38.686806796638137
  0
VERTEX
  8
0
  6
CONTINUOUS
 62
256
 10
-244.409496822178060
 20
39.309758775258658
  0
VERTEX
  8
0
  6
CONTINUOUS
 62
256
 10
-244.994002128423230
 20
39.855780751236836
  0
VERTEX
  8
0
  6
CONTINUOUS
 62
256
 10
-245.706223904807900
 20
40.303889406248487
  0
VERTEX
  8
0
  6
CONTINUOUS
 62
256
 10
-246.518791867884090
 20
40.636864175983732
  0
VERTEX
  8
0
  6
CONTINUOUS
 62
256
 10
-247.400479486524200
 20
40.841909026776058
  0
VERTEX
  8
0
  6
CONTINUOUS
 62
256
 10
-248.317404000000010
 20
40.911144199999988
  0
VERTEX
  8
0
  6
CONTINUOUS
 62
256
 10
-249.234328513475820
 20
40.841909026776058
  0
VERTEX
  8
0
  6
CONTINUOUS
 62
256
 10
-250.116016132115930
 20
40.636864175983732
  0
VERTEX
  8
0
  6
CONTINUOUS
 62
256
 10
-250.928584095192120
 20
40.303889406248487
  0
VERTEX
  8
0
  6
CONTINUOUS
 62
256
 10
-251.640805871576790
 20
39.855780751236836
  0
VERTEX
  8
0
  6
CONTINUOUS
 62
256
 10
-252.225311177821960
 20
39.309758775258658
  0
VERTEX
  8
0
  6
CONTINUOUS
 62
256
 10
-252.659637802803050
 20
38.686806796638137
  0
VERTEX
  8
0
  6
CONTINUOUS
 62
256
 10
-252.927094817895180
 20
38.010864510558164
  0
VERTEX
  8
0
  6
CONTINUOUS
 62
256
 10
-253.017404000000000
 20
37.307907999999998
  0
VERTEX
  8
0
  6
CONTINUOUS
 62
256
 10
-252.927094817895180
 20
36.604951489441831
  0
VERTEX
  8
0
  6
CONTINUOUS
 62
256
 10
-252.659637802803050
 20
35.929009203361858
  0
VERTEX
  8
0
  6
CONTINUOUS
 62
256
 10
-252.225311177821960
 20
35.306057224741338
  0
VERTEX
  8
0
  6
CONTINUOUS
 62
256
 10
-251.640805871576790
 20
34.760035248763160
  0
VERTEX
  8
0
  6
CONTINUOUS
 62
256
 10
-250.928584095192120
 20
34.311926593751508
  0
VERTEX
  8
0
  6
CONTINUOUS
 62
256
 10
-250.116016132115930
 20
33.978951824016264
  0
VERTEX
  8
0
  6
CONTINUOUS
 62
256
 10
-249.234328513475820
 20
33.773906973223937
  0
VERTEX
  8
0
  6
CONTINUOUS
 62
256
 10
-248.317404000000010
 20
33.704671800000007
  0
VERTEX
  8
0
  6
CONTINUOUS
 62
256
 10
-247.400479486524200
 20
33.773906973223937
  0
VERTEX
  8
0
  6
CONTINUOUS
 62
256
 10
-246.518791867884090
 20
33.978951824016264
  0
VERTEX
  8
0
  6
CONTINUOUS
 62
256
 10
-245.706223904807900
 20
34.311926593751508
  0
VERTEX
  8
0
  6
CONTINUOUS
 62
256
 10
-244.994002128423260
 20
34.760035248763160
  0
VERTEX
  8
0
  6
CONTINUOUS
 62
256
 10
-244.409496822178060
 20
35.306057224741338
  0
VERTEX
  8
0
  6
CONTINUOUS
 62
256
 10
-243.975170197196970
 20
35.929009203361858
  0
VERTEX
  8
0
  6
CONTINUOUS
 62
256
 10
-243.707713182104840
 20
36.604951489441831
  0
SEQEND
  8
0
  6
CONTINUOUS
 62
256
  0
LINE
  8
0
  6
CONTINUOUS
 62
256
 10
-250.317404000000010
 20
34.315533000000002
 11
-248.317404000000010
 21
35.491318000000000
  0
LINE
  8
0
  6
CONTINUOUS
 62
256
 10
-248.317404000000010
 20
35.491318000000000
 11
-246.317404000000010
 21
37.143960000000000
  0
LINE
  8
0
  6
CONTINUOUS
 62
256
 10
-246.317404000000010
 20
34.315533000000002
 11
-248.317404000000010
 21
35.491318000000000
  0
LINE
  8
0
  6
CONTINUOUS
 62
256
 10
-248.317404000000010
 20
35.491318000000000
 11
-250.317404000000010
 21
37.143960000000000
  0
LINE
  8
0
  6
CONTINUOUS
 62
256
 10
-153.317404000000010
 20
32.135238999999999
 11
-237.317404000000010
 21
32.135238999999999
  0
LINE
  8
0
  6
CONTINUOUS
 62
256
 10
-237.317404000000010
 20
34.135238999999999
 11
-153.317404000000010
 21
34.135238999999999
  0
LINE
  8
0
  6
CONTINUOUS
 62
256
 10
-237.317404000000010
 20
33.635238999999999
 11
-153.317404000000010
 21
33.635238999999999
  0
LINE
  8
0
  6
CONTINUOUS
 62
256
 10
-237.317404000000010
 20
38.502155999999999
 11
-153.317404000000010
 21
38.502155999999999
  0
LINE
  8
0
  6
CONTINUOUS
 62
256
 10
-237.317404000000010
 20
40.130583999999999
 11
-153.317404000000010
 21
40.130583999999999
  0
LINE
  8
0
  6
CONTINUOUS
 62
256
 10
-237.317404000000010
 20
43.593325000000000
 11
-153.317404000000010
 21
43.593325000000000
  0
LINE
  8
0
  6
CONTINUOUS
 62
256
 10
-237.475004000000010
 20
44.594804000000003
 11
-153.317404000000010
 21
44.594804000000003
  0
LINE
  8
0
  6
CONTINUOUS
 62
256
 10
-237.317404000000010
 20
30.635238999999999
 11
-266.822249000000000
 21
30.635238999999999
  0
ARC
  8
0
  6
CONTINUOUS
 62
256
 10
-266.822249000000000
 20
51.235239000000000
 40
20.599999999999994
 50
235.000000000000030
 51
270.000000000000000
  0
ARC
  8
0
  6
CONTINUOUS
 62
256
 10
-284.717403999999990
 20
41.791618999999997
 40
2.600000000000023
 50
180.000000000000000
 51
234.999999999999890
  0
LINE
  8
0
  6
CONTINUOUS
 62
256
 10
-287.317404000000010
 20
41.791618999999997
 11
-287.317404000000010
 21
84.635238999999999
  0
LINE
  8
0
  6
CONTINUOUS
 62
256
 10
-278.637924000000000
 20
34.360706999999998
 11
-286.208703000000010
 21
39.661824000000003
  0
POLYLINE
  8
0
  6
CONTINUOUS
 62
256
 66
1
 70
1
  0
VERTEX
  8
0
  6
CONTINUOUS
 62
256
 10
-243.617404000000020
 20
131.962570000000000
  0
VERTEX
  8
0
  6
CONTINUOUS
 62
256
 10
-243.707713182104840
 20
132.665526510558180
  0
VERTEX
  8
0
  6
CONTINUOUS
 62
256
 10
-243.975170197196970
 20
133.341468796638140
  0
VERTEX
  8
0
  6
CONTINUOUS
 62
256
 10
-244.409496822178060
 20
133.964420775258670
  0
VERTEX
  8
0
  6
CONTINUOUS
 62
256
 10
-244.994002128423230
 20
134.510442751236840
  0
VERTEX
  8
0
  6
CONTINUOUS
 62
256
 10
-245.706223904807900
 20
134.958551406248490
  0
VERTEX
  8
0
  6
CONTINUOUS
 62
256
 10
-246.518791867884090
 20
135.291526175983730
  0
VERTEX
  8
0
  6
CONTINUOUS
 62
256
 10
-247.400479486524200
 20
135.496571026776080
  0
VERTEX
  8
0
  6
CONTINUOUS
 62
256
 10
-248.317404000000010
 20
135.565806200000000
  0
VERTEX
  8
0
  6
CONTINUOUS
 62
256
 10
-249.234328513475820
 20
135.496571026776080
  0
VERTEX
  8
0
  6
CONTINUOUS
 62
256
 10
-250.116016132115930
 20
135.291526175983730
  0
VERTEX
  8
0
  6
CONTINUOUS
 62
256
 10
-250.928584095192120
 20
134.958551406248490
  0
VERTEX
  8
0
  6
CONTINUOUS
 62
256
 10
-251.640805871576790
 20
134.510442751236840
  0
VERTEX
  8
0
  6
CONTINUOUS
 62
256
 10
-252.225311177821960
 20
133.964420775258670
  0
VERTEX
  8
0
  6
CONTINUOUS
 62
256
 10
-252.659637802803050
 20
133.341468796638140
  0
VERTEX
  8
0
  6
CONTINUOUS
 62
256
 10
-252.927094817895180
 20
132.665526510558180
  0
VERTEX
  8
0
  6
CONTINUOUS
 62
256
 10
-253.017404000000000
 20
131.962570000000000
  0
VERTEX
  8
0
  6
CONTINUOUS
 62
256
 10
-252.927094817895180
 20
131.259613489441820
  0
VERTEX
  8
0
  6
CONTINUOUS
 62
256
 10
-252.659637802803050
 20
130.583671203361860
  0
VERTEX
  8
0
  6
CONTINUOUS
 62
256
 10
-252.225311177821960
 20
129.960719224741330
  0
VERTEX
  8
0
  6
CONTINUOUS
 62
256
 10
-251.640805871576790
 20
129.414697248763160
  0
VERTEX
  8
0
  6
CONTINUOUS
 62
256
 10
-250.928584095192120
 20
128.966588593751510
  0
VERTEX
  8
0
  6
CONTINUOUS
 62
256
 10
-250.116016132115930
 20
128.633613824016270
  0
VERTEX
  8
0
  6
CONTINUOUS
 62
256
 10
-249.234328513475820
 20
128.428568973223950
  0
VERTEX
  8
0
  6
CONTINUOUS
 62
256
 10
-248.317404000000010
 20
128.359333800000000
  0
VERTEX
  8
0
  6
CONTINUOUS
 62
256
 10
-247.400479486524200
 20
128.428568973223950
  0
VERTEX
  8
0
  6
CONTINUOUS
 62
256
 10
-246.518791867884090
 20
128.633613824016270
  0
VERTEX
  8
0
  6
CONTINUOUS
 62
256
 10
-245.706223904807900
 20
128.966588593751510
  0
VERTEX
  8
0
  6
CONTINUOUS
 62
256
 10
-244.994002128423260
 20
129.414697248763160
  0
VERTEX
  8
0
  6
CONTINUOUS
 62
256
 10
-244.409496822178060
 20
129.960719224741330
  0
VERTEX
  8
0
  6
CONTINUOUS
 62
256
 10
-243.975170197196970
 20
130.583671203361860
  0
VERTEX
  8
0
  6
CONTINUOUS
 62
256
 10
-243.707713182104840
 20
131.259613489441820
  0
SEQEND
  8
0
  6
CONTINUOUS
 62
256
  0
LINE
  8
0
  6
CONTINUOUS
 62
256
 10
-250.317404000000010
 20
134.954946000000010
 11
-248.317404000000010
 21
133.779159999999990
  0
LINE
  8
0
  6
CONTINUOUS
 62
256
 10
-248.317404000000010
 20
133.779159999999990
 11
-246.317404000000010
 21
132.126518000000000
  0
LINE
  8
0
  6
CONTINUOUS
 62
256
 10
-246.317404000000010
 20
134.954946000000010
 11
-248.317404000000010
 21
133.779159999999990
  0
LINE
  8
0
  6
CONTINUOUS
 62
256
 10
-248.317404000000010
 20
133.779159999999990
 11
-250.317404000000010
 21
132.126518000000000
  0
ARC
  8
0
  6
CONTINUOUS
 62
256
 10
-266.822249000000000
 20
118.035239000000000
 40
20.600000000000009
 50
90.000000000000000
 51
124.999999999999990
  0
ARC
  8
0
  6
CONTINUOUS
 62
256
 10
-284.717403999999990
 20
127.478859000000000
 40
2.599999999999996
 50
125.000000000000210
 51
180.000000000000000
  0
LINE
  8
0
  6
CONTINUOUS
 62
256
 10
-287.317404000000010
 20
127.478859000000000
 11
-287.317404000000010
 21
84.635238999999999
  0
LINE
  8
0
  6
CONTINUOUS
 62
256
 10
-278.637924000000000
 20
134.909771000000010
 11
-286.208703000000010
 21
129.608655000000000
  0
LINE
  8
0
  6
CONTINUOUS
 62
256
 10
-237.317404000000010
 20
138.635239000000010
 11
-266.822249000000000
 21
138.635239000000010
  0
LINE
  8
0
  6
CONTINUOUS
 62
256
 10
-153.317404000000010
 20
137.135239000000010
 11
-237.317404000000010
 21
137.135239000000010
  0
LINE
  8
0
  6
CONTINUOUS
 62
256
 10
-237.317404000000010
 20
135.135239000000010
 11
-153.317404000000010
 21
135.135239000000010
  0
LINE
  8
0
  6
CONTINUOUS
 62
256
 10
-237.317404000000010
 20
135.635239000000010
 11
-153.317404000000010
 21
135.635239000000010
  0
LINE
  8
0
  6
CONTINUOUS
 62
256
 10
-237.317404000000010
 20
130.768322000000010
 11
-153.317404000000010
 21
130.768322000000010
  0
LINE
  8
0
  6
CONTINUOUS
 62
256
 10
-237.317404000000010
 20
125.677153000000000
 11
-153.317404000000010
 21
125.677153000000000
  0
LINE
  8
0
  6
CONTINUOUS
 62
256
 10
-237.317404000000010
 20
129.139895000000000
 11
-153.317404000000010
 21
129.139895000000000
  0
LINE
  8
0
  6
CONTINUOUS
 62
256
 10
-237.475004000000010
 20
124.675674000000000
 11
-153.317404000000010
 21
124.675674000000000
  0
LINE
  8
0
  6
CONTINUOUS
 62
256
 10
-237.317404000000010
 20
138.635239000000010
 11
-237.317404000000010
 21
84.635238999999999
  0
LINE
  8
0
  6
CONTINUOUS
 62
256
 10
-237.317404000000010
 20
30.635238999999999
 11
-237.317404000000010
 21
84.635238999999999
  0
LINE
  8
0
  6
CONTINUOUS
 62
256
 10
-237.317404000000010
 20
117.938840000000000
 11
-153.317404000000010
 21
117.938840000000000
  0
LINE
  8
0
  6
CONTINUOUS
 62
256
 10
-237.317404000000010
 20
113.391634999999990
 11
-153.317404000000010
 21
113.391634999999990
  0
LINE
  8
0
  6
CONTINUOUS
 62
256
 10
-237.317404000000010
 20
111.912611000000000
 11
-153.317404000000010
 21
111.912611000000000
  0
LINE
  8
0
  6
CONTINUOUS
 62
256
 10
-237.317404000000010
 20
108.819880000000000
 11
-153.317404000000010
 21
108.819880000000000
  0
LINE
  8
0
  6
CONTINUOUS
 62
256
 10
-237.317404000000010
 20
107.473479000000000
 11
-153.317404000000010
 21
107.473479000000000
  0
LINE
  8
0
  6
CONTINUOUS
 62
256
 10
-237.317404000000010
 20
104.635239000000000
 11
-153.317404000000010
 21
104.635239000000000
  0
LINE
  8
0
  6
CONTINUOUS
 62
256
 10
-237.317404000000010
 20
55.878844000000001
 11
-153.317404000000010
 21
55.878844000000001
  0
LINE
  8
0
  6
CONTINUOUS
 62
256
 10
-237.317404000000010
 20
57.357866999999999
 11
-153.317404000000010
 21
57.357866999999999
  0
LINE
  8
0
  6
CONTINUOUS
 62
256
 10
-237.317404000000010
 20
60.450597999999999
 11
-153.317404000000010
 21
60.450597999999999
  0
LINE
  8
0
  6
CONTINUOUS
 62
256
 10
-237.317404000000010
 20
61.796999000000000
 11
-153.317404000000010
 21
61.796999000000000
  0
LINE
  8
0
  6
CONTINUOUS
 62
256
 10
-237.317404000000010
 20
64.635238999999999
 11
-153.317404000000010
 21
64.635238999999999
  0
LINE
  8
0
  6
CONTINUOUS
 62
256
 10
-237.317404000000010
 20
51.331637999999998
 11
-153.317404000000010
 21
51.331637999999998
  0
LINE
  8
0
  6
CONTINUOUS
 62
256
 10
-55.317404000000003
 20
33.135238999999999
 11
-37.317404000000003
 21
33.135238999999999
  0
ARC
  8
0
  6
CONTINUOUS
 62
256
 10
-55.317404000000003
 20
34.135238999999999
 40
1.000000000000000
 50
180.000000000000000
 51
270.000000000000000
  0
LINE
  8
0
  6
CONTINUOUS
 62
256
 10
-56.317404000000003
 20
34.135238999999999
 11
-56.317404000000003
 21
37.135238999999999
  0
LINE
  8
0
  6
CONTINUOUS
 62
256
 10
-19.317404000000000
 20
33.135238999999999
 11
-37.317404000000003
 21
33.135238999999999
  0
LINE
  8
0
  6
CONTINUOUS
 62
256
 10
-18.317404000000000
 20
34.135238999999999
 11
-18.317404000000000
 21
37.135238999999999
  0
ARC
  8
0
  6
CONTINUOUS
 62
256
 10
-19.317404000000000
 20
34.135238999999999
 40
1.000000000000000
 50
270.000000000000000
 51
0.000000000000000
  0
LINE
  8
0
  6
CONTINUOUS
 62
256
 10
-55.317404000000003
 20
136.135239000000010
 11
-37.317404000000003
 21
136.135239000000010
  0
ARC
  8
0
  6
CONTINUOUS
 62
256
 10
-55.317404000000003
 20
135.135239000000010
 40
1.000000000000000
 50
90.000000000000000
 51
180.000000000000000
  0
LINE
  8
0
  6
CONTINUOUS
 62
256
 10
-56.317404000000003
 20
135.135239000000010
 11
-56.317404000000003
 21
132.135239000000010
  0
ARC
  8
0
  6
CONTINUOUS
 62
256
 10
-19.317404000000000
 20
135.135239000000010
 40
1.000000000000000
 50
0.000000000000000
 51
90.000000000000000
  0
LINE
  8
0
  6
CONTINUOUS
 62
256
 10
-18.317404000000000
 20
135.135239000000010
 11
-18.317404000000000
 21
132.135239000000010
  0
LINE
  8
0
  6
CONTINUOUS
 62
256
 10
-19.317404000000000
 20
136.135239000000010
 11
-37.317404000000003
 21
136.135239000000010
  0
LINE
  8
0
  6
CONTINUOUS
 62
256
 10
-148.317404000000010
 20
132.135239000000010
 11
-148.317404000000010
 21
135.169692000000000
  0
LINE
  8
0
  6
CONTINUOUS
 62
256
 10
-145.317404000000010
 20
129.135239000000010
 11
-140.317404000000010
 21
129.135239000000010
  0
LINE
  8
0
  6
CONTINUOUS
 62
256
 10
-146.317404000000010
 20
126.064891000000000
 11
-140.317404000000010
 21
126.064891000000000
  0
LINE
  8
0
  6
CONTINUOUS
 62
256
 10
-135.317404000000010
 20
121.527405000000000
 11
-135.317404000000010
 21
124.135239000000000
  0
LINE
  8
0
  6
CONTINUOUS
 62
256
 10
-138.317404000000010
 20
118.527405000000000
 11
-145.317404000000010
 21
118.527405000000000
  0
LINE
  8
0
  6
CONTINUOUS
 62
256
 10
-148.317404000000010
 20
104.635239000000000
 11
-153.317404000000010
 21
104.635239000000000
  0
LINE
  8
0
  6
CONTINUOUS
 62
256
 10
-148.317404000000010
 20
84.635238999999999
 11
-148.317404000000010
 21
124.064891000000000
  0
LINE
  8
0
  6
CONTINUOUS
 62
256
 10
-148.317404000000010
 20
64.635238999999999
 11
-153.317404000000010
 21
64.635238999999999
  0
LINE
  8
0
  6
CONTINUOUS
 62
256
 10
-135.317404000000010
 20
47.743073000000003
 11
-135.317404000000010
 21
45.135238999999999
  0
LINE
  8
0
  6
CONTINUOUS
 62
256
 10
-138.317404000000010
 20
50.743073000000003
 11
-145.317404000000010
 21
50.743073000000003
  0
LINE
  8
0
  6
CONTINUOUS
 62
256
 10
-148.317404000000010
 20
84.635238999999999
 11
-148.317404000000010
 21
45.205587000000001
  0
LINE
  8
0
  6
CONTINUOUS
 62
256
 10
-145.317404000000010
 20
40.135238999999999
 11
-140.317404000000010
 21
40.135238999999999
  0
LINE
  8
0
  6
CONTINUOUS
 62
256
 10
-146.317404000000010
 20
43.205587000000001
 11
-140.317404000000010
 21
43.205587000000001
  0
LINE
  8
0
  6
CONTINUOUS
 62
256
 10
-148.317404000000010
 20
37.135238999999999
 11
-148.317404000000010
 21
34.100785999999999
  0
ARC
  8
0
  6
CONTINUOUS
 62
256
 10
-151.317404000000010
 20
135.169692000000000
 40
3.000000000000000
 50
0.000000000000000
 51
91.000000000000142
  0
ARC
  8
0
  6
CONTINUOUS
 62
256
 10
-151.317404000000010
 20
34.100785999999999
 40
3.000000000000000
 50
268.999999999999830
 51
0.000000000000000
  0
ARC
  8
0
  6
CONTINUOUS
 62
256
 10
-145.317404000000010
 20
115.527405000000000
 40
3.000000000000000
 50
90.000000000000000
 51
180.000000000000000
  0
ARC
  8
0
  6
CONTINUOUS
 62
256
 10
-145.317404000000010
 20
132.135239000000010
 40
3.000000000000000
 50
180.000000000000000
 51
270.000000000000000
  0
ARC
  8
0
  6
CONTINUOUS
 62
256
 10
-146.317404000000010
 20
124.064891000000000
 40
2.000000000000000
 50
90.000000000000000
 51
180.000000000000000
  0
ARC
  8
0
  6
CONTINUOUS
 62
256
 10
-140.317404000000010
 20
121.064891000000000
 40
5.000000000000000
 50
0.000000000000000
 51
90.000000000000000
  0
ARC
  8
0
  6
CONTINUOUS
 62
256
 10
-140.317404000000010
 20
124.135239000000000
 40
5.000000000000000
 50
0.000000000000000
 51
90.000000000000000
  0
ARC
  8
0
  6
CONTINUOUS
 62
256
 10
-145.317404000000010
 20
53.743073000000003
 40
3.000000000000000
 50
180.000000000000000
 51
270.000000000000000
  0
ARC
  8
0
  6
CONTINUOUS
 62
256
 10
-140.317404000000010
 20
48.205587000000001
 40
5.000000000000000
 50
270.000000000000000
 51
0.000000000000000
  0
ARC
  8
0
  6
CONTINUOUS
 62
256
 10
-140.317404000000010
 20
45.135238999999999
 40
5.000000000000000
 50
270.000000000000000
 51
0.000000000000000
  0
ARC
  8
0
  6
CONTINUOUS
 62
256
 10
-145.317404000000010
 20
37.135238999999999
 40
3.000000000000000
 50
90.000000000000000
 51
180.000000000000000
  0
ARC
  8
0
  6
CONTINUOUS
 62
256
 10
-146.317404000000010
 20
45.205587000000001
 40
2.000000000000000
 50
180.000000000000000
 51
270.000000000000000
  0
LINE
  8
0
  6
CONTINUOUS
 62
256
 10
-135.317404000000010
 20
135.396607999999990
 11
-135.317404000000010
 21
84.635238999999999
  0
LINE
  8
0
  6
CONTINUOUS
 62
256
 10
-135.317404000000010
 20
33.873869999999997
 11
-135.317404000000010
 21
84.635238999999999
  0
ARC
  8
0
  6
CONTINUOUS
 62
256
 10
-138.317404000000010
 20
33.873869999999997
 40
3.000000000000000
 50
268.999999999999830
 51
0.000000000000000
  0
ARC
  8
0
  6
CONTINUOUS
 62
256
 10
-138.317404000000010
 20
135.396607999999990
 40
3.000000000000000
 50
0.000000000000000
 51
91.000000000000142
  0
ARC
  8
0
  6
CONTINUOUS
 62
256
 10
-138.317404000000010
 20
53.743073000000003
 40
3.000000000000000
 50
270.000000000000000
 51
0.000000000000000
  0
ARC
  8
0
  6
CONTINUOUS
 62
256
 10
-138.317404000000010
 20
115.527405000000000
 40
3.000000000000000
 50
0.000000000000000
 51
90.000000000000000
  0
LINE
  8
0
  6
CONTINUOUS
 62
256
 10
-153.317404000000010
 20
84.635238999999999
 11
-153.317404000000010
 21
31.135238999999999
  0
LINE
  8
0
  6
CONTINUOUS
 62
256
 10
-153.317404000000010
 20
84.635238999999999
 11
-153.317404000000010
 21
138.135239000000010
  0
LINE
  8
0
  6
CONTINUOUS
 62
256
 10
-135.317404000000010
 20
33.873869999999997
 11
-135.317404000000010
 21
40.135238999999999
  0
LINE
  8
0
  6
CONTINUOUS
 62
256
 10
-135.317404000000010
 20
135.396607999999990
 11
-135.317404000000010
 21
118.135239000000000
  0
ARC
  8
0
  6
CONTINUOUS
 62
256
 10
-138.317404000000010
 20
135.396607999999990
 40
3.000000000000000
 50
0.000000000000000
 51
91.000000000000142
  0
ARC
  8
0
  6
CONTINUOUS
 62
256
 10
-132.317404000000010
 20
51.135238999999999
 40
3.000000000000000
 50
90.000000000000000
 51
180.000000000000000
  0
LINE
  8
0
  6
CONTINUOUS
 62
256
 10
-127.308981000000000
 20
54.135238999999999
 11
-132.317404000000010
 21
54.135238999999999
  0
ARC
  8
0
  6
CONTINUOUS
 62
256
 10
-138.317404000000010
 20
33.873869999999997
 40
3.000000000000000
 50
268.999999999999830
 51
0.000000000000000
  0
ARC
  8
0
  6
CONTINUOUS
 62
256
 10
-132.317404000000010
 20
129.135239000000010
 40
3.000000000000000
 50
180.000000000000000
 51
270.000000000000000
  0
LINE
  8
0
  6
CONTINUOUS
 62
256
 10
-126.147915000000000
 20
126.135239000000000
 11
-132.317404000000010
 21
126.135239000000000
  0
LINE
  8
0
  6
CONTINUOUS
 62
256
 10
-125.299949000000000
 20
52.135238999999999
 11
-125.107943000000010
 21
41.135238999999999
  0
LINE
  8
0
  6
CONTINUOUS
 62
256
 10
15.682596000000000
 20
41.135238999999999
 11
-125.107943000000010
 21
41.135238999999999
  0
LINE
  8
0
  6
CONTINUOUS
 62
256
 10
15.874601999999999
 20
52.135238999999999
 11
15.682596000000000
 21
41.135238999999999
  0
LINE
  8
0
  6
CONTINUOUS
 62
256
 10
-74.817403999999996
 20
128.135239000000010
 11
-74.817403999999996
 21
132.135239000000010
  0
LINE
  8
0
  6
CONTINUOUS
 62
256
 10
0.182596000000000
 20
132.135239000000010
 11
-74.817403999999996
 21
132.135239000000010
  0
LINE
  8
0
  6
CONTINUOUS
 62
256
 10
0.182596000000000
 20
128.135239000000010
 11
0.182596000000000
 21
132.135239000000010
  0
LINE
  8
0
  6
CONTINUOUS
 62
256
 10
-74.817403999999996
 20
37.135238999999999
 11
-74.817403999999996
 21
41.135238999999999
  0
LINE
  8
0
  6
CONTINUOUS
 62
256
 10
0.182596000000000
 20
37.135238999999999
 11
0.182596000000000
 21
41.135238999999999
  0
LINE
  8
0
  6
CONTINUOUS
 62
256
 10
-110.442196000000000
 20
41.135238999999999
 11
-96.407038000000000
 21
41.135238999999999
  0
LINE
  8
0
  6
CONTINUOUS
 62
256
 10
0.182596000000000
 20
37.135238999999999
 11
-74.817403999999996
 21
37.135238999999999
  0
ARC
  8
0
  6
CONTINUOUS
 62
256
 10
-126.147915000000000
 20
128.135239000000010
 40
2.000000000000000
 50
270.000000000000000
 51
0.000000000000000
  0
ARC
  8
0
  6
CONTINUOUS
 62
256
 10
-127.308981000000000
 20
52.135238999999999
 40
2.000000000000000
 50
0.000000000000000
 51
90.000000000000000
  0
LINE
  8
0
  6
CONTINUOUS
 62
256
 10
-137.810898000000010
 20
138.353541000000010
 11
-153.317404000000010
 21
138.082874000000000
  0
LINE
  8
0
  6
CONTINUOUS
 62
256
 10
-137.810898000000010
 20
30.916937000000001
 11
-153.317404000000010
 21
31.187604000000000
  0
LINE
  8
0
  6
CONTINUOUS
 62
256
 10
-124.147915000000000
 20
118.635239000000000
 11
-124.147915000000000
 21
128.135239000000010
  0
LINE
  8
0
  6
CONTINUOUS
 62
256
 10
-124.147915000000000
 20
128.135239000000010
 11
-37.317404000000003
 21
128.135239000000010
  0
LINE
  8
0
  6
CONTINUOUS
 62
256
 10
-125.308677000000000
 20
52.135238999999999
 11
-124.147915000000000
 21
118.635239000000000
  0
LINE
  8
0
  6
CONTINUOUS
 62
256
 10
-125.308981000000000
 20
52.135238999999999
 11
15.874601999999999
 21
52.135238999999999
  0
LINE
  8
0
  6
CONTINUOUS
 62
256
 10
15.865874000000000
 20
52.135238999999999
 11
14.705112000000000
 21
118.635239000000000
  0
LINE
  8
0
  6
CONTINUOUS
 62
256
 10
14.705112000000000
 20
118.635239000000000
 11
14.705112000000000
 21
128.135239000000010
  0
LINE
  8
0
  6
CONTINUOUS
 62
256
 10
-37.317404000000003
 20
128.135239000000010
 11
14.705112000000000
 21
128.135239000000010
  0
LINE
  8
0
  6
DASHED
 62
256
 10
-239.817404000000010
 20
-164.888301000000010
 11
-239.817404000000010
 21
-179.388301000000010
  0
LINE
  8
0
  6
DASHED
 62
256
 10
-225.817404000000010
 20
-164.888301000000010
 11
-225.817404000000010
 21
-179.388301000000010
  0
LINE
  8
0
  6
DASHDOT
 62
256
 10
-232.817404000000010
 20
-162.104450000000010
 11
-232.817404000000010
 21
-190.083800000000000
  0
LINE
  8
0
  6
DASHED
 62
256
 10
-175.817404000000010
 20
-164.888301000000010
 11
-175.817404000000010
 21
-179.388301000000010
  0
LINE
  8
0
  6
DASHED
 62
256
 10
-189.817404000000010
 20
-164.888301000000010
 11
-189.817404000000010
 21
-179.388301000000010
  0
LINE
  8
0
  6
DASHDOT
 62
256
 10
-182.817404000000010
 20
-162.104450000000010
 11
-182.817404000000010
 21
-190.083800000000000
  0
LINE
  8
0
  6
CONTINUOUS
 62
256
 10
-371.357356999999980
 20
-168.397029000000000
 11
-373.857356999999980
 21
-168.353390999999990
  0
LINE
  8
0
  6
CONTINUOUS
 62
256
 10
-356.357356999999980
 20
-56.888300999999998
 11
-360.170732999999980
 21
-56.888300999999998
  0
LINE
  8
0
  6
CONTINUOUS
 62
256
 10
-356.357356999999980
 20
-56.888300999999998
 11
-356.357356999999980
 21
-60.701678000000001
  0
LINE
  8
0
  6
CONTINUOUS
 62
256
 10
-371.357356999999980
 20
-168.397029000000000
 11
-371.357356999999980
 21
-164.495022000000010
  0
LINE
  8
0
  6
CONTINUOUS
 62
256
 10
-360.357356999999980
 20
-168.196295999999990
 11
-360.357356999999980
 21
-158.019571000000010
  0
LINE
  8
0
  6
CONTINUOUS
 62
256
 10
-360.357356999999980
 20
-41.580306999999998
 11
-360.357356999999980
 21
-56.701678000000001
  0
LINE
  8
0
  6
CONTINUOUS
 62
256
 10
-371.357356999999980
 20
-50.281581000000003
 11
-371.357356999999980
 21
-44.879573999999998
  0
LINE
  8
0
  6
CONTINUOUS
 62
256
 10
-371.357356999999980
 20
-41.388300999999998
 11
-360.357356999999980
 21
-41.580306999999998
  0
LINE
  8
0
  6
CONTINUOUS
 62
256
 10
-371.357356999999980
 20
-41.397029000000003
 11
-437.857356999999980
 21
-42.557791000000002
  0
LINE
  8
0
  6
CONTINUOUS
 62
256
 10
-371.357356999999980
 20
-41.379573999999998
 11
-371.357356999999980
 21
-45.888300999999998
  0
LINE
  8
0
  6
CONTINUOUS
 62
256
 10
-371.357356999999980
 20
-168.388301000000010
 11
-360.357356999999980
 21
-168.196295999999990
  0
ARC
  8
0
  6
CONTINUOUS
 62
256
 10
-358.435409999999990
 20
-67.957434000000006
 40
6.599999999999973
 50
5.743682000000063
 51
44.999999999999829
  0
ARC
  8
0
  6
CONTINUOUS
 62
256
 10
-750.457357000000000
 20
-107.388301000000000
 40
400.600000000000020
 50
0.000000000000000
 51
5.743682000000000
  0
ARC
  8
0
  6
CONTINUOUS
 62
256
 10
-375.793600000000030
 20
-70.398234000000002
 40
20.599999999999994
 50
45.000000000000014
 51
84.247716999999938
  0
LINE
  8
0
  6
CONTINUOUS
 62
256
 10
-361.227199999999980
 20
-55.831834000000001
 11
-353.768505000000000
 21
-63.290529999999997
  0
ARC
  8
0
  6
CONTINUOUS
 62
256
 10
-403.857356999999980
 20
-348.988300999999980
 40
300.600000000000020
 50
84.247716999999994
 51
90.000000000000000
  0
ARC
  8
0
  6
CONTINUOUS
 62
256
 10
-403.857356999999980
 20
134.211699000000010
 40
290.797000000000030
 50
270.000000000000000
 51
275.752282999999980
  0
LINE
  8
0
  6
CONTINUOUS
 62
256
 10
-368.158968000000020
 20
-152.013001000000000
 11
-362.271553999999980
 21
-146.125587000000000
  0
ARC
  8
0
  6
CONTINUOUS
 62
256
 10
-375.793600000000030
 20
-144.378368999999990
 40
10.796999999999988
 50
275.752283000000030
 51
315.000000000000000
  0
LINE
  8
0
  6
CONTINUOUS
 62
256
 10
-373.864856999999970
 20
-164.888301000000010
 11
-372.357356999999980
 21
-164.888301000000010
  0
LINE
  8
0
  6
CONTINUOUS
 62
256
 10
-372.357356999999980
 20
-164.689750000000000
 11
-372.357356999999980
 21
-164.888301000000010
  0
ARC
  8
0
  6
CONTINUOUS
 62
256
 10
-403.857356999999980
 20
134.211699000000010
 40
300.600000000000020
 50
270.000000000000000
 51
275.752282999999980
  0
LINE
  8
0
  6
CONTINUOUS
 62
256
 10
-361.227199999999980
 20
-158.944768000000010
 11
-353.768505000000000
 21
-151.486073000000000
  0
ARC
  8
0
  6
CONTINUOUS
 62
256
 10
-375.793600000000030
 20
-144.378368999999990
 40
20.599999999999991
 50
275.752282999999860
 51
315.000000000000000
  0
LINE
  8
0
  6
CONTINUOUS
 62
256
 10
-373.857356999999980
 20
-164.888301000000010
 11
-373.857356999999980
 21
-188.327069999999990
  0
ARC
  8
0
  6
CONTINUOUS
 62
256
 10
-403.857356999999980
 20
-348.988300999999980
 40
290.797000000000030
 50
84.998350000000002
 51
90.000000000000000
  0
LINE
  8
0
  6
CONTINUOUS
 62
256
 10
-365.611858999999980
 20
-65.310710999999998
 11
-362.271553999999980
 21
-68.651015999999998
  0
ARC
  8
0
  6
CONTINUOUS
 62
256
 10
-380.317559000000020
 20
-80.016411000000005
 40
20.797000000000008
 50
44.999999999999972
 51
84.998349999999959
  0
ARC
  8
0
  6
CONTINUOUS
 62
256
 10
-750.457357000000000
 20
-107.388301000000000
 40
390.797000000000030
 50
0.000000000000000
 51
5.417964000000000
  0
ARC
  8
0
  6
CONTINUOUS
 62
256
 10
-364.392874000000010
 20
-70.772335999999996
 40
2.999999999999996
 50
5.417963999999932
 51
44.999999999999808
  0
ARC
  8
0
  6
CONTINUOUS
 62
256
 10
-364.392874000000010
 20
-144.004266000000000
 40
3.000000000000004
 50
315.000000000000340
 51
354.582035999999790
  0
ARC
  8
0
  6
CONTINUOUS
 62
256
 10
-750.457357000000000
 20
-107.388301000000000
 40
390.797000000000030
 50
354.582036000000020
 51
0.000000000000000
  0
ARC
  8
0
  6
CONTINUOUS
 62
256
 10
-358.435409999999990
 20
-146.819167999999990
 40
6.600000000000017
 50
315.000000000000170
 51
354.256318000000020
  0
ARC
  8
0
  6
CONTINUOUS
 62
256
 10
-750.457357000000000
 20
-107.388301000000000
 40
400.600000000000020
 50
354.256318000000020
 51
0.000000000000000
  0
ARC
  8
0
  6
CONTINUOUS
 62
256
 10
-377.589504999999970
 20
-103.888301000000000
 40
0.999999999999990
 50
187.589541999999990
 51
270.000000000000000
  0
LINE
  8
0
  6
CONTINUOUS
 62
256
 10
-374.565720000000000
 20
-104.888301000000000
 11
-377.589504999999970
 21
-104.888301000000000
  0
ARC
  8
0
  6
CONTINUOUS
 62
256
 10
-374.565720000000000
 20
-103.888301000000000
 40
1.000000000000000
 50
270.000000000000000
 51
6.813853999999752
  0
ARC
  8
0
  6
CONTINUOUS
 62
256
 10
-369.032796000000020
 20
-103.888301000000000
 40
0.999999999999978
 50
185.739170000000430
 51
270.000000000000000
  0
LINE
  8
0
  6
CONTINUOUS
 62
256
 10
-366.018884000000010
 20
-104.888301000000000
 11
-369.032796000000020
 21
-104.888301000000000
  0
ARC
  8
0
  6
CONTINUOUS
 62
256
 10
-366.018884000000010
 20
-103.888301000000000
 40
1.000000000000000
 50
270.000000000000000
 51
5.284732999999778
  0
ARC
  8
0
  6
CONTINUOUS
 62
256
 10
-403.857356999999980
 20
-107.388301000000000
 40
30.499999999999986
 50
6.813854000000005
 51
53.186146000000029
  0
ARC
  8
0
  6
CONTINUOUS
 62
256
 10
-403.857356999999980
 20
-107.388301000000000
 40
25.500000000000011
 50
7.589541999999985
 51
52.410458000000027
  0
ARC
  8
0
  6
CONTINUOUS
 62
256
 10
-403.857356999999980
 20
-107.388301000000000
 40
34.000000000000028
 50
5.739170000000004
 51
54.260829999999984
  0
ARC
  8
0
  6
CONTINUOUS
 62
256
 10
-403.857356999999980
 20
-107.388301000000000
 40
38.999999999999986
 50
5.284733000000007
 51
54.715266999999990
  0
ARC
  8
0
  6
CONTINUOUS
 62
256
 10
-403.857356999999980
 20
-107.388301000000000
 40
39.000000000000014
 50
305.284733000000020
 51
354.715266999999980
  0
ARC
  8
0
  6
CONTINUOUS
 62
256
 10
-403.857356999999980
 20
-107.388301000000000
 40
33.999999999999986
 50
305.739169999999940
 51
354.260830000000000
  0
ARC
  8
0
  6
CONTINUOUS
 62
256
 10
-403.857356999999980
 20
-107.388301000000000
 40
25.499999999999996
 50
307.589541999999990
 51
352.410458000000010
  0
ARC
  8
0
  6
CONTINUOUS
 62
256
 10
-403.857356999999980
 20
-107.388301000000000
 40
30.500000000000014
 50
306.813854000000050
 51
353.186146000000010
  0
ARC
  8
0
  6
CONTINUOUS
 62
256
 10
-366.018884000000010
 20
-110.888301000000000
 40
1.000000000000027
 50
354.715267000000210
 51
90.000000000000000
  0
LINE
  8
0
  6
CONTINUOUS
 62
256
 10
-366.018884000000010
 20
-109.888301000000000
 11
-369.032796000000020
 21
-109.888301000000000
  0
ARC
  8
0
  6
CONTINUOUS
 62
256
 10
-369.032796000000020
 20
-110.888301000000000
 40
1.000000000000000
 50
90.000000000000000
 51
174.260829999999570
  0
ARC
  8
0
  6
CONTINUOUS
 62
256
 10
-374.565720000000000
 20
-110.888301000000000
 40
1.000000000000019
 50
353.186146000000240
 51
90.000000000000000
  0
LINE
  8
0
  6
CONTINUOUS
 62
256
 10
-374.565720000000000
 20
-109.888301000000000
 11
-377.589504999999970
 21
-109.888301000000000
  0
ARC
  8
0
  6
CONTINUOUS
 62
256
 10
-377.589504999999970
 20
-110.888301000000000
 40
1.000000000000000
 50
90.000000000000000
 51
172.410458000000010
  0
LINE
  8
0
  6
DASHDOT
 62
256
 10
-465.581086000000030
 20
-107.388301000000000
 11
-340.363128000000020
 21
-107.388301000000000
  0
CIRCLE
  8
0
  6
CONTINUOUS
 62
256
 10
4.682596000000000
 20
-52.388300999999998
 40
4.000000000000000
  0
CIRCLE
  8
0
  6
CONTINUOUS
 62
256
 10
4.682596000000000
 20
-52.388300999999998
 40
3.323499999999999
  0
CIRCLE
  8
0
  6
CONTINUOUS
 62
256
 10
4.682596000000000
 20
-157.388301000000010
 40
4.000000000000000
  0
CIRCLE
  8
0
  6
CONTINUOUS
 62
256
 10
-113.317404000000000
 20
-52.388300999999998
 40
3.323499999999996
  0
CIRCLE
  8
0
  6
CONTINUOUS
 62
256
 10
-113.317404000000000
 20
-52.388300999999998
 40
4.000000000000000
  0
CIRCLE
  8
0
  6
CONTINUOUS
 62
256
 10
4.682596000000000
 20
-157.388301000000010
 40
3.323499999999999
  0
CIRCLE
  8
0
  6
CONTINUOUS
 62
256
 10
-113.317404000000000
 20
-157.388301000000010
 40
4.000000000000000
  0
CIRCLE
  8
0
  6
CONTINUOUS
 62
256
 10
-113.317404000000000
 20
-157.388301000000010
 40
3.323499999999996
  0
LINE
  8
0
  6
CONTINUOUS
 62
256
 10
-153.317404000000010
 20
-160.888301000000010
 11
-153.317404000000010
 21
-107.388301000000000
  0
LINE
  8
0
  6
CONTINUOUS
 62
256
 10
-245.317404000000010
 20
-164.888301000000010
 11
-170.317404000000010
 21
-164.888301000000010
  0
LINE
  8
0
  6
CONTINUOUS
 62
256
 10
-170.317404000000010
 20
-164.888301000000010
 11
-170.317404000000010
 21
-159.888301000000010
  0
LINE
  8
0
  6
CONTINUOUS
 62
256
 10
-171.317404000000010
 20
-193.388301000000010
 11
-171.317404000000010
 21
-164.888301000000010
  0
LINE
  8
0
  6
CONTINUOUS
 62
256
 10
-244.317404000000010
 20
-193.388301000000010
 11
-244.317404000000010
 21
-164.888301000000010
  0
LINE
  8
0
  6
CONTINUOUS
 62
256
 10
-153.317404000000010
 20
-160.888301000000010
 11
-170.317404000000010
 21
-160.888301000000010
  0
LINE
  8
0
  6
CONTINUOUS
 62
256
 10
-153.317404000000010
 20
-53.888300999999998
 11
-153.317404000000010
 21
-107.388301000000000
  0
LINE
  8
0
  6
CONTINUOUS
 62
256
 10
-237.317404000000010
 20
-158.727998000000010
 11
-237.317404000000010
 21
-107.388301000000000
  0
ARC
  8
0
  6
CONTINUOUS
 62
256
 10
-240.317404000000010
 20
-158.727998000000010
 40
3.000000000000000
 50
270.000000000000000
 51
0.000000000000000
  0
LINE
  8
0
  6
CONTINUOUS
 62
256
 10
-244.317404000000010
 20
-161.727998000000010
 11
-240.317404000000010
 21
-161.727998000000010
  0
POLYLINE
  8
0
  6
CONTINUOUS
 62
256
 66
1
 70
1
  0
VERTEX
  8
0
  6
CONTINUOUS
 62
256
 10
-243.617404000000020
 20
-154.715632000000000
  0
VERTEX
  8
0
  6
CONTINUOUS
 62
256
 10
-243.707713182104840
 20
-154.012675489441820
  0
VERTEX
  8
0
  6
CONTINUOUS
 62
256
 10
-243.975170197196970
 20
-153.336733203361860
  0
VERTEX
  8
0
  6
CONTINUOUS
 62
256
 10
-244.409496822178060
 20
-152.713781224741330
  0
VERTEX
  8
0
  6
CONTINUOUS
 62
256
 10
-244.994002128423230
 20
-152.167759248763160
  0
VERTEX
  8
0
  6
CONTINUOUS
 62
256
 10
-245.706223904807900
 20
-151.719650593751510
  0
VERTEX
  8
0
  6
CONTINUOUS
 62
256
 10
-246.518791867884090
 20
-151.386675824016270
  0
VERTEX
  8
0
  6
CONTINUOUS
 62
256
 10
-247.400479486524200
 20
-151.181630973223920
  0
VERTEX
  8
0
  6
CONTINUOUS
 62
256
 10
-248.317404000000010
 20
-151.112395800000000
  0
VERTEX
  8
0
  6
CONTINUOUS
 62
256
 10
-249.234328513475820
 20
-151.181630973223920
  0
VERTEX
  8
0
  6
CONTINUOUS
 62
256
 10
-250.116016132115930
 20
-151.386675824016270
  0
VERTEX
  8
0
  6
CONTINUOUS
 62
256
 10
-250.928584095192120
 20
-151.719650593751510
  0
VERTEX
  8
0
  6
CONTINUOUS
 62
256
 10
-251.640805871576790
 20
-152.167759248763160
  0
VERTEX
  8
0
  6
CONTINUOUS
 62
256
 10
-252.225311177821960
 20
-152.713781224741330
  0
VERTEX
  8
0
  6
CONTINUOUS
 62
256
 10
-252.659637802803050
 20
-153.336733203361860
  0
VERTEX
  8
0
  6
CONTINUOUS
 62
256
 10
-252.927094817895180
 20
-154.012675489441820
  0
VERTEX
  8
0
  6
CONTINUOUS
 62
256
 10
-253.017404000000000
 20
-154.715632000000000
  0
VERTEX
  8
0
  6
CONTINUOUS
 62
256
 10
-252.927094817895180
 20
-155.418588510558180
  0
VERTEX
  8
0
  6
CONTINUOUS
 62
256
 10
-252.659637802803050
 20
-156.094530796638140
  0
VERTEX
  8
0
  6
CONTINUOUS
 62
256
 10
-252.225311177821960
 20
-156.717482775258670
  0
VERTEX
  8
0
  6
CONTINUOUS
 62
256
 10
-251.640805871576790
 20
-157.263504751236840
  0
VERTEX
  8
0
  6
CONTINUOUS
 62
256
 10
-250.928584095192120
 20
-157.711613406248490
  0
VERTEX
  8
0
  6
CONTINUOUS
 62
256
 10
-250.116016132115930
 20
-158.044588175983730
  0
VERTEX
  8
0
  6
CONTINUOUS
 62
256
 10
-249.234328513475820
 20
-158.249633026776050
  0
VERTEX
  8
0
  6
CONTINUOUS
 62
256
 10
-248.317404000000010
 20
-158.318868200000000
  0
VERTEX
  8
0
  6
CONTINUOUS
 62
256
 10
-247.400479486524200
 20
-158.249633026776050
  0
VERTEX
  8
0
  6
CONTINUOUS
 62
256
 10
-246.518791867884090
 20
-158.044588175983730
  0
VERTEX
  8
0
  6
CONTINUOUS
 62
256
 10
-245.706223904807900
 20
-157.711613406248490
  0
VERTEX
  8
0
  6
CONTINUOUS
 62
256
 10
-244.994002128423260
 20
-157.263504751236840
  0
VERTEX
  8
0
  6
CONTINUOUS
 62
256
 10
-244.409496822178060
 20
-156.717482775258670
  0
VERTEX
  8
0
  6
CONTINUOUS
 62
256
 10
-243.975170197196970
 20
-156.094530796638140
  0
VERTEX
  8
0
  6
CONTINUOUS
 62
256
 10
-243.707713182104840
 20
-155.418588510558180
  0
SEQEND
  8
0
  6
CONTINUOUS
 62
256
  0
LINE
  8
0
  6
CONTINUOUS
 62
256
 10
-250.317404000000010
 20
-157.708008000000010
 11
-248.317404000000010
 21
-156.532221999999990
  0
LINE
  8
0
  6
CONTINUOUS
 62
256
 10
-248.317404000000010
 20
-156.532221999999990
 11
-246.317404000000010
 21
-154.879581000000000
  0
LINE
  8
0
  6
CONTINUOUS
 62
256
 10
-246.317404000000010
 20
-157.708008000000010
 11
-248.317404000000010
 21
-156.532221999999990
  0
LINE
  8
0
  6
CONTINUOUS
 62
256
 10
-248.317404000000010
 20
-156.532221999999990
 11
-250.317404000000010
 21
-154.879581000000000
  0
ARC
  8
0
  6
CONTINUOUS
 62
256
 10
-244.317404000000010
 20
-164.727998000000010
 40
3.000000000000000
 50
90.000000000000000
 51
180.000000000000000
  0
LINE
  8
0
  6
CONTINUOUS
 62
256
 10
-247.317404000000010
 20
-166.388301000000010
 11
-247.317404000000010
 21
-164.727998000000010
  0
LINE
  8
0
  6
CONTINUOUS
 62
256
 10
-237.317404000000010
 20
-48.388300999999998
 11
-237.317404000000010
 21
-107.388301000000000
  0
POLYLINE
  8
0
  6
CONTINUOUS
 62
256
 66
1
 70
1
  0
VERTEX
  8
0
  6
CONTINUOUS
 62
256
 10
-243.617404000000020
 20
-60.060969999999998
  0
VERTEX
  8
0
  6
CONTINUOUS
 62
256
 10
-243.707713182104840
 20
-59.358013489441831
  0
VERTEX
  8
0
  6
CONTINUOUS
 62
256
 10
-243.975170197196970
 20
-58.682071203361858
  0
VERTEX
  8
0
  6
CONTINUOUS
 62
256
 10
-244.409496822178060
 20
-58.059119224741337
  0
VERTEX
  8
0
  6
CONTINUOUS
 62
256
 10
-244.994002128423230
 20
-57.513097248763160
  0
VERTEX
  8
0
  6
CONTINUOUS
 62
256
 10
-245.706223904807900
 20
-57.064988593751508
  0
VERTEX
  8
0
  6
CONTINUOUS
 62
256
 10
-246.518791867884090
 20
-56.732013824016263
  0
VERTEX
  8
0
  6
CONTINUOUS
 62
256
 10
-247.400479486524200
 20
-56.526968973223937
  0
VERTEX
  8
0
  6
CONTINUOUS
 62
256
 10
-248.317404000000010
 20
-56.457733800000007
  0
VERTEX
  8
0
  6
CONTINUOUS
 62
256
 10
-249.234328513475820
 20
-56.526968973223937
  0
VERTEX
  8
0
  6
CONTINUOUS
 62
256
 10
-250.116016132115930
 20
-56.732013824016263
  0
VERTEX
  8
0
  6
CONTINUOUS
 62
256
 10
-250.928584095192120
 20
-57.064988593751508
  0
VERTEX
  8
0
  6
CONTINUOUS
 62
256
 10
-251.640805871576790
 20
-57.513097248763160
  0
VERTEX
  8
0
  6
CONTINUOUS
 62
256
 10
-252.225311177821960
 20
-58.059119224741337
  0
VERTEX
  8
0
  6
CONTINUOUS
 62
256
 10
-252.659637802803050
 20
-58.682071203361858
  0
VERTEX
  8
0
  6
CONTINUOUS
 62
256
 10
-252.927094817895180
 20
-59.358013489441831
  0
VERTEX
  8
0
  6
CONTINUOUS
 62
256
 10
-253.017404000000000
 20
-60.060969999999998
  0
VERTEX
  8
0
  6
CONTINUOUS
 62
256
 10
-252.927094817895180
 20
-60.763926510558164
  0
VERTEX
  8
0
  6
CONTINUOUS
 62
256
 10
-252.659637802803050
 20
-61.439868796638137
  0
VERTEX
  8
0
  6
CONTINUOUS
 62
256
 10
-252.225311177821960
 20
-62.062820775258658
  0
VERTEX
  8
0
  6
CONTINUOUS
 62
256
 10
-251.640805871576790
 20
-62.608842751236836
  0
VERTEX
  8
0
  6
CONTINUOUS
 62
256
 10
-250.928584095192120
 20
-63.056951406248487
  0
VERTEX
  8
0
  6
CONTINUOUS
 62
256
 10
-250.116016132115930
 20
-63.389926175983732
  0
VERTEX
  8
0
  6
CONTINUOUS
 62
256
 10
-249.234328513475820
 20
-63.594971026776058
  0
VERTEX
  8
0
  6
CONTINUOUS
 62
256
 10
-248.317404000000010
 20
-63.664206199999988
  0
VERTEX
  8
0
  6
CONTINUOUS
 62
256
 10
-247.400479486524200
 20
-63.594971026776058
  0
VERTEX
  8
0
  6
CONTINUOUS
 62
256
 10
-246.518791867884090
 20
-63.389926175983732
  0
VERTEX
  8
0
  6
CONTINUOUS
 62
256
 10
-245.706223904807900
 20
-63.056951406248487
  0
VERTEX
  8
0
  6
CONTINUOUS
 62
256
 10
-244.994002128423260
 20
-62.608842751236836
  0
VERTEX
  8
0
  6
CONTINUOUS
 62
256
 10
-244.409496822178060
 20
-62.062820775258658
  0
VERTEX
  8
0
  6
CONTINUOUS
 62
256
 10
-243.975170197196970
 20
-61.439868796638137
  0
VERTEX
  8
0
  6
CONTINUOUS
 62
256
 10
-243.707713182104840
 20
-60.763926510558164
  0
SEQEND
  8
0
  6
CONTINUOUS
 62
256
  0
LINE
  8
0
  6
CONTINUOUS
 62
256
 10
-250.317404000000010
 20
-57.068595000000002
 11
-248.317404000000010
 21
-58.244380000000000
  0
LINE
  8
0
  6
CONTINUOUS
 62
256
 10
-248.317404000000010
 20
-58.244380000000000
 11
-246.317404000000010
 21
-59.897022000000000
  0
LINE
  8
0
  6
CONTINUOUS
 62
256
 10
-246.317404000000010
 20
-57.068595000000002
 11
-248.317404000000010
 21
-58.244380000000000
  0
LINE
  8
0
  6
CONTINUOUS
 62
256
 10
-248.317404000000010
 20
-58.244380000000000
 11
-250.317404000000010
 21
-59.897022000000000
  0
LINE
  8
0
  6
CONTINUOUS
 62
256
 10
-153.317404000000010
 20
-53.888300999999998
 11
-237.317404000000010
 21
-53.888300999999998
  0
LINE
  8
0
  6
CONTINUOUS
 62
256
 10
-237.317404000000010
 20
-56.388300999999998
 11
-153.317404000000010
 21
-56.388300999999998
  0
LINE
  8
0
  6
CONTINUOUS
 62
256
 10
-237.317404000000010
 20
-56.888300999999998
 11
-153.317404000000010
 21
-56.888300999999998
  0
LINE
  8
0
  6
CONTINUOUS
 62
256
 10
-237.317404000000010
 20
-61.255218999999997
 11
-153.317404000000010
 21
-61.255218999999997
  0
LINE
  8
0
  6
CONTINUOUS
 62
256
 10
-237.317404000000010
 20
-66.346388000000005
 11
-153.317404000000010
 21
-66.346388000000005
  0
LINE
  8
0
  6
CONTINUOUS
 62
256
 10
-237.317404000000010
 20
-74.084699999999998
 11
-153.317404000000010
 21
-74.084699999999998
  0
LINE
  8
0
  6
CONTINUOUS
 62
256
 10
-237.317404000000010
 20
-75.673910000000006
 11
-153.317404000000010
 21
-75.673910000000006
  0
LINE
  8
0
  6
CONTINUOUS
 62
256
 10
-237.317404000000010
 20
-78.631906000000001
 11
-153.317404000000010
 21
-78.631906000000001
  0
LINE
  8
0
  6
CONTINUOUS
 62
256
 10
-237.317404000000010
 20
-80.110928999999999
 11
-153.317404000000010
 21
-80.110928999999999
  0
LINE
  8
0
  6
CONTINUOUS
 62
256
 10
-237.317404000000010
 20
-83.203659999999999
 11
-153.317404000000010
 21
-83.203659999999999
  0
LINE
  8
0
  6
CONTINUOUS
 62
256
 10
-237.317404000000010
 20
-84.550061999999997
 11
-153.317404000000010
 21
-84.550061999999997
  0
LINE
  8
0
  6
CONTINUOUS
 62
256
 10
-237.317404000000010
 20
-87.760266999999999
 11
-153.317404000000010
 21
-87.760266999999999
  0
LINE
  8
0
  6
CONTINUOUS
 62
256
 10
-237.317404000000010
 20
-89.002187000000006
 11
-153.317404000000010
 21
-89.002187000000006
  0
LINE
  8
0
  6
CONTINUOUS
 62
256
 10
-237.317404000000010
 20
-93.388300999999998
 11
-153.317404000000010
 21
-93.388300999999998
  0
LINE
  8
0
  6
CONTINUOUS
 62
256
 10
-237.317404000000010
 20
-121.388301000000000
 11
-153.317404000000010
 21
-121.388301000000000
  0
LINE
  8
0
  6
CONTINUOUS
 62
256
 10
-237.317404000000010
 20
-125.774416000000000
 11
-153.317404000000010
 21
-125.774416000000000
  0
LINE
  8
0
  6
CONTINUOUS
 62
256
 10
-237.317404000000010
 20
-127.016336000000000
 11
-153.317404000000010
 21
-127.016336000000000
  0
LINE
  8
0
  6
CONTINUOUS
 62
256
 10
-237.317404000000010
 20
-130.226541000000000
 11
-153.317404000000010
 21
-130.226541000000000
  0
LINE
  8
0
  6
CONTINUOUS
 62
256
 10
-237.317404000000010
 20
-131.572943000000010
 11
-153.317404000000010
 21
-131.572943000000010
  0
LINE
  8
0
  6
CONTINUOUS
 62
256
 10
-237.317404000000010
 20
-134.665674000000000
 11
-153.317404000000010
 21
-134.665674000000000
  0
LINE
  8
0
  6
CONTINUOUS
 62
256
 10
-237.317404000000010
 20
-136.144697000000010
 11
-153.317404000000010
 21
-136.144697000000010
  0
LINE
  8
0
  6
CONTINUOUS
 62
256
 10
-237.317404000000010
 20
-140.691902000000000
 11
-153.317404000000010
 21
-140.691902000000000
  0
LINE
  8
0
  6
CONTINUOUS
 62
256
 10
-237.317404000000010
 20
-139.102692999999990
 11
-153.317404000000010
 21
-139.102692999999990
  0
LINE
  8
0
  6
CONTINUOUS
 62
256
 10
-237.317404000000010
 20
-148.430215000000000
 11
-153.317404000000010
 21
-148.430215000000000
  0
LINE
  8
0
  6
CONTINUOUS
 62
256
 10
-237.317404000000010
 20
-153.521384000000010
 11
-153.317404000000010
 21
-153.521384000000010
  0
LINE
  8
0
  6
CONTINUOUS
 62
256
 10
-237.317404000000010
 20
-157.888301000000010
 11
-153.317404000000010
 21
-157.888301000000010
  0
LINE
  8
0
  6
CONTINUOUS
 62
256
 10
-237.317404000000010
 20
-158.388301000000010
 11
-153.317404000000010
 21
-158.388301000000010
  0
LINE
  8
0
  6
CONTINUOUS
 62
256
 10
-170.317404000000010
 20
-159.888301000000010
 11
-237.550873000000000
 21
-159.888301000000010
  0
LINE
  8
0
  6
CONTINUOUS
 62
256
 10
-245.317404000000010
 20
-164.888301000000010
 11
-245.317404000000010
 21
-161.899571000000010
  0
LINE
  8
0
  6
CONTINUOUS
 62
256
 10
-247.317404000000010
 20
-166.388301000000010
 11
-266.822249000000000
 21
-166.388301000000010
  0
LINE
  8
0
  6
CONTINUOUS
 62
256
 10
-237.317404000000010
 20
-48.388300999999998
 11
-266.822249000000000
 21
-48.388300999999998
  0
LINE
  8
0
  6
DASHDOT
 62
256
 10
-114.600071000000000
 20
-107.388301000000000
 11
-294.290681000000010
 21
-107.388301000000000
  0
ARC
  8
0
  6
CONTINUOUS
 62
256
 10
-266.822249000000000
 20
-145.788300999999990
 40
20.599999999999991
 50
235.000000000000000
 51
270.000000000000000
  0
ARC
  8
0
  6
CONTINUOUS
 62
256
 10
-284.717403999999990
 20
-155.231921000000000
 40
2.600000000000023
 50
180.000000000000000
 51
234.999999999999770
  0
LINE
  8
0
  6
CONTINUOUS
 62
256
 10
-278.637924000000000
 20
-162.662833000000010
 11
-286.208703000000010
 21
-157.361717000000000
  0
LINE
  8
0
  6
CONTINUOUS
 62
256
 10
-287.317404000000010
 20
-155.231921000000000
 11
-287.317404000000010
 21
-107.388301000000000
  0
ARC
  8
0
  6
CONTINUOUS
 62
256
 10
-266.822249000000000
 20
-68.988301000000007
 40
20.600000000000001
 50
90.000000000000000
 51
124.999999999999990
  0
ARC
  8
0
  6
CONTINUOUS
 62
256
 10
-284.717403999999990
 20
-59.544680999999997
 40
2.600000000000001
 50
125.000000000000110
 51
180.000000000000000
  0
LINE
  8
0
  6
CONTINUOUS
 62
256
 10
-278.637924000000000
 20
-52.113768999999998
 11
-286.208703000000010
 21
-57.414886000000003
  0
LINE
  8
0
  6
CONTINUOUS
 62
256
 10
-287.317404000000010
 20
-59.544680999999997
 11
-287.317404000000010
 21
-107.388301000000000
  0
CIRCLE
  8
0
  6
CONTINUOUS
 62
256
 10
-37.317404000000003
 20
-94.388300999999998
 40
19.000000000000000
  0
LINE
  8
0
  6
CONTINUOUS
 62
256
 10
-43.931781999999998
 20
-50.888300999999998
 11
-21.389835000000001
 21
-50.888300999999998
  0
ARC
  8
0
  6
CONTINUOUS
 62
256
 10
-10.602499999999999
 20
-149.947477999999990
 40
3.500000000000000
 50
275.267653000000000
 51
334.043062000000130
  0
ARC
  8
0
  6
CONTINUOUS
 62
256
 10
4.682596000000000
 20
-157.388301000000010
 40
11.000000000000000
 50
93.372287000000000
 51
154.043061999999990
  0
ARC
  8
0
  6
CONTINUOUS
 62
256
 10
-113.317404000000000
 20
-52.388300999999998
 40
13.500000000000004
 50
273.372286999999970
 51
334.043062000000020
  0
LINE
  8
0
  6
CONTINUOUS
 62
256
 10
-153.317404000000010
 20
-107.388301000000000
 11
-153.317404000000010
 21
-53.888300999999998
  0
LINE
  8
0
  6
CONTINUOUS
 62
256
 10
-153.317404000000010
 20
-107.388301000000000
 11
-153.317404000000010
 21
-160.888301000000010
  0
ARC
  8
0
  6
CONTINUOUS
 62
256
 10
-138.317404000000010
 20
-76.496134999999995
 40
3.000000000000000
 50
0.000000000000000
 51
90.000000000000000
  0
ARC
  8
0
  6
CONTINUOUS
 62
256
 10
-138.317404000000010
 20
-138.280466999999990
 40
3.000000000000000
 50
270.000000000000000
 51
0.000000000000000
  0
ARC
  8
0
  6
CONTINUOUS
 62
256
 10
-138.317404000000010
 20
-56.626931999999996
 40
3.000000000000000
 50
0.000000000000000
 51
91.000000000000156
  0
ARC
  8
0
  6
CONTINUOUS
 62
256
 10
-138.317404000000010
 20
-158.149669999999990
 40
3.000000000000011
 50
268.999999999999830
 51
0.000000000000000
  0
LINE
  8
0
  6
CONTINUOUS
 62
256
 10
-135.317404000000010
 20
-158.149669999999990
 11
-135.317404000000010
 21
-107.388301000000000
  0
LINE
  8
0
  6
CONTINUOUS
 62
256
 10
-135.317404000000010
 20
-56.626931999999996
 11
-135.317404000000010
 21
-107.388301000000000
  0
ARC
  8
0
  6
CONTINUOUS
 62
256
 10
-146.317404000000010
 20
-146.817952999999990
 40
2.000000000000000
 50
180.000000000000000
 51
270.000000000000000
  0
ARC
  8
0
  6
CONTINUOUS
 62
256
 10
-145.317404000000010
 20
-154.888301000000010
 40
3.000000000000000
 50
90.000000000000000
 51
180.000000000000000
  0
ARC
  8
0
  6
CONTINUOUS
 62
256
 10
-140.317404000000010
 20
-146.888301000000010
 40
5.000000000000000
 50
270.000000000000000
 51
0.000000000000000
  0
ARC
  8
0
  6
CONTINUOUS
 62
256
 10
-140.317404000000010
 20
-143.817952999999990
 40
5.000000000000000
 50
270.000000000000000
 51
0.000000000000000
  0
ARC
  8
0
  6
CONTINUOUS
 62
256
 10
-145.317404000000010
 20
-138.280466999999990
 40
3.000000000000000
 50
180.000000000000000
 51
270.000000000000000
  0
ARC
  8
0
  6
CONTINUOUS
 62
256
 10
-140.317404000000010
 20
-67.888300999999998
 40
5.000000000000000
 50
0.000000000000000
 51
90.000000000000000
  0
ARC
  8
0
  6
CONTINUOUS
 62
256
 10
-140.317404000000010
 20
-70.958650000000006
 40
5.000000000000000
 50
0.000000000000000
 51
90.000000000000000
  0
ARC
  8
0
  6
CONTINUOUS
 62
256
 10
-146.317404000000010
 20
-67.958650000000006
 40
2.000000000000000
 50
90.000000000000000
 51
180.000000000000000
  0
ARC
  8
0
  6
CONTINUOUS
 62
256
 10
-145.317404000000010
 20
-59.888300999999998
 40
3.000000000000000
 50
180.000000000000000
 51
270.000000000000000
  0
ARC
  8
0
  6
CONTINUOUS
 62
256
 10
-145.317404000000010
 20
-76.496134999999995
 40
3.000000000000000
 50
90.000000000000000
 51
180.000000000000000
  0
ARC
  8
0
  6
CONTINUOUS
 62
256
 10
-151.317404000000010
 20
-157.922754000000000
 40
3.000000000000011
 50
268.999999999999830
 51
0.000000000000000
  0
ARC
  8
0
  6
CONTINUOUS
 62
256
 10
-151.317404000000010
 20
-56.853847999999999
 40
3.000000000000000
 50
0.000000000000000
 51
91.000000000000156
  0
LINE
  8
0
  6
CONTINUOUS
 62
256
 10
-148.317404000000010
 20
-154.888301000000010
 11
-148.317404000000010
 21
-157.922754000000000
  0
LINE
  8
0
  6
CONTINUOUS
 62
256
 10
-146.317404000000010
 20
-148.817952999999990
 11
-140.317404000000010
 21
-148.817952999999990
  0
LINE
  8
0
  6
CONTINUOUS
 62
256
 10
-145.317404000000010
 20
-151.888301000000010
 11
-140.317404000000010
 21
-151.888301000000010
  0
LINE
  8
0
  6
CONTINUOUS
 62
256
 10
-148.317404000000010
 20
-107.388301000000000
 11
-148.317404000000010
 21
-146.817952999999990
  0
LINE
  8
0
  6
CONTINUOUS
 62
256
 10
-138.317404000000010
 20
-141.280466999999990
 11
-145.317404000000010
 21
-141.280466999999990
  0
LINE
  8
0
  6
CONTINUOUS
 62
256
 10
-135.317404000000010
 20
-144.280466999999990
 11
-135.317404000000010
 21
-146.888301000000010
  0
LINE
  8
0
  6
CONTINUOUS
 62
256
 10
-148.317404000000010
 20
-127.388301000000000
 11
-153.317404000000010
 21
-127.388301000000000
  0
LINE
  8
0
  6
CONTINUOUS
 62
256
 10
-148.317404000000010
 20
-107.388301000000000
 11
-148.317404000000010
 21
-67.958650000000006
  0
LINE
  8
0
  6
CONTINUOUS
 62
256
 10
-148.317404000000010
 20
-87.388300999999998
 11
-153.317404000000010
 21
-87.388300999999998
  0
LINE
  8
0
  6
CONTINUOUS
 62
256
 10
-138.317404000000010
 20
-73.496134999999995
 11
-145.317404000000010
 21
-73.496134999999995
  0
LINE
  8
0
  6
CONTINUOUS
 62
256
 10
-135.317404000000010
 20
-70.496134999999995
 11
-135.317404000000010
 21
-67.888300999999998
  0
LINE
  8
0
  6
CONTINUOUS
 62
256
 10
-146.317404000000010
 20
-65.958650000000006
 11
-140.317404000000010
 21
-65.958650000000006
  0
LINE
  8
0
  6
CONTINUOUS
 62
256
 10
-145.317404000000010
 20
-62.888300999999998
 11
-140.317404000000010
 21
-62.888300999999998
  0
LINE
  8
0
  6
CONTINUOUS
 62
256
 10
-148.317404000000010
 20
-59.888300999999998
 11
-148.317404000000010
 21
-56.853847999999999
  0
CIRCLE
  8
0
  6
CONTINUOUS
 62
256
 10
-37.317404000000003
 20
-94.388300999999998
 40
37.500000000000000
  0
CIRCLE
  8
0
  6
CONTINUOUS
 62
256
 10
-37.317404000000003
 20
-94.388300999999998
 40
42.000000000000000
  0
LINE
  8
0
  6
DASHDOT
 62
256
 10
-37.317404000000003
 20
-149.157067000000010
 11
-37.317404000000003
 21
-32.516019000000000
  0
ARC
  8
0
  6
CONTINUOUS
 62
256
 10
-127.890113000000000
 20
-164.280227999999990
 40
3.000000000000003
 50
16.809628999999994
 51
89.000000000000128
  0
LINE
  8
0
  6
CONTINUOUS
 62
256
 10
-128.265047000000010
 20
-53.503376000000003
 11
-153.317404000000010
 21
-53.940666999999998
  0
LINE
  8
0
  6
CONTINUOUS
 62
256
 10
-127.837756000000000
 20
-161.280685000000010
 11
-153.317404000000010
 21
-160.835936000000000
  0
ARC
  8
0
  6
CONTINUOUS
 62
256
 10
-128.317404000000010
 20
-50.503833000000000
 40
2.999999999999997
 50
271.000000000000110
 51
0.000000000000000
  0
LINE
  8
0
  6
DASHDOT
 62
256
 10
-9.317182000000001
 20
-52.848900000000000
 11
-9.317182000000001
 21
-38.656619999999997
  0
ARC
  8
0
  6
CONTINUOUS
 62
256
 10
-113.317404000000000
 20
-52.388300999999998
 40
11.000000000000000
 50
273.372286999999970
 51
334.043062000000020
  0
ARC
  8
0
  6
CONTINUOUS
 62
256
 10
-88.193366999999995
 20
-54.388300999999998
 40
6.000000000000000
 50
90.000000000000000
 51
142.616543999999980
  0
ARC
  8
0
  6
CONTINUOUS
 62
256
 10
-88.193366999999995
 20
-155.388301000000010
 40
5.999999999999990
 50
217.383455999999910
 51
270.000000000000000
  0
ARC
  8
0
  6
CONTINUOUS
 62
256
 10
-112.317404000000000
 20
-140.417739000000010
 40
6.000000000000000
 50
180.000000000000000
 51
266.627712999999970
  0
ARC
  8
0
  6
CONTINUOUS
 62
256
 10
-113.317404000000000
 20
-157.388301000000010
 40
10.999999999999996
 50
25.956938000000029
 51
86.627712999999986
  0
ARC
  8
0
  6
CONTINUOUS
 62
256
 10
-98.032308999999998
 20
-149.947477999999990
 40
6.000000000000003
 50
205.956938000000010
 51
264.732346999999950
  0
ARC
  8
0
  6
CONTINUOUS
 62
256
 10
-20.441441000000001
 20
-155.388301000000010
 40
6.000000000000000
 50
270.000000000000000
 51
322.616544000000090
  0
ARC
  8
0
  6
CONTINUOUS
 62
256
 10
-10.602499999999999
 20
-149.947477999999990
 40
5.999999999999987
 50
275.267653000000000
 51
334.043061999999960
  0
ARC
  8
0
  6
CONTINUOUS
 62
256
 10
3.682596000000000
 20
-140.417739000000010
 40
5.999999999999992
 50
273.372286999999970
 51
0.000000000000000
  0
ARC
  8
0
  6
CONTINUOUS
 62
256
 10
-99.317627000000002
 20
-163.888351000000000
 40
8.000000000000005
 50
37.383455999999988
 51
84.732347000000047
  0
LINE
  8
0
  6
CONTINUOUS
 62
256
 10
-104.317404000000000
 20
-41.788300999999997
 11
-104.717404000000000
 21
-41.388300999999998
  0
LINE
  8
0
  6
CONTINUOUS
 62
256
 10
-93.917404000000005
 20
-41.388300999999998
 11
-94.317403999999996
 21
-41.788300999999997
  0
LINE
  8
0
  6
CONTINUOUS
 62
256
 10
-14.317182000000001
 20
-41.788300999999997
 11
-14.717181999999999
 21
-41.388300999999998
  0
LINE
  8
0
  6
CONTINUOUS
 62
256
 10
-3.917182000000000
 20
-41.388300999999998
 11
-4.317182000000000
 21
-41.788300999999997
  0
LINE
  8
0
  6
CONTINUOUS
 62
256
 10
-4.317182000000000
 20
-167.988350999999990
 11
-3.917182000000000
 21
-168.388351000000000
  0
LINE
  8
0
  6
CONTINUOUS
 62
256
 10
-14.317182000000001
 20
-167.988350999999990
 11
-14.717181999999999
 21
-168.388351000000000
  0
LINE
  8
0
  6
CONTINUOUS
 62
256
 10
-104.317404000000000
 20
-167.988301000000010
 11
-104.717404000000000
 21
-168.388301000000010
  0
LINE
  8
0
  6
CONTINUOUS
 62
256
 10
-94.317403999999996
 20
-167.988301000000010
 11
-93.917404000000005
 21
-168.388301000000010
  0
ARC
  8
0
  6
CONTINUOUS
 62
256
 10
8.682596000000000
 20
-161.388301000000010
 40
7.000000000000000
 50
270.000000000000000
 51
0.000000000000000
  0
LINE
  8
0
  6
CONTINUOUS
 62
256
 10
-104.317404000000000
 20
-167.388301000000010
 11
-118.317404000000000
 21
-167.388301000000010
  0
LINE
  8
0
  6
CONTINUOUS
 62
256
 10
-14.317182000000001
 20
-167.388301000000010
 11
-94.317403999999996
 21
-167.388301000000010
  0
LINE
  8
0
  6
DASHDOT
 62
256
 10
-3.574232000000000
 20
-157.388301000000010
 11
18.634952999999999
 21
-157.388301000000010
  0
LINE
  8
0
  6
DASHDOT
 62
256
 10
4.682596000000000
 20
-165.898182999999990
 11
4.682596000000000
 21
-150.064168999999990
  0
LINE
  8
0
  6
DASHDOT
 62
256
 10
-9.317182000000001
 20
-170.988350999999990
 11
-9.317182000000001
 21
-156.168693999999990
  0
LINE
  8
0
  6
DASHDOT
 62
256
 10
-2.217182000000000
 20
-163.888351000000000
 11
-16.417182000000000
 21
-163.888351000000000
  0
ARC
  8
0
  6
CONTINUOUS
 62
256
 10
-9.317182000000001
 20
-163.888351000000000
 40
8.000000000000011
 50
95.267652999999981
 51
142.616544000000000
  0
ARC
  8
0
  6
CONTINUOUS
 62
256
 10
-9.317182000000001
 20
-163.888351000000000
 40
5.000000000000000
 50
0.000000000000000
 51
180.000000000000000
  0
LINE
  8
0
  6
CONTINUOUS
 62
256
 10
-4.317182000000000
 20
-163.888351000000000
 11
-4.317182000000000
 21
-167.988350999999990
  0
LINE
  8
0
  6
CONTINUOUS
 62
256
 10
-14.317182000000001
 20
-163.888351000000000
 11
-14.317182000000001
 21
-167.988350999999990
  0
LINE
  8
0
  6
DASHDOT
 62
256
 10
-113.317404000000000
 20
-165.898182999999990
 11
-113.317404000000000
 21
-148.172090999999990
  0
LINE
  8
0
  6
DASHDOT
 62
256
 10
-105.087273000000000
 20
-157.388301000000010
 11
-122.253593000000000
 21
-157.388301000000010
  0
LINE
  8
0
  6
DASHDOT
 62
256
 10
-99.317403999999996
 20
-171.388301000000010
 11
-99.317403999999996
 21
-156.388301000000010
  0
LINE
  8
0
  6
DASHDOT
 62
256
 10
-91.817403999999996
 20
-163.888301000000010
 11
-106.817404000000000
 21
-163.888301000000010
  0
LINE
  8
0
  6
CONTINUOUS
 62
256
 10
-94.317403999999996
 20
-163.888301000000010
 11
-94.317403999999996
 21
-167.988301000000010
  0
LINE
  8
0
  6
CONTINUOUS
 62
256
 10
-104.317404000000000
 20
-163.888301000000010
 11
-104.317404000000000
 21
-167.988301000000010
  0
ARC
  8
0
  6
CONTINUOUS
 62
256
 10
-99.317403999999996
 20
-163.888301000000010
 40
5.000000000000000
 50
0.000000000000000
 51
180.000000000000000
  0
LINE
  8
0
  6
CONTINUOUS
 62
256
 10
-94.317403999999996
 20
-42.388300999999998
 11
-14.317182000000001
 21
-42.388300999999998
  0
LINE
  8
0
  6
CONTINUOUS
 62
256
 10
-94.317403999999996
 20
-45.888300999999998
 11
-94.317403999999996
 21
-41.788300999999997
  0
LINE
  8
0
  6
CONTINUOUS
 62
256
 10
-104.317404000000000
 20
-45.888300999999998
 11
-104.317404000000000
 21
-41.788300999999997
  0
ARC
  8
0
  6
CONTINUOUS
 62
256
 10
-99.317403999999996
 20
-45.888300999999998
 40
5.000000000000000
 50
180.000000000000000
 51
0.000000000000000
  0
LINE
  8
0
  6
CONTINUOUS
 62
256
 10
-4.317182000000000
 20
-42.388300999999998
 11
8.682596000000000
 21
-42.388300999999998
  0
LINE
  8
0
  6
CONTINUOUS
 62
256
 10
-14.317182000000001
 20
-45.888250999999997
 11
-14.317182000000001
 21
-41.788300999999997
  0
LINE
  8
0
  6
CONTINUOUS
 62
256
 10
-4.317182000000000
 20
-45.888250999999997
 11
-4.317182000000000
 21
-41.788300999999997
  0
LINE
  8
0
  6
CONTINUOUS
 62
256
 10
-20.441441000000001
 20
-161.388301000000010
 11
-88.193366999999995
 21
-161.388301000000010
  0
LINE
  8
0
  6
CONTINUOUS
 62
256
 10
9.682596000000000
 20
-69.358863999999997
 11
9.682596000000000
 21
-140.417739000000010
  0
ARC
  8
0
  6
CONTINUOUS
 62
256
 10
8.682596000000000
 20
-48.388300999999998
 40
6.000000000000000
 50
0.000000000000000
 51
90.000000000000000
  0
LINE
  8
0
  6
CONTINUOUS
 62
256
 10
-118.317404000000000
 20
-42.388300999999998
 11
-104.317404000000000
 21
-42.388300999999998
  0
ARC
  8
0
  6
CONTINUOUS
 62
256
 10
-118.317404000000000
 20
-48.388300999999998
 40
6.000000000000000
 50
90.000000000000000
 51
180.000000000000000
  0
LINE
  8
0
  6
CONTINUOUS
 62
256
 10
-124.317404000000000
 20
-161.388301000000010
 11
-124.317404000000000
 21
-48.388300999999998
  0
ARC
  8
0
  6
CONTINUOUS
 62
256
 10
-118.317404000000000
 20
-161.388301000000010
 40
6.000000000000000
 50
180.000000000000000
 51
270.000000000000000
  0
LINE
  8
0
  6
CONTINUOUS
 62
256
 10
8.682596000000000
 20
-167.388301000000010
 11
-4.317182000000000
 21
-167.388301000000010
  0
ARC
  8
0
  6
CONTINUOUS
 62
256
 10
8.682596000000000
 20
-161.388301000000010
 40
6.000000000000000
 50
270.000000000000000
 51
0.000000000000000
  0
LINE
  8
0
  6
CONTINUOUS
 62
256
 10
14.682596000000000
 20
-48.388300999999998
 11
14.682596000000000
 21
-161.388301000000010
  0
LINE
  8
0
  6
DASHDOT
 62
256
 10
-91.817403999999996
 20
-45.888300999999998
 11
-106.817404000000000
 21
-45.888300999999998
  0
LINE
  8
0
  6
DASHDOT
 62
256
 10
-99.317403999999996
 20
-38.388300999999998
 11
-99.317403999999996
 21
-53.388300999999998
  0
LINE
  8
0
  6
DASHDOT
 62
256
 10
-2.217182000000000
 20
-45.888250999999997
 11
-16.417182000000000
 21
-45.888250999999997
  0
LINE
  8
0
  6
CONTINUOUS
 62
256
 10
-125.317404000000000
 20
-161.388301000000010
 11
-125.317404000000000
 21
-48.388300999999998
  0
ARC
  8
0
  6
CONTINUOUS
 62
256
 10
-118.317404000000000
 20
-161.388301000000010
 40
7.000000000000000
 50
180.000000000000000
 51
270.000000000000000
  0
LINE
  8
0
  6
CONTINUOUS
 62
256
 10
-118.317404000000000
 20
-168.388301000000010
 11
8.682596000000000
 21
-168.388301000000010
  0
ARC
  8
0
  6
CONTINUOUS
 62
256
 10
8.682596000000000
 20
-48.388300999999998
 40
7.000000000000000
 50
0.000000000000000
 51
90.000000000000000
  0
LINE
  8
0
  6
CONTINUOUS
 62
256
 10
15.682596000000000
 20
-48.388300999999998
 11
15.682596000000000
 21
-161.388301000000010
  0
LINE
  8
0
  6
CONTINUOUS
 62
256
 10
8.682596000000000
 20
-41.388300999999998
 11
-118.317404000000000
 21
-41.388300999999998
  0
LINE
  8
0
  6
DASHDOT
 62
256
 10
-105.087273000000000
 20
-52.388300999999998
 11
-122.253593000000000
 21
-52.388300999999998
  0
ARC
  8
0
  6
CONTINUOUS
 62
256
 10
-118.317404000000000
 20
-48.388300999999998
 40
7.000000000000000
 50
90.000000000000000
 51
180.000000000000000
  0
LINE
  8
0
  6
CONTINUOUS
 62
256
 10
7.182596000000000
 20
-69.358863999999997
 11
7.182596000000000
 21
-140.417739000000010
  0
ARC
  8
0
  6
CONTINUOUS
 62
256
 10
3.682596000000000
 20
-69.358863999999997
 40
3.500000000000000
 50
0.000000000000000
 51
86.627713000000000
  0
ARC
  8
0
  6
CONTINUOUS
 62
256
 10
4.682596000000000
 20
-52.388300999999998
 40
13.500000000000002
 50
205.956937999999980
 51
266.627713000000030
  0
ARC
  8
0
  6
CONTINUOUS
 62
256
 10
-10.602499999999999
 20
-59.829124999999998
 40
3.499999999999999
 50
25.956937999999965
 51
84.732347000000019
  0
ARC
  8
0
  6
CONTINUOUS
 62
256
 10
-9.317182000000001
 20
-45.888250999999997
 40
10.500000000000002
 50
221.014737000000000
 51
264.732347000000000
  0
ARC
  8
0
  6
CONTINUOUS
 62
256
 10
-21.389835000000001
 20
-56.388300999999998
 40
5.500000000000004
 50
41.014737000000011
 51
90.000000000000000
  0
LINE
  8
0
  6
DASHDOT
 62
256
 10
4.682596000000000
 20
-43.878419999999998
 11
4.682596000000000
 21
-59.712434000000002
  0
LINE
  8
0
  6
DASHDOT
 62
256
 10
-3.574232000000000
 20
-52.388300999999998
 11
18.634952999999999
 21
-52.388300999999998
  0
ARC
  8
0
  6
CONTINUOUS
 62
256
 10
-9.317182000000001
 20
-45.888250999999997
 40
5.000000000000000
 50
180.000000000000000
 51
0.000000000000000
  0
ARC
  8
0
  6
CONTINUOUS
 62
256
 10
-9.317182000000001
 20
-45.888250999999997
 40
8.000000000000002
 50
217.383456000000000
 51
264.732347000000000
  0
ARC
  8
0
  6
CONTINUOUS
 62
256
 10
4.682596000000000
 20
-52.388300999999998
 40
11.000000000000000
 50
205.956938000000010
 51
266.627713000000030
  0
ARC
  8
0
  6
CONTINUOUS
 62
256
 10
3.682596000000000
 20
-69.358863999999997
 40
6.000000000000000
 50
0.000000000000000
 51
86.627713000000000
  0
ARC
  8
0
  6
CONTINUOUS
 62
256
 10
-10.602499999999999
 20
-59.829124999999998
 40
5.999999999999999
 50
25.956937999999980
 51
84.732346999999990
  0
ARC
  8
0
  6
CONTINUOUS
 62
256
 10
-20.441441000000001
 20
-54.388300999999998
 40
6.000000000000001
 50
37.383456000000002
 51
90.000000000000000
  0
ARC
  8
0
  6
CONTINUOUS
 62
256
 10
3.682596000000000
 20
-140.417739000000010
 40
3.500000000000003
 50
273.372286999999970
 51
0.000000000000000
  0
ARC
  8
0
  6
CONTINUOUS
 62
256
 10
4.682596000000000
 20
-157.388301000000010
 40
13.499999999999989
 50
93.372287000000000
 51
154.043062000000050
  0
ARC
  8
0
  6
CONTINUOUS
 62
256
 10
-87.244973999999999
 20
-153.388301000000010
 40
5.500000000000001
 50
221.014736999999910
 51
270.000000000000000
  0
ARC
  8
0
  6
CONTINUOUS
 62
256
 10
-99.317627000000002
 20
-163.888351000000000
 40
10.500000000000004
 50
41.014737000000025
 51
84.732347000000033
  0
ARC
  8
0
  6
CONTINUOUS
 62
256
 10
-98.032308999999998
 20
-149.947477999999990
 40
3.499999999999993
 50
205.956937999999890
 51
264.732346999999950
  0
ARC
  8
0
  6
CONTINUOUS
 62
256
 10
-113.317404000000000
 20
-157.388301000000010
 40
13.499999999999993
 50
25.956937999999962
 51
86.627712999999972
  0
ARC
  8
0
  6
CONTINUOUS
 62
256
 10
-112.317404000000000
 20
-140.417739000000010
 40
3.500000000000000
 50
180.000000000000000
 51
266.627713000000030
  0
LINE
  8
0
  6
CONTINUOUS
 62
256
 10
-115.817404000000000
 20
-140.417739000000010
 11
-115.817404000000000
 21
-69.358863999999997
  0
ARC
  8
0
  6
CONTINUOUS
 62
256
 10
-98.032308999999998
 20
-59.829124999999998
 40
3.500000000000000
 50
95.267653000000053
 51
154.043062000000020
  0
ARC
  8
0
  6
CONTINUOUS
 62
256
 10
-112.317404000000000
 20
-69.358863999999997
 40
3.500000000000003
 50
93.372286999999972
 51
180.000000000000000
  0
LINE
  8
0
  6
DASHDOT
 62
256
 10
-113.317404000000000
 20
-43.878419999999998
 11
-113.317404000000000
 21
-61.604511000000002
  0
LINE
  8
0
  6
CONTINUOUS
 62
256
 10
-118.317404000000000
 20
-140.417739000000010
 11
-118.317404000000000
 21
-69.358863999999997
  0
ARC
  8
0
  6
CONTINUOUS
 62
256
 10
-112.317404000000000
 20
-69.358863999999997
 40
5.999999999999999
 50
93.372287000000000
 51
180.000000000000000
  0
ARC
  8
0
  6
CONTINUOUS
 62
256
 10
-98.032308999999998
 20
-59.829124999999998
 40
6.000000000000002
 50
95.267653000000010
 51
154.043062000000020
  0
ARC
  8
0
  6
CONTINUOUS
 62
256
 10
-99.317627000000002
 20
-45.888250999999997
 40
10.499999999999998
 50
275.267653000000000
 51
318.985262999999970
  0
ARC
  8
0
  6
CONTINUOUS
 62
256
 10
-99.317627000000002
 20
-45.888250999999997
 40
7.999999999999996
 50
275.267653000000000
 51
322.616544000000030
  0
LINE
  8
0
  6
CONTINUOUS
 62
256
 10
-88.193366999999995
 20
-48.388300999999998
 11
-20.441441000000001
 21
-48.388300999999998
  0
LINE
  8
0
  6
CONTINUOUS
 62
256
 10
-87.244973999999999
 20
-50.888300999999998
 11
-43.931781999999998
 21
-50.888300999999998
  0
ARC
  8
0
  6
CONTINUOUS
 62
256
 10
-87.244973999999999
 20
-56.388300999999998
 40
5.500000000000000
 50
90.000000000000000
 51
138.985263000000030
  0
ARC
  8
0
  6
CONTINUOUS
 62
256
 10
-37.317404000000003
 20
-94.388300999999998
 40
12.500000000000002
 50
108.662925000000020
 51
71.337074999999999
  0
LINE
  8
0
  6
CONTINUOUS
 62
256
 10
-41.317404000000003
 20
-78.588301000000001
 11
-41.317404000000003
 21
-82.545581999999996
  0
LINE
  8
0
  6
CONTINUOUS
 62
256
 10
-33.317404000000003
 20
-78.588301000000001
 11
-33.317404000000003
 21
-82.545581999999996
  0
LINE
  8
0
  6
CONTINUOUS
 62
256
 10
-33.317404000000003
 20
-78.588301000000001
 11
-41.317404000000003
 21
-78.588301000000001
  0
LINE
  8
0
  6
DASHDOT
 62
256
 10
-85.275347999999994
 20
-94.388300999999998
 11
18.949715999999999
 21
-94.388300999999998
  0
ARC
  8
0
  6
CONTINUOUS
 62
256
 10
-20.441441000000001
 20
-155.388301000000010
 40
3.500000000000000
 50
270.000000000000000
 51
322.616544000000150
  0
LINE
  8
0
  6
CONTINUOUS
 62
256
 10
-20.441441000000001
 20
-158.888301000000010
 11
-87.244973999999999
 21
-158.888301000000010
  0
ARC
  8
0
  6
CONTINUOUS
 62
256
 10
-9.317182000000001
 20
-163.888351000000000
 40
10.500000000000000
 50
95.267652999999996
 51
142.616544000000000
  0
INSERT
  8
0
  2
ZU_SYM_1
 10
-9.317182000000001
 20
-45.888250999999997
  0
INSERT
  8
0
  2
ZU_SYM_2
 10
-9.317182000000001
 20
-163.888351000000000
  0
INSERT
  8
0
  2
ZU_SYM_3
 10
-99.317403999999996
 20
-163.888301000000010
  0
INSERT
  8
0
  2
ZU_SYM_4
 10
-99.317403999999996
 20
-45.888300999999998
  0
LINE
  8
0
  6
CONTINUOUS
 62
256
 10
144.784605000000000
 20
-106.888301000000000
 11
160.784605000000000
 21
-106.888301000000000
  0
LINE
  8
0
  6
CONTINUOUS
 62
256
 10
144.784605000000000
 20
-81.888300999999998
 11
160.784605000000000
 21
-81.888300999999998
  0
LINE
  8
0
  6
CONTINUOUS
 62
256
 10
117.784605000000000
 20
-107.388301000000000
 11
144.784605000000000
 21
-107.388301000000000
  0
LINE
  8
0
  6
CONTINUOUS
 62
256
 10
117.784605000000000
 20
-81.388300999999998
 11
144.784605000000000
 21
-81.388300999999998
  0
LINE
  8
0
  6
CONTINUOUS
 62
256
 10
152.284630999999990
 20
-74.388300999999998
 11
152.284630999999990
 21
-73.038301000000004
  0
LINE
  8
0
  6
CONTINUOUS
 62
256
 10
152.284630999999990
 20
-114.388301000000000
 11
152.284630999999990
 21
-115.738301000000010
  0
LINE
  8
0
  6
CONTINUOUS
 62
256
 10
122.284605000000000
 20
-115.738301000000010
 11
122.284605000000000
 21
-114.438301000000000
  0
LINE
  8
0
  6
CONTINUOUS
 62
256
 10
122.284605000000000
 20
-115.738301000000010
 11
152.284630999999990
 21
-115.738301000000010
  0
LINE
  8
0
  6
CONTINUOUS
 62
256
 10
94.784604999999999
 20
-114.438301000000000
 11
122.284605000000000
 21
-114.438301000000000
  0
LINE
  8
0
  6
CONTINUOUS
 62
256
 10
94.784604999999999
 20
-74.338301000000001
 11
122.284605000000000
 21
-74.338301000000001
  0
LINE
  8
0
  6
CONTINUOUS
 62
256
 10
182.784605000000000
 20
-113.388301000000000
 11
167.784605000000000
 21
-113.388301000000000
  0
LINE
  8
0
  6
CONTINUOUS
 62
256
 10
79.784604999999999
 20
-78.588301000000001
 11
116.284605000000000
 21
-78.588301000000001
  0
LINE
  8
0
  6
CONTINUOUS
 62
256
 10
182.784605000000000
 20
-75.388300999999998
 11
167.784605000000000
 21
-75.388300999999998
  0
LINE
  8
0
  6
CONTINUOUS
 62
256
 10
182.784605000000000
 20
-113.388301000000000
 11
182.784605000000000
 21
-75.388300999999998
  0
LINE
  8
0
  6
CONTINUOUS
 62
256
 10
79.784604999999999
 20
-75.388300999999998
 11
94.784604999999999
 21
-75.388300999999998
  0
LINE
  8
0
  6
CONTINUOUS
 62
256
 10
79.784604999999999
 20
-113.388301000000000
 11
94.784604999999999
 21
-113.388301000000000
  0
LINE
  8
0
  6
CONTINUOUS
 62
256
 10
79.784604999999999
 20
-113.388301000000000
 11
79.784604999999999
 21
-75.388300999999998
  0
LINE
  8
0
  6
CONTINUOUS
 62
256
 10
167.784605000000000
 20
-113.388301000000000
 11
167.784605000000000
 21
-114.388301000000000
  0
LINE
  8
0
  6
CONTINUOUS
 62
256
 10
167.784605000000000
 20
-75.388300999999998
 11
167.784605000000000
 21
-74.388300000000001
  0
LINE
  8
0
  6
CONTINUOUS
 62
256
 10
167.784605000000000
 20
-114.388301000000000
 11
152.284630999999990
 21
-114.388301000000000
  0
LINE
  8
0
  6
CONTINUOUS
 62
256
 10
167.784605000000000
 20
-74.388300999999998
 11
152.284630999999990
 21
-74.388300999999998
  0
LINE
  8
0
  6
CONTINUOUS
 62
256
 10
94.784604999999999
 20
-75.388300999999998
 11
94.784604999999999
 21
-74.338301000000001
  0
LINE
  8
0
  6
CONTINUOUS
 62
256
 10
94.784604999999999
 20
-113.388301000000000
 11
94.784604999999999
 21
-114.438301000000000
  0
LINE
  8
0
  6
CONTINUOUS
 62
256
 10
122.284605000000000
 20
-73.038301000000004
 11
122.284605000000000
 21
-74.338301000000001
  0
LINE
  8
0
  6
DASHDOT
 62
256
 10
77.391807000000000
 20
-94.388300999999998
 11
185.725140000000010
 21
-94.388300999999998
  0
LINE
  8
0
  6
CONTINUOUS
 62
256
 10
116.284605000000000
 20
-78.588301000000001
 11
182.784605000000000
 21
-78.588301000000001
  0
LINE
  8
0
  6
CONTINUOUS
 62
256
 10
79.784604999999999
 20
-81.888300999999998
 11
99.784604999999999
 21
-81.888300999999998
  0
LINE
  8
0
  6
CONTINUOUS
 62
256
 10
79.784604999999999
 20
-106.888301000000000
 11
99.784604999999999
 21
-106.888301000000000
  0
LINE
  8
0
  6
CONTINUOUS
 62
256
 10
122.284605000000000
 20
-73.038301000000004
 11
152.284630999999990
 21
-73.038301000000004
  0
LINE
  8
0
  6
CONTINUOUS
 62
256
 10
144.784605000000000
 20
-107.388301000000000
 11
144.784605000000000
 21
-81.388300999999998
  0
LINE
  8
0
  6
CONTINUOUS
 62
256
 10
117.784605000000000
 20
-107.388301000000000
 11
117.784605000000000
 21
-81.388300999999998
  0
LINE
  8
0
  6
CONTINUOUS
 62
256
 10
160.784605000000000
 20
-107.888301000000000
 11
160.784605000000000
 21
-80.888300999999998
  0
LINE
  8
0
  6
CONTINUOUS
 62
256
 10
101.784605000000000
 20
-107.888301000000000
 11
101.784605000000000
 21
-80.888300999999998
  0
LINE
  8
0
  6
CONTINUOUS
 62
256
 10
162.784605000000000
 20
-107.888301000000000
 11
162.784605000000000
 21
-80.888300999999998
  0
LINE
  8
0
  6
CONTINUOUS
 62
256
 10
99.784604999999999
 20
-107.888301000000000
 11
99.784604999999999
 21
-80.888300999999998
  0
LINE
  8
0
  6
CONTINUOUS
 62
256
 10
99.784604999999999
 20
-107.888301000000000
 11
101.784605000000000
 21
-107.888301000000000
  0
LINE
  8
0
  6
CONTINUOUS
 62
256
 10
99.784604999999999
 20
-80.888300999999998
 11
101.784605000000000
 21
-80.888300999999998
  0
LINE
  8
0
  6
CONTINUOUS
 62
256
 10
160.784605000000000
 20
-107.888301000000000
 11
162.784605000000000
 21
-107.888301000000000
  0
LINE
  8
0
  6
CONTINUOUS
 62
256
 10
160.784605000000000
 20
-80.888300999999998
 11
162.784605000000000
 21
-80.888300999999998
  0
LINE
  8
0
  6
CONTINUOUS
 62
256
 10
162.784605000000000
 20
-81.888300999999998
 11
182.784605000000000
 21
-81.888300999999998
  0
LINE
  8
0
  6
CONTINUOUS
 62
256
 10
162.784605000000000
 20
-106.888301000000000
 11
182.784605000000000
 21
-106.888301000000000
  0
LINE
  8
0
  6
CONTINUOUS
 62
256
 10
101.784605000000000
 20
-81.888300999999998
 11
117.784605000000000
 21
-81.888300999999998
  0
LINE
  8
0
  6
CONTINUOUS
 62
256
 10
101.784605000000000
 20
-106.888301000000000
 11
117.784605000000000
 21
-106.888301000000000
  0
ARC
  8
0
  6
CONTINUOUS
 62
256
 10
35.233471000000002
 20
-107.388301000000000
 40
400.600000000000020
 50
354.256318000000020
 51
0.000000000000000
  0
ENDSEC
  0
EOF
