  0
SECTION
  2
HEADER
  9
$TEXTSIZE
 40
2.5
  9
$ACADVER
  1
AC1009
  9
$DIMASZ
 40
3.863703297614046
  9
$DIMEXE
 40
2.000000000000000
  9
$DIMEXO
 40
1.000000000000000
  9
$DIMLFAC
 40
1.000000000000000
  9
$DIMSCALE
 40
1.000000000000000
  9
$DIMTAD
 70
1
  9
$DIMTFAC
 40
0.625000000000000
  9
$DIMTXT
 40
3.200000047683716
  9
$LUPREC
 70
3
  9
$REGENMODE
 70
1
  9
$TEXTSTYLE
  7
STANDARD1
  0
ENDSEC
  0
SECTION
  2
TABLES
  0
TABLE
  2
LTYPE
 70
4
  0
LTYPE
  2
CONTINUOUS
 70
64
  3
Solid line
 72
65
 73
0
 40
0.0
  0
LTYPE
  2
DASHED
 70
64
  3
-- -- -- -- -- -- -- -- -- -- -- -- -- -- --
 72
65
 73
2
 40
0.75
 49
0.5
 49
-0.25
  0
LTYPE
  2
DASHDOT
 70
64
  3
__ . __ . __ . __ . __ . __ . __ . __ . __ . __
 72
65
 73
4
 40
1.0
 49
0.5
 49
-0.25
 49
0.0
 49
-0.25
  0
LTYPE
  2
DIVIDE
 70
64
  3
__ . . __ . . __ . . __ . . __ . . __ . . __
 72
65
 73
6
 40
1.25
 49
0.5
 49
-0.25
 49
0.0
 49
-0.25
 49
0.0
 49
-0.25
  0
ENDTAB
  0
TABLE
  2
LAYER
 70
2
  0
LAYER
  2
0
 70
64
 62
53
  6
CONTINUOUS
  0
LAYER
  2
1
 70
64
 62
102
  6
CONTINUOUS
  0
ENDTAB
  0
TABLE
  2
STYLE
 70
4
  0
STYLE
  2
STANDARD1
 70
64
 40
0.0
 41
1.0
 50
0.0
 71
0
 42
3.200000047683716
  3
MONOTXT
  4
BIGFONT
  0
STYLE
  2
STANDARD2
 70
68
 40
0.0
 41
1.0
 50
0.0
 71
0
 42
3.200000047683716
  3
MONOTXT
  4
BIGFONT
  0
STYLE
  2
STANDARD3
 70
64
 40
0.0
 41
1.0
 50
0.0
 71
0
 42
3.200000047683716
  3
MONOTXT
  4

  0
STYLE
  2
STANDARD4
 70
68
 40
0.0
 41
1.0
 50
0.0
 71
0
 42
3.200000047683716
  3
MONOTXT
  4

  0
ENDTAB
  0
TABLE
  2
VIEW
 70
0
  0
ENDTAB
  0
ENDSEC
  0
SECTION
  2
BLOCKS
  0
BLOCK
  8
0
  2
ZU_SYM_1
 70
64
 10
0.000000000000000
 20
0.000000000000000
  0
CIRCLE
  8
0
  6
CONTINUOUS
 62
256
 10
0.000000000000000
 20
0.000000000000000
 40
5.000000000000000
  0
POINT
  8
0
  6
CONTINUOUS
 62
256
 10
0.000000000000000
 20
0.000000000000000
  0
LINE
  8
0
  6
CONTINUOUS
 62
256
 10
-2.499998000000000
 20
-1.443372000000000
 11
-2.499999000000000
 21
1.443378000000000
  0
LINE
  8
0
  6
CONTINUOUS
 62
256
 10
2.499998000000000
 20
1.443372000000000
 11
2.499999000000000
 21
-1.443374000000000
  0
LINE
  8
0
  6
CONTINUOUS
 62
256
 10
0.000005000000000
 20
2.886749000000000
 11
2.499999000000000
 21
1.443372000000000
  0
LINE
  8
0
  6
CONTINUOUS
 62
256
 10
-0.000006000000000
 20
-2.886747000000000
 11
-2.499998000000000
 21
-1.443372000000000
  0
LINE
  8
0
  6
CONTINUOUS
 62
256
 10
0.000005000000000
 20
2.886748000000000
 11
-2.500000000000000
 21
1.443377000000000
  0
LINE
  8
0
  6
CONTINUOUS
 62
256
 10
2.499999000000000
 20
-1.443374000000000
 11
-0.000005000000000
 21
-2.886748000000000
  0
ENDBLK
  8
0
  0
BLOCK
  8
0
  2
ZU_SYM_2
 70
64
 10
0.000000000000000
 20
0.000000000000000
  0
CIRCLE
  8
0
  6
CONTINUOUS
 62
256
 10
0.000000000000000
 20
0.000000000000000
 40
5.000000000000000
  0
POINT
  8
0
  6
CONTINUOUS
 62
256
 10
0.000000000000000
 20
0.000000000000000
  0
LINE
  8
0
  6
CONTINUOUS
 62
256
 10
-2.499998000000000
 20
-1.443372000000000
 11
-2.499999000000000
 21
1.443378000000000
  0
LINE
  8
0
  6
CONTINUOUS
 62
256
 10
2.499998000000000
 20
1.443372000000000
 11
2.499999000000000
 21
-1.443374000000000
  0
LINE
  8
0
  6
CONTINUOUS
 62
256
 10
0.000005000000000
 20
2.886749000000000
 11
2.499999000000000
 21
1.443372000000000
  0
LINE
  8
0
  6
CONTINUOUS
 62
256
 10
-0.000006000000000
 20
-2.886747000000000
 11
-2.499998000000000
 21
-1.443372000000000
  0
LINE
  8
0
  6
CONTINUOUS
 62
256
 10
0.000005000000000
 20
2.886748000000000
 11
-2.500000000000000
 21
1.443377000000000
  0
LINE
  8
0
  6
CONTINUOUS
 62
256
 10
2.499999000000000
 20
-1.443374000000000
 11
-0.000005000000000
 21
-2.886748000000000
  0
ENDBLK
  8
0
  0
BLOCK
  8
0
  2
ZU_SYM_3
 70
64
 10
0.000000000000000
 20
0.000000000000000
  0
CIRCLE
  8
0
  6
CONTINUOUS
 62
256
 10
0.000000000000000
 20
0.000000000000000
 40
5.000000000000000
  0
POINT
  8
0
  6
CONTINUOUS
 62
256
 10
0.000000000000000
 20
0.000000000000000
  0
LINE
  8
0
  6
CONTINUOUS
 62
256
 10
-2.499998000000000
 20
-1.443372000000000
 11
-2.499999000000000
 21
1.443378000000000
  0
LINE
  8
0
  6
CONTINUOUS
 62
256
 10
2.499998000000000
 20
1.443372000000000
 11
2.499999000000000
 21
-1.443374000000000
  0
LINE
  8
0
  6
CONTINUOUS
 62
256
 10
0.000005000000000
 20
2.886749000000000
 11
2.499999000000000
 21
1.443372000000000
  0
LINE
  8
0
  6
CONTINUOUS
 62
256
 10
-0.000006000000000
 20
-2.886747000000000
 11
-2.499998000000000
 21
-1.443372000000000
  0
LINE
  8
0
  6
CONTINUOUS
 62
256
 10
0.000005000000000
 20
2.886748000000000
 11
-2.500000000000000
 21
1.443377000000000
  0
LINE
  8
0
  6
CONTINUOUS
 62
256
 10
2.499999000000000
 20
-1.443374000000000
 11
-0.000005000000000
 21
-2.886748000000000
  0
ENDBLK
  8
0
  0
BLOCK
  8
0
  2
ZU_SYM_4
 70
64
 10
0.000000000000000
 20
0.000000000000000
  0
CIRCLE
  8
0
  6
CONTINUOUS
 62
256
 10
0.000000000000000
 20
0.000000000000000
 40
5.000000000000000
  0
POINT
  8
0
  6
CONTINUOUS
 62
256
 10
0.000000000000000
 20
0.000000000000000
  0
LINE
  8
0
  6
CONTINUOUS
 62
256
 10
-2.499998000000000
 20
-1.443372000000000
 11
-2.499999000000000
 21
1.443378000000000
  0
LINE
  8
0
  6
CONTINUOUS
 62
256
 10
2.499998000000000
 20
1.443372000000000
 11
2.499999000000000
 21
-1.443374000000000
  0
LINE
  8
0
  6
CONTINUOUS
 62
256
 10
0.000005000000000
 20
2.886749000000000
 11
2.499999000000000
 21
1.443372000000000
  0
LINE
  8
0
  6
CONTINUOUS
 62
256
 10
-0.000006000000000
 20
-2.886747000000000
 11
-2.499998000000000
 21
-1.443372000000000
  0
LINE
  8
0
  6
CONTINUOUS
 62
256
 10
0.000005000000000
 20
2.886748000000000
 11
-2.500000000000000
 21
1.443377000000000
  0
LINE
  8
0
  6
CONTINUOUS
 62
256
 10
2.499999000000000
 20
-1.443374000000000
 11
-0.000005000000000
 21
-2.886748000000000
  0
ENDBLK
  8
0
  0
ENDSEC
  0
SECTION
  2
ENTITIES
  0
TEXT
  8
0
  6
CONTINUOUS
 62
256
 10
-70.375488281250000
 20
-13.156250000000000
 40
2.799999952316284
  1
ü@
 50
0.000002504478167
 41
0.996000017370497
  7
STANDARD1
  0
TEXT
  8
0
  6
CONTINUOUS
 62
256
 10
1.624511957168579
 20
-253.406250000000000
 40
2.799999952316284
  1
ü@
 50
0.000002504478167
 41
0.996000017370497
  7
STANDARD1
  0
ARC
  8
0
  6
CONTINUOUS
 62
256
 10
163.102011000000000
 20
-114.327209000000000
 40
0.400000000000006
 50
270.000000000000000
 51
0.000000000000000
  0
ARC
  8
0
  6
CONTINUOUS
 62
256
 10
161.502011000000010
 20
-109.727209000000000
 40
2.000000000000000
 50
0.000000000000000
 51
90.000000000000000
  0
LINE
  8
0
  6
CONTINUOUS
 62
256
 10
147.893349000000000
 20
-114.727209000000000
 11
163.102011000000000
 21
-114.727209000000000
  0
LINE
  8
0
  6
CONTINUOUS
 62
256
 10
161.502011000000010
 20
-107.727209000000000
 11
143.502011000000010
 21
-107.727209000000000
  0
LINE
  8
0
  6
CONTINUOUS
 62
256
 10
163.502011000000010
 20
-114.327209000000000
 11
163.502011000000010
 21
-70.727209000000002
  0
ARC
  8
0
  6
CONTINUOUS
 62
256
 10
161.502011000000010
 20
-75.727209000000002
 40
2.000000000000000
 50
270.000000000000000
 51
0.000000000000000
  0
LINE
  8
0
  6
CONTINUOUS
 62
256
 10
161.502011000000010
 20
-77.727209000000002
 11
143.502011000000010
 21
-77.727209000000002
  0
ARC
  8
0
  6
CONTINUOUS
 62
256
 10
147.893349000000000
 20
-70.327208999999996
 40
0.399999999999991
 50
189.594067999999960
 51
270.000000000000000
  0
LINE
  8
0
  6
CONTINUOUS
 62
256
 10
147.893349000000000
 20
-70.727209000000002
 11
163.502011000000010
 21
-70.727209000000002
  0
ARC
  8
0
  6
CONTINUOUS
 62
256
 10
147.301740999999990
 20
-70.427209000000005
 40
0.199999999999996
 50
9.594067999999961
 51
90.000000000000000
  0
LINE
  8
0
  6
CONTINUOUS
 62
256
 10
132.901740999999990
 20
-70.227209000000002
 11
147.301740999999990
 21
-70.227209000000002
  0
ARC
  8
0
  6
CONTINUOUS
 62
256
 10
147.893349000000000
 20
-115.127208999999990
 40
0.400000000000006
 50
90.000000000000000
 51
170.405932000000040
  0
ARC
  8
0
  6
CONTINUOUS
 62
256
 10
147.301740999999990
 20
-115.027209000000000
 40
0.200000000000003
 50
270.000000000000000
 51
350.405932000000010
  0
LINE
  8
0
  6
DASHDOT
 62
256
 10
167.067549000000010
 20
-92.727267999999995
 11
45.599733999999998
 21
-92.727267999999995
  0
LINE
  8
0
  6
CONTINUOUS
 62
256
 10
132.901740999999990
 20
-115.227209000000000
 11
147.301740999999990
 21
-115.227209000000000
  0
LINE
  8
0
  6
CONTINUOUS
 62
256
 10
132.501741000000010
 20
-115.627208999999990
 11
132.501745000000000
 21
-118.127268000000000
  0
ARC
  8
0
  6
CONTINUOUS
 62
256
 10
132.901740999999990
 20
-115.627208999999990
 40
0.400000000000006
 50
90.000000000000000
 51
180.000072999999450
  0
LINE
  8
0
  6
CONTINUOUS
 62
256
 10
115.002295000000000
 20
-118.127268000000000
 11
132.501758000000000
 21
-118.127268000000000
  0
LINE
  8
0
  6
CONTINUOUS
 62
256
 10
143.502011000000010
 20
-76.477267999999995
 11
143.502011000000010
 21
-108.977268000000000
  0
LINE
  8
0
  6
CONTINUOUS
 62
256
 10
143.502011000000010
 20
-108.977268000000000
 11
141.502011000000010
 21
-108.977268000000000
  0
LINE
  8
0
  6
CONTINUOUS
 62
256
 10
141.502011000000010
 20
-108.977268000000000
 11
141.502011000000010
 21
-92.727209000000002
  0
LINE
  8
0
  6
CONTINUOUS
 62
256
 10
141.502011000000010
 20
-107.727209000000000
 11
117.502011000000000
 21
-107.727209000000000
  0
LINE
  8
0
  6
CONTINUOUS
 62
256
 10
141.502011000000010
 20
-76.477267999999995
 11
141.502011000000010
 21
-92.727209000000002
  0
LINE
  8
0
  6
CONTINUOUS
 62
256
 10
143.502011000000010
 20
-76.477267999999995
 11
141.502011000000010
 21
-76.477267999999995
  0
ARC
  8
0
  6
CONTINUOUS
 62
256
 10
132.901740999999990
 20
-69.827268000000004
 40
0.399999999999989
 50
179.999927000000550
 51
270.000000000000000
  0
LINE
  8
0
  6
CONTINUOUS
 62
256
 10
132.501741000000010
 20
-69.827268000000004
 11
132.501744000000000
 21
-67.727269000000007
  0
LINE
  8
0
  6
CONTINUOUS
 62
256
 10
141.502011000000010
 20
-77.727209000000002
 11
117.502011000000000
 21
-77.727209000000002
  0
LINE
  8
0
  6
CONTINUOUS
 62
256
 10
49.502011000000003
 20
-74.427267999999998
 11
163.502011000000010
 21
-74.427267999999998
  0
ARC
  8
0
  6
CONTINUOUS
 62
256
 10
96.102294999999998
 20
-69.827208999999996
 40
0.400000000000006
 50
270.000000000000000
 51
0.000000000000000
  0
LINE
  8
0
  6
CONTINUOUS
 62
256
 10
65.693888999999999
 20
-70.227209000000002
 11
96.102294999999998
 21
-70.227209000000002
  0
LINE
  8
0
  6
CONTINUOUS
 62
256
 10
95.502010999999996
 20
-77.527208999999999
 11
95.502010999999996
 21
-92.727209000000002
  0
LINE
  8
0
  6
CONTINUOUS
 62
256
 10
95.502010999999996
 20
-77.727209000000002
 11
71.502010999999996
 21
-77.727209000000002
  0
LINE
  8
0
  6
CONTINUOUS
 62
256
 10
117.502011000000000
 20
-77.527208999999999
 11
117.502011000000000
 21
-92.727209000000002
  0
LINE
  8
0
  6
CONTINUOUS
 62
256
 10
95.502010999999996
 20
-77.527208999999999
 11
117.502011000000000
 21
-77.527208999999999
  0
LINE
  8
0
  6
CONTINUOUS
 62
256
 10
117.502011000000000
 20
-107.927209000000000
 11
117.502011000000000
 21
-92.727209000000002
  0
LINE
  8
0
  6
CONTINUOUS
 62
256
 10
115.002295000000000
 20
-118.127268000000000
 11
115.002295000000000
 21
-117.227268000000000
  0
LINE
  8
0
  6
CONTINUOUS
 62
256
 10
96.502295000000004
 20
-117.227268000000000
 11
96.502295000000004
 21
-115.627208999999990
  0
ARC
  8
0
  6
CONTINUOUS
 62
256
 10
96.102294999999998
 20
-115.627208999999990
 40
0.400000000000006
 50
0.000000000000000
 51
90.000000000000000
  0
LINE
  8
0
  6
CONTINUOUS
 62
256
 10
65.693888999999999
 20
-115.227209000000000
 11
96.102294999999998
 21
-115.227209000000000
  0
LINE
  8
0
  6
CONTINUOUS
 62
256
 10
96.502295000000004
 20
-117.227268000000000
 11
115.002295000000000
 21
-117.227268000000000
  0
LINE
  8
0
  6
CONTINUOUS
 62
256
 10
95.502010999999996
 20
-107.927209000000000
 11
117.502011000000000
 21
-107.927209000000000
  0
LINE
  8
0
  6
CONTINUOUS
 62
256
 10
95.502010999999996
 20
-107.927209000000000
 11
95.502010999999996
 21
-92.727209000000002
  0
LINE
  8
0
  6
CONTINUOUS
 62
256
 10
95.502010999999996
 20
-107.727209000000000
 11
71.502010999999996
 21
-107.727209000000000
  0
LINE
  8
0
  6
CONTINUOUS
 62
256
 10
71.502010999999996
 20
-108.977268000000000
 11
69.502010999999996
 21
-108.977268000000000
  0
LINE
  8
0
  6
CONTINUOUS
 62
256
 10
79.002336999999997
 20
-115.227211000000000
 11
66.002336999999997
 21
-115.227226000000000
  0
ARC
  8
0
  6
CONTINUOUS
 62
256
 10
65.693888999999999
 20
-115.027209000000000
 40
0.199999999999996
 50
189.594067999999960
 51
270.000000000000000
  0
ARC
  8
0
  6
CONTINUOUS
 62
256
 10
65.102281000000005
 20
-115.127208999999990
 40
0.400000000000005
 50
9.594067999999622
 51
90.000000000000000
  0
LINE
  8
0
  6
CONTINUOUS
 62
256
 10
71.502010999999996
 20
-108.977268000000000
 11
71.502010999999996
 21
-92.727209000000002
  0
LINE
  8
0
  6
CONTINUOUS
 62
256
 10
69.502010999999996
 20
-107.727209000000000
 11
51.502011000000003
 21
-107.727209000000000
  0
ARC
  8
0
  6
CONTINUOUS
 62
256
 10
51.502011000000003
 20
-109.727209000000000
 40
2.000000000000000
 50
90.000000000000000
 51
180.000000000000000
  0
ARC
  8
0
  6
CONTINUOUS
 62
256
 10
49.902011000000002
 20
-114.327209000000000
 40
0.399999999999999
 50
180.000000000000000
 51
270.000000000000000
  0
LINE
  8
0
  6
CONTINUOUS
 62
256
 10
65.102281000000005
 20
-114.727209000000000
 11
49.902011000000002
 21
-114.727209000000000
  0
LINE
  8
0
  6
CONTINUOUS
 62
256
 10
71.502010999999996
 20
-76.477267999999995
 11
69.502010999999996
 21
-76.477267999999995
  0
LINE
  8
0
  6
CONTINUOUS
 62
256
 10
69.502010999999996
 20
-76.477267999999995
 11
69.502010999999996
 21
-108.977268000000000
  0
LINE
  8
0
  6
CONTINUOUS
 62
256
 10
71.502010999999996
 20
-76.477267999999995
 11
71.502010999999996
 21
-92.727209000000002
  0
LINE
  8
0
  6
CONTINUOUS
 62
256
 10
69.502010999999996
 20
-77.727209000000002
 11
51.502011000000003
 21
-77.727209000000002
  0
ARC
  8
0
  6
CONTINUOUS
 62
256
 10
65.102281000000005
 20
-70.327208999999996
 40
0.400000000000006
 50
270.000000000000000
 51
350.405932000000400
  0
LINE
  8
0
  6
CONTINUOUS
 62
256
 10
65.102281000000005
 20
-70.727209000000002
 11
49.902011000000002
 21
-70.727209000000002
  0
LINE
  8
0
  6
CONTINUOUS
 62
256
 10
49.502011000000003
 20
-114.327209000000000
 11
49.502011000000003
 21
-71.127208999999993
  0
ARC
  8
0
  6
CONTINUOUS
 62
256
 10
49.902011000000002
 20
-71.127208999999993
 40
0.400000000000006
 50
90.000000000000000
 51
180.000000000000000
  0
ARC
  8
0
  6
CONTINUOUS
 62
256
 10
51.502011000000003
 20
-75.727209000000002
 40
2.000000000000000
 50
180.000000000000000
 51
270.000000000000000
  0
LINE
  8
0
  6
CONTINUOUS
 62
256
 10
79.002284000000003
 20
-70.227226000000002
 11
66.002284000000003
 21
-70.227241000000006
  0
ARC
  8
0
  6
CONTINUOUS
 62
256
 10
65.693888999999999
 20
-70.427209000000005
 40
0.200000000000003
 50
90.000000000000000
 51
170.405932000000040
  0
ARC
  8
0
  6
CONTINUOUS
 62
256
 10
49.902011000000002
 20
-114.327209000000000
 40
0.399999999999999
 50
180.000000000000000
 51
270.000000000000000
  0
ARC
  8
0
  6
CONTINUOUS
 62
256
 10
49.902011000000002
 20
-71.127208999999993
 40
0.400000000000006
 50
90.000000000000000
 51
180.000000000000000
  0
ARC
  8
0
  6
CONTINUOUS
 62
256
 10
45.950876999999998
 20
-107.509754000000000
 40
400.600000000000020
 50
354.256318000000020
 51
358.996278000000020
  0
LINE
  8
0
  6
CONTINUOUS
 62
256
 10
441.550877000000010
 20
-152.696377000000010
 11
442.639727999999990
 21
-151.607526000000010
  0
ARC
  8
0
  6
CONTINUOUS
 62
256
 10
437.972823000000010
 20
-146.940620999999990
 40
6.600000000000017
 50
315.000000000000170
 51
354.256318000000020
  0
LINE
  8
0
  6
CONTINUOUS
 62
256
 10
390.050877000000010
 20
-195.009753999999990
 11
395.050877000000010
 21
-195.009753999999990
  0
LINE
  8
0
  6
CONTINUOUS
 62
256
 10
390.050877000000010
 20
-194.499337000000000
 11
390.050877000000010
 21
-195.009753999999990
  0
LINE
  8
0
  6
CONTINUOUS
 62
256
 10
395.050877000000010
 20
-194.499337000000000
 11
395.050877000000010
 21
-195.009753999999990
  0
ARC
  8
0
  6
CONTINUOUS
 62
256
 10
392.550877000000010
 20
105.490246000000000
 40
300.000000000000000
 50
265.138595000000010
 51
274.861404999999990
  0
LINE
  8
0
  6
CONTINUOUS
 62
256
 10
422.550877000000010
 20
-178.333604000000010
 11
422.550877000000010
 21
-188.448522999999990
  0
ARC
  8
0
  6
CONTINUOUS
 62
256
 10
417.550877000000010
 20
-188.448522999999990
 40
4.999999999999989
 50
274.861405000000100
 51
0.000000000000000
  0
LINE
  8
0
  6
CONTINUOUS
 62
256
 10
362.550877000000010
 20
-179.394688000000000
 11
362.550877000000010
 21
-188.448522999999990
  0
ARC
  8
0
  6
CONTINUOUS
 62
256
 10
367.550877000000010
 20
-188.448522999999990
 40
5.000000000000000
 50
180.000000000000000
 51
265.138594999999900
  0
ARC
  8
0
  6
CONTINUOUS
 62
256
 10
347.128930000000030
 20
-146.940620999999990
 40
6.599999999999971
 50
185.743681999999920
 51
224.999999999999830
  0
LINE
  8
0
  6
CONTINUOUS
 62
256
 10
343.550877000000010
 20
-152.696377000000010
 11
342.462024999999980
 21
-151.607526000000010
  0
ARC
  8
0
  6
CONTINUOUS
 62
256
 10
739.150877000000040
 20
-107.509754000000000
 40
400.600000000000080
 50
181.003722000000010
 51
185.743681999999980
  0
LINE
  8
0
  6
CONTINUOUS
 62
256
 10
259.455220000000000
 20
-74.227209000000002
 11
259.455220000000000
 21
-78.070376999999993
  0
ARC
  8
0
  6
CONTINUOUS
 62
256
 10
255.455220000000000
 20
-92.527208999999999
 40
15.000000000000002
 50
105.466009999999980
 51
74.533990000000031
  0
CIRCLE
  8
0
  6
CONTINUOUS
 62
256
 10
255.455220000000000
 20
-92.527208999999999
 40
22.000000000000000
  0
LINE
  8
0
  6
CONTINUOUS
 62
256
 10
259.455220000000000
 20
-74.227209000000002
 11
251.455220000000000
 21
-74.227209000000002
  0
LINE
  8
0
  6
CONTINUOUS
 62
256
 10
251.455220000000000
 20
-74.227209000000002
 11
251.455220000000000
 21
-78.070376999999993
  0
LINE
  8
0
  6
DASHDOT
 62
256
 10
442.996961000000000
 20
-166.527209000000000
 11
341.913747000000000
 21
-166.527209000000000
  0
LINE
  8
0
  6
DASHDOT
 62
256
 10
442.996961000000000
 20
-44.527208999999999
 11
341.913747000000000
 21
-44.527208999999999
  0
LINE
  8
0
  6
CONTINUOUS
 62
256
 10
-214.099998000000000
 20
-161.009753999999990
 11
-214.099998000000000
 21
-107.509754000000000
  0
LINE
  8
0
  6
CONTINUOUS
 62
256
 10
-306.099998000000030
 20
-165.009753999999990
 11
-231.099998000000000
 21
-165.009753999999990
  0
LINE
  8
0
  6
CONTINUOUS
 62
256
 10
-231.099998000000000
 20
-165.009753999999990
 11
-231.099998000000000
 21
-160.009753999999990
  0
LINE
  8
0
  6
CONTINUOUS
 62
256
 10
-232.099998000000000
 20
-193.509753999999990
 11
-232.099998000000000
 21
-165.009753999999990
  0
LINE
  8
0
  6
CONTINUOUS
 62
256
 10
-305.099998000000030
 20
-193.509753999999990
 11
-305.099998000000030
 21
-165.009753999999990
  0
ARC
  8
0
  6
CONTINUOUS
 62
256
 10
-304.099998000000030
 20
-193.509753999999990
 40
1.000000000000000
 50
180.000000000000000
 51
270.000000000000000
  0
ARC
  8
0
  6
CONTINUOUS
 62
256
 10
-233.099998000000000
 20
-193.509753999999990
 40
1.000000000000000
 50
270.000000000000000
 51
0.000000000000000
  0
LINE
  8
0
  6
CONTINUOUS
 62
256
 10
-214.099998000000000
 20
-161.009753999999990
 11
-231.099998000000000
 21
-161.009753999999990
  0
LINE
  8
0
  6
CONTINUOUS
 62
256
 10
-214.099998000000000
 20
-54.009754000000001
 11
-214.099998000000000
 21
-107.509754000000000
  0
LINE
  8
0
  6
CONTINUOUS
 62
256
 10
-239.099998000000000
 20
-195.009753999999990
 11
-239.099998000000000
 21
-194.509753999999990
  0
LINE
  8
0
  6
CONTINUOUS
 62
256
 10
-247.099998000000000
 20
-195.009753999999990
 11
-239.099998000000000
 21
-195.009753999999990
  0
LINE
  8
0
  6
CONTINUOUS
 62
256
 10
-247.099998000000000
 20
-195.009753999999990
 11
-247.099998000000000
 21
-194.509753999999990
  0
LINE
  8
0
  6
CONTINUOUS
 62
256
 10
-233.099998000000000
 20
-194.509753999999990
 11
-304.099998000000030
 21
-194.509753999999990
  0
LINE
  8
0
  6
CONTINUOUS
 62
256
 10
-298.099998000000030
 20
-158.849449999999990
 11
-298.099998000000030
 21
-107.509754000000000
  0
ARC
  8
0
  6
CONTINUOUS
 62
256
 10
-301.099998000000030
 20
-158.849449999999990
 40
3.000000000000000
 50
270.000000000000000
 51
0.000000000000000
  0
LINE
  8
0
  6
CONTINUOUS
 62
256
 10
-305.099998000000030
 20
-161.849449999999990
 11
-301.099998000000030
 21
-161.849449999999990
  0
POLYLINE
  8
0
  6
CONTINUOUS
 62
256
 66
1
 70
1
  0
VERTEX
  8
0
  6
CONTINUOUS
 62
256
 10
-304.399998000000040
 20
-154.837085000000000
  0
VERTEX
  8
0
  6
CONTINUOUS
 62
256
 10
-304.490307182104860
 20
-154.134128489441820
  0
VERTEX
  8
0
  6
CONTINUOUS
 62
256
 10
-304.757764197196990
 20
-153.458186203361860
  0
VERTEX
  8
0
  6
CONTINUOUS
 62
256
 10
-305.192090822178100
 20
-152.835234224741330
  0
VERTEX
  8
0
  6
CONTINUOUS
 62
256
 10
-305.776596128423250
 20
-152.289212248763160
  0
VERTEX
  8
0
  6
CONTINUOUS
 62
256
 10
-306.488817904807890
 20
-151.841103593751510
  0
VERTEX
  8
0
  6
CONTINUOUS
 62
256
 10
-307.301385867884110
 20
-151.508128824016270
  0
VERTEX
  8
0
  6
CONTINUOUS
 62
256
 10
-308.183073486524220
 20
-151.303083973223920
  0
VERTEX
  8
0
  6
CONTINUOUS
 62
256
 10
-309.099998000000030
 20
-151.233848800000000
  0
VERTEX
  8
0
  6
CONTINUOUS
 62
256
 10
-310.016922513475830
 20
-151.303083973223920
  0
VERTEX
  8
0
  6
CONTINUOUS
 62
256
 10
-310.898610132115950
 20
-151.508128824016270
  0
VERTEX
  8
0
  6
CONTINUOUS
 62
256
 10
-311.711178095192170
 20
-151.841103593751510
  0
VERTEX
  8
0
  6
CONTINUOUS
 62
256
 10
-312.423399871576810
 20
-152.289212248763160
  0
VERTEX
  8
0
  6
CONTINUOUS
 62
256
 10
-313.007905177821950
 20
-152.835234224741330
  0
VERTEX
  8
0
  6
CONTINUOUS
 62
256
 10
-313.442231802803060
 20
-153.458186203361860
  0
VERTEX
  8
0
  6
CONTINUOUS
 62
256
 10
-313.709688817895200
 20
-154.134128489441820
  0
VERTEX
  8
0
  6
CONTINUOUS
 62
256
 10
-313.799998000000020
 20
-154.837085000000000
  0
VERTEX
  8
0
  6
CONTINUOUS
 62
256
 10
-313.709688817895200
 20
-155.540041510558180
  0
VERTEX
  8
0
  6
CONTINUOUS
 62
256
 10
-313.442231802803060
 20
-156.215983796638140
  0
VERTEX
  8
0
  6
CONTINUOUS
 62
256
 10
-313.007905177821950
 20
-156.838935775258680
  0
VERTEX
  8
0
  6
CONTINUOUS
 62
256
 10
-312.423399871576810
 20
-157.384957751236840
  0
VERTEX
  8
0
  6
CONTINUOUS
 62
256
 10
-311.711178095192170
 20
-157.833066406248490
  0
VERTEX
  8
0
  6
CONTINUOUS
 62
256
 10
-310.898610132115950
 20
-158.166041175983740
  0
VERTEX
  8
0
  6
CONTINUOUS
 62
256
 10
-310.016922513475830
 20
-158.371086026776060
  0
VERTEX
  8
0
  6
CONTINUOUS
 62
256
 10
-309.099998000000030
 20
-158.440321200000000
  0
VERTEX
  8
0
  6
CONTINUOUS
 62
256
 10
-308.183073486524220
 20
-158.371086026776060
  0
VERTEX
  8
0
  6
CONTINUOUS
 62
256
 10
-307.301385867884110
 20
-158.166041175983740
  0
VERTEX
  8
0
  6
CONTINUOUS
 62
256
 10
-306.488817904807890
 20
-157.833066406248490
  0
VERTEX
  8
0
  6
CONTINUOUS
 62
256
 10
-305.776596128423250
 20
-157.384957751236840
  0
VERTEX
  8
0
  6
CONTINUOUS
 62
256
 10
-305.192090822178100
 20
-156.838935775258680
  0
VERTEX
  8
0
  6
CONTINUOUS
 62
256
 10
-304.757764197196990
 20
-156.215983796638140
  0
VERTEX
  8
0
  6
CONTINUOUS
 62
256
 10
-304.490307182104860
 20
-155.540041510558180
  0
SEQEND
  8
0
  6
CONTINUOUS
 62
256
  0
LINE
  8
0
  6
CONTINUOUS
 62
256
 10
-311.099998000000030
 20
-157.829460000000010
 11
-309.099998000000030
 21
-156.653674999999990
  0
LINE
  8
0
  6
CONTINUOUS
 62
256
 10
-309.099998000000030
 20
-156.653674999999990
 11
-307.099998000000030
 21
-155.001033000000010
  0
LINE
  8
0
  6
CONTINUOUS
 62
256
 10
-307.099998000000030
 20
-157.829460000000010
 11
-309.099998000000030
 21
-156.653674999999990
  0
LINE
  8
0
  6
CONTINUOUS
 62
256
 10
-309.099998000000030
 20
-156.653674999999990
 11
-311.099998000000030
 21
-155.001033000000010
  0
ARC
  8
0
  6
CONTINUOUS
 62
256
 10
-305.099998000000030
 20
-164.849449999999990
 40
3.000000000000000
 50
90.000000000000000
 51
180.000000000000000
  0
LINE
  8
0
  6
CONTINUOUS
 62
256
 10
-308.099998000000030
 20
-166.509753999999990
 11
-308.099998000000030
 21
-164.849449999999990
  0
LINE
  8
0
  6
CONTINUOUS
 62
256
 10
-298.099998000000030
 20
-48.509754000000001
 11
-298.099998000000030
 21
-107.509754000000000
  0
POLYLINE
  8
0
  6
CONTINUOUS
 62
256
 66
1
 70
1
  0
VERTEX
  8
0
  6
CONTINUOUS
 62
256
 10
-304.399998000000040
 20
-60.182423000000000
  0
VERTEX
  8
0
  6
CONTINUOUS
 62
256
 10
-304.490307182104860
 20
-59.479466489441833
  0
VERTEX
  8
0
  6
CONTINUOUS
 62
256
 10
-304.757764197196990
 20
-58.803524203361860
  0
VERTEX
  8
0
  6
CONTINUOUS
 62
256
 10
-305.192090822178100
 20
-58.180572224741340
  0
VERTEX
  8
0
  6
CONTINUOUS
 62
256
 10
-305.776596128423250
 20
-57.634550248763162
  0
VERTEX
  8
0
  6
CONTINUOUS
 62
256
 10
-306.488817904807890
 20
-57.186441593751510
  0
VERTEX
  8
0
  6
CONTINUOUS
 62
256
 10
-307.301385867884110
 20
-56.853466824016266
  0
VERTEX
  8
0
  6
CONTINUOUS
 62
256
 10
-308.183073486524220
 20
-56.648421973223940
  0
VERTEX
  8
0
  6
CONTINUOUS
 62
256
 10
-309.099998000000030
 20
-56.579186800000009
  0
VERTEX
  8
0
  6
CONTINUOUS
 62
256
 10
-310.016922513475830
 20
-56.648421973223940
  0
VERTEX
  8
0
  6
CONTINUOUS
 62
256
 10
-310.898610132115950
 20
-56.853466824016266
  0
VERTEX
  8
0
  6
CONTINUOUS
 62
256
 10
-311.711178095192170
 20
-57.186441593751510
  0
VERTEX
  8
0
  6
CONTINUOUS
 62
256
 10
-312.423399871576810
 20
-57.634550248763162
  0
VERTEX
  8
0
  6
CONTINUOUS
 62
256
 10
-313.007905177821950
 20
-58.180572224741340
  0
VERTEX
  8
0
  6
CONTINUOUS
 62
256
 10
-313.442231802803060
 20
-58.803524203361860
  0
VERTEX
  8
0
  6
CONTINUOUS
 62
256
 10
-313.709688817895200
 20
-59.479466489441833
  0
VERTEX
  8
0
  6
CONTINUOUS
 62
256
 10
-313.799998000000020
 20
-60.182423000000000
  0
VERTEX
  8
0
  6
CONTINUOUS
 62
256
 10
-313.709688817895200
 20
-60.885379510558167
  0
VERTEX
  8
0
  6
CONTINUOUS
 62
256
 10
-313.442231802803060
 20
-61.561321796638140
  0
VERTEX
  8
0
  6
CONTINUOUS
 62
256
 10
-313.007905177821950
 20
-62.184273775258660
  0
VERTEX
  8
0
  6
CONTINUOUS
 62
256
 10
-312.423399871576810
 20
-62.730295751236838
  0
VERTEX
  8
0
  6
CONTINUOUS
 62
256
 10
-311.711178095192170
 20
-63.178404406248490
  0
VERTEX
  8
0
  6
CONTINUOUS
 62
256
 10
-310.898610132115950
 20
-63.511379175983734
  0
VERTEX
  8
0
  6
CONTINUOUS
 62
256
 10
-310.016922513475830
 20
-63.716424026776060
  0
VERTEX
  8
0
  6
CONTINUOUS
 62
256
 10
-309.099998000000030
 20
-63.785659199999991
  0
VERTEX
  8
0
  6
CONTINUOUS
 62
256
 10
-308.183073486524220
 20
-63.716424026776060
  0
VERTEX
  8
0
  6
CONTINUOUS
 62
256
 10
-307.301385867884110
 20
-63.511379175983734
  0
VERTEX
  8
0
  6
CONTINUOUS
 62
256
 10
-306.488817904807890
 20
-63.178404406248490
  0
VERTEX
  8
0
  6
CONTINUOUS
 62
256
 10
-305.776596128423250
 20
-62.730295751236838
  0
VERTEX
  8
0
  6
CONTINUOUS
 62
256
 10
-305.192090822178100
 20
-62.184273775258660
  0
VERTEX
  8
0
  6
CONTINUOUS
 62
256
 10
-304.757764197196990
 20
-61.561321796638140
  0
VERTEX
  8
0
  6
CONTINUOUS
 62
256
 10
-304.490307182104860
 20
-60.885379510558167
  0
SEQEND
  8
0
  6
CONTINUOUS
 62
256
  0
LINE
  8
0
  6
CONTINUOUS
 62
256
 10
-311.099998000000030
 20
-57.190047000000000
 11
-309.099998000000030
 21
-58.365833000000002
  0
LINE
  8
0
  6
CONTINUOUS
 62
256
 10
-309.099998000000030
 20
-58.365833000000002
 11
-307.099998000000030
 21
-60.018475000000002
  0
LINE
  8
0
  6
CONTINUOUS
 62
256
 10
-307.099998000000030
 20
-57.190047000000000
 11
-309.099998000000030
 21
-58.365833000000002
  0
LINE
  8
0
  6
CONTINUOUS
 62
256
 10
-309.099998000000030
 20
-58.365833000000002
 11
-311.099998000000030
 21
-60.018475000000002
  0
LINE
  8
0
  6
CONTINUOUS
 62
256
 10
-214.099998000000000
 20
-54.009754000000001
 11
-298.099998000000030
 21
-54.009754000000001
  0
LINE
  8
0
  6
CONTINUOUS
 62
256
 10
-298.099998000000030
 20
-56.509754000000001
 11
-214.099998000000000
 21
-56.509754000000001
  0
LINE
  8
0
  6
CONTINUOUS
 62
256
 10
-298.099998000000030
 20
-57.009754000000001
 11
-214.099998000000000
 21
-57.009754000000001
  0
LINE
  8
0
  6
CONTINUOUS
 62
256
 10
-298.099998000000030
 20
-61.376671000000002
 11
-214.099998000000000
 21
-61.376671000000002
  0
LINE
  8
0
  6
CONTINUOUS
 62
256
 10
-298.099998000000030
 20
-66.467839999999995
 11
-214.099998000000000
 21
-66.467839999999995
  0
LINE
  8
0
  6
CONTINUOUS
 62
256
 10
-298.099998000000030
 20
-74.206153000000000
 11
-214.099998000000000
 21
-74.206153000000000
  0
LINE
  8
0
  6
CONTINUOUS
 62
256
 10
-298.099998000000030
 20
-75.795362999999995
 11
-214.099998000000000
 21
-75.795362999999995
  0
LINE
  8
0
  6
CONTINUOUS
 62
256
 10
-298.099998000000030
 20
-78.753358000000006
 11
-214.099998000000000
 21
-78.753358000000006
  0
LINE
  8
0
  6
CONTINUOUS
 62
256
 10
-298.099998000000030
 20
-80.232382000000001
 11
-214.099998000000000
 21
-80.232382000000001
  0
LINE
  8
0
  6
CONTINUOUS
 62
256
 10
-298.099998000000030
 20
-83.325113000000002
 11
-214.099998000000000
 21
-83.325113000000002
  0
LINE
  8
0
  6
CONTINUOUS
 62
256
 10
-298.099998000000030
 20
-84.671514000000002
 11
-214.099998000000000
 21
-84.671514000000002
  0
LINE
  8
0
  6
CONTINUOUS
 62
256
 10
-298.099998000000030
 20
-87.881719000000004
 11
-214.099998000000000
 21
-87.881719000000004
  0
LINE
  8
0
  6
CONTINUOUS
 62
256
 10
-298.099998000000030
 20
-89.123638999999997
 11
-214.099998000000000
 21
-89.123638999999997
  0
LINE
  8
0
  6
CONTINUOUS
 62
256
 10
-298.099998000000030
 20
-93.509754000000001
 11
-214.099998000000000
 21
-93.509754000000001
  0
LINE
  8
0
  6
CONTINUOUS
 62
256
 10
-298.099998000000030
 20
-121.509754000000000
 11
-214.099998000000000
 21
-121.509754000000000
  0
LINE
  8
0
  6
CONTINUOUS
 62
256
 10
-298.099998000000030
 20
-125.895869000000000
 11
-214.099998000000000
 21
-125.895869000000000
  0
LINE
  8
0
  6
CONTINUOUS
 62
256
 10
-298.099998000000030
 20
-127.137789000000000
 11
-214.099998000000000
 21
-127.137789000000000
  0
LINE
  8
0
  6
CONTINUOUS
 62
256
 10
-298.099998000000030
 20
-130.347994000000000
 11
-214.099998000000000
 21
-130.347994000000000
  0
LINE
  8
0
  6
CONTINUOUS
 62
256
 10
-298.099998000000030
 20
-131.694394999999990
 11
-214.099998000000000
 21
-131.694394999999990
  0
LINE
  8
0
  6
CONTINUOUS
 62
256
 10
-298.099998000000030
 20
-134.787126000000000
 11
-214.099998000000000
 21
-134.787126000000000
  0
LINE
  8
0
  6
CONTINUOUS
 62
256
 10
-298.099998000000030
 20
-136.266149000000010
 11
-214.099998000000000
 21
-136.266149000000010
  0
LINE
  8
0
  6
CONTINUOUS
 62
256
 10
-298.099998000000030
 20
-140.813355000000000
 11
-214.099998000000000
 21
-140.813355000000000
  0
LINE
  8
0
  6
CONTINUOUS
 62
256
 10
-298.099998000000030
 20
-139.224144999999990
 11
-214.099998000000000
 21
-139.224144999999990
  0
LINE
  8
0
  6
CONTINUOUS
 62
256
 10
-298.099998000000030
 20
-148.551668000000010
 11
-214.099998000000000
 21
-148.551668000000010
  0
LINE
  8
0
  6
CONTINUOUS
 62
256
 10
-298.099998000000030
 20
-153.642836999999990
 11
-214.099998000000000
 21
-153.642836999999990
  0
LINE
  8
0
  6
CONTINUOUS
 62
256
 10
-298.099998000000030
 20
-158.009753999999990
 11
-214.099998000000000
 21
-158.009753999999990
  0
LINE
  8
0
  6
CONTINUOUS
 62
256
 10
-298.099998000000030
 20
-158.509753999999990
 11
-214.099998000000000
 21
-158.509753999999990
  0
LINE
  8
0
  6
CONTINUOUS
 62
256
 10
-231.099998000000000
 20
-160.009753999999990
 11
-298.333466999999980
 21
-160.009753999999990
  0
LINE
  8
0
  6
CONTINUOUS
 62
256
 10
-306.099998000000030
 20
-165.009753999999990
 11
-306.099998000000030
 21
-162.021023000000010
  0
LINE
  8
0
  6
CONTINUOUS
 62
256
 10
-308.099998000000030
 20
-166.509753999999990
 11
-327.604843000000020
 21
-166.509753999999990
  0
LINE
  8
0
  6
CONTINUOUS
 62
256
 10
-298.099998000000030
 20
-48.509754000000001
 11
-327.604843000000020
 21
-48.509754000000001
  0
LINE
  8
0
  6
DASHDOT
 62
256
 10
-171.930386000000000
 20
-107.509754000000000
 11
-355.073275000000020
 21
-107.509754000000000
  0
ARC
  8
0
  6
CONTINUOUS
 62
256
 10
-327.604843000000020
 20
-145.909753999999990
 40
20.599999999999991
 50
235.000000000000000
 51
270.000000000000000
  0
ARC
  8
0
  6
CONTINUOUS
 62
256
 10
-345.499998000000010
 20
-155.353374000000000
 40
2.600000000000023
 50
180.000000000000000
 51
234.999999999999770
  0
LINE
  8
0
  6
CONTINUOUS
 62
256
 10
-339.420518000000020
 20
-162.784286000000010
 11
-346.991296999999970
 21
-157.483169000000000
  0
LINE
  8
0
  6
CONTINUOUS
 62
256
 10
-348.099998000000030
 20
-155.353374000000000
 11
-348.099998000000030
 21
-107.509754000000000
  0
ARC
  8
0
  6
CONTINUOUS
 62
256
 10
-327.604843000000020
 20
-69.109753999999995
 40
20.600000000000001
 50
90.000000000000000
 51
124.999999999999990
  0
ARC
  8
0
  6
CONTINUOUS
 62
256
 10
-345.499998000000010
 20
-59.666134000000000
 40
2.600000000000001
 50
125.000000000000110
 51
180.000000000000000
  0
LINE
  8
0
  6
CONTINUOUS
 62
256
 10
-339.420518000000020
 20
-52.235222000000000
 11
-346.991296999999970
 21
-57.536338000000001
  0
LINE
  8
0
  6
CONTINUOUS
 62
256
 10
-348.099998000000030
 20
-59.666134000000000
 11
-348.099998000000030
 21
-107.509754000000000
  0
LINE
  8
0
  6
DASHDOT
 62
256
 10
392.550877000000010
 20
-29.286722000000001
 11
392.550877000000010
 21
-199.299147000000000
  0
LINE
  8
0
  6
DASHDOT
 62
256
 10
330.827147000000020
 20
-92.527208999999999
 11
456.045105999999980
 21
-92.527208999999999
  0
LINE
  8
0
  6
CONTINUOUS
 62
256
 10
-214.099998000000000
 20
-107.509754000000000
 11
-214.099998000000000
 21
-160.009753999999990
  0
LINE
  8
0
  6
CONTINUOUS
 62
256
 10
-214.099998000000000
 20
-107.509754000000000
 11
-214.099998000000000
 21
-55.009754000000001
  0
LINE
  8
0
  6
DASHDOT
 62
256
 10
280.741070999999980
 20
-92.527208999999999
 11
229.673827999999990
 21
-92.527208999999999
  0
LINE
  8
0
  6
CONTINUOUS
 62
256
 10
449.550877000000010
 20
-113.527209000000000
 11
449.550877000000010
 21
-92.527208999999999
  0
ARC
  8
0
  6
CONTINUOUS
 62
256
 10
448.550877000000010
 20
-113.527209000000000
 40
1.000000000000000
 50
270.000000000000000
 51
0.000000000000000
  0
LINE
  8
0
  6
CONTINUOUS
 62
256
 10
445.550877000000010
 20
-114.527209000000000
 11
448.550877000000010
 21
-114.527209000000000
  0
LINE
  8
0
  6
CONTINUOUS
 62
256
 10
449.550877000000010
 20
-71.527208999999999
 11
449.550877000000010
 21
-92.527208999999999
  0
ARC
  8
0
  6
CONTINUOUS
 62
256
 10
448.550877000000010
 20
-71.527208999999999
 40
1.000000000000000
 50
0.000000000000000
 51
90.000000000000000
  0
LINE
  8
0
  6
CONTINUOUS
 62
256
 10
445.550877000000010
 20
-70.527208999999999
 11
448.550877000000010
 21
-70.527208999999999
  0
LINE
  8
0
  6
CONTINUOUS
 62
256
 10
335.550877000000010
 20
-113.527209000000000
 11
335.550877000000010
 21
-92.527208999999999
  0
ARC
  8
0
  6
CONTINUOUS
 62
256
 10
336.550877000000010
 20
-113.527209000000000
 40
1.000000000000000
 50
180.000000000000000
 51
270.000000000000000
  0
LINE
  8
0
  6
CONTINUOUS
 62
256
 10
339.550877000000010
 20
-114.527209000000000
 11
336.550877000000010
 21
-114.527209000000000
  0
LINE
  8
0
  6
CONTINUOUS
 62
256
 10
335.550877000000010
 20
-71.527208999999999
 11
335.550877000000010
 21
-92.527208999999999
  0
ARC
  8
0
  6
CONTINUOUS
 62
256
 10
336.550877000000010
 20
-71.527208999999999
 40
1.000000000000000
 50
90.000000000000000
 51
180.000000000000000
  0
LINE
  8
0
  6
CONTINUOUS
 62
256
 10
339.550877000000010
 20
-70.527208999999999
 11
336.550877000000010
 21
-70.527208999999999
  0
ARC
  8
0
  6
DASHED
 62
256
 10
740.550877000000010
 20
-127.509754000000000
 40
400.000000000000000
 50
180.071529999999970
 51
181.150993999999970
  0
INSERT
  8
0
  2
ZU_SYM_1
 10
-53.099997999999999
 20
-39.027208999999999
  0
INSERT
  8
0
  2
ZU_SYM_2
 10
-158.099998000000000
 20
-39.027208999999999
  0
LINE
  8
0
  6
CONTINUOUS
 62
256
 10
-214.099998000000000
 20
-107.527209000000000
 11
-214.099998000000000
 21
-54.027208999999999
  0
LINE
  8
0
  6
CONTINUOUS
 62
256
 10
-214.099998000000000
 20
-107.527209000000000
 11
-214.099998000000000
 21
-161.027209000000000
  0
LINE
  8
0
  6
DASHED
 62
256
 10
-184.599953000000000
 20
-107.527209000000000
 11
-184.599953000000000
 21
-120.127208999999990
  0
LINE
  8
0
  6
DASHED
 62
256
 10
-184.599953000000000
 20
-107.527209000000000
 11
-184.599953000000000
 21
-94.927209000000005
  0
ARC
  8
0
  6
CONTINUOUS
 62
256
 10
-58.608801999999997
 20
-179.027209000000000
 40
0.499999999999999
 50
0.999999999998520
 51
90.000000000000000
  0
LINE
  8
0
  6
CONTINUOUS
 62
256
 10
-58.108877999999997
 20
-179.018483000000000
 11
-58.099997999999999
 21
-179.527209000000000
  0
ARC
  8
0
  6
CONTINUOUS
 62
256
 10
-47.591194999999999
 20
-179.027209000000000
 40
0.500000000000000
 50
90.000000000000000
 51
179.000000000001480
  0
LINE
  8
0
  6
CONTINUOUS
 62
256
 10
-48.091118000000002
 20
-179.018483000000000
 11
-48.099997999999999
 21
-179.527209000000000
  0
ARC
  8
0
  6
CONTINUOUS
 62
256
 10
-152.591195000000000
 20
-179.027209000000000
 40
0.500000000000000
 50
90.000000000000000
 51
179.000000000001510
  0
LINE
  8
0
  6
CONTINUOUS
 62
256
 10
-153.091117999999990
 20
-179.018483000000000
 11
-153.099998000000000
 21
-179.527209000000000
  0
ARC
  8
0
  6
CONTINUOUS
 62
256
 10
-163.608802000000000
 20
-179.027209000000000
 40
0.500000000000006
 50
0.999999999998505
 51
90.000000000000000
  0
LINE
  8
0
  6
CONTINUOUS
 62
256
 10
-163.108878000000000
 20
-179.018483000000000
 11
-163.099998000000000
 21
-179.527209000000000
  0
LINE
  8
0
  6
CONTINUOUS
 62
256
 10
-163.108878000000000
 20
-32.035935000000002
 11
-163.099998000000000
 21
-31.527208999999999
  0
ARC
  8
0
  6
CONTINUOUS
 62
256
 10
-163.608802000000000
 20
-32.027208999999999
 40
0.500000000000000
 50
270.000000000000000
 51
358.999999999999830
  0
LINE
  8
0
  6
CONTINUOUS
 62
256
 10
-153.091117999999990
 20
-32.035935000000002
 11
-153.099998000000000
 21
-31.527208999999999
  0
ARC
  8
0
  6
CONTINUOUS
 62
256
 10
-152.591195000000000
 20
-32.027208999999999
 40
0.500000000000007
 50
181.000000000000110
 51
270.000000000000000
  0
ARC
  8
0
  6
CONTINUOUS
 62
256
 10
-58.608801999999997
 20
-32.027208999999999
 40
0.500000000000000
 50
270.000000000000000
 51
358.999999999999830
  0
LINE
  8
0
  6
CONTINUOUS
 62
256
 10
-58.108877999999997
 20
-32.035935000000002
 11
-58.099997999999999
 21
-31.527208999999999
  0
ARC
  8
0
  6
CONTINUOUS
 62
256
 10
-47.591194999999999
 20
-32.027208999999999
 40
0.499999999999999
 50
181.000000000000140
 51
270.000000000000000
  0
LINE
  8
0
  6
CONTINUOUS
 62
256
 10
-48.091118000000002
 20
-32.035935000000002
 11
-48.099997999999999
 21
-31.527208999999999
  0
LINE
  8
0
  6
CONTINUOUS
 62
256
 10
441.550877000000010
 20
-135.027209000000000
 11
445.550877000000010
 21
-135.027209000000000
  0
LINE
  8
0
  6
CONTINUOUS
 62
256
 10
441.550877000000010
 20
-50.027208999999999
 11
445.550877000000010
 21
-50.027208999999999
  0
LINE
  8
0
  6
CONTINUOUS
 62
256
 10
445.550877000000010
 20
-135.027209000000000
 11
445.550877000000010
 21
-50.027208999999999
  0
LINE
  8
0
  6
CONTINUOUS
 62
256
 10
355.550877000000010
 20
-179.527209000000000
 11
343.550877000000010
 21
-179.317747999999990
  0
LINE
  8
0
  6
CONTINUOUS
 62
256
 10
339.550877000000010
 20
-50.027208999999999
 11
343.550877000000010
 21
-50.027208999999999
  0
LINE
  8
0
  6
CONTINUOUS
 62
256
 10
355.550877000000010
 20
-31.501026000000000
 11
431.550877000000010
 21
-32.845066000000003
  0
LINE
  8
0
  6
CONTINUOUS
 62
256
 10
343.550877000000010
 20
-31.736670000000000
 11
355.550877000000010
 21
-31.527208999999999
  0
LINE
  8
0
  6
CONTINUOUS
 62
256
 10
431.550877000000010
 20
-32.845066000000003
 11
441.550877000000010
 21
-32.845066000000003
  0
LINE
  8
0
  6
CONTINUOUS
 62
256
 10
431.550877000000010
 20
-178.174441000000000
 11
441.550877000000010
 21
-178.174441000000000
  0
LINE
  8
0
  6
CONTINUOUS
 62
256
 10
355.550877000000010
 20
-179.518481000000010
 11
431.550877000000010
 21
-178.174441000000000
  0
LINE
  8
0
  6
CONTINUOUS
 62
256
 10
441.550877000000010
 20
-178.174441000000000
 11
441.550877000000010
 21
-146.884096000000000
  0
LINE
  8
0
  6
CONTINUOUS
 62
256
 10
339.550877000000010
 20
-50.027208999999999
 11
339.550877000000010
 21
-135.027209000000000
  0
LINE
  8
0
  6
CONTINUOUS
 62
256
 10
343.550877000000010
 20
-179.317747999999990
 11
343.550877000000010
 21
-146.884096000000000
  0
LINE
  8
0
  6
CONTINUOUS
 62
256
 10
441.550877000000010
 20
-146.884096000000000
 11
441.550877000000010
 21
-32.845066000000003
  0
LINE
  8
0
  6
CONTINUOUS
 62
256
 10
343.550877000000010
 20
-146.884096000000000
 11
343.550877000000010
 21
-31.736670000000000
  0
LINE
  8
0
  6
CONTINUOUS
 62
256
 10
339.550877000000010
 20
-135.027209000000000
 11
343.550877000000010
 21
-135.027209000000000
  0
LINE
  8
0
  6
CONTINUOUS
 62
256
 10
355.550877000000010
 20
-31.501026000000000
 11
355.550877000000010
 21
-179.518481000000010
  0
LINE
  8
0
  6
CONTINUOUS
 62
256
 10
-209.099998000000000
 20
-60.027208999999999
 11
-209.099998000000000
 21
-55.975147999999997
  0
ARC
  8
0
  6
CONTINUOUS
 62
256
 10
-211.099998000000000
 20
-55.975147999999997
 40
2.000000000000000
 50
0.000000000000000
 51
91.000000000000156
  0
ARC
  8
0
  6
CONTINUOUS
 62
256
 10
-206.099998000000000
 20
-60.027208999999999
 40
3.000000000000000
 50
180.000000000000000
 51
270.000000000000000
  0
LINE
  8
0
  6
CONTINUOUS
 62
256
 10
-209.099998000000000
 20
-107.527209000000000
 11
-209.099998000000000
 21
-68.097556999999995
  0
ARC
  8
0
  6
CONTINUOUS
 62
256
 10
-207.099998000000000
 20
-68.097556999999995
 40
2.000000000000000
 50
90.000000000000000
 51
180.000000000000000
  0
ARC
  8
0
  6
CONTINUOUS
 62
256
 10
-206.099998000000000
 20
-76.635042999999996
 40
3.000000000000000
 50
90.000000000000000
 51
180.000000000000000
  0
LINE
  8
0
  6
CONTINUOUS
 62
256
 10
-201.034987000000000
 20
-73.635042999999996
 11
-206.099998000000000
 21
-73.635042999999996
  0
LINE
  8
0
  6
CONTINUOUS
 62
256
 10
-209.099998000000000
 20
-87.527208999999999
 11
-214.099998000000000
 21
-87.527208999999999
  0
LINE
  8
0
  6
CONTINUOUS
 62
256
 10
-209.099998000000000
 20
-107.527209000000000
 11
-209.099998000000000
 21
-146.956861000000000
  0
LINE
  8
0
  6
CONTINUOUS
 62
256
 10
-209.099998000000000
 20
-127.527209000000000
 11
-214.099998000000000
 21
-127.527209000000000
  0
ARC
  8
0
  6
CONTINUOUS
 62
256
 10
-206.099998000000000
 20
-155.027209000000000
 40
3.000000000000000
 50
90.000000000000000
 51
180.000000000000000
  0
LINE
  8
0
  6
CONTINUOUS
 62
256
 10
-200.795317000000010
 20
-141.419375000000000
 11
-206.099998000000000
 21
-141.419375000000000
  0
ARC
  8
0
  6
CONTINUOUS
 62
256
 10
-207.099998000000000
 20
-146.956861000000000
 40
2.000000000000000
 50
180.000000000000000
 51
270.000000000000000
  0
ARC
  8
0
  6
CONTINUOUS
 62
256
 10
-206.099998000000000
 20
-138.419375000000000
 40
3.000000000000000
 50
180.000000000000000
 51
270.000000000000000
  0
LINE
  8
0
  6
CONTINUOUS
 62
256
 10
-209.099998000000000
 20
-155.027209000000000
 11
-209.099998000000000
 21
-159.079270000000010
  0
ARC
  8
0
  6
CONTINUOUS
 62
256
 10
-211.099998000000000
 20
-159.079270000000010
 40
1.999999999999998
 50
268.999999999999830
 51
0.000000000000000
  0
LINE
  8
0
  6
CONTINUOUS
 62
256
 10
-206.099998000000000
 20
-63.027208999999999
 11
-199.099998000000000
 21
-63.027208999999999
  0
LINE
  8
0
  6
CONTINUOUS
 62
256
 10
-207.099998000000000
 20
-66.097556999999995
 11
-199.099998000000000
 21
-66.097556999999995
  0
LINE
  8
0
  6
CONTINUOUS
 62
256
 10
-207.099998000000000
 20
-148.956861000000000
 11
-199.099998000000000
 21
-148.956861000000000
  0
LINE
  8
0
  6
CONTINUOUS
 62
256
 10
-206.099998000000000
 20
-152.027209000000000
 11
-199.099998000000000
 21
-152.027209000000000
  0
ARC
  8
0
  6
CONTINUOUS
 62
256
 10
-199.099998000000000
 20
-66.027208999999999
 40
3.000000000000000
 50
0.000000000000000
 51
90.000000000000000
  0
ARC
  8
0
  6
CONTINUOUS
 62
256
 10
-199.099998000000000
 20
-69.097556999999995
 40
3.000000000000000
 50
0.000000000000000
 51
90.000000000000000
  0
ARC
  8
0
  6
CONTINUOUS
 62
256
 10
-199.099998000000000
 20
-149.027209000000000
 40
3.000000000000000
 50
270.000000000000000
 51
0.000000000000000
  0
ARC
  8
0
  6
CONTINUOUS
 62
256
 10
-199.099998000000000
 20
-145.956861000000000
 40
3.000000000000000
 50
270.000000000000000
 51
0.000000000000000
  0
ARC
  8
0
  6
CONTINUOUS
 62
256
 10
-199.099998000000000
 20
-158.253670000000000
 40
3.000000000000011
 50
268.999999999999830
 51
0.000000000000000
  0
ARC
  8
0
  6
CONTINUOUS
 62
256
 10
-199.099998000000000
 20
-56.800747000000001
 40
3.000000000000000
 50
0.000000000000000
 51
91.000000000000156
  0
LINE
  8
0
  6
CONTINUOUS
 62
256
 10
-196.099998000000000
 20
-56.800747000000001
 11
-196.099998000000000
 21
-158.253670000000000
  0
CIRCLE
  8
0
  6
CONTINUOUS
 62
256
 10
-158.099998000000000
 20
-172.027209000000000
 40
5.500000000000000
  0
CIRCLE
  8
0
  6
CONTINUOUS
 62
256
 10
-53.099997999999999
 20
-172.027209000000000
 40
5.500000000000000
  0
ARC
  8
0
  6
CONTINUOUS
 62
256
 10
-34.599997999999999
 20
-170.527209000000000
 40
8.000000000000000
 50
270.000000000000000
 51
0.000000000000000
  0
ARC
  8
0
  6
CONTINUOUS
 62
256
 10
-176.599998000000000
 20
-170.527209000000000
 40
8.000000000000000
 50
180.000000000000000
 51
270.000000000000000
  0
LINE
  8
0
  6
CONTINUOUS
 62
256
 10
-176.599998000000000
 20
-178.527209000000000
 11
-163.608802000000000
 21
-178.527209000000000
  0
ARC
  8
0
  6
CONTINUOUS
 62
256
 10
-158.099998000000000
 20
-172.027209000000000
 40
12.499999999999989
 50
26.847212999999968
 51
83.651414999999986
  0
ARC
  8
0
  6
CONTINUOUS
 62
256
 10
-156.386053000000000
 20
-156.622262000000010
 40
2.999999999999992
 50
211.420366000000230
 51
263.651415000000210
  0
LINE
  8
0
  6
CONTINUOUS
 62
256
 10
-144.270681999999990
 20
-168.027209000000000
 11
-66.929315000000003
 21
-168.027209000000000
  0
ARC
  8
0
  6
CONTINUOUS
 62
256
 10
-144.270681999999990
 20
-165.027209000000000
 40
3.000000000000002
 50
206.847212999999810
 51
270.000000000000000
  0
ARC
  8
0
  6
CONTINUOUS
 62
256
 10
-144.270681999999990
 20
-165.027209000000000
 40
6.000000000000018
 50
206.847213000000070
 51
270.000000000000000
  0
LINE
  8
0
  6
CONTINUOUS
 62
256
 10
-144.270681999999990
 20
-171.027209000000000
 11
-66.929315000000003
 21
-171.027209000000000
  0
ARC
  8
0
  6
CONTINUOUS
 62
256
 10
-53.099997999999999
 20
-172.027209000000000
 40
12.500000000000012
 50
96.348584999999986
 51
153.152786999999900
  0
ARC
  8
0
  6
CONTINUOUS
 62
256
 10
-66.929315000000003
 20
-165.027209000000000
 40
3.000000000000000
 50
270.000000000000000
 51
333.152787000000220
  0
ARC
  8
0
  6
CONTINUOUS
 62
256
 10
-66.929315000000003
 20
-165.027209000000000
 40
6.000000000000000
 50
270.000000000000000
 51
333.152786999999880
  0
ARC
  8
0
  6
CONTINUOUS
 62
256
 10
-54.813943999999999
 20
-156.622262000000010
 40
2.999999999999989
 50
276.348585000000010
 51
328.579633999999880
  0
LINE
  8
0
  6
CONTINUOUS
 62
256
 10
-152.591195000000000
 20
-178.527209000000000
 11
-58.608801999999997
 21
-178.527209000000000
  0
LINE
  8
0
  6
CONTINUOUS
 62
256
 10
-47.591194999999999
 20
-178.527209000000000
 11
-34.599997999999999
 21
-178.527209000000000
  0
CIRCLE
  8
0
  6
CONTINUOUS
 62
256
 10
-53.099997999999999
 20
-39.027208999999999
 40
5.500000000000000
  0
CIRCLE
  8
0
  6
CONTINUOUS
 62
256
 10
-158.099998000000000
 20
-39.027208999999999
 40
5.500000000000000
  0
LINE
  8
0
  6
CONTINUOUS
 62
256
 10
-26.599997999999999
 20
-170.527209000000000
 11
-26.599997999999999
 21
-40.527208999999999
  0
ARC
  8
0
  6
CONTINUOUS
 62
256
 10
-34.599997999999999
 20
-40.527208999999999
 40
8.000000000000000
 50
0.000000000000000
 51
90.000000000000000
  0
LINE
  8
0
  6
CONTINUOUS
 62
256
 10
-34.599997999999999
 20
-32.527208999999999
 11
-47.591194999999999
 21
-32.527208999999999
  0
ARC
  8
0
  6
CONTINUOUS
 62
256
 10
-176.599998000000000
 20
-40.527208999999999
 40
8.000000000000000
 50
90.000000000000000
 51
180.000000000000000
  0
LINE
  8
0
  6
CONTINUOUS
 62
256
 10
-184.599998000000000
 20
-40.527208999999999
 11
-184.599998000000000
 21
-170.527209000000000
  0
ARC
  8
0
  6
CONTINUOUS
 62
256
 10
-158.099998000000000
 20
-39.027208999999999
 40
12.499999999999998
 50
276.348585000000010
 51
333.152786999999990
  0
ARC
  8
0
  6
CONTINUOUS
 62
256
 10
-144.270681999999990
 20
-46.027208999999999
 40
3.000000000000000
 50
90.000000000000000
 51
153.152787000000070
  0
ARC
  8
0
  6
CONTINUOUS
 62
256
 10
-144.270681999999990
 20
-46.027208999999999
 40
6.000000000000000
 50
90.000000000000000
 51
153.152787000000070
  0
ARC
  8
0
  6
CONTINUOUS
 62
256
 10
-172.599998000000000
 20
-44.527208999999999
 40
16.000000000000000
 50
283.835223999999980
 51
328.579634000000000
  0
ARC
  8
0
  6
CONTINUOUS
 62
256
 10
-156.386053000000000
 20
-54.432155999999999
 40
3.000000000000001
 50
96.348584999999744
 51
148.579633999999880
  0
LINE
  8
0
  6
CONTINUOUS
 62
256
 10
-174.099998000000000
 20
-66.859920000000002
 11
-174.099998000000000
 21
-144.194498000000010
  0
ARC
  8
0
  6
CONTINUOUS
 62
256
 10
-167.099998000000000
 20
-66.859920000000002
 40
7.000000000000003
 50
103.835224000000000
 51
180.000000000000000
  0
LINE
  8
0
  6
CONTINUOUS
 62
256
 10
-177.099998000000000
 20
-66.859920000000002
 11
-177.099998000000000
 21
-144.194498000000010
  0
ARC
  8
0
  6
CONTINUOUS
 62
256
 10
-167.099998000000000
 20
-66.859920000000002
 40
10.000000000000002
 50
103.835224000000080
 51
180.000000000000000
  0
ARC
  8
0
  6
CONTINUOUS
 62
256
 10
-167.099998000000000
 20
-144.194498000000010
 40
7.000000000000000
 50
180.000000000000000
 51
256.164776000000020
  0
ARC
  8
0
  6
CONTINUOUS
 62
256
 10
-167.099998000000000
 20
-144.194498000000010
 40
10.000000000000000
 50
180.000000000000000
 51
256.164775999999960
  0
ARC
  8
0
  6
CONTINUOUS
 62
256
 10
-172.599998000000000
 20
-166.527209000000000
 40
16.000000000000004
 50
31.420365999999976
 51
76.164775999999975
  0
ARC
  8
0
  6
CONTINUOUS
 62
256
 10
-38.599997999999999
 20
-166.527209000000000
 40
16.000000000000000
 50
103.835224000000010
 51
148.579634000000030
  0
ARC
  8
0
  6
CONTINUOUS
 62
256
 10
-44.099997999999999
 20
-144.194498000000010
 40
7.000000000000010
 50
283.835223999999980
 51
0.000000000000000
  0
ARC
  8
0
  6
CONTINUOUS
 62
256
 10
-44.099997999999999
 20
-144.194498000000010
 40
10.000000000000005
 50
283.835223999999980
 51
0.000000000000000
  0
LINE
  8
0
  6
CONTINUOUS
 62
256
 10
-37.099997999999999
 20
-144.194498000000010
 11
-37.099997999999999
 21
-66.859920000000002
  0
LINE
  8
0
  6
CONTINUOUS
 62
256
 10
-34.099997999999999
 20
-144.194498000000010
 11
-34.099997999999999
 21
-66.859920000000002
  0
ARC
  8
0
  6
CONTINUOUS
 62
256
 10
-44.099997999999999
 20
-66.859920000000002
 40
7.000000000000000
 50
0.000000000000000
 51
76.164775999999989
  0
ARC
  8
0
  6
CONTINUOUS
 62
256
 10
-44.099997999999999
 20
-66.859920000000002
 40
10.000000000000000
 50
0.000000000000000
 51
76.164776000000018
  0
ARC
  8
0
  6
CONTINUOUS
 62
256
 10
-38.599997999999999
 20
-44.527208999999999
 40
15.999999999999996
 50
211.420365999999970
 51
256.164776000000020
  0
ARC
  8
0
  6
CONTINUOUS
 62
256
 10
-54.813943999999999
 20
-54.432155999999999
 40
3.000000000000000
 50
31.420365999999976
 51
83.651415000000000
  0
LINE
  8
0
  6
CONTINUOUS
 62
256
 10
-163.608802000000000
 20
-32.527208999999999
 11
-176.599998000000000
 21
-32.527208999999999
  0
INSERT
  8
0
  2
ZU_SYM_3
 10
-53.099997999999999
 20
-172.027209000000000
  0
INSERT
  8
0
  2
ZU_SYM_4
 10
-158.099998000000000
 20
-172.027209000000000
  0
ARC
  8
0
  6
DASHED
 62
256
 10
373.050877000000010
 20
-54.509754000000001
 40
0.500000000000000
 50
90.000000000000000
 51
180.000000000000000
  0
ARC
  8
0
  6
DASHED
 62
256
 10
372.050877000000010
 20
-54.509754000000001
 40
0.500000000000000
 50
270.000000000000000
 51
0.000000000000000
  0
ARC
  8
0
  6
DASHED
 62
256
 10
373.050877000000010
 20
-455.009753999999990
 40
400.000000000000000
 50
90.071529999999996
 51
90.859540999999993
  0
ARC
  8
0
  6
DASHED
 62
256
 10
365.550877000000010
 20
-80.009754000000001
 40
25.000000000000000
 50
86.561350000000019
 51
174.269825000000000
  0
ARC
  8
0
  6
DASHED
 62
256
 10
340.050877000000010
 20
-87.009754000000001
 40
0.500000000000000
 50
270.000000000000000
 51
0.000000000000000
  0
ARC
  8
0
  6
DASHED
 62
256
 10
340.050877000000010
 20
-88.009754000000001
 40
0.500000000000000
 50
90.000000000000000
 51
180.000000000000000
  0
ARC
  8
0
  6
DASHED
 62
256
 10
740.550877000000010
 20
-87.509754000000001
 40
400.000000000000000
 50
178.568016000000000
 51
179.928470000000000
  0
ARC
  8
0
  6
DASHED
 62
256
 10
340.050877000000010
 20
-128.009753999999990
 40
0.500000000000000
 50
0.000000000000000
 51
90.000000000000000
  0
ARC
  8
0
  6
DASHED
 62
256
 10
340.050877000000010
 20
-127.009754000000000
 40
0.500000000000000
 50
180.000000000000000
 51
270.000000000000000
  0
ARC
  8
0
  6
DASHED
 62
256
 10
373.050877000000010
 20
-160.509753999999990
 40
0.500000000000000
 50
180.000000000000000
 51
270.000000000000000
  0
ARC
  8
0
  6
DASHED
 62
256
 10
372.050877000000010
 20
-160.509753999999990
 40
0.500000000000000
 50
0.000000000000000
 51
90.000000000000000
  0
ARC
  8
0
  6
DASHED
 62
256
 10
373.050877000000010
 20
239.990246000000010
 40
400.000000000000000
 50
268.568016000000060
 51
269.928470000000000
  0
ARC
  8
0
  6
DASHED
 62
256
 10
412.050877000000010
 20
-160.509753999999990
 40
0.500000000000000
 50
270.000000000000000
 51
0.000000000000000
  0
LINE
  8
0
  6
DASHED
 62
256
 10
373.050877000000010
 20
-161.009753999999990
 11
412.050877000000010
 21
-161.009753999999990
  0
ARC
  8
0
  6
DASHED
 62
256
 10
413.050877000000010
 20
-160.509753999999990
 40
0.500000000000000
 50
90.000000000000000
 51
180.000000000000000
  0
ARC
  8
0
  6
DASHED
 62
256
 10
412.050877000000010
 20
239.990246000000010
 40
400.000000000000000
 50
270.071530000000000
 51
271.431984000000000
  0
ARC
  8
0
  6
DASHED
 62
256
 10
445.050877000000010
 20
-128.009753999999990
 40
0.500000000000000
 50
90.000000000000000
 51
180.000000000000000
  0
ARC
  8
0
  6
DASHED
 62
256
 10
445.050877000000010
 20
-87.009754000000001
 40
0.500000000000000
 50
180.000000000000000
 51
270.000000000000000
  0
ARC
  8
0
  6
DASHED
 62
256
 10
44.550877000000000
 20
-87.509754000000001
 40
399.999999999999940
 50
0.053000000000000
 51
1.431984000000000
  0
ARC
  8
0
  6
DASHED
 62
256
 10
413.050877000000010
 20
-54.509754000000001
 40
0.500000000000000
 50
180.000000000000000
 51
270.000000000000000
  0
ARC
  8
0
  6
DASHED
 62
256
 10
412.050877000000010
 20
-54.509754000000001
 40
0.500000000000000
 50
0.000000000000000
 51
90.000000000000000
  0
ARC
  8
0
  6
DASHED
 62
256
 10
419.550877000000010
 20
-80.009754000000001
 40
24.999999999999979
 50
5.730175000000014
 51
93.438649999999981
  0
ARC
  8
0
  6
DASHED
 62
256
 10
412.050877000000010
 20
-455.009753999999990
 40
400.000000000000000
 50
89.140459000000007
 51
89.928470000000004
  0
LINE
  8
0
  6
DASHED
 62
256
 10
412.050877000000010
 20
-54.009754000000001
 11
373.050877000000010
 21
-54.009754000000001
  0
ARC
  8
0
  6
DASHED
 62
256
 10
365.550877000000010
 20
-135.009753999999990
 40
25.000000000000000
 50
208.357637000000040
 51
264.269825000000080
  0
ARC
  8
0
  6
DASHED
 62
256
 10
419.550877000000010
 20
-135.009753999999990
 40
25.000000000000011
 50
275.730175000000030
 51
331.642362999999990
  0
ARC
  8
0
  6
DASHED
 62
256
 10
44.550877000000000
 20
-127.509754000000000
 40
400.000000000000000
 50
358.849005999999970
 51
359.928470000000000
  0
ARC
  8
0
  6
CONTINUOUS
 62
256
 10
445.050877000000010
 20
-127.009754000000000
 40
0.500000000000000
 50
270.000000000000000
 51
0.000000000000000
  0
ARC
  8
0
  6
CONTINUOUS
 62
256
 10
44.550877000000000
 20
-127.509754000000000
 40
400.000000000000000
 50
358.568016000000060
 51
358.849005999999970
  0
ARC
  8
0
  6
CONTINUOUS
 62
256
 10
740.550877000000010
 20
-127.509754000000000
 40
400.000000000000000
 50
181.076859999999980
 51
181.431983999999970
  0
ARC
  8
0
  6
CONTINUOUS
 62
256
 10
365.550877000000010
 20
-135.009753999999990
 40
24.999999999999979
 50
185.730174999999970
 51
208.357637000000040
  0
ARC
  8
0
  6
CONTINUOUS
 62
256
 10
419.550877000000010
 20
-135.009753999999990
 40
25.000000000000000
 50
331.642362999999990
 51
354.269824999999970
  0
LINE
  8
0
  6
CONTINUOUS
 62
256
 10
445.550877000000010
 20
-127.009754000000000
 11
445.550877000000010
 21
-88.009754000000001
  0
LINE
  8
0
  6
CONTINUOUS
 62
256
 10
339.550877000000010
 20
-88.009754000000001
 11
339.550877000000010
 21
-127.009754000000000
  0
LINE
  8
0
  6
DASHDOT
 62
256
 10
-151.217986999999990
 20
-172.027209000000000
 11
-165.539469000000000
 21
-172.027209000000000
  0
LINE
  8
0
  6
DASHDOT
 62
256
 10
-150.841895999999990
 20
-39.027208999999999
 11
-165.328418000000000
 21
-39.027208999999999
  0
LINE
  8
0
  6
DASHDOT
 62
256
 10
-158.099998000000000
 20
-165.234672999999990
 11
-158.099998000000000
 21
-180.809284999999990
  0
LINE
  8
0
  6
DASHDOT
 62
256
 10
-160.789215000000010
 20
-44.527208999999999
 11
-187.018103999999990
 21
-44.527208999999999
  0
LINE
  8
0
  6
DASHDOT
 62
256
 10
-172.599998000000000
 20
-155.925709000000010
 11
-172.599998000000000
 21
-176.870877000000010
  0
LINE
  8
0
  6
DASHDOT
 62
256
 10
-38.599997999999999
 20
-155.030617000000010
 11
-38.599997999999999
 21
-181.078365999999990
  0
LINE
  8
0
  6
DASHDOT
 62
256
 10
-53.099997999999999
 20
-163.444488000000010
 11
-53.099997999999999
 21
-181.078365999999990
  0
LINE
  8
0
  6
DASHDOT
 62
256
 10
-162.138116999999990
 20
-166.527209000000000
 11
-183.262303000000000
 21
-166.527209000000000
  0
LINE
  8
0
  6
CONTINUOUS
 62
256
 10
-34.599997999999999
 20
-179.527209000000000
 11
-176.599998000000000
 21
-179.527209000000000
  0
ARC
  8
0
  6
CONTINUOUS
 62
256
 10
-176.599998000000000
 20
-170.527209000000000
 40
9.000000000000000
 50
180.000000000000000
 51
270.000000000000000
  0
ARC
  8
0
  6
CONTINUOUS
 62
256
 10
-34.599997999999999
 20
-170.527209000000000
 40
9.000000000000000
 50
270.000000000000000
 51
0.000000000000000
  0
LINE
  8
0
  6
DASHDOT
 62
256
 10
-45.418036000000001
 20
-172.027209000000000
 11
-60.992648000000003
 21
-172.027209000000000
  0
LINE
  8
0
  6
DASHDOT
 62
256
 10
-27.695201999999998
 20
-166.527209000000000
 11
-49.177425999999997
 21
-166.527209000000000
  0
ARC
  8
0
  6
CONTINUOUS
 62
256
 10
-172.599998000000000
 20
-166.527209000000000
 40
12.999999999999988
 50
31.420365999999984
 51
76.164776000000032
  0
ARC
  8
0
  6
CONTINUOUS
 62
256
 10
-158.099998000000000
 20
-172.027209000000000
 40
9.499999999999988
 50
26.847213000000014
 51
83.651415000000057
  0
ARC
  8
0
  6
CONTINUOUS
 62
256
 10
-156.386053000000000
 20
-156.622262000000010
 40
6.000000000000008
 50
211.420366000000090
 51
263.651414999999990
  0
ARC
  8
0
  6
CONTINUOUS
 62
256
 10
-53.099997999999999
 20
-172.027209000000000
 40
9.499999999999996
 50
96.348584999999986
 51
153.152787000000050
  0
ARC
  8
0
  6
CONTINUOUS
 62
256
 10
-54.813943999999999
 20
-156.622262000000010
 40
6.000000000000004
 50
276.348585000000010
 51
328.579633999999830
  0
ARC
  8
0
  6
CONTINUOUS
 62
256
 10
-38.599997999999999
 20
-166.527209000000000
 40
13.000000000000002
 50
103.835223999999980
 51
148.579634000000060
  0
LINE
  8
0
  6
CONTINUOUS
 62
256
 10
-185.599998000000000
 20
-170.527209000000000
 11
-185.599998000000000
 21
-40.527208999999999
  0
LINE
  8
0
  6
CONTINUOUS
 62
256
 10
-25.599997999999999
 20
-40.527208999999999
 11
-25.599997999999999
 21
-170.527209000000000
  0
ARC
  8
0
  6
CONTINUOUS
 62
256
 10
-176.599998000000000
 20
-40.527208999999999
 40
9.000000000000000
 50
90.000000000000000
 51
180.000000000000000
  0
ARC
  8
0
  6
CONTINUOUS
 62
256
 10
-34.599997999999999
 20
-40.527208999999999
 40
9.000000000000000
 50
0.000000000000000
 51
90.000000000000000
  0
LINE
  8
0
  6
DASHDOT
 62
256
 10
-25.099997999999999
 20
-44.527208999999999
 11
-49.645311999999997
 21
-44.527208999999999
  0
LINE
  8
0
  6
DASHDOT
 62
256
 10
-38.599997999999999
 20
-31.027208999999999
 11
-38.599997999999999
 21
-56.795116999999998
  0
LINE
  8
0
  6
DASHDOT
 62
256
 10
-45.857138999999997
 20
-39.027208999999999
 11
-60.458824000000000
 21
-39.027208999999999
  0
LINE
  8
0
  6
DASHDOT
 62
256
 10
-53.099997999999999
 20
-30.527208999999999
 11
-53.099997999999999
 21
-47.979005000000001
  0
LINE
  8
0
  6
DASHDOT
 62
256
 10
-158.099998000000000
 20
-30.849620999999999
 11
-158.099998000000000
 21
-46.967733000000003
  0
LINE
  8
0
  6
DASHDOT
 62
256
 10
-172.599998000000000
 20
-33.959701000000003
 11
-172.599998000000000
 21
-56.404933999999997
  0
ARC
  8
0
  6
CONTINUOUS
 62
256
 10
-172.599998000000000
 20
-44.527208999999999
 40
13.000000000000002
 50
283.835223999999980
 51
328.579633999999940
  0
ARC
  8
0
  6
CONTINUOUS
 62
256
 10
-156.386053000000000
 20
-54.432155999999999
 40
5.999999999999997
 50
96.348585000000028
 51
148.579634000000030
  0
ARC
  8
0
  6
CONTINUOUS
 62
256
 10
-158.099998000000000
 20
-39.027208999999999
 40
9.499999999999995
 50
276.348584999999960
 51
333.152786999999930
  0
ARC
  8
0
  6
CONTINUOUS
 62
256
 10
-38.599997999999999
 20
-44.527208999999999
 40
13.000000000000002
 50
211.420365999999970
 51
256.164776000000020
  0
ARC
  8
0
  6
CONTINUOUS
 62
256
 10
-53.099997999999999
 20
-39.027208999999999
 40
9.500000000000000
 50
206.847212999999950
 51
263.651414999999990
  0
ARC
  8
0
  6
CONTINUOUS
 62
256
 10
-54.813943999999999
 20
-54.432155999999999
 40
6.000000000000001
 50
31.420365999999976
 51
83.651414999999986
  0
LINE
  8
0
  6
CONTINUOUS
 62
256
 10
-214.099998000000000
 20
-161.044667000000000
 11
-188.547641000000000
 21
-161.490685000000010
  0
LINE
  8
0
  6
CONTINUOUS
 62
256
 10
-214.099998000000000
 20
-54.009751000000001
 11
-188.547641000000000
 21
-53.563732999999999
  0
ARC
  8
0
  6
CONTINUOUS
 62
256
 10
-188.599998000000000
 20
-50.564190000000004
 40
2.999999999999997
 50
271.000000000000110
 51
0.000000000000000
  0
ARC
  8
0
  6
CONTINUOUS
 62
256
 10
-188.599998000000000
 20
-164.490228000000000
 40
3.000000000000000
 50
0.000000000000000
 51
88.999999999999858
  0
CIRCLE
  8
0
  6
CONTINUOUS
 62
256
 10
-86.599997999999999
 20
-92.527208999999999
 40
22.000000000000000
  0
CIRCLE
  8
0
  6
CONTINUOUS
 62
256
 10
-86.599997999999999
 20
-92.527208999999999
 40
42.500000000000000
  0
CIRCLE
  8
0
  6
CONTINUOUS
 62
256
 10
-86.599997999999999
 20
-92.527208999999999
 40
47.000000000000000
  0
LINE
  8
0
  6
CONTINUOUS
 62
256
 10
-66.929315000000003
 20
-43.027208999999999
 11
-144.270681999999990
 21
-43.027208999999999
  0
LINE
  8
0
  6
CONTINUOUS
 62
256
 10
-66.929315000000003
 20
-40.027208999999999
 11
-144.270681999999990
 21
-40.027208999999999
  0
ARC
  8
0
  6
CONTINUOUS
 62
256
 10
-66.929315000000003
 20
-46.027208999999999
 40
5.999999999999999
 50
26.847213000000004
 51
90.000000000000000
  0
ARC
  8
0
  6
CONTINUOUS
 62
256
 10
-66.929315000000003
 20
-46.027208999999999
 40
3.000000000000006
 50
26.847212999999943
 51
90.000000000000000
  0
ARC
  8
0
  6
CONTINUOUS
 62
256
 10
-53.099997999999999
 20
-39.027208999999999
 40
12.499999999999995
 50
206.847213000000010
 51
263.651414999999990
  0
LINE
  8
0
  6
CONTINUOUS
 62
256
 10
-58.608801999999997
 20
-32.527208999999999
 11
-152.591195000000000
 21
-32.527208999999999
  0
LINE
  8
0
  6
DASHDOT
 62
256
 10
-86.599997999999999
 20
-19.329872999999999
 11
-86.599997999999999
 21
-158.754275000000010
  0
LINE
  8
0
  6
CONTINUOUS
 62
256
 10
-176.599998000000000
 20
-31.527208999999999
 11
-34.599997999999999
 21
-31.527208999999999
  0
LINE
  8
0
  6
CONTINUOUS
 62
256
 10
-82.599997999999999
 20
-78.070376999999993
 11
-82.599997999999999
 21
-74.227209000000002
  0
LINE
  8
0
  6
CONTINUOUS
 62
256
 10
-90.599997999999999
 20
-74.227209000000002
 11
-82.599997999999999
 21
-74.227209000000002
  0
LINE
  8
0
  6
CONTINUOUS
 62
256
 10
-90.599997999999999
 20
-78.070376999999993
 11
-90.599997999999999
 21
-74.227209000000002
  0
ARC
  8
0
  6
CONTINUOUS
 62
256
 10
-86.599997999999999
 20
-92.527208999999999
 40
15.000000000000002
 50
105.466009999999980
 51
74.533990000000031
  0
LINE
  8
0
  6
DASHDOT
 62
256
 10
-20.381713999999999
 20
-92.527208999999999
 11
-146.098321000000000
 21
-92.527208999999999
  0
LINE
  8
0
  6
DASHDOT
 62
256
 10
401.548725999999990
 20
-107.509754000000000
 11
381.560786000000010
 21
-107.509754000000000
  0
LINE
  8
0
  6
DASHDOT
 62
256
 10
255.455220000000000
 20
-65.073853999999997
 11
255.455220000000000
 21
-119.349510000000000
  0
CIRCLE
  8
0
  6
CONTINUOUS
 62
256
 10
-38.599997999999999
 20
-44.527208999999999
 40
4.188000000000002
  0
CIRCLE
  8
0
  6
CONTINUOUS
 62
256
 10
-38.599997999999999
 20
-44.527208999999999
 40
5.000000000000000
  0
CIRCLE
  8
0
  6
CONTINUOUS
 62
256
 10
-172.599998000000000
 20
-44.527208999999999
 40
4.187999999999988
  0
CIRCLE
  8
0
  6
CONTINUOUS
 62
256
 10
-172.599998000000000
 20
-44.527208999999999
 40
5.000000000000000
  0
CIRCLE
  8
0
  6
CONTINUOUS
 62
256
 10
-172.599998000000000
 20
-166.527209000000000
 40
4.187999999999988
  0
CIRCLE
  8
0
  6
CONTINUOUS
 62
256
 10
-172.599998000000000
 20
-166.527209000000000
 40
5.000000000000000
  0
CIRCLE
  8
0
  6
CONTINUOUS
 62
256
 10
-38.599997999999999
 20
-166.527209000000000
 40
4.188000000000002
  0
CIRCLE
  8
0
  6
CONTINUOUS
 62
256
 10
-38.599997999999999
 20
-166.527209000000000
 40
5.000000000000000
  0
LINE
  8
0
  6
DASHDOT
 62
256
 10
-254.010297000000010
 20
-179.509753999999990
 11
-233.636114999999990
 21
-179.509753999999990
  0
LINE
  8
0
  6
DASHDOT
 62
256
 10
-243.599998000000000
 20
-162.225901999999990
 11
-243.599998000000000
 21
-190.205252000000000
  0
CIRCLE
  8
0
  6
DASHED
 62
256
 10
-243.599998000000000
 20
-179.509753999999990
 40
6.000000000000000
  0
ARC
  8
0
  6
DASHED
 62
256
 10
-243.599998000000000
 20
-179.509753999999990
 40
7.000000000000000
 50
180.000000000000000
 51
0.000000000000000
  0
LINE
  8
0
  6
DASHED
 62
256
 10
-250.599998000000000
 20
-165.009753999999990
 11
-250.599998000000000
 21
-179.509753999999990
  0
LINE
  8
0
  6
DASHED
 62
256
 10
-236.599998000000000
 20
-165.009753999999990
 11
-236.599998000000000
 21
-179.509753999999990
  0
LINE
  8
0
  6
DASHDOT
 62
256
 10
-302.908331999999970
 20
-179.509753999999990
 11
-283.719292000000000
 21
-179.509753999999990
  0
LINE
  8
0
  6
DASHDOT
 62
256
 10
-293.599998000000030
 20
-162.225901999999990
 11
-293.599998000000030
 21
-190.205252000000000
  0
ARC
  8
0
  6
DASHED
 62
256
 10
-293.599998000000030
 20
-179.509753999999990
 40
7.000000000000000
 50
180.000000000000000
 51
0.000000000000000
  0
LINE
  8
0
  6
DASHED
 62
256
 10
-286.599998000000030
 20
-165.009753999999990
 11
-286.599998000000030
 21
-179.509753999999990
  0
LINE
  8
0
  6
DASHED
 62
256
 10
-300.599998000000030
 20
-165.009753999999990
 11
-300.599998000000030
 21
-179.509753999999990
  0
LINE
  8
0
  6
CONTINUOUS
 62
256
 10
-505.926201999999990
 20
-178.333604000000010
 11
-514.926201999999990
 21
-178.174441000000000
  0
LINE
  8
0
  6
CONTINUOUS
 62
256
 10
-438.926201999999990
 20
-179.518481000000010
 11
-445.926201999999990
 21
-179.394688000000000
  0
LINE
  8
0
  6
CONTINUOUS
 62
256
 10
-524.926201999999990
 20
-178.174441000000000
 11
-524.926201999999990
 21
-152.696377000000010
  0
LINE
  8
0
  6
CONTINUOUS
 62
256
 10
-438.926201999999990
 20
-163.060628000000010
 11
-438.926201999999990
 21
-179.518481000000010
  0
LINE
  8
0
  6
CONTINUOUS
 62
256
 10
-426.926201999999990
 20
-179.317747999999990
 11
-426.926201999999990
 21
-152.696377000000010
  0
LINE
  8
0
  6
CONTINUOUS
 62
256
 10
-421.987669999999980
 20
-114.527209000000000
 11
-419.926201999999990
 21
-114.527209000000000
  0
ARC
  8
0
  6
CONTINUOUS
 62
256
 10
-822.526202000000010
 20
-107.509754000000000
 40
400.600000000000020
 50
0.000000000000000
 51
5.743682000000000
  0
LINE
  8
0
  6
CONTINUOUS
 62
256
 10
-422.926201999999990
 20
-50.027208999999999
 11
-422.926201999999990
 21
-79.221947000000000
  0
LINE
  8
0
  6
CONTINUOUS
 62
256
 10
-426.926201999999990
 20
-62.323130999999997
 11
-426.926201999999990
 21
-31.736670000000000
  0
LINE
  8
0
  6
CONTINUOUS
 62
256
 10
-438.926201999999990
 20
-31.501026000000000
 11
-438.926201999999990
 21
-51.958880000000001
  0
LINE
  8
0
  6
CONTINUOUS
 62
256
 10
-529.864733000000000
 20
-114.527209000000000
 11
-531.926201999999990
 21
-114.527209000000000
  0
LINE
  8
0
  6
CONTINUOUS
 62
256
 10
-528.926201999999990
 20
-79.221947000000000
 11
-528.926201999999990
 21
-50.027208999999999
  0
LINE
  8
0
  6
CONTINUOUS
 62
256
 10
-524.926201999999990
 20
-62.323130999999997
 11
-524.926201999999990
 21
-32.845066000000003
  0
LINE
  8
0
  6
CONTINUOUS
 62
256
 10
-524.926201999999990
 20
-50.027208999999999
 11
-528.926201999999990
 21
-50.027208999999999
  0
LINE
  8
0
  6
CONTINUOUS
 62
256
 10
-514.926201999999990
 20
-32.845066000000003
 11
-524.926201999999990
 21
-32.845066000000003
  0
LINE
  8
0
  6
CONTINUOUS
 62
256
 10
-532.926201999999990
 20
-71.527208999999999
 11
-532.926201999999990
 21
-92.527208999999999
  0
ARC
  8
0
  6
CONTINUOUS
 62
256
 10
-531.926201999999990
 20
-71.527208999999999
 40
1.000000000000000
 50
90.000000000000000
 51
180.000000000000000
  0
LINE
  8
0
  6
CONTINUOUS
 62
256
 10
-528.926201999999990
 20
-70.527208999999999
 11
-531.926201999999990
 21
-70.527208999999999
  0
LINE
  8
0
  6
CONTINUOUS
 62
256
 10
-532.926201999999990
 20
-113.527209000000000
 11
-532.926201999999990
 21
-92.527208999999999
  0
ARC
  8
0
  6
CONTINUOUS
 62
256
 10
-531.926201999999990
 20
-113.527209000000000
 40
1.000000000000000
 50
180.000000000000000
 51
270.000000000000000
  0
LINE
  8
0
  6
CONTINUOUS
 62
256
 10
-514.926201999999990
 20
-178.174441000000000
 11
-524.926201999999990
 21
-178.174441000000000
  0
LINE
  8
0
  6
CONTINUOUS
 62
256
 10
-438.926201999999990
 20
-179.527209000000000
 11
-426.926201999999990
 21
-179.317747999999990
  0
LINE
  8
0
  6
CONTINUOUS
 62
256
 10
-438.926201999999990
 20
-31.501026000000000
 11
-514.926201999999990
 21
-32.845066000000003
  0
LINE
  8
0
  6
CONTINUOUS
 62
256
 10
-426.926201999999990
 20
-31.736670000000000
 11
-438.926201999999990
 21
-31.527208999999999
  0
LINE
  8
0
  6
CONTINUOUS
 62
256
 10
-422.926201999999990
 20
-50.027208999999999
 11
-426.926201999999990
 21
-50.027208999999999
  0
ARC
  8
0
  6
CONTINUOUS
 62
256
 10
-419.926201999999990
 20
-71.527208999999999
 40
1.000000000000000
 50
0.000000000000000
 51
90.000000000000000
  0
LINE
  8
0
  6
CONTINUOUS
 62
256
 10
-422.926201999999990
 20
-70.527208999999999
 11
-419.926201999999990
 21
-70.527208999999999
  0
LINE
  8
0
  6
CONTINUOUS
 62
256
 10
-418.926201999999990
 20
-113.527209000000000
 11
-418.926201999999990
 21
-92.527208999999999
  0
ARC
  8
0
  6
CONTINUOUS
 62
256
 10
-419.926201999999990
 20
-113.527209000000000
 40
1.000000000000000
 50
270.000000000000000
 51
0.000000000000000
  0
LINE
  8
0
  6
CONTINUOUS
 62
256
 10
-418.926201999999990
 20
-71.527208999999999
 11
-418.926201999999990
 21
-92.527208999999999
  0
LINE
  8
0
  6
DASHDOT
 62
256
 10
-475.926201999999990
 20
-44.269266999999999
 11
-475.926201999999990
 21
-202.194994000000010
  0
LINE
  8
0
  6
DASHDOT
 62
256
 10
-537.649931000000040
 20
-107.509754000000000
 11
-412.431973000000030
 21
-107.509754000000000
  0
ARC
  8
0
  6
CONTINUOUS
 62
256
 10
-458.269758000000020
 20
-111.009754000000000
 40
1.000000000000000
 50
90.000000000000000
 51
168.787729000000270
  0
LINE
  8
0
  6
CONTINUOUS
 62
256
 10
-455.219922000000000
 20
-110.009754000000000
 11
-458.269758000000020
 21
-110.009754000000000
  0
ARC
  8
0
  6
CONTINUOUS
 62
256
 10
-455.219922000000000
 20
-111.009754000000000
 40
0.999999999999978
 50
350.405932000000010
 51
90.000000000000000
  0
ARC
  8
0
  6
CONTINUOUS
 62
256
 10
-449.658350999999980
 20
-111.009754000000000
 40
1.000000000000000
 50
90.000000000000000
 51
172.410458000000010
  0
LINE
  8
0
  6
CONTINUOUS
 62
256
 10
-446.634565000000010
 20
-110.009754000000000
 11
-449.658350999999980
 21
-110.009754000000000
  0
ARC
  8
0
  6
CONTINUOUS
 62
256
 10
-446.634565000000010
 20
-111.009754000000000
 40
1.000000000000019
 50
353.186146000000240
 51
90.000000000000000
  0
ARC
  8
0
  6
CONTINUOUS
 62
256
 10
-441.101640999999970
 20
-111.009754000000000
 40
1.000000000000000
 50
90.000000000000000
 51
174.260829999999570
  0
LINE
  8
0
  6
CONTINUOUS
 62
256
 10
-438.087729000000020
 20
-110.009754000000000
 11
-441.101640999999970
 21
-110.009754000000000
  0
ARC
  8
0
  6
CONTINUOUS
 62
256
 10
-438.087729000000020
 20
-111.009754000000000
 40
1.000000000000027
 50
354.715267000000210
 51
90.000000000000000
  0
ARC
  8
0
  6
CONTINUOUS
 62
256
 10
-458.249294000000020
 20
-131.127056000000010
 40
0.999999999999984
 50
210.000000000000510
 51
306.813854000001190
  0
LINE
  8
0
  6
CONTINUOUS
 62
256
 10
-459.115320000000000
 20
-131.627056000000010
 11
-460.627212999999980
 21
-129.008379999999990
  0
ARC
  8
0
  6
CONTINUOUS
 62
256
 10
-459.761187000000010
 20
-128.508379999999990
 40
0.999999999999993
 50
127.589541999998830
 51
210.000000000000510
  0
ARC
  8
0
  6
CONTINUOUS
 62
256
 10
-453.975876000000030
 20
-138.528831999999990
 40
0.999999999999984
 50
210.000000000000510
 51
305.284733000000980
  0
LINE
  8
0
  6
CONTINUOUS
 62
256
 10
-454.841902000000000
 20
-139.028831999999990
 11
-456.348858000000010
 21
-136.418708000000010
  0
ARC
  8
0
  6
CONTINUOUS
 62
256
 10
-455.482833000000030
 20
-135.918708000000010
 40
0.999999999999998
 50
125.739170000000210
 51
210.000000000000510
  0
ARC
  8
0
  6
CONTINUOUS
 62
256
 10
-468.479232000000020
 20
-113.408283000000000
 40
0.999999999999985
 50
141.618271999999000
 51
210.000000000000510
  0
LINE
  8
0
  6
CONTINUOUS
 62
256
 10
-467.761138000000020
 20
-116.652058999999990
 11
-469.345258000000000
 21
-113.908283000000000
  0
ARC
  8
0
  6
CONTINUOUS
 62
256
 10
-464.066891000000000
 20
-121.050683000000010
 40
1.000000000000006
 50
131.212270999999760
 51
210.000000000000510
  0
LINE
  8
0
  6
CONTINUOUS
 62
256
 10
-463.407998000000020
 20
-124.191918000000000
 11
-464.932915999999980
 21
-121.550683000000010
  0
ARC
  8
0
  6
CONTINUOUS
 62
256
 10
-462.541972999999980
 20
-123.691918000000000
 40
0.999999999999984
 50
210.000000000000510
 51
309.594067999999310
  0
ARC
  8
0
  6
CONTINUOUS
 62
256
 10
-467.094441000000020
 20
-111.009754000000000
 40
1.000000000000000
 50
90.000000000000000
 51
158.381728000000550
  0
ARC
  8
0
  6
CONTINUOUS
 62
256
 10
-475.926201999999990
 20
-107.509754000000000
 40
8.500000000000005
 50
321.618272000000050
 51
338.381728000000010
  0
ARC
  8
0
  6
CONTINUOUS
 62
256
 10
-466.895112999999980
 20
-116.152058999999990
 40
0.999999999999984
 50
210.000000000000510
 51
316.260205000000270
  0
LINE
  8
0
  6
CONTINUOUS
 62
256
 10
-463.926201999999990
 20
-110.009754000000000
 11
-467.094441000000020
 21
-110.009754000000000
  0
ARC
  8
0
  6
CONTINUOUS
 62
256
 10
-463.926201999999990
 20
-111.009754000000000
 40
0.999999999999976
 50
343.739794999999330
 51
90.000000000000000
  0
ARC
  8
0
  6
CONTINUOUS
 62
256
 10
-475.926201999999990
 20
-107.509754000000000
 40
13.500000000000004
 50
316.260204999999980
 51
343.739794999999960
  0
ARC
  8
0
  6
CONTINUOUS
 62
256
 10
-475.926201999999990
 20
-107.509754000000000
 40
17.000000000000014
 50
311.212270999999990
 51
348.787729000000010
  0
ARC
  8
0
  6
CONTINUOUS
 62
256
 10
-475.926201999999990
 20
-107.509754000000000
 40
21.999999999999986
 50
309.594067999999940
 51
350.405932000000010
  0
ARC
  8
0
  6
CONTINUOUS
 62
256
 10
-475.926201999999990
 20
-107.509754000000000
 40
30.500000000000014
 50
306.813854000000050
 51
353.186146000000010
  0
ARC
  8
0
  6
CONTINUOUS
 62
256
 10
-475.926201999999990
 20
-107.509754000000000
 40
25.499999999999996
 50
307.589541999999990
 51
352.410458000000010
  0
ARC
  8
0
  6
CONTINUOUS
 62
256
 10
-475.926201999999990
 20
-107.509754000000000
 40
33.999999999999986
 50
305.739169999999940
 51
354.260830000000000
  0
ARC
  8
0
  6
CONTINUOUS
 62
256
 10
-475.926201999999990
 20
-107.509754000000000
 40
39.000000000000014
 50
305.284733000000020
 51
354.715266999999980
  0
ARC
  8
0
  6
CONTINUOUS
 62
256
 10
-464.311471999999980
 20
-134.627056000000010
 40
1.000000000000000
 50
293.186146000000120
 51
30.000000000000544
  0
LINE
  8
0
  6
CONTINUOUS
 62
256
 10
-463.445447000000000
 20
-134.127056000000010
 11
-464.957339999999990
 21
-131.508379999999990
  0
ARC
  8
0
  6
CONTINUOUS
 62
256
 10
-465.823365000000020
 20
-132.008379999999990
 40
0.999999999999984
 50
30.000000000000544
 51
112.410458000000460
  0
ARC
  8
0
  6
CONTINUOUS
 62
256
 10
-460.038053999999990
 20
-142.028831999999990
 40
1.000000000000004
 50
294.715267000000150
 51
30.000000000000544
  0
LINE
  8
0
  6
CONTINUOUS
 62
256
 10
-459.172029000000010
 20
-141.528831999999990
 11
-460.678985000000010
 21
-138.918708000000010
  0
ARC
  8
0
  6
CONTINUOUS
 62
256
 10
-461.545009999999990
 20
-139.418708000000010
 40
0.999999999999984
 50
30.000000000000544
 51
114.260829999998650
  0
ARC
  8
0
  6
CONTINUOUS
 62
256
 10
-474.541409999999980
 20
-116.908283000000000
 40
0.999999999999984
 50
30.000000000000544
 51
98.381727999998901
  0
LINE
  8
0
  6
CONTINUOUS
 62
256
 10
-472.091265000000020
 20
-119.152058999999990
 11
-473.675385000000010
 21
-116.408283000000000
  0
ARC
  8
0
  6
CONTINUOUS
 62
256
 10
-470.129069000000020
 20
-124.550683000000010
 40
0.999999999999984
 50
30.000000000000544
 51
108.787729000000750
  0
LINE
  8
0
  6
CONTINUOUS
 62
256
 10
-467.738125000000030
 20
-126.691918000000000
 11
-469.263042999999980
 21
-124.050683000000010
  0
ARC
  8
0
  6
CONTINUOUS
 62
256
 10
-468.604151000000000
 20
-127.191918000000000
 40
1.000000000000006
 50
290.405931999999610
 51
30.000000000000544
  0
ARC
  8
0
  6
CONTINUOUS
 62
256
 10
-477.310993000000000
 20
-116.908283000000000
 40
0.999999999999998
 50
81.618272000001099
 51
149.999999999999460
  0
ARC
  8
0
  6
CONTINUOUS
 62
256
 10
-475.926201999999990
 20
-107.509754000000000
 40
8.500000000000002
 50
261.618271999999930
 51
278.381728000000070
  0
ARC
  8
0
  6
CONTINUOUS
 62
256
 10
-472.957291000000000
 20
-119.652058999999990
 40
1.000000000000011
 50
283.739795000001270
 51
30.000000000000544
  0
LINE
  8
0
  6
CONTINUOUS
 62
256
 10
-479.761138000000020
 20
-119.152058999999990
 11
-478.177018999999970
 21
-116.408283000000000
  0
ARC
  8
0
  6
CONTINUOUS
 62
256
 10
-478.895112999999980
 20
-119.652058999999990
 40
0.999999999999984
 50
149.999999999999460
 51
256.260204999998730
  0
ARC
  8
0
  6
CONTINUOUS
 62
256
 10
-475.926201999999990
 20
-107.509754000000000
 40
13.499999999999989
 50
256.260205000000040
 51
283.739794999999960
  0
ARC
  8
0
  6
CONTINUOUS
 62
256
 10
-481.723334000000020
 20
-124.550683000000010
 40
1.000000000000010
 50
71.212270999999262
 51
149.999999999999460
  0
LINE
  8
0
  6
CONTINUOUS
 62
256
 10
-484.114278000000010
 20
-126.691918000000000
 11
-482.589360000000000
 21
-124.050683000000010
  0
ARC
  8
0
  6
CONTINUOUS
 62
256
 10
-475.926201999999990
 20
-107.509754000000000
 40
16.999999999999993
 50
251.212271000000040
 51
288.787728999999960
  0
ARC
  8
0
  6
CONTINUOUS
 62
256
 10
-483.248251999999980
 20
-127.191918000000000
 40
0.999999999999984
 50
149.999999999999460
 51
249.594068000000420
  0
ARC
  8
0
  6
CONTINUOUS
 62
256
 10
-486.029038000000010
 20
-132.008379999999990
 40
1.000000000000009
 50
67.589541999999554
 51
149.999999999999460
  0
ARC
  8
0
  6
CONTINUOUS
 62
256
 10
-490.307392999999990
 20
-139.418708000000010
 40
0.999999999999992
 50
65.739170000001337
 51
149.999999999999460
  0
ARC
  8
0
  6
CONTINUOUS
 62
256
 10
-475.926201999999990
 20
-107.509754000000000
 40
21.999999999999996
 50
249.594067999999990
 51
290.405932000000010
  0
LINE
  8
0
  6
CONTINUOUS
 62
256
 10
-488.406956999999980
 20
-134.127056000000010
 11
-486.895063999999990
 21
-131.508379999999990
  0
ARC
  8
0
  6
CONTINUOUS
 62
256
 10
-487.540931000000000
 20
-134.627056000000010
 40
0.999999999999984
 50
149.999999999999460
 51
246.813853999999880
  0
ARC
  8
0
  6
CONTINUOUS
 62
256
 10
-475.926201999999990
 20
-107.509754000000000
 40
30.499999999999996
 50
246.813853999999990
 51
293.186146000000010
  0
ARC
  8
0
  6
CONTINUOUS
 62
256
 10
-475.926201999999990
 20
-107.509754000000000
 40
25.500000000000018
 50
247.589541999999990
 51
292.410458000000010
  0
ARC
  8
0
  6
CONTINUOUS
 62
256
 10
-475.926201999999990
 20
-107.509754000000000
 40
34.000000000000000
 50
245.739170000000000
 51
294.260830000000000
  0
ARC
  8
0
  6
CONTINUOUS
 62
256
 10
-475.926201999999990
 20
-107.509754000000000
 40
39.000000000000000
 50
245.284732999999960
 51
294.715266999999980
  0
LINE
  8
0
  6
CONTINUOUS
 62
256
 10
-492.680373999999970
 20
-141.528831999999990
 11
-491.173418000000030
 21
-138.918708000000010
  0
ARC
  8
0
  6
CONTINUOUS
 62
256
 10
-491.814348999999990
 20
-142.028831999999990
 40
0.999999999999984
 50
149.999999999999460
 51
245.284732999999870
  0
CIRCLE
  8
0
  6
CONTINUOUS
 62
256
 10
-475.926201999999990
 20
-107.509754000000000
 40
5.000000000000000
  0
ARC
  8
0
  6
CONTINUOUS
 62
256
 10
-497.876527000000010
 20
-138.528831999999990
 40
1.000000000000016
 50
234.715266999999020
 51
329.999999999999490
  0
ARC
  8
0
  6
CONTINUOUS
 62
256
 10
-496.369571000000010
 20
-135.918708000000010
 40
0.999999999999984
 50
329.999999999999490
 51
54.260829999999778
  0
ARC
  8
0
  6
CONTINUOUS
 62
256
 10
-510.750762000000010
 20
-111.009754000000000
 40
0.999999999999978
 50
5.739170000000447
 51
90.000000000000000
  0
ARC
  8
0
  6
CONTINUOUS
 62
256
 10
-513.764674000000010
 20
-111.009754000000000
 40
1.000000000000000
 50
90.000000000000000
 51
185.284732999999760
  0
ARC
  8
0
  6
CONTINUOUS
 62
256
 10
-502.194053000000000
 20
-111.009754000000000
 40
0.999999999999990
 50
7.589541999999997
 51
90.000000000000000
  0
ARC
  8
0
  6
CONTINUOUS
 62
256
 10
-493.603109000000020
 20
-131.127056000000010
 40
1.000000000000000
 50
233.186145999998760
 51
329.999999999999490
  0
ARC
  8
0
  6
CONTINUOUS
 62
256
 10
-492.091215999999970
 20
-128.508379999999990
 40
0.999999999999984
 50
329.999999999999490
 51
52.410458000001171
  0
ARC
  8
0
  6
CONTINUOUS
 62
256
 10
-505.217839000000030
 20
-111.009754000000000
 40
1.000000000000000
 50
90.000000000000000
 51
186.813853999999760
  0
ARC
  8
0
  6
CONTINUOUS
 62
256
 10
-496.632480999999980
 20
-111.009754000000000
 40
1.000000000000000
 50
90.000000000000000
 51
189.594067999999960
  0
ARC
  8
0
  6
CONTINUOUS
 62
256
 10
-493.582645000000010
 20
-111.009754000000000
 40
1.000000000000016
 50
11.212270999999729
 51
90.000000000000000
  0
ARC
  8
0
  6
CONTINUOUS
 62
256
 10
-489.310430000000000
 20
-123.691918000000000
 40
0.999999999999988
 50
230.405932000000690
 51
329.999999999999490
  0
ARC
  8
0
  6
CONTINUOUS
 62
256
 10
-487.785511999999980
 20
-121.050683000000010
 40
0.999999999999984
 50
329.999999999999490
 51
48.787728999999715
  0
ARC
  8
0
  6
CONTINUOUS
 62
256
 10
-484.957291000000000
 20
-116.152058999999990
 40
1.000000000000005
 50
223.739794999999760
 51
329.999999999999490
  0
ARC
  8
0
  6
CONTINUOUS
 62
256
 10
-487.926201999999990
 20
-111.009754000000000
 40
1.000000000000000
 50
90.000000000000000
 51
196.260205000000670
  0
ARC
  8
0
  6
CONTINUOUS
 62
256
 10
-484.757962000000020
 20
-111.009754000000000
 40
1.000000000000013
 50
21.618271999999475
 51
90.000000000000000
  0
ARC
  8
0
  6
CONTINUOUS
 62
256
 10
-483.373171000000010
 20
-113.408283000000000
 40
0.999999999999984
 50
329.999999999999490
 51
38.381728000001026
  0
ARC
  8
0
  6
CONTINUOUS
 62
256
 10
-475.926201999999990
 20
-107.509754000000000
 40
39.000000000000043
 50
185.284732999999960
 51
234.715266999999980
  0
ARC
  8
0
  6
CONTINUOUS
 62
256
 10
-475.926201999999990
 20
-107.509754000000000
 40
30.499999999999986
 50
186.813853999999990
 51
233.186146000000040
  0
ARC
  8
0
  6
CONTINUOUS
 62
256
 10
-475.926201999999990
 20
-107.509754000000000
 40
34.000000000000028
 50
185.739169999999970
 51
234.260829999999970
  0
ARC
  8
0
  6
CONTINUOUS
 62
256
 10
-475.926201999999990
 20
-107.509754000000000
 40
25.500000000000011
 50
187.589541999999990
 51
232.410458000000030
  0
ARC
  8
0
  6
CONTINUOUS
 62
256
 10
-475.926201999999990
 20
-107.509754000000000
 40
21.999999999999975
 50
189.594067999999960
 51
230.405932000000060
  0
ARC
  8
0
  6
CONTINUOUS
 62
256
 10
-475.926201999999990
 20
-107.509754000000000
 40
16.999999999999989
 50
191.212270999999960
 51
228.787728999999960
  0
ARC
  8
0
  6
CONTINUOUS
 62
256
 10
-475.926201999999990
 20
-107.509754000000000
 40
13.499999999999989
 50
196.260205000000010
 51
223.739794999999990
  0
ARC
  8
0
  6
CONTINUOUS
 62
256
 10
-475.926201999999990
 20
-107.509754000000000
 40
8.500000000000016
 50
201.618271999999960
 51
218.381727999999950
  0
LINE
  8
0
  6
CONTINUOUS
 62
256
 10
-492.737083999999980
 20
-131.627056000000010
 11
-491.225191000000000
 21
-129.008379999999990
  0
LINE
  8
0
  6
CONTINUOUS
 62
256
 10
-513.764674000000010
 20
-110.009754000000000
 11
-510.750762000000010
 21
-110.009754000000000
  0
LINE
  8
0
  6
CONTINUOUS
 62
256
 10
-497.010500999999980
 20
-139.028831999999990
 11
-495.503544999999970
 21
-136.418708000000010
  0
LINE
  8
0
  6
CONTINUOUS
 62
256
 10
-488.444405000000020
 20
-124.191918000000000
 11
-486.919487000000000
 21
-121.550683000000010
  0
LINE
  8
0
  6
CONTINUOUS
 62
256
 10
-484.091265000000020
 20
-116.652058999999990
 11
-482.507145999999980
 21
-113.908283000000000
  0
LINE
  8
0
  6
CONTINUOUS
 62
256
 10
-487.926201999999990
 20
-110.009754000000000
 11
-484.757962000000020
 21
-110.009754000000000
  0
LINE
  8
0
  6
CONTINUOUS
 62
256
 10
-496.632480999999980
 20
-110.009754000000000
 11
-493.582645000000010
 21
-110.009754000000000
  0
LINE
  8
0
  6
CONTINUOUS
 62
256
 10
-505.217839000000030
 20
-110.009754000000000
 11
-502.194053000000000
 21
-110.009754000000000
  0
ARC
  8
0
  6
CONTINUOUS
 62
256
 10
-475.926201999999990
 20
-107.509754000000000
 40
38.999999999999993
 50
65.284733000000031
 51
114.715266999999980
  0
ARC
  8
0
  6
CONTINUOUS
 62
256
 10
-475.926201999999990
 20
-107.509754000000000
 40
34.000000000000000
 50
65.739169999999987
 51
114.260830000000010
  0
ARC
  8
0
  6
CONTINUOUS
 62
256
 10
-475.926201999999990
 20
-107.509754000000000
 40
25.500000000000007
 50
67.589541999999966
 51
112.410458000000050
  0
ARC
  8
0
  6
CONTINUOUS
 62
256
 10
-475.926201999999990
 20
-107.509754000000000
 40
30.499999999999996
 50
66.813853999999992
 51
113.186146000000020
  0
ARC
  8
0
  6
CONTINUOUS
 62
256
 10
-475.926201999999990
 20
-107.509754000000000
 40
21.999999999999996
 50
69.594067999999993
 51
110.405932000000020
  0
ARC
  8
0
  6
CONTINUOUS
 62
256
 10
-475.926201999999990
 20
-107.509754000000000
 40
16.999999999999993
 50
71.212271000000044
 51
108.787728999999960
  0
ARC
  8
0
  6
CONTINUOUS
 62
256
 10
-475.926201999999990
 20
-107.509754000000000
 40
13.499999999999989
 50
76.260205000000056
 51
103.739794999999940
  0
ARC
  8
0
  6
CONTINUOUS
 62
256
 10
-472.957291000000000
 20
-95.367448999999993
 40
0.999999999999984
 50
329.999999999999490
 51
76.260204999998734
  0
ARC
  8
0
  6
CONTINUOUS
 62
256
 10
-468.604151000000000
 20
-87.827590000000001
 40
0.999999999999984
 50
329.999999999999490
 51
69.594068000000149
  0
LINE
  8
0
  6
CONTINUOUS
 62
256
 10
-467.738125000000030
 20
-88.327590000000001
 11
-469.263042999999980
 21
-90.968824999999995
  0
ARC
  8
0
  6
CONTINUOUS
 62
256
 10
-470.129069000000020
 20
-90.468824999999995
 40
1.000000000000010
 50
251.212270999999220
 51
329.999999999999490
  0
LINE
  8
0
  6
CONTINUOUS
 62
256
 10
-472.091265000000020
 20
-95.867448999999993
 11
-473.675385000000010
 21
-98.611225000000005
  0
ARC
  8
0
  6
CONTINUOUS
 62
256
 10
-474.541409999999980
 20
-98.111225000000005
 40
0.999999999999998
 50
261.618272000001130
 51
329.999999999999490
  0
ARC
  8
0
  6
CONTINUOUS
 62
256
 10
-461.545009999999990
 20
-75.600800000000007
 40
0.999999999999992
 50
245.739170000001340
 51
329.999999999999490
  0
LINE
  8
0
  6
CONTINUOUS
 62
256
 10
-459.172029000000010
 20
-73.490674999999996
 11
-460.678985000000010
 21
-76.100800000000007
  0
ARC
  8
0
  6
CONTINUOUS
 62
256
 10
-460.038053999999990
 20
-72.990674999999996
 40
0.999999999999984
 50
329.999999999999490
 51
65.284732999999861
  0
ARC
  8
0
  6
CONTINUOUS
 62
256
 10
-465.823365000000020
 20
-83.011127999999999
 40
1.000000000000009
 50
247.589541999999540
 51
329.999999999999490
  0
LINE
  8
0
  6
CONTINUOUS
 62
256
 10
-463.445447000000000
 20
-80.892452000000006
 11
-464.957339999999990
 21
-83.511127999999999
  0
ARC
  8
0
  6
CONTINUOUS
 62
256
 10
-464.311471999999980
 20
-80.392452000000006
 40
0.999999999999984
 50
329.999999999999490
 51
66.813853999999878
  0
ARC
  8
0
  6
CONTINUOUS
 62
256
 10
-475.926201999999990
 20
-107.509754000000000
 40
38.999999999999986
 50
5.284733000000007
 51
54.715266999999990
  0
ARC
  8
0
  6
CONTINUOUS
 62
256
 10
-475.926201999999990
 20
-107.509754000000000
 40
34.000000000000028
 50
5.739170000000004
 51
54.260829999999984
  0
ARC
  8
0
  6
CONTINUOUS
 62
256
 10
-475.926201999999990
 20
-107.509754000000000
 40
25.500000000000011
 50
7.589541999999985
 51
52.410458000000027
  0
ARC
  8
0
  6
CONTINUOUS
 62
256
 10
-475.926201999999990
 20
-107.509754000000000
 40
30.499999999999986
 50
6.813854000000005
 51
53.186146000000029
  0
ARC
  8
0
  6
CONTINUOUS
 62
256
 10
-475.926201999999990
 20
-107.509754000000000
 40
21.999999999999979
 50
9.594068000000020
 51
50.405932000000064
  0
ARC
  8
0
  6
CONTINUOUS
 62
256
 10
-475.926201999999990
 20
-107.509754000000000
 40
16.999999999999993
 50
11.212271000000010
 51
48.787728999999970
  0
ARC
  8
0
  6
CONTINUOUS
 62
256
 10
-475.926201999999990
 20
-107.509754000000000
 40
13.499999999999989
 50
16.260205000000035
 51
43.739795000000001
  0
ARC
  8
0
  6
CONTINUOUS
 62
256
 10
-463.926201999999990
 20
-104.009754000000000
 40
1.000000000000000
 50
270.000000000000000
 51
16.260205000000671
  0
LINE
  8
0
  6
CONTINUOUS
 62
256
 10
-463.926201999999990
 20
-105.009754000000000
 11
-467.094441000000020
 21
-105.009754000000000
  0
ARC
  8
0
  6
CONTINUOUS
 62
256
 10
-466.895112999999980
 20
-98.867448999999993
 40
1.000000000000005
 50
43.739794999999773
 51
149.999999999999460
  0
ARC
  8
0
  6
CONTINUOUS
 62
256
 10
-475.926201999999990
 20
-107.509754000000000
 40
8.500000000000016
 50
21.618271999999980
 51
38.381727999999960
  0
ARC
  8
0
  6
CONTINUOUS
 62
256
 10
-467.094441000000020
 20
-104.009754000000000
 40
1.000000000000013
 50
201.618271999999450
 51
270.000000000000000
  0
ARC
  8
0
  6
CONTINUOUS
 62
256
 10
-462.541972999999980
 20
-91.327590000000001
 40
0.999999999999988
 50
50.405932000000682
 51
149.999999999999460
  0
LINE
  8
0
  6
CONTINUOUS
 62
256
 10
-463.407998000000020
 20
-90.827590000000001
 11
-464.932915999999980
 21
-93.468824999999995
  0
ARC
  8
0
  6
CONTINUOUS
 62
256
 10
-464.066891000000000
 20
-93.968824999999995
 40
0.999999999999984
 50
149.999999999999460
 51
228.787728999999730
  0
LINE
  8
0
  6
CONTINUOUS
 62
256
 10
-467.761138000000020
 20
-98.367448999999993
 11
-469.345258000000000
 21
-101.111225000000000
  0
ARC
  8
0
  6
CONTINUOUS
 62
256
 10
-468.479232000000020
 20
-101.611225000000000
 40
0.999999999999984
 50
149.999999999999460
 51
218.381728000001000
  0
ARC
  8
0
  6
CONTINUOUS
 62
256
 10
-455.482833000000030
 20
-79.100800000000007
 40
0.999999999999984
 50
149.999999999999460
 51
234.260829999999740
  0
LINE
  8
0
  6
CONTINUOUS
 62
256
 10
-454.841902000000000
 20
-75.990674999999996
 11
-456.348858000000010
 21
-78.600800000000007
  0
ARC
  8
0
  6
CONTINUOUS
 62
256
 10
-453.975876000000030
 20
-76.490674999999996
 40
1.000000000000016
 50
54.715266999999017
 51
149.999999999999460
  0
ARC
  8
0
  6
CONTINUOUS
 62
256
 10
-459.761187000000010
 20
-86.511127999999999
 40
0.999999999999984
 50
149.999999999999460
 51
232.410458000001200
  0
LINE
  8
0
  6
CONTINUOUS
 62
256
 10
-459.115320000000000
 20
-83.392452000000006
 11
-460.627212999999980
 21
-86.011127999999999
  0
ARC
  8
0
  6
CONTINUOUS
 62
256
 10
-458.249294000000020
 20
-83.892452000000006
 40
1.000000000000011
 50
53.186145999999269
 51
149.999999999999460
  0
ARC
  8
0
  6
CONTINUOUS
 62
256
 10
-438.087729000000020
 20
-104.009754000000000
 40
1.000000000000000
 50
270.000000000000000
 51
5.284732999999778
  0
LINE
  8
0
  6
CONTINUOUS
 62
256
 10
-438.087729000000020
 20
-105.009754000000000
 11
-441.101640999999970
 21
-105.009754000000000
  0
ARC
  8
0
  6
CONTINUOUS
 62
256
 10
-441.101640999999970
 20
-104.009754000000000
 40
0.999999999999978
 50
185.739170000000430
 51
270.000000000000000
  0
ARC
  8
0
  6
CONTINUOUS
 62
256
 10
-446.634565000000010
 20
-104.009754000000000
 40
1.000000000000000
 50
270.000000000000000
 51
6.813853999999752
  0
LINE
  8
0
  6
CONTINUOUS
 62
256
 10
-446.634565000000010
 20
-105.009754000000000
 11
-449.658350999999980
 21
-105.009754000000000
  0
ARC
  8
0
  6
CONTINUOUS
 62
256
 10
-449.658350999999980
 20
-104.009754000000000
 40
0.999999999999990
 50
187.589541999999990
 51
270.000000000000000
  0
ARC
  8
0
  6
CONTINUOUS
 62
256
 10
-455.219922000000000
 20
-104.009754000000000
 40
1.000000000000000
 50
270.000000000000000
 51
9.594067999999961
  0
LINE
  8
0
  6
CONTINUOUS
 62
256
 10
-455.219922000000000
 20
-105.009754000000000
 11
-458.269758000000020
 21
-105.009754000000000
  0
ARC
  8
0
  6
CONTINUOUS
 62
256
 10
-458.269758000000020
 20
-104.009754000000000
 40
1.000000000000016
 50
191.212270999999730
 51
270.000000000000000
  0
ARC
  8
0
  6
CONTINUOUS
 62
256
 10
-478.895112999999980
 20
-95.367448999999993
 40
1.000000000000011
 50
103.739795000001280
 51
210.000000000000510
  0
LINE
  8
0
  6
CONTINUOUS
 62
256
 10
-479.761138000000020
 20
-95.867448999999993
 11
-478.177018999999970
 21
-98.611225000000005
  0
ARC
  8
0
  6
CONTINUOUS
 62
256
 10
-475.926201999999990
 20
-107.509754000000000
 40
8.500000000000002
 50
81.618271999999948
 51
98.381728000000052
  0
ARC
  8
0
  6
CONTINUOUS
 62
256
 10
-477.310993000000000
 20
-98.111225000000005
 40
0.999999999999984
 50
210.000000000000510
 51
278.381727999998870
  0
LINE
  8
0
  6
CONTINUOUS
 62
256
 10
-505.217839000000030
 20
-105.009754000000000
 11
-502.194053000000000
 21
-105.009754000000000
  0
LINE
  8
0
  6
CONTINUOUS
 62
256
 10
-496.632480999999980
 20
-105.009754000000000
 11
-493.582645000000010
 21
-105.009754000000000
  0
LINE
  8
0
  6
CONTINUOUS
 62
256
 10
-487.926201999999990
 20
-105.009754000000000
 11
-484.757962000000020
 21
-105.009754000000000
  0
LINE
  8
0
  6
CONTINUOUS
 62
256
 10
-484.091265000000020
 20
-98.367448999999993
 11
-482.507145999999980
 21
-101.111225000000000
  0
LINE
  8
0
  6
CONTINUOUS
 62
256
 10
-488.444405000000020
 20
-90.827590000000001
 11
-486.919487000000000
 21
-93.468824999999995
  0
LINE
  8
0
  6
CONTINUOUS
 62
256
 10
-497.010500999999980
 20
-75.990674999999996
 11
-495.503544999999970
 21
-78.600800000000007
  0
LINE
  8
0
  6
CONTINUOUS
 62
256
 10
-492.737083999999980
 20
-83.392452000000006
 11
-491.225191000000000
 21
-86.011127999999999
  0
ARC
  8
0
  6
CONTINUOUS
 62
256
 10
-475.926201999999990
 20
-107.509754000000000
 40
8.500000000000005
 50
141.618272000000020
 51
158.381728000000040
  0
ARC
  8
0
  6
CONTINUOUS
 62
256
 10
-475.926201999999990
 20
-107.509754000000000
 40
13.500000000000004
 50
136.260205000000010
 51
163.739794999999960
  0
ARC
  8
0
  6
CONTINUOUS
 62
256
 10
-475.926201999999990
 20
-107.509754000000000
 40
17.000000000000014
 50
131.212271000000020
 51
168.787728999999980
  0
ARC
  8
0
  6
CONTINUOUS
 62
256
 10
-475.926201999999990
 20
-107.509754000000000
 40
21.999999999999986
 50
129.594067999999940
 51
170.405931999999980
  0
ARC
  8
0
  6
CONTINUOUS
 62
256
 10
-475.926201999999990
 20
-107.509754000000000
 40
25.499999999999996
 50
127.589541999999970
 51
172.410458000000010
  0
ARC
  8
0
  6
CONTINUOUS
 62
256
 10
-475.926201999999990
 20
-107.509754000000000
 40
34.000000000000007
 50
125.739170000000040
 51
174.260830000000000
  0
ARC
  8
0
  6
CONTINUOUS
 62
256
 10
-475.926201999999990
 20
-107.509754000000000
 40
30.499999999999982
 50
126.813853999999980
 51
173.186145999999980
  0
ARC
  8
0
  6
CONTINUOUS
 62
256
 10
-475.926201999999990
 20
-107.509754000000000
 40
39.000000000000000
 50
125.284733000000000
 51
174.715267000000010
  0
ARC
  8
0
  6
CONTINUOUS
 62
256
 10
-483.373171000000010
 20
-101.611225000000000
 40
0.999999999999985
 50
321.618271999998970
 51
30.000000000000544
  0
ARC
  8
0
  6
CONTINUOUS
 62
256
 10
-484.757962000000020
 20
-104.009754000000000
 40
1.000000000000000
 50
270.000000000000000
 51
338.381728000000520
  0
ARC
  8
0
  6
CONTINUOUS
 62
256
 10
-487.926201999999990
 20
-104.009754000000000
 40
0.999999999999976
 50
163.739794999999330
 51
270.000000000000000
  0
ARC
  8
0
  6
CONTINUOUS
 62
256
 10
-484.957291000000000
 20
-98.867448999999993
 40
0.999999999999984
 50
30.000000000000544
 51
136.260205000000240
  0
ARC
  8
0
  6
CONTINUOUS
 62
256
 10
-487.785511999999980
 20
-93.968824999999995
 40
1.000000000000006
 50
311.212270999999760
 51
30.000000000000544
  0
ARC
  8
0
  6
CONTINUOUS
 62
256
 10
-489.310430000000000
 20
-91.327590000000001
 40
0.999999999999984
 50
30.000000000000544
 51
129.594067999999310
  0
ARC
  8
0
  6
CONTINUOUS
 62
256
 10
-493.582645000000010
 20
-104.009754000000000
 40
1.000000000000000
 50
270.000000000000000
 51
348.787729000000300
  0
ARC
  8
0
  6
CONTINUOUS
 62
256
 10
-496.632480999999980
 20
-104.009754000000000
 40
0.999999999999978
 50
170.405932000000040
 51
270.000000000000000
  0
ARC
  8
0
  6
CONTINUOUS
 62
256
 10
-492.091215999999970
 20
-86.511127999999999
 40
0.999999999999993
 50
307.589541999998800
 51
30.000000000000544
  0
ARC
  8
0
  6
CONTINUOUS
 62
256
 10
-493.603109000000020
 20
-83.892452000000006
 40
0.999999999999984
 50
30.000000000000544
 51
126.813854000000730
  0
ARC
  8
0
  6
CONTINUOUS
 62
256
 10
-502.194053000000000
 20
-104.009754000000000
 40
1.000000000000000
 50
270.000000000000000
 51
352.410458000000010
  0
ARC
  8
0
  6
CONTINUOUS
 62
256
 10
-496.369571000000010
 20
-79.100800000000007
 40
0.999999999999998
 50
305.739170000000230
 51
30.000000000000544
  0
ARC
  8
0
  6
CONTINUOUS
 62
256
 10
-497.876527000000010
 20
-76.490674999999996
 40
0.999999999999984
 50
30.000000000000544
 51
125.284733000000970
  0
ARC
  8
0
  6
CONTINUOUS
 62
256
 10
-491.814348999999990
 20
-72.990674999999996
 40
1.000000000000004
 50
114.715267000000150
 51
210.000000000000510
  0
LINE
  8
0
  6
CONTINUOUS
 62
256
 10
-492.680373999999970
 20
-73.490674999999996
 11
-491.173418000000030
 21
-76.100800000000007
  0
ARC
  8
0
  6
CONTINUOUS
 62
256
 10
-487.540931000000000
 20
-80.392452000000006
 40
1.000000000000000
 50
113.186146000000120
 51
210.000000000000510
  0
LINE
  8
0
  6
CONTINUOUS
 62
256
 10
-488.406956999999980
 20
-80.892452000000006
 11
-486.895063999999990
 21
-83.511127999999999
  0
ARC
  8
0
  6
CONTINUOUS
 62
256
 10
-490.307392999999990
 20
-75.600800000000007
 40
0.999999999999984
 50
210.000000000000510
 51
294.260829999998690
  0
ARC
  8
0
  6
CONTINUOUS
 62
256
 10
-486.029038000000010
 20
-83.011127999999999
 40
0.999999999999984
 50
210.000000000000510
 51
292.410458000000400
  0
ARC
  8
0
  6
CONTINUOUS
 62
256
 10
-483.248251999999980
 20
-87.827590000000001
 40
0.999999999999993
 50
110.405931999999860
 51
210.000000000000510
  0
LINE
  8
0
  6
CONTINUOUS
 62
256
 10
-484.114278000000010
 20
-88.327590000000001
 11
-482.589360000000000
 21
-90.968824999999995
  0
ARC
  8
0
  6
CONTINUOUS
 62
256
 10
-481.723334000000020
 20
-90.468824999999995
 40
0.999999999999984
 50
210.000000000000510
 51
288.787729000000750
  0
LINE
  8
0
  6
CONTINUOUS
 62
256
 10
-513.764674000000010
 20
-105.009754000000000
 11
-510.750762000000010
 21
-105.009754000000000
  0
ARC
  8
0
  6
CONTINUOUS
 62
256
 10
-505.217839000000030
 20
-104.009754000000000
 40
1.000000000000019
 50
173.186146000000240
 51
270.000000000000000
  0
ARC
  8
0
  6
CONTINUOUS
 62
256
 10
-513.764674000000010
 20
-104.009754000000000
 40
1.000000000000027
 50
174.715267000000240
 51
270.000000000000000
  0
ARC
  8
0
  6
CONTINUOUS
 62
256
 10
-510.750762000000010
 20
-104.009754000000000
 40
1.000000000000000
 50
270.000000000000000
 51
354.260829999999540
  0
ARC
  8
0
  6
CONTINUOUS
 62
256
 10
-822.526202000000010
 20
-107.509754000000000
 40
400.600000000000020
 50
354.256318000000020
 51
0.000000000000000
  0
ARC
  8
0
  6
CONTINUOUS
 62
256
 10
-430.504255000000000
 20
-146.940620999999990
 40
6.600000000000017
 50
315.000000000000170
 51
354.256318000000020
  0
ARC
  8
0
  6
CONTINUOUS
 62
256
 10
-822.526202000000010
 20
-107.509754000000000
 40
390.797000000000030
 50
354.582036000000020
 51
0.000000000000000
  0
ARC
  8
0
  6
CONTINUOUS
 62
256
 10
-436.461720000000010
 20
-144.125719000000000
 40
3.000000000000004
 50
315.000000000000340
 51
354.582035999999790
  0
ARC
  8
0
  6
CONTINUOUS
 62
256
 10
-515.390683999999960
 20
-144.125719000000000
 40
3.000000000000055
 50
185.417964000000100
 51
224.999999999999630
  0
ARC
  8
0
  6
CONTINUOUS
 62
256
 10
-129.326201999999990
 20
-107.509754000000000
 40
390.797000000000030
 50
180.000000000000000
 51
185.417963999999980
  0
ARC
  8
0
  6
CONTINUOUS
 62
256
 10
-499.465999000000010
 20
-134.881643999999990
 40
20.797000000000015
 50
225.000000000000000
 51
264.998350000000070
  0
LINE
  8
0
  6
CONTINUOUS
 62
256
 10
-514.171698999999990
 20
-149.587344000000000
 11
-517.512004000000050
 21
-146.247039000000000
  0
ARC
  8
0
  6
CONTINUOUS
 62
256
 10
-475.926201999999990
 20
134.090246000000010
 40
290.797000000000030
 50
264.998350000000070
 51
270.000000000000000
  0
ARC
  8
0
  6
CONTINUOUS
 62
256
 10
-515.390683999999960
 20
-70.893788999999998
 40
3.000000000000014
 50
135.000000000000200
 51
174.582036000000160
  0
ARC
  8
0
  6
CONTINUOUS
 62
256
 10
-129.326201999999990
 20
-107.509754000000000
 40
390.797000000000030
 50
174.582035999999990
 51
180.000000000000000
  0
ARC
  8
0
  6
CONTINUOUS
 62
256
 10
-499.465999000000010
 20
-80.137862999999996
 40
20.797000000000001
 50
95.001650000000041
 51
135.000000000000030
  0
LINE
  8
0
  6
CONTINUOUS
 62
256
 10
-514.171698999999990
 20
-65.432164000000000
 11
-517.512004000000050
 21
-68.772469000000001
  0
ARC
  8
0
  6
CONTINUOUS
 62
256
 10
-436.461720000000010
 20
-70.893788999999998
 40
2.999999999999996
 50
5.417963999999932
 51
44.999999999999808
  0
ARC
  8
0
  6
CONTINUOUS
 62
256
 10
-822.526202000000010
 20
-107.509754000000000
 40
390.797000000000030
 50
0.000000000000000
 51
5.417964000000000
  0
ARC
  8
0
  6
CONTINUOUS
 62
256
 10
-452.386404000000030
 20
-80.137862999999996
 40
20.797000000000008
 50
44.999999999999972
 51
84.998349999999959
  0
LINE
  8
0
  6
CONTINUOUS
 62
256
 10
-437.680703999999990
 20
-65.432164000000000
 11
-434.340398999999990
 21
-68.772469000000001
  0
ARC
  8
0
  6
CONTINUOUS
 62
256
 10
-500.926201999999990
 20
-188.448522999999990
 40
5.000000000000000
 50
180.000000000000000
 51
265.138594999999900
  0
ARC
  8
0
  6
CONTINUOUS
 62
256
 10
-450.926201999999990
 20
-188.448522999999990
 40
4.999999999999989
 50
274.861405000000100
 51
0.000000000000000
  0
LINE
  8
0
  6
CONTINUOUS
 62
256
 10
-505.926201999999990
 20
-165.009753999999990
 11
-505.926201999999990
 21
-188.448522999999990
  0
LINE
  8
0
  6
CONTINUOUS
 62
256
 10
-445.926201999999990
 20
-165.009753999999990
 11
-445.926201999999990
 21
-188.448522999999990
  0
ARC
  8
0
  6
CONTINUOUS
 62
256
 10
-475.926201999999990
 20
105.490246000000000
 40
300.000000000000000
 50
265.138595000000010
 51
274.861404999999990
  0
LINE
  8
0
  6
CONTINUOUS
 62
256
 10
-473.426201999999990
 20
-194.499337000000000
 11
-473.426201999999990
 21
-195.009753999999990
  0
LINE
  8
0
  6
CONTINUOUS
 62
256
 10
-478.426201999999990
 20
-194.499337000000000
 11
-478.426201999999990
 21
-195.009753999999990
  0
LINE
  8
0
  6
CONTINUOUS
 62
256
 10
-478.426201999999990
 20
-195.009753999999990
 11
-473.426201999999990
 21
-195.009753999999990
  0
ARC
  8
0
  6
CONTINUOUS
 62
256
 10
-447.862444999999980
 20
-144.499821000000000
 40
20.599999999999991
 50
275.752282999999860
 51
315.000000000000000
  0
LINE
  8
0
  6
CONTINUOUS
 62
256
 10
-433.296044999999990
 20
-159.066221000000010
 11
-425.837350000000010
 21
-151.607526000000010
  0
ARC
  8
0
  6
CONTINUOUS
 62
256
 10
-475.926201999999990
 20
134.090246000000010
 40
300.600000000000020
 50
270.000000000000000
 51
275.752282999999980
  0
LINE
  8
0
  6
CONTINUOUS
 62
256
 10
-444.426201999999990
 20
-164.811203000000010
 11
-444.426201999999990
 21
-165.009753999999990
  0
LINE
  8
0
  6
CONTINUOUS
 62
256
 10
-445.933702999999980
 20
-165.009753999999990
 11
-444.426201999999990
 21
-165.009753999999990
  0
ARC
  8
0
  6
CONTINUOUS
 62
256
 10
-447.862444999999980
 20
-144.499821000000000
 40
10.796999999999988
 50
275.752283000000030
 51
315.000000000000000
  0
LINE
  8
0
  6
CONTINUOUS
 62
256
 10
-440.227813000000030
 20
-152.134453000000010
 11
-434.340398999999990
 21
-146.247039000000000
  0
ARC
  8
0
  6
CONTINUOUS
 62
256
 10
-475.926201999999990
 20
134.090246000000010
 40
290.797000000000030
 50
270.000000000000000
 51
275.752282999999980
  0
ARC
  8
0
  6
CONTINUOUS
 62
256
 10
-475.926201999999990
 20
134.090246000000010
 40
300.600000000000020
 50
264.247717000000020
 51
270.000000000000000
  0
LINE
  8
0
  6
CONTINUOUS
 62
256
 10
-518.556358000000050
 20
-159.066221000000010
 11
-526.015052999999970
 21
-151.607526000000010
  0
ARC
  8
0
  6
CONTINUOUS
 62
256
 10
-503.989958000000000
 20
-144.499821000000000
 40
20.600000000000030
 50
224.999999999999860
 51
264.247716999999910
  0
ARC
  8
0
  6
CONTINUOUS
 62
256
 10
-129.326201999999990
 20
-107.509754000000000
 40
400.600000000000020
 50
180.000000000000000
 51
185.743681999999980
  0
ARC
  8
0
  6
CONTINUOUS
 62
256
 10
-521.348148000000040
 20
-146.940620999999990
 40
6.599999999999971
 50
185.743681999999920
 51
225.000000000000170
  0
LINE
  8
0
  6
CONTINUOUS
 62
256
 10
-518.556358000000050
 20
-55.953287000000003
 11
-526.015052999999970
 21
-63.411982000000002
  0
ARC
  8
0
  6
CONTINUOUS
 62
256
 10
-129.326201999999990
 20
-107.509754000000000
 40
400.600000000000080
 50
174.256317999999990
 51
180.000000000000000
  0
ARC
  8
0
  6
CONTINUOUS
 62
256
 10
-521.348148000000040
 20
-68.078886999999995
 40
6.599999999999977
 50
134.999999999999830
 51
174.256317999999940
  0
LINE
  8
0
  6
CONTINUOUS
 62
256
 10
-433.296044999999990
 20
-55.953287000000003
 11
-425.837350000000010
 21
-63.411982000000002
  0
ARC
  8
0
  6
CONTINUOUS
 62
256
 10
-430.504255000000000
 20
-68.078886999999995
 40
6.599999999999973
 50
5.743682000000063
 51
44.999999999999829
  0
LINE
  8
0
  6
CONTINUOUS
 62
256
 10
-507.426201999999990
 20
-165.009753999999990
 11
-505.914187000000030
 21
-165.009753999999990
  0
LINE
  8
0
  6
CONTINUOUS
 62
256
 10
-507.426201999999990
 20
-164.811203000000010
 11
-507.426201999999990
 21
-165.009753999999990
  0
ARC
  8
0
  6
CONTINUOUS
 62
256
 10
-475.926201999999990
 20
-349.109754000000010
 40
290.797000000000030
 50
90.000000000000000
 51
95.001649999999998
  0
ARC
  8
0
  6
CONTINUOUS
 62
256
 10
-475.926201999999990
 20
-349.109754000000010
 40
290.797000000000030
 50
84.998350000000002
 51
90.000000000000000
  0
ARC
  8
0
  6
CONTINUOUS
 62
256
 10
-503.989958000000000
 20
-70.519687000000005
 40
20.600000000000009
 50
95.752283000000077
 51
135.000000000000110
  0
ARC
  8
0
  6
CONTINUOUS
 62
256
 10
-475.926201999999990
 20
-349.109754000000010
 40
300.600000000000020
 50
90.000000000000000
 51
95.752283000000006
  0
ARC
  8
0
  6
CONTINUOUS
 62
256
 10
-475.926201999999990
 20
-349.109754000000010
 40
300.600000000000020
 50
84.247716999999994
 51
90.000000000000000
  0
ARC
  8
0
  6
CONTINUOUS
 62
256
 10
-447.862444999999980
 20
-70.519687000000005
 40
20.599999999999994
 50
45.000000000000014
 51
84.247716999999938
  0
TEXT
  8
0
  6
CONTINUOUS
 62
256
 10
477.386322021484370
 20
-237.804061889648440
 40
3.299999952316284
  1
1/1
 50
0.000002504478167
 41
0.850909097352304
  7
STANDARD1
  0
TEXT
  8
0
  6
CONTINUOUS
 62
256
 10
474.968322753906250
 20
-237.804061889648440
 40
3.299999952316284
  1
 
 50
0.000002504478167
 41
1.733333298293026
  7
STANDARD1
  0
TEXT
  8
0
  6
CONTINUOUS
 62
256
 10
461.917694091796870
 20
-237.804061889648440
 40
3.299999952316284
  1
SCALE
 50
0.000002504478167
 41
0.821052645401140
  7
STANDARD1
  0
TEXT
  8
0
  6
CONTINUOUS
 62
256
 10
458.666320800781250
 20
-237.804061889648440
 40
3.299999952316284
  1
 
 50
0.000002504478167
 41
1.733333298293026
  7
STANDARD1
  0
TEXT
  8
0
  6
CONTINUOUS
 62
256
 10
473.520477294921870
 20
-232.504058837890620
 40
3.299999952316284
  1
1/240
 50
0.000002504478167
 41
0.821052645401140
  7
STANDARD1
  0
TEXT
  8
0
  6
CONTINUOUS
 62
256
 10
469.738494873046870
 20
-232.504058837890620
 40
3.299999952316284
  1
ü`
 50
0.000002504478167
 41
1.176000019651471
  7
STANDARD1
  0
TEXT
  8
0
  6
CONTINUOUS
 62
256
 10
458.666320800781250
 20
-232.504058837890620
 40
3.299999952316284
  1
1/80
 50
0.000002504478167
 41
0.832000075658163
  7
STANDARD1
  0
TEXT
  8
0
  6
CONTINUOUS
 62
256
 10
458.666320800781250
 20
-227.204055786132810
 40
3.299999952316284
  1
GM-SHYM-RH
 50
0.000002504478167
 41
0.799999980493025
  7
STANDARD1
  0
TEXT
  8
0
  6
CONTINUOUS
 62
256
 10
464.491699218750000
 20
-221.904067993164060
 40
3.299999952316284
  1
0.2kW
 50
0.000002504478167
 41
0.821052645401140
  7
STANDARD1
  0
TEXT
  8
0
  6
CONTINUOUS
 62
256
 10
458.666320800781250
 20
-221.904067993164060
 40
3.299999952316284
  1
  
 50
0.000002504478167
 41
1.485714400175845
  7
STANDARD1
  0
TEXT
  8
0
  6
CONTINUOUS
 62
256
 10
464.485809326171870
 20
-216.604064941406250
 40
3.299999952316284
  1
SHY003
 50
0.000002504478167
 41
0.813913121261144
  7
STANDARD1
  0
TEXT
  8
0
  6
CONTINUOUS
 62
256
 10
458.666320800781250
 20
-216.604064941406250
 40
3.299999952316284
  1
  
 50
0.000002504478167
 41
1.485714400175845
  7
STANDARD1
  0
LINE
  8
0
  6
DASHDOT
 62
256
 10
-360.335074000000020
 20
124.878342000000000
 11
-20.055793999999999
 21
124.878342000000000
  0
LINE
  8
0
  6
DASHDOT
 62
256
 10
-86.599997999999999
 20
188.338702000000010
 11
-86.599997999999999
 21
60.386240000000001
  0
POLYLINE
  8
0
  6
CONTINUOUS
 62
256
 66
1
 70
1
  0
VERTEX
  8
0
  6
CONTINUOUS
 62
256
 10
-304.399998000000040
 20
77.551011000000003
  0
VERTEX
  8
0
  6
CONTINUOUS
 62
256
 10
-304.490307182104860
 20
78.253967510558169
  0
VERTEX
  8
0
  6
CONTINUOUS
 62
256
 10
-304.757764197196990
 20
78.929909796638142
  0
VERTEX
  8
0
  6
CONTINUOUS
 62
256
 10
-305.192090822178100
 20
79.552861775258663
  0
VERTEX
  8
0
  6
CONTINUOUS
 62
256
 10
-305.776596128423250
 20
80.098883751236855
  0
VERTEX
  8
0
  6
CONTINUOUS
 62
256
 10
-306.488817904807890
 20
80.546992406248492
  0
VERTEX
  8
0
  6
CONTINUOUS
 62
256
 10
-307.301385867884110
 20
80.879967175983751
  0
VERTEX
  8
0
  6
CONTINUOUS
 62
256
 10
-308.183073486524220
 20
81.085012026776070
  0
VERTEX
  8
0
  6
CONTINUOUS
 62
256
 10
-309.099998000000030
 20
81.154247200000000
  0
VERTEX
  8
0
  6
CONTINUOUS
 62
256
 10
-310.016922513475830
 20
81.085012026776070
  0
VERTEX
  8
0
  6
CONTINUOUS
 62
256
 10
-310.898610132115950
 20
80.879967175983751
  0
VERTEX
  8
0
  6
CONTINUOUS
 62
256
 10
-311.711178095192170
 20
80.546992406248492
  0
VERTEX
  8
0
  6
CONTINUOUS
 62
256
 10
-312.423399871576810
 20
80.098883751236855
  0
VERTEX
  8
0
  6
CONTINUOUS
 62
256
 10
-313.007905177821950
 20
79.552861775258663
  0
VERTEX
  8
0
  6
CONTINUOUS
 62
256
 10
-313.442231802803060
 20
78.929909796638142
  0
VERTEX
  8
0
  6
CONTINUOUS
 62
256
 10
-313.709688817895200
 20
78.253967510558169
  0
VERTEX
  8
0
  6
CONTINUOUS
 62
256
 10
-313.799998000000020
 20
77.551011000000003
  0
VERTEX
  8
0
  6
CONTINUOUS
 62
256
 10
-313.709688817895200
 20
76.848054489441836
  0
VERTEX
  8
0
  6
CONTINUOUS
 62
256
 10
-313.442231802803060
 20
76.172112203361863
  0
VERTEX
  8
0
  6
CONTINUOUS
 62
256
 10
-313.007905177821950
 20
75.549160224741343
  0
VERTEX
  8
0
  6
CONTINUOUS
 62
256
 10
-312.423399871576810
 20
75.003138248763165
  0
VERTEX
  8
0
  6
CONTINUOUS
 62
256
 10
-311.711178095192170
 20
74.555029593751513
  0
VERTEX
  8
0
  6
CONTINUOUS
 62
256
 10
-310.898610132115950
 20
74.222054824016254
  0
VERTEX
  8
0
  6
CONTINUOUS
 62
256
 10
-310.016922513475830
 20
74.017009973223935
  0
VERTEX
  8
0
  6
CONTINUOUS
 62
256
 10
-309.099998000000030
 20
73.947774800000005
  0
VERTEX
  8
0
  6
CONTINUOUS
 62
256
 10
-308.183073486524220
 20
74.017009973223935
  0
VERTEX
  8
0
  6
CONTINUOUS
 62
256
 10
-307.301385867884110
 20
74.222054824016254
  0
VERTEX
  8
0
  6
CONTINUOUS
 62
256
 10
-306.488817904807890
 20
74.555029593751513
  0
VERTEX
  8
0
  6
CONTINUOUS
 62
256
 10
-305.776596128423250
 20
75.003138248763150
  0
VERTEX
  8
0
  6
CONTINUOUS
 62
256
 10
-305.192090822178100
 20
75.549160224741343
  0
VERTEX
  8
0
  6
CONTINUOUS
 62
256
 10
-304.757764197196990
 20
76.172112203361863
  0
VERTEX
  8
0
  6
CONTINUOUS
 62
256
 10
-304.490307182104860
 20
76.848054489441836
  0
SEQEND
  8
0
  6
CONTINUOUS
 62
256
  0
LINE
  8
0
  6
CONTINUOUS
 62
256
 10
-311.099998000000030
 20
74.558634999999995
 11
-309.099998000000030
 21
75.734420000000000
  0
LINE
  8
0
  6
CONTINUOUS
 62
256
 10
-309.099998000000030
 20
75.734420000000000
 11
-307.099998000000030
 21
77.387062000000000
  0
LINE
  8
0
  6
CONTINUOUS
 62
256
 10
-307.099998000000030
 20
74.558634999999995
 11
-309.099998000000030
 21
75.734420000000000
  0
LINE
  8
0
  6
CONTINUOUS
 62
256
 10
-309.099998000000030
 20
75.734420000000000
 11
-311.099998000000030
 21
77.387062000000000
  0
LINE
  8
0
  6
CONTINUOUS
 62
256
 10
-214.099998000000000
 20
72.378342000000004
 11
-298.099998000000030
 21
72.378342000000004
  0
LINE
  8
0
  6
CONTINUOUS
 62
256
 10
-298.099998000000030
 20
74.378342000000004
 11
-214.099998000000000
 21
74.378342000000004
  0
LINE
  8
0
  6
CONTINUOUS
 62
256
 10
-298.099998000000030
 20
73.878342000000004
 11
-214.099998000000000
 21
73.878342000000004
  0
LINE
  8
0
  6
CONTINUOUS
 62
256
 10
-298.099998000000030
 20
78.745259000000004
 11
-214.099998000000000
 21
78.745259000000004
  0
LINE
  8
0
  6
CONTINUOUS
 62
256
 10
-298.099998000000030
 20
80.373686000000006
 11
-214.099998000000000
 21
80.373686000000006
  0
LINE
  8
0
  6
CONTINUOUS
 62
256
 10
-298.099998000000030
 20
83.836427999999998
 11
-214.099998000000000
 21
83.836427999999998
  0
LINE
  8
0
  6
CONTINUOUS
 62
256
 10
-298.257599000000030
 20
84.837906000000004
 11
-214.099998000000000
 21
84.837906000000004
  0
LINE
  8
0
  6
CONTINUOUS
 62
256
 10
-298.099998000000030
 20
70.878342000000004
 11
-327.604843000000020
 21
70.878342000000004
  0
ARC
  8
0
  6
CONTINUOUS
 62
256
 10
-327.604843000000020
 20
91.478341999999998
 40
20.599999999999991
 50
235.000000000000000
 51
270.000000000000000
  0
ARC
  8
0
  6
CONTINUOUS
 62
256
 10
-345.499998000000010
 20
82.034721000000005
 40
2.600000000000023
 50
180.000000000000000
 51
234.999999999999940
  0
LINE
  8
0
  6
CONTINUOUS
 62
256
 10
-348.099998000000030
 20
82.034721000000005
 11
-348.099998000000030
 21
124.878342000000000
  0
LINE
  8
0
  6
CONTINUOUS
 62
256
 10
-339.420518000000020
 20
74.603808999999998
 11
-346.991296999999970
 21
79.904926000000003
  0
POLYLINE
  8
0
  6
CONTINUOUS
 62
256
 66
1
 70
1
  0
VERTEX
  8
0
  6
CONTINUOUS
 62
256
 10
-304.399998000000040
 20
172.205671999999990
  0
VERTEX
  8
0
  6
CONTINUOUS
 62
256
 10
-304.490307182104860
 20
172.908628510558170
  0
VERTEX
  8
0
  6
CONTINUOUS
 62
256
 10
-304.757764197196990
 20
173.584570796638130
  0
VERTEX
  8
0
  6
CONTINUOUS
 62
256
 10
-305.192090822178100
 20
174.207522775258670
  0
VERTEX
  8
0
  6
CONTINUOUS
 62
256
 10
-305.776596128423250
 20
174.753544751236830
  0
VERTEX
  8
0
  6
CONTINUOUS
 62
256
 10
-306.488817904807890
 20
175.201653406248480
  0
VERTEX
  8
0
  6
CONTINUOUS
 62
256
 10
-307.301385867884110
 20
175.534628175983730
  0
VERTEX
  8
0
  6
CONTINUOUS
 62
256
 10
-308.183073486524220
 20
175.739673026776070
  0
VERTEX
  8
0
  6
CONTINUOUS
 62
256
 10
-309.099998000000030
 20
175.808908199999990
  0
VERTEX
  8
0
  6
CONTINUOUS
 62
256
 10
-310.016922513475830
 20
175.739673026776070
  0
VERTEX
  8
0
  6
CONTINUOUS
 62
256
 10
-310.898610132115950
 20
175.534628175983730
  0
VERTEX
  8
0
  6
CONTINUOUS
 62
256
 10
-311.711178095192170
 20
175.201653406248480
  0
VERTEX
  8
0
  6
CONTINUOUS
 62
256
 10
-312.423399871576810
 20
174.753544751236830
  0
VERTEX
  8
0
  6
CONTINUOUS
 62
256
 10
-313.007905177821950
 20
174.207522775258670
  0
VERTEX
  8
0
  6
CONTINUOUS
 62
256
 10
-313.442231802803060
 20
173.584570796638130
  0
VERTEX
  8
0
  6
CONTINUOUS
 62
256
 10
-313.709688817895200
 20
172.908628510558170
  0
VERTEX
  8
0
  6
CONTINUOUS
 62
256
 10
-313.799998000000020
 20
172.205671999999990
  0
VERTEX
  8
0
  6
CONTINUOUS
 62
256
 10
-313.709688817895200
 20
171.502715489441810
  0
VERTEX
  8
0
  6
CONTINUOUS
 62
256
 10
-313.442231802803060
 20
170.826773203361850
  0
VERTEX
  8
0
  6
CONTINUOUS
 62
256
 10
-313.007905177821950
 20
170.203821224741320
  0
VERTEX
  8
0
  6
CONTINUOUS
 62
256
 10
-312.423399871576810
 20
169.657799248763150
  0
VERTEX
  8
0
  6
CONTINUOUS
 62
256
 10
-311.711178095192170
 20
169.209690593751500
  0
VERTEX
  8
0
  6
CONTINUOUS
 62
256
 10
-310.898610132115950
 20
168.876715824016260
  0
VERTEX
  8
0
  6
CONTINUOUS
 62
256
 10
-310.016922513475830
 20
168.671670973223940
  0
VERTEX
  8
0
  6
CONTINUOUS
 62
256
 10
-309.099998000000030
 20
168.602435799999990
  0
VERTEX
  8
0
  6
CONTINUOUS
 62
256
 10
-308.183073486524220
 20
168.671670973223940
  0
VERTEX
  8
0
  6
CONTINUOUS
 62
256
 10
-307.301385867884110
 20
168.876715824016260
  0
VERTEX
  8
0
  6
CONTINUOUS
 62
256
 10
-306.488817904807890
 20
169.209690593751500
  0
VERTEX
  8
0
  6
CONTINUOUS
 62
256
 10
-305.776596128423250
 20
169.657799248763150
  0
VERTEX
  8
0
  6
CONTINUOUS
 62
256
 10
-305.192090822178100
 20
170.203821224741320
  0
VERTEX
  8
0
  6
CONTINUOUS
 62
256
 10
-304.757764197196990
 20
170.826773203361850
  0
VERTEX
  8
0
  6
CONTINUOUS
 62
256
 10
-304.490307182104860
 20
171.502715489441810
  0
SEQEND
  8
0
  6
CONTINUOUS
 62
256
  0
LINE
  8
0
  6
CONTINUOUS
 62
256
 10
-311.099998000000030
 20
175.198048000000000
 11
-309.099998000000030
 21
174.022263000000010
  0
LINE
  8
0
  6
CONTINUOUS
 62
256
 10
-309.099998000000030
 20
174.022263000000010
 11
-307.099998000000030
 21
172.369621000000000
  0
LINE
  8
0
  6
CONTINUOUS
 62
256
 10
-307.099998000000030
 20
175.198048000000000
 11
-309.099998000000030
 21
174.022263000000010
  0
LINE
  8
0
  6
CONTINUOUS
 62
256
 10
-309.099998000000030
 20
174.022263000000010
 11
-311.099998000000030
 21
172.369621000000000
  0
ARC
  8
0
  6
CONTINUOUS
 62
256
 10
-327.604843000000020
 20
158.278342000000010
 40
20.599999999999994
 50
90.000000000000000
 51
125.000000000000010
  0
ARC
  8
0
  6
CONTINUOUS
 62
256
 10
-345.499998000000010
 20
167.721961999999990
 40
2.599999999999996
 50
125.000000000000210
 51
180.000000000000000
  0
LINE
  8
0
  6
CONTINUOUS
 62
256
 10
-348.099998000000030
 20
167.721961999999990
 11
-348.099998000000030
 21
124.878342000000000
  0
LINE
  8
0
  6
CONTINUOUS
 62
256
 10
-339.420518000000020
 20
175.152874000000000
 11
-346.991296999999970
 21
169.851756999999990
  0
LINE
  8
0
  6
CONTINUOUS
 62
256
 10
-298.099998000000030
 20
178.878342000000000
 11
-327.604843000000020
 21
178.878342000000000
  0
LINE
  8
0
  6
CONTINUOUS
 62
256
 10
-214.099998000000000
 20
177.378342000000000
 11
-298.099998000000030
 21
177.378342000000000
  0
LINE
  8
0
  6
CONTINUOUS
 62
256
 10
-298.099998000000030
 20
175.378342000000000
 11
-214.099998000000000
 21
175.378342000000000
  0
LINE
  8
0
  6
CONTINUOUS
 62
256
 10
-298.099998000000030
 20
175.878342000000000
 11
-214.099998000000000
 21
175.878342000000000
  0
LINE
  8
0
  6
CONTINUOUS
 62
256
 10
-298.099998000000030
 20
171.011424000000010
 11
-214.099998000000000
 21
171.011424000000010
  0
LINE
  8
0
  6
CONTINUOUS
 62
256
 10
-298.099998000000030
 20
165.920255000000000
 11
-214.099998000000000
 21
165.920255000000000
  0
LINE
  8
0
  6
CONTINUOUS
 62
256
 10
-298.099998000000030
 20
169.382996999999990
 11
-214.099998000000000
 21
169.382996999999990
  0
LINE
  8
0
  6
CONTINUOUS
 62
256
 10
-298.257599000000030
 20
164.918777000000010
 11
-214.099998000000000
 21
164.918777000000010
  0
LINE
  8
0
  6
CONTINUOUS
 62
256
 10
-298.099998000000030
 20
178.878342000000000
 11
-298.099998000000030
 21
124.878342000000000
  0
LINE
  8
0
  6
CONTINUOUS
 62
256
 10
-298.099998000000030
 20
70.878342000000004
 11
-298.099998000000030
 21
124.878342000000000
  0
LINE
  8
0
  6
CONTINUOUS
 62
256
 10
-298.099998000000030
 20
153.634737000000000
 11
-214.099998000000000
 21
153.634737000000000
  0
LINE
  8
0
  6
CONTINUOUS
 62
256
 10
-298.099998000000030
 20
152.155713999999990
 11
-214.099998000000000
 21
152.155713999999990
  0
LINE
  8
0
  6
CONTINUOUS
 62
256
 10
-298.099998000000030
 20
149.062983000000000
 11
-214.099998000000000
 21
149.062983000000000
  0
LINE
  8
0
  6
CONTINUOUS
 62
256
 10
-298.099998000000030
 20
147.716580999999990
 11
-214.099998000000000
 21
147.716580999999990
  0
LINE
  8
0
  6
CONTINUOUS
 62
256
 10
-298.099998000000030
 20
144.878342000000000
 11
-214.099998000000000
 21
144.878342000000000
  0
LINE
  8
0
  6
CONTINUOUS
 62
256
 10
-298.099998000000030
 20
96.121945999999994
 11
-214.099998000000000
 21
96.121945999999994
  0
LINE
  8
0
  6
CONTINUOUS
 62
256
 10
-298.099998000000030
 20
97.600969000000006
 11
-214.099998000000000
 21
97.600969000000006
  0
LINE
  8
0
  6
CONTINUOUS
 62
256
 10
-298.099998000000030
 20
100.693700000000010
 11
-214.099998000000000
 21
100.693700000000010
  0
LINE
  8
0
  6
CONTINUOUS
 62
256
 10
-298.099998000000030
 20
102.040102000000000
 11
-214.099998000000000
 21
102.040102000000000
  0
LINE
  8
0
  6
CONTINUOUS
 62
256
 10
-298.099998000000030
 20
104.878342000000000
 11
-214.099998000000000
 21
104.878342000000000
  0
LINE
  8
0
  6
CONTINUOUS
 62
256
 10
-298.099998000000030
 20
158.181941999999990
 11
-214.099998000000000
 21
158.181941999999990
  0
LINE
  8
0
  6
CONTINUOUS
 62
256
 10
-298.099998000000030
 20
156.592733000000010
 11
-214.099998000000000
 21
156.592733000000010
  0
LINE
  8
0
  6
CONTINUOUS
 62
256
 10
-298.099998000000030
 20
91.574741000000003
 11
-214.099998000000000
 21
91.574741000000003
  0
LINE
  8
0
  6
CONTINUOUS
 62
256
 10
-298.099998000000030
 20
93.163950000000000
 11
-214.099998000000000
 21
93.163950000000000
  0
LINE
  8
0
  6
CONTINUOUS
 62
256
 10
-107.599998000000000
 20
181.878342000000000
 11
-86.599997999999999
 21
181.878342000000000
  0
ARC
  8
0
  6
CONTINUOUS
 62
256
 10
-107.599998000000000
 20
180.878342000000000
 40
1.000000000000000
 50
90.000000000000000
 51
180.000000000000000
  0
LINE
  8
0
  6
CONTINUOUS
 62
256
 10
-108.599998000000000
 20
177.878342000000000
 11
-108.599998000000000
 21
180.878342000000000
  0
LINE
  8
0
  6
CONTINUOUS
 62
256
 10
-65.599997999999999
 20
181.878342000000000
 11
-86.599997999999999
 21
181.878342000000000
  0
ARC
  8
0
  6
CONTINUOUS
 62
256
 10
-65.599997999999999
 20
180.878342000000000
 40
1.000000000000000
 50
0.000000000000000
 51
90.000000000000000
  0
LINE
  8
0
  6
CONTINUOUS
 62
256
 10
-64.599997999999999
 20
177.878342000000000
 11
-64.599997999999999
 21
180.878342000000000
  0
LINE
  8
0
  6
CONTINUOUS
 62
256
 10
-107.599998000000000
 20
67.878342000000004
 11
-86.599997999999999
 21
67.878342000000004
  0
ARC
  8
0
  6
CONTINUOUS
 62
256
 10
-107.599998000000000
 20
68.878342000000004
 40
1.000000000000000
 50
180.000000000000000
 51
270.000000000000000
  0
LINE
  8
0
  6
CONTINUOUS
 62
256
 10
-108.599998000000000
 20
71.878342000000004
 11
-108.599998000000000
 21
68.878342000000004
  0
LINE
  8
0
  6
CONTINUOUS
 62
256
 10
-65.599997999999999
 20
67.878342000000004
 11
-86.599997999999999
 21
67.878342000000004
  0
ARC
  8
0
  6
CONTINUOUS
 62
256
 10
-65.599997999999999
 20
68.878342000000004
 40
1.000000000000000
 50
270.000000000000000
 51
0.000000000000000
  0
LINE
  8
0
  6
CONTINUOUS
 62
256
 10
-64.599997999999999
 20
71.878342000000004
 11
-64.599997999999999
 21
68.878342000000004
  0
LINE
  8
0
  6
CONTINUOUS
 62
256
 10
-214.099998000000000
 20
124.860885999999990
 11
-214.099998000000000
 21
71.360885999999994
  0
LINE
  8
0
  6
CONTINUOUS
 62
256
 10
-214.099998000000000
 20
124.860885999999990
 11
-214.099998000000000
 21
178.360885999999990
  0
ARC
  8
0
  6
CONTINUOUS
 62
256
 10
-193.099998000000000
 20
167.378342000000000
 40
3.000000000000000
 50
180.000000000000000
 51
270.000000000000000
  0
LINE
  8
0
  6
CONTINUOUS
 62
256
 10
-193.099998000000000
 20
89.878342000000004
 11
-187.792308999999990
 21
89.878342000000004
  0
ARC
  8
0
  6
CONTINUOUS
 62
256
 10
-193.099998000000000
 20
86.878342000000004
 40
3.000000000000000
 50
90.000000000000000
 51
180.000000000000000
  0
ARC
  8
0
  6
CONTINUOUS
 62
256
 10
-199.099998000000000
 20
86.431235000000001
 40
3.000000000000000
 50
270.000000000000000
 51
0.000000000000000
  0
ARC
  8
0
  6
CONTINUOUS
 62
256
 10
-199.099998000000000
 20
83.360885999999994
 40
3.000000000000000
 50
270.000000000000000
 51
0.000000000000000
  0
LINE
  8
0
  6
CONTINUOUS
 62
256
 10
-206.099998000000000
 20
80.360885999999994
 11
-199.099998000000000
 21
80.360885999999994
  0
LINE
  8
0
  6
CONTINUOUS
 62
256
 10
-207.099998000000000
 20
83.431235000000001
 11
-199.099998000000000
 21
83.431235000000001
  0
ARC
  8
0
  6
CONTINUOUS
 62
256
 10
-211.099998000000000
 20
73.308825999999996
 40
1.999999999999998
 50
268.999999999999830
 51
0.000000000000000
  0
LINE
  8
0
  6
CONTINUOUS
 62
256
 10
-209.099998000000000
 20
77.360885999999994
 11
-209.099998000000000
 21
73.308825999999996
  0
ARC
  8
0
  6
CONTINUOUS
 62
256
 10
-206.099998000000000
 20
93.968720000000005
 40
3.000000000000000
 50
180.000000000000000
 51
270.000000000000000
  0
ARC
  8
0
  6
CONTINUOUS
 62
256
 10
-207.099998000000000
 20
85.431235000000001
 40
2.000000000000000
 50
180.000000000000000
 51
270.000000000000000
  0
LINE
  8
0
  6
CONTINUOUS
 62
256
 10
-200.795317000000010
 20
90.968720000000005
 11
-206.099998000000000
 21
90.968720000000005
  0
ARC
  8
0
  6
CONTINUOUS
 62
256
 10
-206.099998000000000
 20
77.360885999999994
 40
3.000000000000000
 50
90.000000000000000
 51
180.000000000000000
  0
LINE
  8
0
  6
CONTINUOUS
 62
256
 10
-209.099998000000000
 20
104.860885999999990
 11
-214.099998000000000
 21
104.860885999999990
  0
LINE
  8
0
  6
CONTINUOUS
 62
256
 10
-209.099998000000000
 20
124.860885999999990
 11
-209.099998000000000
 21
85.431235000000001
  0
LINE
  8
0
  6
CONTINUOUS
 62
256
 10
-196.099998000000000
 20
175.639713000000000
 11
-196.099998000000000
 21
74.082059999999998
  0
ARC
  8
0
  6
CONTINUOUS
 62
256
 10
-199.099998000000000
 20
163.290538000000000
 40
3.000000000000000
 50
0.000000000000000
 51
90.000000000000000
  0
ARC
  8
0
  6
CONTINUOUS
 62
256
 10
-199.099998000000000
 20
166.360885999999990
 40
3.000000000000000
 50
0.000000000000000
 51
90.000000000000000
  0
LINE
  8
0
  6
CONTINUOUS
 62
256
 10
-207.099998000000000
 20
166.290538000000000
 11
-199.099998000000000
 21
166.290538000000000
  0
LINE
  8
0
  6
CONTINUOUS
 62
256
 10
-206.099998000000000
 20
169.360885999999990
 11
-199.099998000000000
 21
169.360885999999990
  0
LINE
  8
0
  6
CONTINUOUS
 62
256
 10
-201.034987000000000
 20
158.753052000000000
 11
-206.099998000000000
 21
158.753052000000000
  0
ARC
  8
0
  6
CONTINUOUS
 62
256
 10
-206.099998000000000
 20
155.753052000000000
 40
3.000000000000000
 50
90.000000000000000
 51
180.000000000000000
  0
ARC
  8
0
  6
CONTINUOUS
 62
256
 10
-207.099998000000000
 20
164.290538000000000
 40
2.000000000000000
 50
90.000000000000000
 51
180.000000000000000
  0
LINE
  8
0
  6
CONTINUOUS
 62
256
 10
-209.099998000000000
 20
124.860885999999990
 11
-209.099998000000000
 21
164.290538000000000
  0
ARC
  8
0
  6
CONTINUOUS
 62
256
 10
-206.099998000000000
 20
172.360885999999990
 40
3.000000000000000
 50
180.000000000000000
 51
270.000000000000000
  0
ARC
  8
0
  6
CONTINUOUS
 62
256
 10
-211.099998000000000
 20
176.412947000000000
 40
2.000000000000000
 50
0.000000000000000
 51
91.000000000000156
  0
LINE
  8
0
  6
CONTINUOUS
 62
256
 10
-209.099998000000000
 20
172.360885999999990
 11
-209.099998000000000
 21
176.412947000000000
  0
LINE
  8
0
  6
CONTINUOUS
 62
256
 10
-185.809459000000000
 20
87.878342000000004
 11
-185.599998000000000
 21
75.878342000000004
  0
LINE
  8
0
  6
CONTINUOUS
 62
256
 10
-25.809459000000000
 20
87.878342000000004
 11
-27.153499000000000
 21
163.878342000000000
  0
LINE
  8
0
  6
CONTINUOUS
 62
256
 10
-26.045102000000000
 20
75.878342000000004
 11
-25.835642000000000
 21
87.878342000000004
  0
LINE
  8
0
  6
CONTINUOUS
 62
256
 10
-27.153499000000000
 20
163.878342000000000
 11
-27.153499000000000
 21
173.878342000000000
  0
LINE
  8
0
  6
CONTINUOUS
 62
256
 10
-184.456692000000000
 20
163.878342000000000
 11
-184.456692000000000
 21
173.878342000000000
  0
LINE
  8
0
  6
CONTINUOUS
 62
256
 10
-185.800732000000010
 20
87.878342000000004
 11
-184.456692000000000
 21
163.878342000000000
  0
LINE
  8
0
  6
CONTINUOUS
 62
256
 10
-184.456692000000000
 20
173.878342000000000
 11
-141.192529000000010
 21
173.878342000000000
  0
LINE
  8
0
  6
CONTINUOUS
 62
256
 10
-44.099997999999999
 20
71.878342000000004
 11
-129.099998000000000
 21
71.878342000000004
  0
LINE
  8
0
  6
CONTINUOUS
 62
256
 10
-185.599998000000000
 20
75.878342000000004
 11
-141.192529000000010
 21
75.878342000000004
  0
LINE
  8
0
  6
CONTINUOUS
 62
256
 10
-141.192529000000010
 20
173.878342000000000
 11
-27.153499000000000
 21
173.878342000000000
  0
LINE
  8
0
  6
CONTINUOUS
 62
256
 10
-141.192529000000010
 20
75.878342000000004
 11
-26.045102000000000
 21
75.878342000000004
  0
LINE
  8
0
  6
CONTINUOUS
 62
256
 10
-129.099998000000000
 20
71.878342000000004
 11
-129.099998000000000
 21
75.878342000000004
  0
LINE
  8
0
  6
CONTINUOUS
 62
256
 10
-25.809459000000000
 20
87.878342000000004
 11
-185.800732000000010
 21
87.878342000000004
  0
LINE
  8
0
  6
CONTINUOUS
 62
256
 10
-44.099997999999999
 20
173.878342000000000
 11
-44.099997999999999
 21
177.878342000000000
  0
LINE
  8
0
  6
CONTINUOUS
 62
256
 10
-44.099997999999999
 20
71.878342000000004
 11
-44.099997999999999
 21
75.878342000000004
  0
LINE
  8
0
  6
CONTINUOUS
 62
256
 10
-129.099998000000000
 20
173.878342000000000
 11
-129.099998000000000
 21
177.878342000000000
  0
LINE
  8
0
  6
CONTINUOUS
 62
256
 10
-129.099998000000000
 20
177.878342000000000
 11
-44.099997999999999
 21
177.878342000000000
  0
ARC
  8
0
  6
CONTINUOUS
 62
256
 10
-187.792308999999990
 20
87.878342000000004
 40
1.999999999999998
 50
358.999999999999830
 51
90.000000000000000
  0
ARC
  8
0
  6
CONTINUOUS
 62
256
 10
-186.456692000000000
 20
166.378342000000000
 40
2.000000000000000
 50
270.000000000000000
 51
0.000000000000000
  0
ARC
  8
0
  6
CONTINUOUS
 62
256
 10
-199.099998000000000
 20
175.639713000000000
 40
3.000000000000000
 50
0.000000000000000
 51
91.000000000000142
  0
ARC
  8
0
  6
CONTINUOUS
 62
256
 10
-199.099998000000000
 20
74.082059999999998
 40
2.999999999999997
 50
268.999999999999830
 51
0.000000000000000
  0
LINE
  8
0
  6
CONTINUOUS
 62
256
 10
-186.456692000000000
 20
164.378342000000000
 11
-193.099998000000000
 21
164.378342000000000
  0
LINE
  8
0
  6
CONTINUOUS
 62
256
 10
-214.099998000000000
 20
71.343429000000000
 11
-199.152356000000000
 21
71.082516999999996
  0
LINE
  8
0
  6
CONTINUOUS
 62
256
 10
-214.099998000000000
 20
178.378344000000000
 11
-199.152356000000000
 21
178.639255999999990
  0
LINE
  8
0
  6
CONTINUOUS
 62
256
 10
96.502295000000004
 20
-68.227267999999995
 11
115.002295000000000
 21
-68.227267999999995
  0
LINE
  8
0
  6
CONTINUOUS
 62
256
 10
115.002295000000000
 20
-67.327268000000004
 11
115.002295000000000
 21
-68.227267999999995
  0
LINE
  8
0
  6
CONTINUOUS
 62
256
 10
115.002295000000000
 20
-67.327268000000004
 11
132.501758000000000
 21
-67.327268000000004
  0
LINE
  8
0
  6
CONTINUOUS
 62
256
 10
96.502295000000004
 20
-68.227267999999995
 11
96.502295000000004
 21
-69.827327999999994
  0
LINE
  8
0
  6
CONTINUOUS
 62
256
 10
132.501741000000010
 20
-69.827326999999997
 11
132.501745000000000
 21
-67.327268000000004
  0
LINE
  8
0
  6
CONTINUOUS
 62
256
 10
-209.099998000000000
 20
144.895796999999990
 11
-214.099998000000000
 21
144.895796999999990
  0
ENDSEC
  0
EOF
