  0
SECTION
  2
HEADER
  9
$TEXTSIZE
 40
2.5
  9
$ACADVER
  1
AC1009
  9
$DIMASZ
 40
3.863703297614046
  9
$DIMEXE
 40
2.000000000000000
  9
$DIMEXO
 40
1.000000000000000
  9
$DIMLFAC
 40
1.000000000000000
  9
$DIMSCALE
 40
1.000000000000000
  9
$DIMTAD
 70
1
  9
$DIMTFAC
 40
0.625000000000000
  9
$DIMTXT
 40
3.200000047683716
  9
$LUPREC
 70
3
  9
$REGENMODE
 70
1
  9
$TEXTSTYLE
  7
STANDARD1
  0
ENDSEC
  0
SECTION
  2
TABLES
  0
TABLE
  2
LTYPE
 70
4
  0
LTYPE
  2
CONTINUOUS
 70
64
  3
Solid line
 72
65
 73
0
 40
0.0
  0
LTYPE
  2
DASHED
 70
64
  3
-- -- -- -- -- -- -- -- -- -- -- -- -- -- --
 72
65
 73
2
 40
0.75
 49
0.5
 49
-0.25
  0
LTYPE
  2
DASHDOT
 70
64
  3
__ . __ . __ . __ . __ . __ . __ . __ . __ . __
 72
65
 73
4
 40
1.0
 49
0.5
 49
-0.25
 49
0.0
 49
-0.25
  0
LTYPE
  2
DIVIDE
 70
64
  3
__ . . __ . . __ . . __ . . __ . . __ . . __
 72
65
 73
6
 40
1.25
 49
0.5
 49
-0.25
 49
0.0
 49
-0.25
 49
0.0
 49
-0.25
  0
ENDTAB
  0
TABLE
  2
LAYER
 70
2
  0
LAYER
  2
0
 70
64
 62
53
  6
CONTINUOUS
  0
LAYER
  2
1
 70
64
 62
102
  6
CONTINUOUS
  0
ENDTAB
  0
TABLE
  2
STYLE
 70
4
  0
STYLE
  2
STANDARD1
 70
64
 40
0.0
 41
1.0
 50
0.0
 71
0
 42
3.200000047683716
  3
MONOTXT
  4
BIGFONT
  0
STYLE
  2
STANDARD2
 70
68
 40
0.0
 41
1.0
 50
0.0
 71
0
 42
3.200000047683716
  3
MONOTXT
  4
BIGFONT
  0
STYLE
  2
STANDARD3
 70
64
 40
0.0
 41
1.0
 50
0.0
 71
0
 42
3.200000047683716
  3
MONOTXT
  4

  0
STYLE
  2
STANDARD4
 70
68
 40
0.0
 41
1.0
 50
0.0
 71
0
 42
3.200000047683716
  3
MONOTXT
  4

  0
ENDTAB
  0
TABLE
  2
VIEW
 70
0
  0
ENDTAB
  0
ENDSEC
  0
SECTION
  2
BLOCKS
  0
BLOCK
  8
0
  2
ZU_SYM_1
 70
64
 10
0.000000000000000
 20
0.000000000000000
  0
CIRCLE
  8
0
  6
CONTINUOUS
 62
256
 10
0.000000000000000
 20
0.000000000000000
 40
5.000000000000000
  0
POINT
  8
0
  6
CONTINUOUS
 62
256
 10
0.000000000000000
 20
0.000000000000000
  0
LINE
  8
0
  6
CONTINUOUS
 62
256
 10
-2.499998000000000
 20
-1.443372000000000
 11
-2.499999000000000
 21
1.443378000000000
  0
LINE
  8
0
  6
CONTINUOUS
 62
256
 10
2.499998000000000
 20
1.443372000000000
 11
2.499999000000000
 21
-1.443374000000000
  0
LINE
  8
0
  6
CONTINUOUS
 62
256
 10
0.000005000000000
 20
2.886749000000000
 11
2.499999000000000
 21
1.443372000000000
  0
LINE
  8
0
  6
CONTINUOUS
 62
256
 10
-0.000006000000000
 20
-2.886747000000000
 11
-2.499998000000000
 21
-1.443372000000000
  0
LINE
  8
0
  6
CONTINUOUS
 62
256
 10
0.000005000000000
 20
2.886748000000000
 11
-2.500000000000000
 21
1.443377000000000
  0
LINE
  8
0
  6
CONTINUOUS
 62
256
 10
2.499999000000000
 20
-1.443374000000000
 11
-0.000005000000000
 21
-2.886748000000000
  0
ENDBLK
  8
0
  0
BLOCK
  8
0
  2
ZU_SYM_2
 70
64
 10
0.000000000000000
 20
0.000000000000000
  0
CIRCLE
  8
0
  6
CONTINUOUS
 62
256
 10
0.000000000000000
 20
0.000000000000000
 40
5.000000000000000
  0
POINT
  8
0
  6
CONTINUOUS
 62
256
 10
0.000000000000000
 20
0.000000000000000
  0
LINE
  8
0
  6
CONTINUOUS
 62
256
 10
-2.499998000000000
 20
-1.443372000000000
 11
-2.499999000000000
 21
1.443378000000000
  0
LINE
  8
0
  6
CONTINUOUS
 62
256
 10
2.499998000000000
 20
1.443372000000000
 11
2.499999000000000
 21
-1.443374000000000
  0
LINE
  8
0
  6
CONTINUOUS
 62
256
 10
0.000005000000000
 20
2.886749000000000
 11
2.499999000000000
 21
1.443372000000000
  0
LINE
  8
0
  6
CONTINUOUS
 62
256
 10
-0.000006000000000
 20
-2.886747000000000
 11
-2.499998000000000
 21
-1.443372000000000
  0
LINE
  8
0
  6
CONTINUOUS
 62
256
 10
0.000005000000000
 20
2.886748000000000
 11
-2.500000000000000
 21
1.443377000000000
  0
LINE
  8
0
  6
CONTINUOUS
 62
256
 10
2.499999000000000
 20
-1.443374000000000
 11
-0.000005000000000
 21
-2.886748000000000
  0
ENDBLK
  8
0
  0
BLOCK
  8
0
  2
ZU_SYM_3
 70
64
 10
0.000000000000000
 20
0.000000000000000
  0
CIRCLE
  8
0
  6
CONTINUOUS
 62
256
 10
0.000000000000000
 20
0.000000000000000
 40
5.000000000000000
  0
POINT
  8
0
  6
CONTINUOUS
 62
256
 10
0.000000000000000
 20
0.000000000000000
  0
LINE
  8
0
  6
CONTINUOUS
 62
256
 10
-2.499998000000000
 20
-1.443372000000000
 11
-2.499999000000000
 21
1.443378000000000
  0
LINE
  8
0
  6
CONTINUOUS
 62
256
 10
2.499998000000000
 20
1.443372000000000
 11
2.499999000000000
 21
-1.443374000000000
  0
LINE
  8
0
  6
CONTINUOUS
 62
256
 10
0.000005000000000
 20
2.886749000000000
 11
2.499999000000000
 21
1.443372000000000
  0
LINE
  8
0
  6
CONTINUOUS
 62
256
 10
-0.000006000000000
 20
-2.886747000000000
 11
-2.499998000000000
 21
-1.443372000000000
  0
LINE
  8
0
  6
CONTINUOUS
 62
256
 10
0.000005000000000
 20
2.886748000000000
 11
-2.500000000000000
 21
1.443377000000000
  0
LINE
  8
0
  6
CONTINUOUS
 62
256
 10
2.499999000000000
 20
-1.443374000000000
 11
-0.000005000000000
 21
-2.886748000000000
  0
ENDBLK
  8
0
  0
BLOCK
  8
0
  2
ZU_SYM_4
 70
64
 10
0.000000000000000
 20
0.000000000000000
  0
CIRCLE
  8
0
  6
CONTINUOUS
 62
256
 10
0.000000000000000
 20
0.000000000000000
 40
5.000000000000000
  0
POINT
  8
0
  6
CONTINUOUS
 62
256
 10
0.000000000000000
 20
0.000000000000000
  0
LINE
  8
0
  6
CONTINUOUS
 62
256
 10
-2.499998000000000
 20
-1.443372000000000
 11
-2.499999000000000
 21
1.443378000000000
  0
LINE
  8
0
  6
CONTINUOUS
 62
256
 10
2.499998000000000
 20
1.443372000000000
 11
2.499999000000000
 21
-1.443374000000000
  0
LINE
  8
0
  6
CONTINUOUS
 62
256
 10
0.000005000000000
 20
2.886749000000000
 11
2.499999000000000
 21
1.443372000000000
  0
LINE
  8
0
  6
CONTINUOUS
 62
256
 10
-0.000006000000000
 20
-2.886747000000000
 11
-2.499998000000000
 21
-1.443372000000000
  0
LINE
  8
0
  6
CONTINUOUS
 62
256
 10
0.000005000000000
 20
2.886748000000000
 11
-2.500000000000000
 21
1.443377000000000
  0
LINE
  8
0
  6
CONTINUOUS
 62
256
 10
2.499999000000000
 20
-1.443374000000000
 11
-0.000005000000000
 21
-2.886748000000000
  0
ENDBLK
  8
0
  0
ENDSEC
  0
SECTION
  2
ENTITIES
  0
TEXT
  8
0
  6
CONTINUOUS
 62
256
 10
-70.375488281250000
 20
-13.156250000000000
 40
2.799999952316284
  1
ü@
 50
0.000002504478167
 41
0.996000017370497
  7
STANDARD1
  0
TEXT
  8
0
  6
CONTINUOUS
 62
256
 10
1.624511957168579
 20
-253.406250000000000
 40
2.799999952316284
  1
ü@
 50
0.000002504478167
 41
0.996000017370497
  7
STANDARD1
  0
ARC
  8
0
  6
CONTINUOUS
 62
256
 10
162.154907000000010
 20
-72.278244000000001
 40
0.199999999999996
 50
9.594067999999961
 51
90.000000000000000
  0
LINE
  8
0
  6
CONTINUOUS
 62
256
 10
147.754908000000000
 20
-72.078243999999998
 11
162.154907000000010
 21
-72.078243999999998
  0
LINE
  8
0
  6
CONTINUOUS
 62
256
 10
162.746514999999990
 20
-72.578243999999998
 11
178.355178000000000
 21
-72.578243999999998
  0
ARC
  8
0
  6
CONTINUOUS
 62
256
 10
162.746514999999990
 20
-72.178244000000007
 40
0.399999999999991
 50
189.594067999999960
 51
270.000000000000000
  0
LINE
  8
0
  6
CONTINUOUS
 62
256
 10
158.355178000000000
 20
-78.328303000000005
 11
156.355178000000000
 21
-78.328303000000005
  0
LINE
  8
0
  6
DASHDOT
 62
256
 10
181.920715000000000
 20
-94.578303000000005
 11
60.452900999999997
 21
-94.578303000000005
  0
LINE
  8
0
  6
CONTINUOUS
 62
256
 10
156.355178000000000
 20
-110.828303000000010
 11
156.355178000000000
 21
-94.578243999999998
  0
LINE
  8
0
  6
CONTINUOUS
 62
256
 10
156.355178000000000
 20
-78.328303000000005
 11
156.355178000000000
 21
-94.578243999999998
  0
LINE
  8
0
  6
CONTINUOUS
 62
256
 10
176.355178000000000
 20
-79.578243999999998
 11
158.355178000000000
 21
-79.578243999999998
  0
LINE
  8
0
  6
CONTINUOUS
 62
256
 10
156.355178000000000
 20
-79.578243999999998
 11
132.355178000000000
 21
-79.578243999999998
  0
LINE
  8
0
  6
CONTINUOUS
 62
256
 10
158.355178000000000
 20
-78.328303000000005
 11
158.355178000000000
 21
-110.828303000000010
  0
ARC
  8
0
  6
CONTINUOUS
 62
256
 10
176.355178000000000
 20
-111.578244000000000
 40
2.000000000000000
 50
0.000000000000000
 51
90.000000000000000
  0
LINE
  8
0
  6
CONTINUOUS
 62
256
 10
178.355178000000000
 20
-116.178244000000010
 11
178.355178000000000
 21
-72.578243999999998
  0
ARC
  8
0
  6
CONTINUOUS
 62
256
 10
177.955177999999990
 20
-116.178244000000010
 40
0.400000000000006
 50
270.000000000000000
 51
0.000000000000000
  0
LINE
  8
0
  6
CONTINUOUS
 62
256
 10
162.746514999999990
 20
-116.578244000000000
 11
177.955177999999990
 21
-116.578244000000000
  0
ARC
  8
0
  6
CONTINUOUS
 62
256
 10
162.154907000000010
 20
-116.878244000000000
 40
0.200000000000003
 50
270.000000000000000
 51
350.405932000000010
  0
ARC
  8
0
  6
CONTINUOUS
 62
256
 10
162.746514999999990
 20
-116.978244000000000
 40
0.400000000000006
 50
90.000000000000000
 51
170.405932000000040
  0
LINE
  8
0
  6
CONTINUOUS
 62
256
 10
156.355178000000000
 20
-109.578244000000000
 11
132.355178000000000
 21
-109.578244000000000
  0
LINE
  8
0
  6
CONTINUOUS
 62
256
 10
176.355178000000000
 20
-109.578244000000000
 11
158.355178000000000
 21
-109.578244000000000
  0
LINE
  8
0
  6
CONTINUOUS
 62
256
 10
158.355178000000000
 20
-110.828303000000010
 11
156.355178000000000
 21
-110.828303000000010
  0
LINE
  8
0
  6
CONTINUOUS
 62
256
 10
147.754908000000000
 20
-117.078244000000000
 11
162.154907000000010
 21
-117.078244000000000
  0
LINE
  8
0
  6
CONTINUOUS
 62
256
 10
129.855460999999990
 20
-119.978303000000000
 11
129.855460999999990
 21
-119.078303000000010
  0
LINE
  8
0
  6
CONTINUOUS
 62
256
 10
111.355461000000010
 20
-119.078303000000010
 11
129.855460999999990
 21
-119.078303000000010
  0
LINE
  8
0
  6
CONTINUOUS
 62
256
 10
129.855460999999990
 20
-119.978303000000000
 11
147.354925000000010
 21
-119.978303000000000
  0
ARC
  8
0
  6
CONTINUOUS
 62
256
 10
147.754908000000000
 20
-117.478244000000000
 40
0.400000000000006
 50
90.000000000000000
 51
180.000072999999450
  0
LINE
  8
0
  6
CONTINUOUS
 62
256
 10
147.354907999999990
 20
-117.478244000000000
 11
147.354910999999990
 21
-119.978303000000000
  0
LINE
  8
0
  6
CONTINUOUS
 62
256
 10
132.355178000000000
 20
-109.878244000000000
 11
132.355178000000000
 21
-94.578243999999998
  0
LINE
  8
0
  6
CONTINUOUS
 62
256
 10
110.355178000000000
 20
-109.778244000000000
 11
132.355178000000000
 21
-109.778244000000000
  0
LINE
  8
0
  6
CONTINUOUS
 62
256
 10
132.355178000000000
 20
-79.278244000000001
 11
132.355178000000000
 21
-94.578243999999998
  0
ARC
  8
0
  6
CONTINUOUS
 62
256
 10
147.754908000000000
 20
-71.678303000000000
 40
0.399999999999989
 50
179.999927000000550
 51
270.000000000000000
  0
ARC
  8
0
  6
CONTINUOUS
 62
256
 10
147.754908000000000
 20
-71.678244000000007
 40
0.399999999999989
 50
179.999927000000550
 51
270.000000000000000
  0
LINE
  8
0
  6
CONTINUOUS
 62
256
 10
147.354907999999990
 20
-71.678242999999995
 11
147.354910999999990
 21
-69.578303000000005
  0
LINE
  8
0
  6
CONTINUOUS
 62
256
 10
110.355178000000000
 20
-79.378243999999995
 11
132.355178000000000
 21
-79.378243999999995
  0
LINE
  8
0
  6
CONTINUOUS
 62
256
 10
64.355177999999995
 20
-76.278302999999994
 11
178.355178000000000
 21
-76.278302999999994
  0
ARC
  8
0
  6
CONTINUOUS
 62
256
 10
110.955461000000000
 20
-71.678244000000007
 40
0.400000000000006
 50
270.000000000000000
 51
0.000000000000000
  0
LINE
  8
0
  6
CONTINUOUS
 62
256
 10
110.355178000000000
 20
-79.378243999999995
 11
110.355178000000000
 21
-94.578243999999998
  0
LINE
  8
0
  6
CONTINUOUS
 62
256
 10
110.355178000000000
 20
-79.578243999999998
 11
86.355177999999995
 21
-79.578243999999998
  0
LINE
  8
0
  6
CONTINUOUS
 62
256
 10
80.547055999999998
 20
-72.078243999999998
 11
110.955461000000000
 21
-72.078243999999998
  0
LINE
  8
0
  6
CONTINUOUS
 62
256
 10
110.355178000000000
 20
-109.878244000000000
 11
110.355178000000000
 21
-94.578243999999998
  0
ARC
  8
0
  6
CONTINUOUS
 62
256
 10
110.955461000000000
 20
-117.478244000000000
 40
0.400000000000006
 50
0.000000000000000
 51
90.000000000000000
  0
LINE
  8
0
  6
CONTINUOUS
 62
256
 10
111.355461000000010
 20
-119.078303000000010
 11
111.355461000000010
 21
-117.478244000000000
  0
LINE
  8
0
  6
CONTINUOUS
 62
256
 10
86.355177999999995
 20
-110.828303000000010
 11
86.355177999999995
 21
-94.578243999999998
  0
LINE
  8
0
  6
CONTINUOUS
 62
256
 10
110.355178000000000
 20
-109.578244000000000
 11
86.355177999999995
 21
-109.578244000000000
  0
LINE
  8
0
  6
CONTINUOUS
 62
256
 10
79.955448000000004
 20
-116.578244000000000
 11
64.755178000000001
 21
-116.578244000000000
  0
LINE
  8
0
  6
CONTINUOUS
 62
256
 10
84.355177999999995
 20
-109.578244000000000
 11
66.355177999999995
 21
-109.578244000000000
  0
ARC
  8
0
  6
CONTINUOUS
 62
256
 10
79.955448000000004
 20
-116.978244000000000
 40
0.400000000000005
 50
9.594067999999622
 51
90.000000000000000
  0
ARC
  8
0
  6
CONTINUOUS
 62
256
 10
80.547055999999998
 20
-116.878244000000000
 40
0.199999999999996
 50
189.594067999999960
 51
270.000000000000000
  0
LINE
  8
0
  6
CONTINUOUS
 62
256
 10
80.547055999999998
 20
-117.078244000000000
 11
110.955461000000000
 21
-117.078244000000000
  0
LINE
  8
0
  6
CONTINUOUS
 62
256
 10
93.855503999999996
 20
-117.078245000000000
 11
80.855503999999996
 21
-117.078261000000000
  0
LINE
  8
0
  6
CONTINUOUS
 62
256
 10
86.355177999999995
 20
-110.828303000000010
 11
84.355177999999995
 21
-110.828303000000010
  0
LINE
  8
0
  6
CONTINUOUS
 62
256
 10
84.355177999999995
 20
-78.328303000000005
 11
84.355177999999995
 21
-110.828303000000010
  0
ARC
  8
0
  6
CONTINUOUS
 62
256
 10
80.547055999999998
 20
-72.278244000000001
 40
0.200000000000003
 50
90.000000000000000
 51
170.405932000000040
  0
LINE
  8
0
  6
CONTINUOUS
 62
256
 10
93.855450000000005
 20
-72.078260999999998
 11
80.855450000000005
 21
-72.078276000000002
  0
ARC
  8
0
  6
CONTINUOUS
 62
256
 10
66.355177999999995
 20
-77.578243999999998
 40
2.000000000000000
 50
180.000000000000000
 51
270.000000000000000
  0
ARC
  8
0
  6
CONTINUOUS
 62
256
 10
64.755178000000001
 20
-72.978244000000004
 40
0.400000000000006
 50
90.000000000000000
 51
180.000000000000000
  0
LINE
  8
0
  6
CONTINUOUS
 62
256
 10
79.955448000000004
 20
-72.578243999999998
 11
64.755178000000001
 21
-72.578243999999998
  0
ARC
  8
0
  6
CONTINUOUS
 62
256
 10
79.955448000000004
 20
-72.178244000000007
 40
0.400000000000006
 50
270.000000000000000
 51
350.405932000000400
  0
LINE
  8
0
  6
CONTINUOUS
 62
256
 10
84.355177999999995
 20
-79.578243999999998
 11
66.355177999999995
 21
-79.578243999999998
  0
LINE
  8
0
  6
CONTINUOUS
 62
256
 10
86.355177999999995
 20
-78.328303000000005
 11
86.355177999999995
 21
-94.578243999999998
  0
LINE
  8
0
  6
CONTINUOUS
 62
256
 10
86.355177999999995
 20
-78.328303000000005
 11
84.355177999999995
 21
-78.328303000000005
  0
LINE
  8
0
  6
CONTINUOUS
 62
256
 10
64.355177999999995
 20
-116.178244000000010
 11
64.355177999999995
 21
-72.978244000000004
  0
ARC
  8
0
  6
CONTINUOUS
 62
256
 10
64.755178000000001
 20
-116.178244000000010
 40
0.400000000000006
 50
180.000000000000000
 51
270.000000000000000
  0
ARC
  8
0
  6
CONTINUOUS
 62
256
 10
66.355177999999995
 20
-111.578244000000000
 40
2.000000000000000
 50
90.000000000000000
 51
180.000000000000000
  0
LINE
  8
0
  6
CONTINUOUS
 62
256
 10
471.936999000000010
 20
-97.578303000000005
 11
470.436999000000010
 21
-97.578303000000005
  0
LINE
  8
0
  6
CONTINUOUS
 62
256
 10
354.936999000000010
 20
-97.578303000000005
 11
356.461999999999990
 21
-97.578303000000005
  0
LINE
  8
0
  6
CONTINUOUS
 62
256
 10
354.436999000000010
 20
-117.578303000000010
 11
354.436999000000010
 21
-98.078303000000005
  0
LINE
  8
0
  6
CONTINUOUS
 62
256
 10
472.436999000000010
 20
-117.578303000000010
 11
472.436999000000010
 21
-98.078303000000005
  0
LINE
  8
0
  6
CONTINUOUS
 62
256
 10
470.436999000000010
 20
-73.578303000000005
 11
470.436999000000010
 21
-94.578303000000005
  0
LINE
  8
0
  6
CONTINUOUS
 62
256
 10
466.436999000000010
 20
-72.578303000000005
 11
469.436999000000010
 21
-72.578303000000005
  0
LINE
  8
0
  6
CONTINUOUS
 62
256
 10
470.436999000000010
 20
-115.578303000000010
 11
470.436999000000010
 21
-94.578303000000005
  0
LINE
  8
0
  6
CONTINUOUS
 62
256
 10
356.436999000000010
 20
-73.578303000000005
 11
356.436999000000010
 21
-94.578303000000005
  0
LINE
  8
0
  6
CONTINUOUS
 62
256
 10
360.436999000000010
 20
-72.578303000000005
 11
357.436999000000010
 21
-72.578303000000005
  0
LINE
  8
0
  6
CONTINUOUS
 62
256
 10
356.436999000000010
 20
-115.578303000000010
 11
356.436999000000010
 21
-94.578303000000005
  0
LINE
  8
0
  6
CONTINUOUS
 62
256
 10
452.436999000000010
 20
-34.913615000000000
 11
462.436999000000010
 21
-34.913615000000000
  0
LINE
  8
0
  6
CONTINUOUS
 62
256
 10
462.436999000000010
 20
-52.078302999999998
 11
466.436999000000010
 21
-52.078302999999998
  0
LINE
  8
0
  6
CONTINUOUS
 62
256
 10
466.436999000000010
 20
-117.578303000000010
 11
466.436999000000010
 21
-52.078302999999998
  0
LINE
  8
0
  6
CONTINUOUS
 62
256
 10
462.436999000000010
 20
-163.441453999999990
 11
462.436999000000010
 21
-34.913615000000000
  0
LINE
  8
0
  6
CONTINUOUS
 62
256
 10
376.436999000000010
 20
-33.569575000000000
 11
376.436999000000010
 21
-117.578303000000010
  0
LINE
  8
0
  6
CONTINUOUS
 62
256
 10
376.436999000000010
 20
-33.569575000000000
 11
452.436999000000010
 21
-34.913615000000000
  0
LINE
  8
0
  6
CONTINUOUS
 62
256
 10
364.436999000000010
 20
-33.787764000000003
 11
376.436999000000010
 21
-33.578302999999998
  0
LINE
  8
0
  6
CONTINUOUS
 62
256
 10
360.436999000000010
 20
-52.078302999999998
 11
364.436999000000010
 21
-52.078302999999998
  0
LINE
  8
0
  6
CONTINUOUS
 62
256
 10
360.436999000000010
 20
-52.078302999999998
 11
360.436999000000010
 21
-117.578303000000010
  0
LINE
  8
0
  6
CONTINUOUS
 62
256
 10
364.436999000000010
 20
-163.441453999999990
 11
364.436999000000010
 21
-33.787764000000003
  0
LINE
  8
0
  6
DASHDOT
 62
256
 10
477.270391000000020
 20
-94.578303000000005
 11
349.692578000000030
 21
-94.578303000000005
  0
LINE
  8
0
  6
DASHDOT
 62
256
 10
463.883083000000000
 20
-46.578302999999998
 11
362.799869000000000
 21
-46.578302999999998
  0
LINE
  8
0
  6
DASHDOT
 62
256
 10
413.436999000000010
 20
-25.212090000000000
 11
413.436999000000010
 21
-213.747218000000000
  0
LINE
  8
0
  6
CONTINUOUS
 62
256
 10
468.200517999999990
 20
-68.962811000000002
 11
466.436999000000010
 21
-67.199292000000000
  0
LINE
  8
0
  6
CONTINUOUS
 62
256
 10
358.673479999999980
 20
-68.962811000000002
 11
360.436999000000010
 21
-67.199292000000000
  0
LINE
  8
0
  6
CONTINUOUS
 62
256
 10
356.788261999999970
 20
-72.817290000000000
 11
356.814542000000020
 21
-72.643114999999995
  0
LINE
  8
0
  6
CONTINUOUS
 62
256
 10
470.084916000000020
 20
-72.816592000000000
 11
470.059456000000010
 21
-72.643114999999995
  0
ARC
  8
0
  6
CONTINUOUS
 62
256
 10
654.036999000000040
 20
-117.578303000000010
 40
300.600000000000020
 50
180.000000000000000
 51
188.597082000000000
  0
ARC
  8
0
  6
CONTINUOUS
 62
256
 10
363.340385000000030
 20
-161.526890000000010
 40
6.600000000000022
 50
188.597082000000030
 51
224.999999999999830
  0
LINE
  8
0
  6
CONTINUOUS
 62
256
 10
358.673479999999980
 20
-166.193794999999990
 11
364.436999000000010
 21
-171.957314000000000
  0
LINE
  8
0
  6
CONTINUOUS
 62
256
 10
383.436999000000010
 20
-204.517072000000010
 11
383.436999000000010
 21
-181.463236999999990
  0
LINE
  8
0
  6
CONTINUOUS
 62
256
 10
410.936999000000010
 20
-211.078303000000010
 11
415.936999000000010
 21
-211.078303000000010
  0
LINE
  8
0
  6
CONTINUOUS
 62
256
 10
410.936999000000010
 20
-211.078303000000010
 11
410.936999000000010
 21
-210.567885999999990
  0
LINE
  8
0
  6
CONTINUOUS
 62
256
 10
415.936999000000010
 20
-211.078303000000010
 11
415.936999000000010
 21
-210.567885999999990
  0
ARC
  8
0
  6
CONTINUOUS
 62
256
 10
413.436999000000010
 20
89.421696999999995
 40
300.000000000000000
 50
270.000000000000000
 51
274.861404999999990
  0
ARC
  8
0
  6
CONTINUOUS
 62
256
 10
388.436999000000010
 20
-204.517072000000010
 40
5.000000000000000
 50
180.000000000000000
 51
265.138594999999900
  0
ARC
  8
0
  6
CONTINUOUS
 62
256
 10
413.436999000000010
 20
89.421696999999995
 40
300.000000000000000
 50
265.138595000000010
 51
270.000000000000000
  0
LINE
  8
0
  6
CONTINUOUS
 62
256
 10
443.429498000000020
 20
-181.078303000000010
 11
444.936999000000010
 21
-181.078303000000010
  0
LINE
  8
0
  6
CONTINUOUS
 62
256
 10
443.436999000000010
 20
-204.517072000000010
 11
443.436999000000010
 21
-181.077551000000000
  0
LINE
  8
0
  6
CONTINUOUS
 62
256
 10
444.936999000000010
 20
-180.923297999999990
 11
444.936999000000010
 21
-181.078303000000010
  0
ARC
  8
0
  6
CONTINUOUS
 62
256
 10
438.436999000000010
 20
-204.517072000000010
 40
4.999999999999989
 50
274.861405000000100
 51
0.000000000000000
  0
ARC
  8
0
  6
CONTINUOUS
 62
256
 10
442.325028999999970
 20
-154.451203999999990
 40
26.599999999999994
 50
275.635203999999930
 51
283.542179999999920
  0
LINE
  8
0
  6
CONTINUOUS
 62
256
 10
468.200517999999990
 20
-166.193794999999990
 11
462.436999000000010
 21
-171.957314000000000
  0
ARC
  8
0
  6
CONTINUOUS
 62
256
 10
463.533613000000000
 20
-161.526890000000010
 40
6.600000000000017
 50
315.000000000000170
 51
351.402917999999940
  0
ARC
  8
0
  6
CONTINUOUS
 62
256
 10
172.836998999999990
 20
-117.578303000000010
 40
300.600000000000020
 50
351.402918000000000
 51
0.000000000000000
  0
ARC
  8
0
  6
CONTINUOUS
 62
256
 10
172.836998999999990
 20
-117.578303000000010
 40
300.600000000000020
 50
0.000000000000000
 51
8.101502999999998
  0
ARC
  8
0
  6
CONTINUOUS
 62
256
 10
463.533613000000000
 20
-73.629716000000002
 40
6.600000000000019
 50
8.597081999999919
 51
44.999999999999829
  0
ARC
  8
0
  6
CONTINUOUS
 62
256
 10
363.340385000000030
 20
-73.629716000000002
 40
6.600000000000017
 50
135.000000000000170
 51
171.402918000000080
  0
ARC
  8
0
  6
CONTINUOUS
 62
256
 10
654.036999000000040
 20
-117.578303000000010
 40
300.600000000000020
 50
171.898496999999990
 51
180.000000000000000
  0
LINE
  8
0
  6
DASHDOT
 62
256
 10
463.883083000000000
 20
-168.578303000000010
 11
362.799869000000000
 21
-168.578303000000010
  0
LINE
  8
0
  6
CONTINUOUS
 62
256
 10
383.436999000000010
 20
-181.517072000000010
 11
383.436999000000010
 21
-181.463236999999990
  0
LINE
  8
0
  6
DASHDOT
 62
256
 10
-147.026555000000000
 20
-117.578303000000010
 11
-350.643088999999970
 21
-117.578303000000010
  0
POLYLINE
  8
0
  6
CONTINUOUS
 62
256
 66
1
 70
1
  0
VERTEX
  8
0
  6
CONTINUOUS
 62
256
 10
-296.013876000000040
 20
-169.501827999999990
  0
VERTEX
  8
0
  6
CONTINUOUS
 62
256
 10
-296.104185182104860
 20
-168.798871489441810
  0
VERTEX
  8
0
  6
CONTINUOUS
 62
256
 10
-296.371642197196990
 20
-168.122929203361850
  0
VERTEX
  8
0
  6
CONTINUOUS
 62
256
 10
-296.805968822178100
 20
-167.499977224741310
  0
VERTEX
  8
0
  6
CONTINUOUS
 62
256
 10
-297.390474128423250
 20
-166.953955248763150
  0
VERTEX
  8
0
  6
CONTINUOUS
 62
256
 10
-298.102695904807890
 20
-166.505846593751500
  0
VERTEX
  8
0
  6
CONTINUOUS
 62
256
 10
-298.915263867884110
 20
-166.172871824016260
  0
VERTEX
  8
0
  6
CONTINUOUS
 62
256
 10
-299.796951486524220
 20
-165.967826973223910
  0
VERTEX
  8
0
  6
CONTINUOUS
 62
256
 10
-300.713876000000030
 20
-165.898591799999990
  0
VERTEX
  8
0
  6
CONTINUOUS
 62
256
 10
-301.630800513475830
 20
-165.967826973223910
  0
VERTEX
  8
0
  6
CONTINUOUS
 62
256
 10
-302.512488132115950
 20
-166.172871824016260
  0
VERTEX
  8
0
  6
CONTINUOUS
 62
256
 10
-303.325056095192170
 20
-166.505846593751500
  0
VERTEX
  8
0
  6
CONTINUOUS
 62
256
 10
-304.037277871576800
 20
-166.953955248763150
  0
VERTEX
  8
0
  6
CONTINUOUS
 62
256
 10
-304.621783177821950
 20
-167.499977224741310
  0
VERTEX
  8
0
  6
CONTINUOUS
 62
256
 10
-305.056109802803060
 20
-168.122929203361850
  0
VERTEX
  8
0
  6
CONTINUOUS
 62
256
 10
-305.323566817895200
 20
-168.798871489441810
  0
VERTEX
  8
0
  6
CONTINUOUS
 62
256
 10
-305.413876000000020
 20
-169.501827999999990
  0
VERTEX
  8
0
  6
CONTINUOUS
 62
256
 10
-305.323566817895200
 20
-170.204784510558170
  0
VERTEX
  8
0
  6
CONTINUOUS
 62
256
 10
-305.056109802803060
 20
-170.880726796638130
  0
VERTEX
  8
0
  6
CONTINUOUS
 62
256
 10
-304.621783177821950
 20
-171.503678775258660
  0
VERTEX
  8
0
  6
CONTINUOUS
 62
256
 10
-304.037277871576800
 20
-172.049700751236830
  0
VERTEX
  8
0
  6
CONTINUOUS
 62
256
 10
-303.325056095192170
 20
-172.497809406248480
  0
VERTEX
  8
0
  6
CONTINUOUS
 62
256
 10
-302.512488132115950
 20
-172.830784175983720
  0
VERTEX
  8
0
  6
CONTINUOUS
 62
256
 10
-301.630800513475830
 20
-173.035829026776040
  0
VERTEX
  8
0
  6
CONTINUOUS
 62
256
 10
-300.713876000000030
 20
-173.105064199999990
  0
VERTEX
  8
0
  6
CONTINUOUS
 62
256
 10
-299.796951486524220
 20
-173.035829026776040
  0
VERTEX
  8
0
  6
CONTINUOUS
 62
256
 10
-298.915263867884110
 20
-172.830784175983720
  0
VERTEX
  8
0
  6
CONTINUOUS
 62
256
 10
-298.102695904807890
 20
-172.497809406248480
  0
VERTEX
  8
0
  6
CONTINUOUS
 62
256
 10
-297.390474128423250
 20
-172.049700751236830
  0
VERTEX
  8
0
  6
CONTINUOUS
 62
256
 10
-296.805968822178100
 20
-171.503678775258660
  0
VERTEX
  8
0
  6
CONTINUOUS
 62
256
 10
-296.371642197196990
 20
-170.880726796638130
  0
VERTEX
  8
0
  6
CONTINUOUS
 62
256
 10
-296.104185182104860
 20
-170.204784510558170
  0
SEQEND
  8
0
  6
CONTINUOUS
 62
256
  0
LINE
  8
0
  6
CONTINUOUS
 62
256
 10
-302.713876000000030
 20
-172.494204000000000
 11
-300.713876000000030
 21
-171.318418000000010
  0
LINE
  8
0
  6
CONTINUOUS
 62
256
 10
-300.713876000000030
 20
-171.318418000000010
 11
-298.713876000000030
 21
-169.665775999999990
  0
LINE
  8
0
  6
CONTINUOUS
 62
256
 10
-298.713876000000030
 20
-172.494204000000000
 11
-300.713876000000030
 21
-171.318418000000010
  0
LINE
  8
0
  6
CONTINUOUS
 62
256
 10
-300.713876000000030
 20
-171.318418000000010
 11
-302.713876000000030
 21
-169.665775999999990
  0
POLYLINE
  8
0
  6
CONTINUOUS
 62
256
 66
1
 70
1
  0
VERTEX
  8
0
  6
CONTINUOUS
 62
256
 10
-296.013876000000040
 20
-65.654777999999993
  0
VERTEX
  8
0
  6
CONTINUOUS
 62
256
 10
-296.104185182104860
 20
-64.951821489441826
  0
VERTEX
  8
0
  6
CONTINUOUS
 62
256
 10
-296.371642197196990
 20
-64.275879203361853
  0
VERTEX
  8
0
  6
CONTINUOUS
 62
256
 10
-296.805968822178100
 20
-63.652927224741333
  0
VERTEX
  8
0
  6
CONTINUOUS
 62
256
 10
-297.390474128423250
 20
-63.106905248763155
  0
VERTEX
  8
0
  6
CONTINUOUS
 62
256
 10
-298.102695904807890
 20
-62.658796593751504
  0
VERTEX
  8
0
  6
CONTINUOUS
 62
256
 10
-298.915263867884110
 20
-62.325821824016259
  0
VERTEX
  8
0
  6
CONTINUOUS
 62
256
 10
-299.796951486524220
 20
-62.120776973223933
  0
VERTEX
  8
0
  6
CONTINUOUS
 62
256
 10
-300.713876000000030
 20
-62.051541800000003
  0
VERTEX
  8
0
  6
CONTINUOUS
 62
256
 10
-301.630800513475830
 20
-62.120776973223933
  0
VERTEX
  8
0
  6
CONTINUOUS
 62
256
 10
-302.512488132115950
 20
-62.325821824016259
  0
VERTEX
  8
0
  6
CONTINUOUS
 62
256
 10
-303.325056095192170
 20
-62.658796593751504
  0
VERTEX
  8
0
  6
CONTINUOUS
 62
256
 10
-304.037277871576800
 20
-63.106905248763155
  0
VERTEX
  8
0
  6
CONTINUOUS
 62
256
 10
-304.621783177821950
 20
-63.652927224741333
  0
VERTEX
  8
0
  6
CONTINUOUS
 62
256
 10
-305.056109802803060
 20
-64.275879203361853
  0
VERTEX
  8
0
  6
CONTINUOUS
 62
256
 10
-305.323566817895200
 20
-64.951821489441826
  0
VERTEX
  8
0
  6
CONTINUOUS
 62
256
 10
-305.413876000000020
 20
-65.654777999999993
  0
VERTEX
  8
0
  6
CONTINUOUS
 62
256
 10
-305.323566817895200
 20
-66.357734510558160
  0
VERTEX
  8
0
  6
CONTINUOUS
 62
256
 10
-305.056109802803060
 20
-67.033676796638133
  0
VERTEX
  8
0
  6
CONTINUOUS
 62
256
 10
-304.621783177821950
 20
-67.656628775258653
  0
VERTEX
  8
0
  6
CONTINUOUS
 62
256
 10
-304.037277871576800
 20
-68.202650751236831
  0
VERTEX
  8
0
  6
CONTINUOUS
 62
256
 10
-303.325056095192170
 20
-68.650759406248483
  0
VERTEX
  8
0
  6
CONTINUOUS
 62
256
 10
-302.512488132115950
 20
-68.983734175983727
  0
VERTEX
  8
0
  6
CONTINUOUS
 62
256
 10
-301.630800513475830
 20
-69.188779026776047
  0
VERTEX
  8
0
  6
CONTINUOUS
 62
256
 10
-300.713876000000030
 20
-69.258014199999977
  0
VERTEX
  8
0
  6
CONTINUOUS
 62
256
 10
-299.796951486524220
 20
-69.188779026776047
  0
VERTEX
  8
0
  6
CONTINUOUS
 62
256
 10
-298.915263867884110
 20
-68.983734175983727
  0
VERTEX
  8
0
  6
CONTINUOUS
 62
256
 10
-298.102695904807890
 20
-68.650759406248483
  0
VERTEX
  8
0
  6
CONTINUOUS
 62
256
 10
-297.390474128423250
 20
-68.202650751236831
  0
VERTEX
  8
0
  6
CONTINUOUS
 62
256
 10
-296.805968822178100
 20
-67.656628775258653
  0
VERTEX
  8
0
  6
CONTINUOUS
 62
256
 10
-296.371642197196990
 20
-67.033676796638133
  0
VERTEX
  8
0
  6
CONTINUOUS
 62
256
 10
-296.104185182104860
 20
-66.357734510558160
  0
SEQEND
  8
0
  6
CONTINUOUS
 62
256
  0
LINE
  8
0
  6
CONTINUOUS
 62
256
 10
-302.713876000000030
 20
-62.662402000000000
 11
-300.713876000000030
 21
-63.838188000000002
  0
LINE
  8
0
  6
CONTINUOUS
 62
256
 10
-300.713876000000030
 20
-63.838188000000002
 11
-298.713876000000030
 21
-65.490830000000003
  0
LINE
  8
0
  6
CONTINUOUS
 62
256
 10
-298.713876000000030
 20
-62.662402000000000
 11
-300.713876000000030
 21
-63.838188000000002
  0
LINE
  8
0
  6
CONTINUOUS
 62
256
 10
-300.713876000000030
 20
-63.838188000000002
 11
-302.713876000000030
 21
-65.490830000000003
  0
LINE
  8
0
  6
CONTINUOUS
 62
256
 10
-289.713876000000030
 20
-117.578303000000010
 11
-289.713876000000030
 21
-52.578302999999998
  0
LINE
  8
0
  6
CONTINUOUS
 62
256
 10
-192.713876000000000
 20
-58.078302999999998
 11
-192.713876000000000
 21
-117.578303000000010
  0
LINE
  8
0
  6
CONTINUOUS
 62
256
 10
-289.713876000000030
 20
-52.578302999999998
 11
-318.407899999999980
 21
-52.578302999999998
  0
LINE
  8
0
  6
CONTINUOUS
 62
256
 10
-340.713876000000030
 20
-117.578303000000010
 11
-340.713876000000030
 21
-65.135097999999999
  0
ARC
  8
0
  6
CONTINUOUS
 62
256
 10
-318.407899999999980
 20
-72.578303000000005
 40
20.000000000000000
 50
90.000000000000000
 51
125.000000000000040
  0
LINE
  8
0
  6
CONTINUOUS
 62
256
 10
-329.879429000000020
 20
-56.195262000000000
 11
-339.605174999999970
 21
-63.005302999999998
  0
ARC
  8
0
  6
CONTINUOUS
 62
256
 10
-338.113876000000000
 20
-65.135097999999999
 40
2.600000000000001
 50
125.000000000000110
 51
180.000000000000000
  0
LINE
  8
0
  6
CONTINUOUS
 62
256
 10
-289.713876000000030
 20
-117.578303000000010
 11
-289.713876000000030
 21
-176.197523999999990
  0
LINE
  8
0
  6
CONTINUOUS
 62
256
 10
-192.713876000000000
 20
-177.078303000000010
 11
-192.713876000000000
 21
-117.578303000000010
  0
LINE
  8
0
  6
CONTINUOUS
 62
256
 10
-340.713876000000030
 20
-117.578303000000010
 11
-340.713876000000030
 21
-170.021508000000010
  0
LINE
  8
0
  6
CONTINUOUS
 62
256
 10
-329.879429000000020
 20
-178.961344000000000
 11
-339.605174999999970
 21
-172.151303000000010
  0
ARC
  8
0
  6
CONTINUOUS
 62
256
 10
-338.113876000000000
 20
-170.021508000000010
 40
2.600000000000023
 50
180.000000000000000
 51
234.999999999999770
  0
LINE
  8
0
  6
CONTINUOUS
 62
256
 10
-299.713876000000030
 20
-182.578303000000010
 11
-318.407899999999980
 21
-182.578303000000010
  0
ARC
  8
0
  6
CONTINUOUS
 62
256
 10
-318.407899999999980
 20
-162.578303000000010
 40
19.999999999999996
 50
234.999999999999940
 51
270.000000000000000
  0
LINE
  8
0
  6
CONTINUOUS
 62
256
 10
-297.713876000000030
 20
-181.078303000000010
 11
-297.713876000000030
 21
-179.369097000000010
  0
LINE
  8
0
  6
CONTINUOUS
 62
256
 10
-222.713876000000000
 20
-176.078303000000010
 11
-289.713876000000030
 21
-176.078303000000010
  0
LINE
  8
0
  6
CONTINUOUS
 62
256
 10
-222.713876000000000
 20
-181.078303000000010
 11
-297.713876000000030
 21
-181.078303000000010
  0
LINE
  8
0
  6
CONTINUOUS
 62
256
 10
-296.713876000000030
 20
-209.578303000000010
 11
-296.713876000000030
 21
-181.078303000000010
  0
LINE
  8
0
  6
CONTINUOUS
 62
256
 10
-223.713876000000000
 20
-209.578303000000010
 11
-223.713876000000000
 21
-181.078303000000010
  0
ARC
  8
0
  6
CONTINUOUS
 62
256
 10
-224.713876000000000
 20
-209.578303000000010
 40
1.000000000000000
 50
270.000000000000000
 51
0.000000000000000
  0
ARC
  8
0
  6
CONTINUOUS
 62
256
 10
-295.713876000000030
 20
-209.578303000000010
 40
1.000000000000000
 50
180.000000000000000
 51
270.000000000000000
  0
LINE
  8
0
  6
CONTINUOUS
 62
256
 10
-224.713876000000000
 20
-210.578303000000010
 11
-295.713876000000030
 21
-210.578303000000010
  0
LINE
  8
0
  6
CONTINUOUS
 62
256
 10
-230.713876000000000
 20
-210.578303000000010
 11
-230.713876000000000
 21
-211.078303000000010
  0
LINE
  8
0
  6
CONTINUOUS
 62
256
 10
-233.213876000000000
 20
-210.578303000000010
 11
-233.213876000000000
 21
-211.078303000000010
  0
LINE
  8
0
  6
CONTINUOUS
 62
256
 10
-238.713876000000000
 20
-210.578303000000010
 11
-238.713876000000000
 21
-211.078303000000010
  0
LINE
  8
0
  6
CONTINUOUS
 62
256
 10
-230.713876000000000
 20
-211.078303000000010
 11
-238.713876000000000
 21
-211.078303000000010
  0
LINE
  8
0
  6
CONTINUOUS
 62
256
 10
-222.713876000000000
 20
-181.078303000000010
 11
-222.713876000000000
 21
-176.078303000000010
  0
LINE
  8
0
  6
CONTINUOUS
 62
256
 10
-296.713876000000030
 20
-179.197523999999990
 11
-292.713876000000030
 21
-179.197523999999990
  0
LINE
  8
0
  6
CONTINUOUS
 62
256
 10
-299.713876000000030
 20
-182.578303000000010
 11
-299.713876000000030
 21
-182.197523999999990
  0
ARC
  8
0
  6
CONTINUOUS
 62
256
 10
-292.713876000000030
 20
-176.197523999999990
 40
3.000000000000000
 50
270.000000000000000
 51
0.000000000000000
  0
ARC
  8
0
  6
CONTINUOUS
 62
256
 10
-296.713876000000030
 20
-182.197523999999990
 40
3.000000000000000
 50
90.000000000000000
 51
180.000000000000000
  0
LINE
  8
0
  6
CONTINUOUS
 62
256
 10
-289.713876000000030
 20
-58.078302999999998
 11
-192.713876000000000
 21
-58.078302999999998
  0
LINE
  8
0
  6
CONTINUOUS
 62
256
 10
-222.713876000000000
 20
-177.078303000000010
 11
-192.713876000000000
 21
-177.078303000000010
  0
LINE
  8
0
  6
CONTINUOUS
 62
256
 10
-289.713876000000030
 20
-174.578303000000010
 11
-192.713876000000000
 21
-174.578303000000010
  0
LINE
  8
0
  6
CONTINUOUS
 62
256
 10
-289.713876000000030
 20
-173.578303000000010
 11
-192.713876000000000
 21
-173.578303000000010
  0
LINE
  8
0
  6
CONTINUOUS
 62
256
 10
-289.713876000000030
 20
-172.578303000000010
 11
-192.713876000000000
 21
-172.578303000000010
  0
LINE
  8
0
  6
CONTINUOUS
 62
256
 10
-289.713876000000030
 20
-167.893836999999990
 11
-192.713876000000000
 21
-167.893836999999990
  0
LINE
  8
0
  6
CONTINUOUS
 62
256
 10
-289.713876000000030
 20
-162.944089999999990
 11
-192.713876000000000
 21
-162.944089999999990
  0
LINE
  8
0
  6
CONTINUOUS
 62
256
 10
-289.713876000000030
 20
-154.897488000000010
 11
-192.713876000000000
 21
-154.897488000000010
  0
LINE
  8
0
  6
CONTINUOUS
 62
256
 10
-289.713876000000030
 20
-153.292840000000010
 11
-192.713876000000000
 21
-153.292840000000010
  0
LINE
  8
0
  6
CONTINUOUS
 62
256
 10
-289.713876000000030
 20
-149.329095000000000
 11
-192.713876000000000
 21
-149.329095000000000
  0
LINE
  8
0
  6
CONTINUOUS
 62
256
 10
-289.713876000000030
 20
-147.860737000000000
 11
-192.713876000000000
 21
-147.860737000000000
  0
LINE
  8
0
  6
CONTINUOUS
 62
256
 10
-289.713876000000030
 20
-143.770237000000010
 11
-192.713876000000000
 21
-143.770237000000010
  0
LINE
  8
0
  6
CONTINUOUS
 62
256
 10
-289.713876000000030
 20
-142.408356000000000
 11
-192.713876000000000
 21
-142.408356000000000
  0
LINE
  8
0
  6
CONTINUOUS
 62
256
 10
-289.713876000000030
 20
-138.217803000000000
 11
-192.713876000000000
 21
-138.217803000000000
  0
LINE
  8
0
  6
CONTINUOUS
 62
256
 10
-289.713876000000030
 20
-136.951564999999990
 11
-192.713876000000000
 21
-136.951564999999990
  0
LINE
  8
0
  6
CONTINUOUS
 62
256
 10
-289.713876000000030
 20
-132.578303000000010
 11
-192.713876000000000
 21
-132.578303000000010
  0
LINE
  8
0
  6
CONTINUOUS
 62
256
 10
-289.713876000000030
 20
-80.259118000000001
 11
-192.713876000000000
 21
-80.259118000000001
  0
LINE
  8
0
  6
CONTINUOUS
 62
256
 10
-289.713876000000030
 20
-81.863765999999998
 11
-192.713876000000000
 21
-81.863765999999998
  0
LINE
  8
0
  6
CONTINUOUS
 62
256
 10
-289.713876000000030
 20
-85.827511000000001
 11
-192.713876000000000
 21
-85.827511000000001
  0
LINE
  8
0
  6
CONTINUOUS
 62
256
 10
-289.713876000000030
 20
-87.295868999999996
 11
-192.713876000000000
 21
-87.295868999999996
  0
LINE
  8
0
  6
CONTINUOUS
 62
256
 10
-289.713876000000030
 20
-91.386369000000002
 11
-192.713876000000000
 21
-91.386369000000002
  0
LINE
  8
0
  6
CONTINUOUS
 62
256
 10
-289.713876000000030
 20
-92.748249999999999
 11
-192.713876000000000
 21
-92.748249999999999
  0
LINE
  8
0
  6
CONTINUOUS
 62
256
 10
-289.713876000000030
 20
-96.938802999999993
 11
-192.713876000000000
 21
-96.938802999999993
  0
LINE
  8
0
  6
CONTINUOUS
 62
256
 10
-289.713876000000030
 20
-98.205040999999994
 11
-192.713876000000000
 21
-98.205040999999994
  0
LINE
  8
0
  6
CONTINUOUS
 62
256
 10
-289.713876000000030
 20
-102.578303000000010
 11
-192.713876000000000
 21
-102.578303000000010
  0
LINE
  8
0
  6
CONTINUOUS
 62
256
 10
-289.713876000000030
 20
-72.212515999999994
 11
-192.713876000000000
 21
-72.212515999999994
  0
LINE
  8
0
  6
CONTINUOUS
 62
256
 10
-289.713876000000030
 20
-67.262769000000006
 11
-192.713876000000000
 21
-67.262769000000006
  0
LINE
  8
0
  6
CONTINUOUS
 62
256
 10
-289.713876000000030
 20
-62.578302999999998
 11
-192.713876000000000
 21
-62.578302999999998
  0
LINE
  8
0
  6
CONTINUOUS
 62
256
 10
-289.713876000000030
 20
-61.578302999999998
 11
-192.713876000000000
 21
-61.578302999999998
  0
LINE
  8
0
  6
CONTINUOUS
 62
256
 10
-289.713876000000030
 20
-60.578302999999998
 11
-192.713876000000000
 21
-60.578302999999998
  0
ARC
  8
0
  6
CONTINUOUS
 62
256
 10
413.936999000000010
 20
-117.578303000000010
 40
58.500000000000000
 50
169.390857000000010
 51
212.204227999999970
  0
ARC
  8
0
  6
CONTINUOUS
 62
256
 10
412.936999000000010
 20
-117.578303000000010
 40
58.499999999999993
 50
327.795772000000000
 51
10.609142999999994
  0
ARC
  8
0
  6
CONTINUOUS
 62
256
 10
469.436999000000010
 20
-73.578303000000005
 40
1.000000000000000
 50
0.000000000000000
 51
90.000000000000000
  0
ARC
  8
0
  6
CONTINUOUS
 62
256
 10
469.436999000000010
 20
-115.578303000000010
 40
1.000000000000000
 50
270.000000000000000
 51
0.000000000000000
  0
LINE
  8
0
  6
CONTINUOUS
 62
256
 10
466.436999000000010
 20
-116.578303000000010
 11
469.436999000000010
 21
-116.578303000000010
  0
ARC
  8
0
  6
CONTINUOUS
 62
256
 10
357.436999000000010
 20
-73.578303000000005
 40
1.000000000000000
 50
90.000000000000000
 51
180.000000000000000
  0
ARC
  8
0
  6
CONTINUOUS
 62
256
 10
357.436999000000010
 20
-115.578303000000010
 40
1.000000000000000
 50
180.000000000000000
 51
270.000000000000000
  0
LINE
  8
0
  6
CONTINUOUS
 62
256
 10
360.436999000000010
 20
-116.578303000000010
 11
357.436999000000010
 21
-116.578303000000010
  0
LINE
  8
0
  6
CONTINUOUS
 62
256
 10
376.436999000000010
 20
-117.578303000000010
 11
376.436999000000010
 21
-181.587031000000000
  0
LINE
  8
0
  6
CONTINUOUS
 62
256
 10
376.436999000000010
 20
-181.578303000000010
 11
364.436999000000010
 21
-181.368842000000000
  0
LINE
  8
0
  6
CONTINUOUS
 62
256
 10
462.436999000000010
 20
-180.242990999999990
 11
462.436999000000010
 21
-163.441453999999990
  0
LINE
  8
0
  6
CONTINUOUS
 62
256
 10
452.436999000000010
 20
-180.242990999999990
 11
462.436999000000010
 21
-180.242990999999990
  0
LINE
  8
0
  6
CONTINUOUS
 62
256
 10
376.436999000000010
 20
-181.587031000000000
 11
452.436999000000010
 21
-180.242990999999990
  0
LINE
  8
0
  6
CONTINUOUS
 62
256
 10
462.436999000000010
 20
-137.078303000000010
 11
466.436999000000010
 21
-137.078303000000010
  0
LINE
  8
0
  6
CONTINUOUS
 62
256
 10
360.436999000000010
 20
-137.078303000000010
 11
360.436999000000010
 21
-117.578303000000010
  0
LINE
  8
0
  6
CONTINUOUS
 62
256
 10
466.436999000000010
 20
-117.578303000000010
 11
466.436999000000010
 21
-137.078303000000010
  0
LINE
  8
0
  6
CONTINUOUS
 62
256
 10
360.436999000000010
 20
-137.078303000000010
 11
364.436999000000010
 21
-137.078303000000010
  0
LINE
  8
0
  6
CONTINUOUS
 62
256
 10
364.436999000000010
 20
-181.368842000000000
 11
364.436999000000010
 21
-163.441453999999990
  0
ARC
  8
0
  6
CONTINUOUS
 62
256
 10
460.578440000000000
 20
-160.977103000000000
 40
2.999999999999993
 50
321.379370000000110
 51
44.999999999999616
  0
ARC
  8
0
  6
CONTINUOUS
 62
256
 10
366.295558000000030
 20
-160.977103000000000
 40
3.000000000000004
 50
135.000000000000370
 51
218.620629999999860
  0
ARC
  8
0
  6
CONTINUOUS
 62
256
 10
354.936999000000010
 20
-98.078303000000005
 40
0.500000000000000
 50
90.000000000000000
 51
180.000000000000000
  0
ARC
  8
0
  6
CONTINUOUS
 62
256
 10
354.936999000000010
 20
-98.078303000000005
 40
0.500000000000000
 50
90.000000000000000
 51
180.000000000000000
  0
ARC
  8
0
  6
CONTINUOUS
 62
256
 10
356.461999999999990
 20
-138.078303000000010
 40
0.500000000000028
 50
2.934025000000031
 51
90.000000000000000
  0
ARC
  8
0
  6
CONTINUOUS
 62
256
 10
356.461999999999990
 20
-138.078303000000010
 40
0.500000000000028
 50
2.934025000000031
 51
90.000000000000000
  0
ARC
  8
0
  6
CONTINUOUS
 62
256
 10
354.936999000000010
 20
-137.078303000000010
 40
0.500000000000000
 50
180.000000000000000
 51
270.000000000000000
  0
ARC
  8
0
  6
CONTINUOUS
 62
256
 10
756.436999000000010
 20
-117.578303000000010
 40
400.000000000000000
 50
182.934025000000020
 51
184.114344999999960
  0
ARC
  8
0
  6
CONTINUOUS
 62
256
 10
387.390543999999980
 20
-144.124758000000010
 40
30.000000000000018
 50
184.114344999999960
 51
220.082493000000030
  0
ARC
  8
0
  6
CONTINUOUS
 62
256
 10
439.483453999999990
 20
-144.124758000000010
 40
30.000000000000004
 50
319.917507000000000
 51
355.885654999999990
  0
ARC
  8
0
  6
CONTINUOUS
 62
256
 10
470.411997999999980
 20
-138.078303000000010
 40
0.500000000000000
 50
90.000000000000000
 51
177.065974999999950
  0
ARC
  8
0
  6
CONTINUOUS
 62
256
 10
70.436999000000000
 20
-117.578303000000010
 40
399.999999999999940
 50
355.885654999999990
 51
357.065974999999980
  0
ARC
  8
0
  6
CONTINUOUS
 62
256
 10
471.936999000000010
 20
-137.078303000000010
 40
0.500000000000000
 50
270.000000000000000
 51
0.000000000000000
  0
ARC
  8
0
  6
CONTINUOUS
 62
256
 10
471.936999000000010
 20
-98.078303000000005
 40
0.500000000000000
 50
0.000000000000000
 51
90.000000000000000
  0
LINE
  8
0
  6
DASHED
 62
256
 10
364.174238000000000
 20
-158.855783000000000
 11
364.436999000000010
 21
-158.593021999999990
  0
LINE
  8
0
  6
CONTINUOUS
 62
256
 10
354.936999000000010
 20
-137.578303000000010
 11
356.461999999999990
 21
-137.578303000000010
  0
LINE
  8
0
  6
CONTINUOUS
 62
256
 10
354.436999000000010
 20
-117.578303000000010
 11
354.436999000000010
 21
-137.078303000000010
  0
LINE
  8
0
  6
CONTINUOUS
 62
256
 10
471.936999000000010
 20
-137.578303000000010
 11
470.411997999999980
 21
-137.578303000000010
  0
LINE
  8
0
  6
CONTINUOUS
 62
256
 10
472.436999000000010
 20
-117.578303000000010
 11
472.436999000000010
 21
-137.078303000000010
  0
LINE
  8
0
  6
DASHED
 62
256
 10
462.699760000000030
 20
-158.855783000000000
 11
462.436999000000010
 21
-158.593021999999990
  0
LINE
  8
0
  6
DASHDOT
 62
256
 10
402.517766999999990
 20
-117.578303000000010
 11
422.451799999999990
 21
-117.578303000000010
  0
ARC
  8
0
  6
CONTINUOUS
 62
256
 10
-177.713876000000000
 20
-70.481995999999995
 40
5.000000000000000
 50
0.000000000000000
 51
90.000000000000000
  0
ARC
  8
0
  6
CONTINUOUS
 62
256
 10
-177.713876000000000
 20
-77.393572000000006
 40
5.000000000000000
 50
0.000000000000000
 51
90.000000000000000
  0
ARC
  8
0
  6
CONTINUOUS
 62
256
 10
-177.713876000000000
 20
-157.763034000000000
 40
5.000000000000000
 50
270.000000000000000
 51
0.000000000000000
  0
ARC
  8
0
  6
CONTINUOUS
 62
256
 10
-177.713876000000000
 20
-164.674610000000000
 40
5.000000000000000
 50
270.000000000000000
 51
0.000000000000000
  0
ARC
  8
0
  6
CONTINUOUS
 62
256
 10
-167.713876000000000
 20
-70.481995999999995
 40
5.000000000000000
 50
180.000000000000000
 51
252.542397000000110
  0
ARC
  8
0
  6
CONTINUOUS
 62
256
 10
-167.713876000000000
 20
-77.029516000000001
 40
5.000000000000000
 50
180.000000000000000
 51
252.542397000000110
  0
ARC
  8
0
  6
CONTINUOUS
 62
256
 10
-167.713876000000000
 20
-158.127090000000010
 40
5.000000000000003
 50
107.457602999999910
 51
180.000000000000000
  0
ARC
  8
0
  6
CONTINUOUS
 62
256
 10
-167.713876000000000
 20
-164.674610000000000
 40
5.000000000000003
 50
107.457602999999910
 51
180.000000000000000
  0
LINE
  8
0
  6
CONTINUOUS
 62
256
 10
-182.713876000000000
 20
-72.393572000000006
 11
-177.713876000000000
 21
-72.393572000000006
  0
LINE
  8
0
  6
CONTINUOUS
 62
256
 10
-182.713876000000000
 20
-65.481995999999995
 11
-177.713876000000000
 21
-65.481995999999995
  0
LINE
  8
0
  6
CONTINUOUS
 62
256
 10
-182.713876000000000
 20
-162.763034000000000
 11
-177.713876000000000
 21
-162.763034000000000
  0
LINE
  8
0
  6
CONTINUOUS
 62
256
 10
-182.713876000000000
 20
-169.674610000000000
 11
-177.713876000000000
 21
-169.674610000000000
  0
LINE
  8
0
  6
CONTINUOUS
 62
256
 10
-185.713876000000000
 20
-159.763034000000000
 11
-185.713876000000000
 21
-117.578303000000010
  0
LINE
  8
0
  6
CONTINUOUS
 62
256
 10
-182.713876000000000
 20
-156.579569999999990
 11
-177.713876000000000
 21
-156.579569999999990
  0
LINE
  8
0
  6
CONTINUOUS
 62
256
 10
-185.713876000000000
 20
-173.078303000000010
 11
-185.713876000000000
 21
-172.674610000000000
  0
LINE
  8
0
  6
CONTINUOUS
 62
256
 10
-185.713876000000000
 20
-173.078303000000010
 11
-185.713876000000000
 21
-172.674610000000000
  0
LINE
  8
0
  6
CONTINUOUS
 62
256
 10
-185.713876000000000
 20
-173.078303000000010
 11
-185.713876000000000
 21
-174.078303000000010
  0
LINE
  8
0
  6
CONTINUOUS
 62
256
 10
-185.713876000000000
 20
-62.078302999999998
 11
-185.713876000000000
 21
-62.481996000000002
  0
LINE
  8
0
  6
CONTINUOUS
 62
256
 10
-185.713876000000000
 20
-75.393572000000006
 11
-185.713876000000000
 21
-117.578303000000010
  0
LINE
  8
0
  6
CONTINUOUS
 62
256
 10
-182.713876000000000
 20
-78.577036000000007
 11
-177.713876000000000
 21
-78.577036000000007
  0
LINE
  8
0
  6
CONTINUOUS
 62
256
 10
-185.713876000000000
 20
-62.078302999999998
 11
-185.713876000000000
 21
-61.078302999999998
  0
ARC
  8
0
  6
CONTINUOUS
 62
256
 10
-182.713876000000000
 20
-153.579569999999990
 40
3.000000000000000
 50
180.000000000000000
 51
270.000000000000000
  0
ARC
  8
0
  6
CONTINUOUS
 62
256
 10
-182.713876000000000
 20
-172.674610000000000
 40
3.000000000000000
 50
90.000000000000000
 51
180.000000000000000
  0
ARC
  8
0
  6
CONTINUOUS
 62
256
 10
-182.713876000000000
 20
-159.763034000000000
 40
3.000000000000000
 50
180.000000000000000
 51
270.000000000000000
  0
ARC
  8
0
  6
CONTINUOUS
 62
256
 10
-182.713876000000000
 20
-81.577036000000007
 40
3.000000000000000
 50
90.000000000000000
 51
180.000000000000000
  0
ARC
  8
0
  6
CONTINUOUS
 62
256
 10
-182.713876000000000
 20
-75.393572000000006
 40
3.000000000000000
 50
90.000000000000000
 51
180.000000000000000
  0
ARC
  8
0
  6
CONTINUOUS
 62
256
 10
-182.713876000000000
 20
-62.481996000000002
 40
3.000000000000000
 50
180.000000000000000
 51
270.000000000000000
  0
ARC
  8
0
  6
CONTINUOUS
 62
256
 10
-188.713876000000000
 20
-61.078302999999998
 40
3.000000000000000
 50
0.000000000000000
 51
90.000000000000000
  0
INSERT
  8
0
  2
ZU_SYM_1
 10
-132.213876000000000
 20
-41.078302999999998
  0
INSERT
  8
0
  2
ZU_SYM_2
 10
-27.213875999999999
 20
-41.078302999999998
  0
INSERT
  8
0
  2
ZU_SYM_3
 10
-27.213875999999999
 20
-174.078303000000010
  0
INSERT
  8
0
  2
ZU_SYM_4
 10
-132.213876000000000
 20
-174.078303000000010
  0
LINE
  8
0
  6
CONTINUOUS
 62
256
 10
-137.213876000000000
 20
-181.078303000000010
 11
-137.213876000000000
 21
-181.578303000000010
  0
ARC
  8
0
  6
CONTINUOUS
 62
256
 10
-137.713876000000000
 20
-181.078303000000010
 40
0.500000000000000
 50
0.000000000000000
 51
90.000000000000000
  0
LINE
  8
0
  6
CONTINUOUS
 62
256
 10
-127.213876000000000
 20
-181.078303000000010
 11
-127.213876000000000
 21
-181.578303000000010
  0
ARC
  8
0
  6
CONTINUOUS
 62
256
 10
-126.713876000000000
 20
-181.078303000000010
 40
0.500000000000000
 50
90.000000000000000
 51
180.000000000000000
  0
LINE
  8
0
  6
CONTINUOUS
 62
256
 10
-32.213875999999999
 20
-181.078303000000010
 11
-32.213875999999999
 21
-181.578303000000010
  0
ARC
  8
0
  6
CONTINUOUS
 62
256
 10
-32.713875999999999
 20
-181.078303000000010
 40
0.500000000000000
 50
0.000000000000000
 51
90.000000000000000
  0
ARC
  8
0
  6
CONTINUOUS
 62
256
 10
-21.713875999999999
 20
-181.078303000000010
 40
0.500000000000000
 50
90.000000000000000
 51
180.000000000000000
  0
LINE
  8
0
  6
CONTINUOUS
 62
256
 10
-22.213875999999999
 20
-181.078303000000010
 11
-22.213875999999999
 21
-181.578303000000010
  0
LINE
  8
0
  6
CONTINUOUS
 62
256
 10
-22.213875999999999
 20
-34.078302999999998
 11
-22.213875999999999
 21
-33.578302999999998
  0
ARC
  8
0
  6
CONTINUOUS
 62
256
 10
-21.713875999999999
 20
-34.078302999999998
 40
0.500000000000000
 50
180.000000000000000
 51
270.000000000000000
  0
LINE
  8
0
  6
CONTINUOUS
 62
256
 10
-32.213875999999999
 20
-34.078302999999998
 11
-32.213875999999999
 21
-33.578302999999998
  0
ARC
  8
0
  6
CONTINUOUS
 62
256
 10
-32.713875999999999
 20
-34.078302999999998
 40
0.500000000000000
 50
270.000000000000000
 51
0.000000000000000
  0
LINE
  8
0
  6
CONTINUOUS
 62
256
 10
-137.213876000000000
 20
-34.078302999999998
 11
-137.213876000000000
 21
-33.578302999999998
  0
LINE
  8
0
  6
CONTINUOUS
 62
256
 10
-127.213876000000000
 20
-34.078302999999998
 11
-127.213876000000000
 21
-33.578302999999998
  0
ARC
  8
0
  6
CONTINUOUS
 62
256
 10
-126.713876000000000
 20
-34.078302999999998
 40
0.500000000000000
 50
180.000000000000000
 51
270.000000000000000
  0
ARC
  8
0
  6
CONTINUOUS
 62
256
 10
-137.713876000000000
 20
-34.078302999999998
 40
0.500000000000000
 50
270.000000000000000
 51
0.000000000000000
  0
LINE
  8
0
  6
DASHDOT
 62
256
 10
-124.861086000000000
 20
-174.078303000000010
 11
-138.673810000000000
 21
-174.078303000000010
  0
LINE
  8
0
  6
DASHDOT
 62
256
 10
-125.837774999999990
 20
-41.078302999999998
 11
-139.940472000000000
 21
-41.078302999999998
  0
LINE
  8
0
  6
DASHDOT
 62
256
 10
-132.213876000000000
 20
-166.979464000000010
 11
-132.213876000000000
 21
-182.819688000000010
  0
LINE
  8
0
  6
DASHDOT
 62
256
 10
-27.213875999999999
 20
-166.735290999999990
 11
-27.213875999999999
 21
-183.362542999999990
  0
LINE
  8
0
  6
DASHDOT
 62
256
 10
-135.848831999999990
 20
-46.578302999999998
 11
-160.749910000000000
 21
-46.578302999999998
  0
LINE
  8
0
  6
DASHDOT
 62
256
 10
-135.360488000000000
 20
-168.578303000000010
 11
-160.749910000000000
 21
-168.578303000000010
  0
LINE
  8
0
  6
DASHDOT
 62
256
 10
-12.713876000000001
 20
-157.945095000000010
 11
-12.713876000000001
 21
-182.819688000000010
  0
LINE
  8
0
  6
DASHDOT
 62
256
 10
-146.713876000000000
 20
-157.212579000000010
 11
-146.713876000000000
 21
-182.819688000000010
  0
LINE
  8
0
  6
CONTINUOUS
 62
256
 10
-159.713876000000000
 20
-172.578303000000010
 11
-159.713876000000000
 21
-42.578302999999998
  0
LINE
  8
0
  6
CONTINUOUS
 62
256
 10
-8.713876000000001
 20
-181.578303000000010
 11
-150.713876000000000
 21
-181.578303000000010
  0
LINE
  8
0
  6
CONTINUOUS
 62
256
 10
0.286124000000000
 20
-42.578302999999998
 11
0.286124000000000
 21
-172.578303000000010
  0
ARC
  8
0
  6
CONTINUOUS
 62
256
 10
-150.713876000000000
 20
-42.578302999999998
 40
9.000000000000000
 50
90.000000000000000
 51
180.000000000000000
  0
ARC
  8
0
  6
CONTINUOUS
 62
256
 10
-150.713876000000000
 20
-172.578303000000010
 40
9.000000000000000
 50
180.000000000000000
 51
270.000000000000000
  0
ARC
  8
0
  6
CONTINUOUS
 62
256
 10
-8.713876000000001
 20
-172.578303000000010
 40
9.000000000000000
 50
270.000000000000000
 51
0.000000000000000
  0
ARC
  8
0
  6
CONTINUOUS
 62
256
 10
-8.713876000000001
 20
-42.578302999999998
 40
9.000000000000000
 50
0.000000000000000
 51
90.000000000000000
  0
ARC
  8
0
  6
CONTINUOUS
 62
256
 10
-146.713876000000000
 20
-168.578303000000010
 40
12.999999999999988
 50
31.420365999999984
 51
76.164776000000032
  0
ARC
  8
0
  6
CONTINUOUS
 62
256
 10
-132.213876000000000
 20
-41.078302999999998
 40
9.500000000000002
 50
276.348584999999960
 51
333.152786999999990
  0
ARC
  8
0
  6
CONTINUOUS
 62
256
 10
-130.499931000000000
 20
-56.483249999999998
 40
5.999999999999997
 50
96.348585000000028
 51
148.579634000000030
  0
ARC
  8
0
  6
CONTINUOUS
 62
256
 10
-146.713876000000000
 20
-46.578302999999998
 40
13.000000000000002
 50
283.835223999999980
 51
328.579633999999940
  0
ARC
  8
0
  6
CONTINUOUS
 62
256
 10
-12.713876000000001
 20
-46.578302999999998
 40
13.000000000000002
 50
211.420365999999970
 51
256.164776000000020
  0
ARC
  8
0
  6
CONTINUOUS
 62
256
 10
-28.927821000000002
 20
-56.483249999999998
 40
5.999999999999998
 50
31.420365999999994
 51
83.651414999999986
  0
ARC
  8
0
  6
CONTINUOUS
 62
256
 10
-27.213875999999999
 20
-41.078302999999998
 40
9.500000000000004
 50
206.847213000000010
 51
263.651414999999990
  0
ARC
  8
0
  6
CONTINUOUS
 62
256
 10
-28.927821000000002
 20
-158.673356000000010
 40
6.000000000000004
 50
276.348585000000010
 51
328.579633999999880
  0
ARC
  8
0
  6
CONTINUOUS
 62
256
 10
-12.713876000000001
 20
-168.578303000000010
 40
13.000000000000002
 50
103.835224000000000
 51
148.579634000000060
  0
ARC
  8
0
  6
CONTINUOUS
 62
256
 10
-27.213875999999999
 20
-174.078303000000010
 40
9.499999999999996
 50
96.348584999999986
 51
153.152787000000050
  0
ARC
  8
0
  6
CONTINUOUS
 62
256
 10
-130.499931000000000
 20
-158.673356000000010
 40
6.000000000000008
 50
211.420366000000090
 51
263.651414999999990
  0
ARC
  8
0
  6
CONTINUOUS
 62
256
 10
-132.213876000000000
 20
-174.078303000000010
 40
9.500000000000000
 50
26.847212999999975
 51
83.651415000000057
  0
LINE
  8
0
  6
CONTINUOUS
 62
256
 10
-21.713875999999999
 20
-180.578303000000010
 11
-8.713876000000001
 21
-180.578303000000010
  0
LINE
  8
0
  6
CONTINUOUS
 62
256
 10
-126.713876000000000
 20
-180.578303000000010
 11
-32.713875999999999
 21
-180.578303000000010
  0
LINE
  8
0
  6
CONTINUOUS
 62
256
 10
-137.713876000000000
 20
-34.578302999999998
 11
-150.713876000000000
 21
-34.578302999999998
  0
ARC
  8
0
  6
CONTINUOUS
 62
256
 10
-18.213875999999999
 20
-146.245591999999990
 40
7.000000000000010
 50
283.835223999999980
 51
0.000000000000000
  0
ARC
  8
0
  6
CONTINUOUS
 62
256
 10
-12.713876000000001
 20
-168.578303000000010
 40
15.999999999999998
 50
103.835224000000000
 51
148.579634000000030
  0
ARC
  8
0
  6
CONTINUOUS
 62
256
 10
-28.927821000000002
 20
-158.673356000000010
 40
2.999999999999989
 50
276.348585000000010
 51
328.579633999999880
  0
ARC
  8
0
  6
CONTINUOUS
 62
256
 10
-27.213875999999999
 20
-174.078303000000010
 40
12.500000000000012
 50
96.348584999999986
 51
153.152787000000050
  0
ARC
  8
0
  6
CONTINUOUS
 62
256
 10
-41.043193000000002
 20
-167.078303000000010
 40
3.000000000000000
 50
270.000000000000000
 51
333.152787000000100
  0
LINE
  8
0
  6
CONTINUOUS
 62
256
 10
-118.384559000000000
 20
-170.078303000000010
 11
-41.043193000000002
 21
-170.078303000000010
  0
ARC
  8
0
  6
CONTINUOUS
 62
256
 10
-118.384559000000000
 20
-167.078303000000010
 40
3.000000000000002
 50
206.847212999999810
 51
270.000000000000000
  0
ARC
  8
0
  6
CONTINUOUS
 62
256
 10
-132.213876000000000
 20
-174.078303000000010
 40
12.499999999999989
 50
26.847212999999968
 51
83.651414999999986
  0
ARC
  8
0
  6
CONTINUOUS
 62
256
 10
-130.499931000000000
 20
-158.673356000000010
 40
2.999999999999992
 50
211.420366000000230
 51
263.651415000000210
  0
ARC
  8
0
  6
CONTINUOUS
 62
256
 10
-146.713876000000000
 20
-168.578303000000010
 40
16.000000000000004
 50
31.420365999999976
 51
76.164775999999975
  0
ARC
  8
0
  6
CONTINUOUS
 62
256
 10
-141.213876000000000
 20
-68.911013999999994
 40
10.000000000000002
 50
103.835224000000080
 51
180.000000000000000
  0
LINE
  8
0
  6
CONTINUOUS
 62
256
 10
-150.713876000000000
 20
-180.578303000000010
 11
-137.713876000000000
 21
-180.578303000000010
  0
ARC
  8
0
  6
CONTINUOUS
 62
256
 10
-150.713876000000000
 20
-172.578303000000010
 40
8.000000000000000
 50
180.000000000000000
 51
270.000000000000000
  0
ARC
  8
0
  6
CONTINUOUS
 62
256
 10
-141.213876000000000
 20
-146.245591999999990
 40
7.000000000000000
 50
180.000000000000000
 51
256.164776000000020
  0
ARC
  8
0
  6
CONTINUOUS
 62
256
 10
-141.213876000000000
 20
-146.245591999999990
 40
10.000000000000000
 50
180.000000000000000
 51
256.164775999999960
  0
LINE
  8
0
  6
CONTINUOUS
 62
256
 10
-158.713876000000000
 20
-42.578302999999998
 11
-158.713876000000000
 21
-172.578303000000010
  0
ARC
  8
0
  6
CONTINUOUS
 62
256
 10
-150.713876000000000
 20
-42.578302999999998
 40
8.000000000000000
 50
90.000000000000000
 51
180.000000000000000
  0
LINE
  8
0
  6
CONTINUOUS
 62
256
 10
-8.713876000000001
 20
-34.578302999999998
 11
-21.713875999999999
 21
-34.578302999999998
  0
ARC
  8
0
  6
CONTINUOUS
 62
256
 10
-118.384559000000000
 20
-48.078302999999998
 40
6.000000000000000
 50
90.000000000000000
 51
153.152786999999990
  0
ARC
  8
0
  6
CONTINUOUS
 62
256
 10
-8.713876000000001
 20
-42.578302999999998
 40
8.000000000000000
 50
0.000000000000000
 51
90.000000000000000
  0
LINE
  8
0
  6
CONTINUOUS
 62
256
 10
-148.213876000000000
 20
-68.911013999999994
 11
-148.213876000000000
 21
-146.245591999999990
  0
ARC
  8
0
  6
CONTINUOUS
 62
256
 10
-141.213876000000000
 20
-68.911013999999994
 40
7.000000000000003
 50
103.835224000000000
 51
180.000000000000000
  0
LINE
  8
0
  6
CONTINUOUS
 62
256
 10
-151.213876000000000
 20
-68.911013999999994
 11
-151.213876000000000
 21
-146.245591999999990
  0
LINE
  8
0
  6
CONTINUOUS
 62
256
 10
-118.384559000000000
 20
-173.078303000000010
 11
-41.043193000000002
 21
-173.078303000000010
  0
LINE
  8
0
  6
CONTINUOUS
 62
256
 10
-0.713876000000000
 20
-172.578303000000010
 11
-0.713876000000000
 21
-42.578302999999998
  0
ARC
  8
0
  6
CONTINUOUS
 62
256
 10
-8.713876000000001
 20
-172.578303000000010
 40
8.000000000000000
 50
270.000000000000000
 51
0.000000000000000
  0
LINE
  8
0
  6
CONTINUOUS
 62
256
 10
-8.213876000000001
 20
-146.245591999999990
 11
-8.213876000000001
 21
-68.911013999999994
  0
ARC
  8
0
  6
CONTINUOUS
 62
256
 10
-118.384559000000000
 20
-167.078303000000010
 40
5.999999999999992
 50
206.847212999999870
 51
270.000000000000000
  0
ARC
  8
0
  6
CONTINUOUS
 62
256
 10
-146.713876000000000
 20
-46.578302999999998
 40
16.000000000000000
 50
283.835223999999980
 51
328.579634000000000
  0
ARC
  8
0
  6
CONTINUOUS
 62
256
 10
-130.499931000000000
 20
-56.483249999999998
 40
3.000000000000001
 50
96.348584999999744
 51
148.579633999999880
  0
ARC
  8
0
  6
CONTINUOUS
 62
256
 10
-41.043193000000002
 20
-167.078303000000010
 40
6.000000000000000
 50
270.000000000000000
 51
333.152786999999880
  0
ARC
  8
0
  6
CONTINUOUS
 62
256
 10
-132.213876000000000
 20
-41.078302999999998
 40
12.499999999999998
 50
276.348585000000010
 51
333.152786999999990
  0
CIRCLE
  8
0
  6
CONTINUOUS
 62
256
 10
-27.213875999999999
 20
-174.078303000000010
 40
5.500000000000000
  0
ARC
  8
0
  6
CONTINUOUS
 62
256
 10
-118.384559000000000
 20
-48.078302999999998
 40
3.000000000000000
 50
90.000000000000000
 51
153.152787000000070
  0
ARC
  8
0
  6
CONTINUOUS
 62
256
 10
-18.213875999999999
 20
-146.245591999999990
 40
10.000000000000005
 50
283.835223999999980
 51
0.000000000000000
  0
ARC
  8
0
  6
CONTINUOUS
 62
256
 10
-18.213875999999999
 20
-68.911013999999994
 40
10.000000000000000
 50
0.000000000000000
 51
76.164776000000003
  0
ARC
  8
0
  6
CONTINUOUS
 62
256
 10
-28.927821000000002
 20
-56.483249999999998
 40
3.000000000000000
 50
31.420365999999976
 51
83.651415000000000
  0
ARC
  8
0
  6
CONTINUOUS
 62
256
 10
-12.713876000000001
 20
-46.578302999999998
 40
16.000000000000004
 50
211.420366000000000
 51
256.164776000000020
  0
ARC
  8
0
  6
CONTINUOUS
 62
256
 10
-18.213875999999999
 20
-68.911013999999994
 40
7.000000000000000
 50
0.000000000000000
 51
76.164775999999989
  0
LINE
  8
0
  6
CONTINUOUS
 62
256
 10
-11.213876000000001
 20
-146.245591999999990
 11
-11.213876000000001
 21
-68.911013999999994
  0
CIRCLE
  8
0
  6
CONTINUOUS
 62
256
 10
-27.213875999999999
 20
-41.078302999999998
 40
5.500000000000000
  0
CIRCLE
  8
0
  6
CONTINUOUS
 62
256
 10
-132.213876000000000
 20
-174.078303000000010
 40
5.500000000000000
  0
CIRCLE
  8
0
  6
CONTINUOUS
 62
256
 10
-132.213876000000000
 20
-41.078302999999998
 40
5.500000000000000
  0
LINE
  8
0
  6
DASHDOT
 62
256
 10
0.786124000000000
 20
-168.578303000000010
 11
-23.285482999999999
 21
-168.578303000000010
  0
LINE
  8
0
  6
DASHDOT
 62
256
 10
0.786124000000000
 20
-46.578302999999998
 11
-23.285482999999999
 21
-46.578302999999998
  0
LINE
  8
0
  6
DASHDOT
 62
256
 10
-12.713876000000001
 20
-33.078302999999998
 11
-12.713876000000001
 21
-58.567041000000003
  0
LINE
  8
0
  6
DASHDOT
 62
256
 10
-20.599589999999999
 20
-41.078302999999998
 11
-34.273229000000001
 21
-41.078302999999998
  0
LINE
  8
0
  6
DASHDOT
 62
256
 10
-27.213875999999999
 20
-32.578302999999998
 11
-27.213875999999999
 21
-49.044328000000000
  0
LINE
  8
0
  6
DASHDOT
 62
256
 10
-132.213876000000000
 20
-32.578302999999998
 11
-132.213876000000000
 21
-48.800156000000001
  0
LINE
  8
0
  6
DASHDOT
 62
256
 10
-146.713876000000000
 20
-33.078302999999998
 11
-146.713876000000000
 21
-57.346179999999997
  0
LINE
  8
0
  6
DASHDOT
 62
256
 10
-18.713875999999999
 20
-174.078303000000010
 11
-34.761572999999999
 21
-174.078303000000010
  0
ARC
  8
0
  6
CONTINUOUS
 62
256
 10
-172.213876000000000
 20
-61.078302999999998
 40
3.000000000000000
 50
0.000000000000000
 51
90.000000000000000
  0
ARC
  8
0
  6
CONTINUOUS
 62
256
 10
-162.713876000000000
 20
-55.078302999999998
 40
3.000000000000000
 50
270.000000000000000
 51
0.000000000000000
  0
ARC
  8
0
  6
CONTINUOUS
 62
256
 10
-160.081373000000010
 20
-180.078303000000010
 40
2.999999999999993
 50
38.682186999999864
 51
90.000000000000000
  0
LINE
  8
0
  6
CONTINUOUS
 62
256
 10
-169.213876000000000
 20
-61.078302999999998
 11
-169.213876000000000
 21
-174.078303000000010
  0
LINE
  8
0
  6
DASHED
 62
256
 10
-169.213876000000000
 20
-137.038852999999990
 11
-169.213876000000000
 21
-117.578303000000010
  0
LINE
  8
0
  6
DASHED
 62
256
 10
-169.213876000000000
 20
-98.117752999999993
 11
-169.213876000000000
 21
-117.578303000000010
  0
LINE
  8
0
  6
CONTINUOUS
 62
256
 10
-160.081373000000010
 20
-177.078303000000010
 11
-192.713876000000000
 21
-177.078303000000010
  0
LINE
  8
0
  6
CONTINUOUS
 62
256
 10
-162.713876000000000
 20
-58.078302999999998
 11
-192.713876000000000
 21
-58.078302999999998
  0
LINE
  8
0
  6
CONTINUOUS
 62
256
 10
-192.713876000000000
 20
-117.578303000000010
 11
-192.713876000000000
 21
-58.078302999999998
  0
LINE
  8
0
  6
CONTINUOUS
 62
256
 10
-192.713876000000000
 20
-117.578303000000010
 11
-192.713876000000000
 21
-177.078303000000010
  0
LINE
  8
0
  6
DASHED
 62
256
 10
-169.213876000000000
 20
-98.117752999999993
 11
-169.213876000000000
 21
-117.578303000000010
  0
LINE
  8
0
  6
DASHED
 62
256
 10
-159.713876000000000
 20
-106.643939000000000
 11
-159.713876000000000
 21
-117.578303000000010
  0
LINE
  8
0
  6
DASHED
 62
256
 10
-159.713876000000000
 20
-128.512666999999990
 11
-159.713876000000000
 21
-117.578303000000010
  0
LINE
  8
0
  6
DASHED
 62
256
 10
-169.213876000000000
 20
-137.038852999999990
 11
-169.213876000000000
 21
-117.578303000000010
  0
ARC
  8
0
  6
CONTINUOUS
 62
256
 10
-172.213876000000000
 20
-174.078303000000010
 40
3.000000000000000
 50
270.000000000000000
 51
0.000000000000000
  0
LINE
  8
0
  6
CONTINUOUS
 62
256
 10
-185.713876000000000
 20
-97.578303000000005
 11
-192.713876000000000
 21
-97.578303000000005
  0
LINE
  8
0
  6
CONTINUOUS
 62
256
 10
-185.713876000000000
 20
-137.578303000000010
 11
-192.713876000000000
 21
-137.578303000000010
  0
ARC
  8
0
  6
CONTINUOUS
 62
256
 10
-188.713876000000000
 20
-174.078303000000010
 40
3.000000000000000
 50
270.000000000000000
 51
0.000000000000000
  0
LINE
  8
0
  6
CONTINUOUS
 62
256
 10
-185.713876000000000
 20
-173.078303000000010
 11
-185.713876000000000
 21
-174.078303000000010
  0
CIRCLE
  8
0
  6
CONTINUOUS
 62
256
 10
-60.713875999999999
 20
-94.578303000000005
 40
22.000000000000000
  0
CIRCLE
  8
0
  6
CONTINUOUS
 62
256
 10
-60.713875999999999
 20
-94.578303000000005
 40
47.000000000000000
  0
CIRCLE
  8
0
  6
CONTINUOUS
 62
256
 10
-60.713875999999999
 20
-94.578303000000005
 40
42.500000000000000
  0
LINE
  8
0
  6
DASHDOT
 62
256
 10
-60.713875999999999
 20
-27.490098000000000
 11
-60.713875999999999
 21
-156.002953999999990
  0
LINE
  8
0
  6
CONTINUOUS
 62
256
 10
-150.713876000000000
 20
-33.578302999999998
 11
-8.713876000000001
 21
-33.578302999999998
  0
LINE
  8
0
  6
CONTINUOUS
 62
256
 10
-32.713875999999999
 20
-34.578302999999998
 11
-126.713876000000000
 21
-34.578302999999998
  0
LINE
  8
0
  6
CONTINUOUS
 62
256
 10
-41.043193000000002
 20
-42.078302999999998
 11
-118.384559000000000
 21
-42.078302999999998
  0
LINE
  8
0
  6
CONTINUOUS
 62
256
 10
-41.043193000000002
 20
-45.078302999999998
 11
-118.384559000000000
 21
-45.078302999999998
  0
ARC
  8
0
  6
CONTINUOUS
 62
256
 10
-41.043193000000002
 20
-48.078302999999998
 40
3.000000000000000
 50
26.847213000000004
 51
90.000000000000000
  0
ARC
  8
0
  6
CONTINUOUS
 62
256
 10
-27.213875999999999
 20
-41.078302999999998
 40
12.500000000000002
 50
206.847213000000010
 51
263.651414999999990
  0
ARC
  8
0
  6
CONTINUOUS
 62
256
 10
-41.043193000000002
 20
-48.078302999999998
 40
5.999999999999999
 50
26.847213000000004
 51
90.000000000000000
  0
LINE
  8
0
  6
CONTINUOUS
 62
256
 10
-56.713875999999999
 20
-80.121471000000000
 11
-56.713875999999999
 21
-76.278302999999994
  0
LINE
  8
0
  6
CONTINUOUS
 62
256
 10
-64.713875999999999
 20
-76.278302999999994
 11
-56.713875999999999
 21
-76.278302999999994
  0
LINE
  8
0
  6
CONTINUOUS
 62
256
 10
-64.713875999999999
 20
-80.121471000000000
 11
-64.713875999999999
 21
-76.278302999999994
  0
ARC
  8
0
  6
CONTINUOUS
 62
256
 10
-60.713875999999999
 20
-94.578303000000005
 40
15.000000000000002
 50
105.466009999999980
 51
74.533990000000003
  0
LINE
  8
0
  6
DASHDOT
 62
256
 10
4.030349000000000
 20
-94.578303000000005
 11
-117.468075000000000
 21
-94.578303000000005
  0
LINE
  8
0
  6
DASHDOT
 62
256
 10
266.341342000000000
 20
-67.124948000000003
 11
266.341342000000000
 21
-121.400604000000000
  0
CIRCLE
  8
0
  6
CONTINUOUS
 62
256
 10
266.341342000000000
 20
-94.578303000000005
 40
22.000000000000000
  0
ARC
  8
0
  6
CONTINUOUS
 62
256
 10
266.341342000000000
 20
-94.578303000000005
 40
15.000000000000002
 50
105.466009999999980
 51
74.533990000000031
  0
LINE
  8
0
  6
DASHDOT
 62
256
 10
291.627192999999980
 20
-94.578303000000005
 11
240.559951000000010
 21
-94.578303000000005
  0
LINE
  8
0
  6
CONTINUOUS
 62
256
 10
270.341342000000000
 20
-76.278302999999994
 11
262.341342000000000
 21
-76.278302999999994
  0
LINE
  8
0
  6
CONTINUOUS
 62
256
 10
270.341342000000000
 20
-76.278302999999994
 11
270.341342000000000
 21
-80.121471000000000
  0
LINE
  8
0
  6
CONTINUOUS
 62
256
 10
262.341342000000000
 20
-76.278302999999994
 11
262.341342000000000
 21
-80.121471000000000
  0
CIRCLE
  8
0
  6
CONTINUOUS
 62
256
 10
-12.713876000000001
 20
-46.578302999999998
 40
5.000000000000000
  0
CIRCLE
  8
0
  6
CONTINUOUS
 62
256
 10
-12.713876000000001
 20
-46.578302999999998
 40
4.188000000000001
  0
CIRCLE
  8
0
  6
CONTINUOUS
 62
256
 10
-146.713876000000000
 20
-46.578302999999998
 40
5.000000000000000
  0
CIRCLE
  8
0
  6
CONTINUOUS
 62
256
 10
-146.713876000000000
 20
-46.578302999999998
 40
4.187999999999988
  0
CIRCLE
  8
0
  6
CONTINUOUS
 62
256
 10
-12.713876000000001
 20
-168.578303000000010
 40
5.000000000000000
  0
CIRCLE
  8
0
  6
CONTINUOUS
 62
256
 10
-12.713876000000001
 20
-168.578303000000010
 40
4.188000000000001
  0
CIRCLE
  8
0
  6
CONTINUOUS
 62
256
 10
-146.713876000000000
 20
-168.578303000000010
 40
5.000000000000000
  0
CIRCLE
  8
0
  6
CONTINUOUS
 62
256
 10
-146.713876000000000
 20
-168.578303000000010
 40
4.187999999999988
  0
TEXT
  8
0
  6
CONTINUOUS
 62
256
 10
512.847229003906250
 20
-234.744659423828120
 40
3.299999952316284
  1
1/1
 50
0.000002504478167
 41
0.850909097352304
  7
STANDARD1
  0
TEXT
  8
0
  6
CONTINUOUS
 62
256
 10
510.429260253906250
 20
-234.744659423828120
 40
3.299999952316284
  1
 
 50
0.000002504478167
 41
1.733333298293026
  7
STANDARD1
  0
TEXT
  8
0
  6
CONTINUOUS
 62
256
 10
497.378631591796870
 20
-234.744659423828120
 40
3.299999952316284
  1
SCALE
 50
0.000002504478167
 41
0.821052645401140
  7
STANDARD1
  0
TEXT
  8
0
  6
CONTINUOUS
 62
256
 10
494.127258300781250
 20
-234.744659423828120
 40
3.299999952316284
  1
 
 50
0.000002504478167
 41
1.733333298293026
  7
STANDARD1
  0
TEXT
  8
0
  6
CONTINUOUS
 62
256
 10
508.990447998046880
 20
-229.444656372070310
 40
3.299999952316284
  1
1/60
 50
0.000002504478167
 41
0.832000075658163
  7
STANDARD1
  0
TEXT
  8
0
  6
CONTINUOUS
 62
256
 10
505.199432373046880
 20
-229.444656372070310
 40
3.299999952316284
  1
ü`
 50
0.000002504478167
 41
1.176000019651471
  7
STANDARD1
  0
TEXT
  8
0
  6
CONTINUOUS
 62
256
 10
497.403259277343750
 20
-229.444656372070310
 40
3.299999952316284
  1
1/5
 50
0.000002504478167
 41
0.850909097352304
  7
STANDARD1
  0
TEXT
  8
0
  6
CONTINUOUS
 62
256
 10
494.127258300781250
 20
-229.444656372070310
 40
3.299999952316284
  1
 
 50
0.000002504478167
 41
1.733333298293026
  7
STANDARD1
  0
TEXT
  8
0
  6
CONTINUOUS
 62
256
 10
494.127258300781250
 20
-224.144653320312500
 40
3.299999952316284
  1
GM-SHYM-RH
 50
0.000002504478167
 41
0.799999980493025
  7
STANDARD1
  0
TEXT
  8
0
  6
CONTINUOUS
 62
256
 10
499.952636718750000
 20
-218.844665527343750
 40
3.299999952316284
  1
0.4kW
 50
0.000002504478167
 41
0.821052645401140
  7
STANDARD1
  0
TEXT
  8
0
  6
CONTINUOUS
 62
256
 10
494.127258300781250
 20
-218.844665527343750
 40
3.299999952316284
  1
  
 50
0.000002504478167
 41
1.485714400175845
  7
STANDARD1
  0
TEXT
  8
0
  6
CONTINUOUS
 62
256
 10
499.946746826171870
 20
-213.544662475585940
 40
3.299999952316284
  1
SHY004
 50
0.000002504478167
 41
0.813913121261144
  7
STANDARD1
  0
TEXT
  8
0
  6
CONTINUOUS
 62
256
 10
494.127258300781250
 20
-213.544662475585940
 40
3.299999952316284
  1
  
 50
0.000002504478167
 41
1.485714400175845
  7
STANDARD1
  0
LINE
  8
0
  6
DASHDOT
 62
256
 10
-467.073394000000010
 20
-26.122463000000000
 11
-467.073394000000010
 21
-218.505133000000000
  0
ARC
  8
0
  6
CONTINUOUS
 62
256
 10
-467.073394000000010
 20
-353.178303000000030
 40
289.396999999999990
 50
83.948014999999998
 51
89.912559000000016
  0
LINE
  8
0
  6
CONTINUOUS
 62
256
 10
-430.073394000000010
 20
-181.587031000000000
 11
-437.073394000000010
 21
-181.463236999999990
  0
LINE
  8
0
  6
CONTINUOUS
 62
256
 10
-502.190110000000000
 20
-180.311665000000000
 11
-506.073394000000010
 21
-180.242990999999990
  0
LINE
  8
0
  6
CONTINUOUS
 62
256
 10
-516.073394000000010
 20
-180.242990999999990
 11
-516.073394000000010
 21
-171.957314000000000
  0
LINE
  8
0
  6
CONTINUOUS
 62
256
 10
-430.073394000000010
 20
-179.784106000000010
 11
-430.073394000000010
 21
-181.587031000000000
  0
LINE
  8
0
  6
CONTINUOUS
 62
256
 10
-418.073394000000010
 20
-181.368842000000000
 11
-418.073394000000010
 21
-171.957314000000000
  0
LINE
  8
0
  6
CONTINUOUS
 62
256
 10
-410.073394000000010
 20
-73.578303000000005
 11
-410.073394000000010
 21
-75.215584000000007
  0
ARC
  8
0
  6
CONTINUOUS
 62
256
 10
-411.073394000000010
 20
-73.578303000000005
 40
1.000000000000000
 50
0.000000000000000
 51
49.553541000000891
  0
LINE
  8
0
  6
CONTINUOUS
 62
256
 10
-414.073394000000010
 20
-52.078302999999998
 11
-414.073394000000010
 21
-67.199292000000000
  0
LINE
  8
0
  6
CONTINUOUS
 62
256
 10
-418.073394000000010
 20
-63.199292000000000
 11
-418.073394000000010
 21
-33.787764000000003
  0
LINE
  8
0
  6
CONTINUOUS
 62
256
 10
-430.073394000000010
 20
-33.569575000000000
 11
-430.073394000000010
 21
-55.372500000000002
  0
LINE
  8
0
  6
CONTINUOUS
 62
256
 10
-516.073394000000010
 20
-63.199292000000000
 11
-516.073394000000010
 21
-34.913615000000000
  0
LINE
  8
0
  6
CONTINUOUS
 62
256
 10
-520.073394000000010
 20
-67.199292000000000
 11
-520.073394000000010
 21
-52.078302999999998
  0
LINE
  8
0
  6
CONTINUOUS
 62
256
 10
-524.073394000000010
 20
-73.578303000000005
 11
-524.073394000000010
 21
-75.215584000000007
  0
ARC
  8
0
  6
CONTINUOUS
 62
256
 10
-523.073394000000010
 20
-73.578303000000005
 40
1.000000000000020
 50
130.446459000001600
 51
180.000000000000000
  0
LINE
  8
0
  6
CONTINUOUS
 62
256
 10
-506.073394000000010
 20
-34.913615000000000
 11
-516.073394000000010
 21
-34.913615000000000
  0
LINE
  8
0
  6
CONTINUOUS
 62
256
 10
-516.073394000000010
 20
-52.078302999999998
 11
-520.073394000000010
 21
-52.078302999999998
  0
LINE
  8
0
  6
CONTINUOUS
 62
256
 10
-418.073394000000010
 20
-33.787764000000003
 11
-430.073394000000010
 21
-33.578302999999998
  0
LINE
  8
0
  6
CONTINUOUS
 62
256
 10
-430.073394000000010
 20
-33.569575000000000
 11
-506.073394000000010
 21
-34.913615000000000
  0
LINE
  8
0
  6
CONTINUOUS
 62
256
 10
-414.073394000000010
 20
-52.078302999999998
 11
-418.073394000000010
 21
-52.078302999999998
  0
LINE
  8
0
  6
CONTINUOUS
 62
256
 10
-430.073394000000010
 20
-181.578303000000010
 11
-418.073394000000010
 21
-181.368842000000000
  0
LINE
  8
0
  6
CONTINUOUS
 62
256
 10
-506.073394000000010
 20
-180.242990999999990
 11
-516.073394000000010
 21
-180.242990999999990
  0
ARC
  8
0
  6
CONTINUOUS
 62
256
 10
-226.473394000000010
 20
-117.578303000000010
 40
289.396999999999990
 50
172.102011000000030
 51
180.000000000000000
  0
ARC
  8
0
  6
CONTINUOUS
 62
256
 10
-226.473394000000010
 20
-117.578303000000010
 40
289.397000000000050
 50
180.000000000000000
 51
187.897988999999970
  0
ARC
  8
0
  6
CONTINUOUS
 62
256
 10
-507.182171999999980
 20
-156.519821000000010
 40
6.000000000000047
 50
187.897988999999940
 51
225.000000000000170
  0
LINE
  8
0
  6
CONTINUOUS
 62
256
 10
-511.424812999999970
 20
-160.762462000000000
 11
-506.848747000000000
 21
-165.338527000000000
  0
ARC
  8
0
  6
CONTINUOUS
 62
256
 10
-495.961424000000020
 20
-154.451203999999990
 40
15.397000000000016
 50
224.999999999999910
 51
263.948015000000110
  0
ARC
  8
0
  6
CONTINUOUS
 62
256
 10
-467.073394000000010
 20
118.021697000000000
 40
289.397000000000050
 50
263.948015000000000
 51
270.000000000000000
  0
ARC
  8
0
  6
CONTINUOUS
 62
256
 10
-707.673394000000030
 20
-117.578303000000010
 40
289.396999999999990
 50
352.102011000000000
 51
360.000000000000000
  0
ARC
  8
0
  6
CONTINUOUS
 62
256
 10
-426.964616999999980
 20
-156.519821000000010
 40
5.999999999999989
 50
314.999999999999770
 51
352.102010999999950
  0
LINE
  8
0
  6
CONTINUOUS
 62
256
 10
-422.721975999999980
 20
-160.762462000000000
 11
-427.298042000000010
 21
-165.338527000000000
  0
ARC
  8
0
  6
CONTINUOUS
 62
256
 10
-438.185364999999990
 20
-154.451203999999990
 40
15.397000000000000
 50
276.051984999999890
 51
314.999999999999940
  0
ARC
  8
0
  6
CONTINUOUS
 62
256
 10
-467.073394000000010
 20
118.021697000000000
 40
289.396999999999990
 50
270.000000000000000
 51
276.051985000000000
  0
ARC
  8
0
  6
CONTINUOUS
 62
256
 10
-495.961424000000020
 20
-154.451203999999990
 40
26.600000000000016
 50
224.999999999999940
 51
263.948015000000050
  0
ARC
  8
0
  6
CONTINUOUS
 62
256
 10
-438.185364999999990
 20
-154.451203999999990
 40
26.600000000000009
 50
276.051984999999950
 51
315.000000000000060
  0
LINE
  8
0
  6
DASHDOT
 62
256
 10
-533.078677999999970
 20
-117.578303000000010
 11
-402.244167000000000
 21
-117.578303000000010
  0
ARC
  8
0
  6
CONTINUOUS
 62
256
 10
-226.473394000000010
 20
-117.578303000000010
 40
300.600000000000020
 50
171.402918000000000
 51
180.000000000000000
  0
ARC
  8
0
  6
CONTINUOUS
 62
256
 10
-517.170009000000050
 20
-161.526890000000010
 40
6.600000000000022
 50
188.597082000000030
 51
225.000000000000170
  0
LINE
  8
0
  6
CONTINUOUS
 62
256
 10
-521.836913999999980
 20
-166.193794999999990
 11
-514.770463999999950
 21
-173.260244000000000
  0
ARC
  8
0
  6
CONTINUOUS
 62
256
 10
-467.073394000000010
 20
118.021697000000000
 40
300.600000000000020
 50
263.948015000000000
 51
276.051985000000000
  0
ARC
  8
0
  6
CONTINUOUS
 62
256
 10
-707.673394000000030
 20
-117.578303000000010
 40
300.600000000000020
 50
351.402918000000000
 51
0.000000000000000
  0
ARC
  8
0
  6
CONTINUOUS
 62
256
 10
-416.976780000000020
 20
-161.526890000000010
 40
6.600000000000017
 50
315.000000000000170
 51
351.402917999999940
  0
ARC
  8
0
  6
CONTINUOUS
 62
256
 10
-226.473394000000010
 20
-117.578303000000010
 40
300.600000000000020
 50
180.000000000000000
 51
188.597082000000000
  0
ARC
  8
0
  6
CONTINUOUS
 62
256
 10
-707.673394000000030
 20
-117.578303000000010
 40
300.600000000000020
 50
0.000000000000000
 51
8.597081999999999
  0
LINE
  8
0
  6
CONTINUOUS
 62
256
 10
-412.309874999999980
 20
-166.193794999999990
 11
-419.376324000000010
 21
-173.260244000000000
  0
ARC
  8
0
  6
CONTINUOUS
 62
256
 10
-425.766615000000000
 20
-121.578303000000010
 40
1.499999999999979
 50
354.468927999999720
 51
90.000000000000000
  0
ARC
  8
0
  6
CONTINUOUS
 62
256
 10
-425.766615000000000
 20
-113.578303000000010
 40
1.500000000000000
 50
270.000000000000000
 51
5.531072000000276
  0
ARC
  8
0
  6
CONTINUOUS
 62
256
 10
-467.073394000000010
 20
-117.578303000000010
 40
17.999999999999989
 50
311.837003999999920
 51
348.162995999999960
  0
ARC
  8
0
  6
CONTINUOUS
 62
256
 10
-467.073394000000010
 20
-117.578303000000010
 40
27.499999999999986
 50
7.928141999999994
 51
52.071858000000006
  0
LINE
  8
0
  6
CONTINUOUS
 62
256
 10
-425.766615000000000
 20
-120.078303000000010
 11
-428.781749999999990
 21
-120.078303000000010
  0
LINE
  8
0
  6
CONTINUOUS
 62
256
 10
-445.762509000000020
 20
-149.489838999999990
 11
-444.254940999999970
 21
-152.101023000000000
  0
LINE
  8
0
  6
CONTINUOUS
 62
256
 10
-435.324379000000020
 20
-120.078303000000010
 11
-438.350580999999980
 21
-120.078303000000010
  0
ARC
  8
0
  6
CONTINUOUS
 62
256
 10
-435.324379000000020
 20
-121.578303000000010
 40
1.500000000000028
 50
352.819243999999910
 51
90.000000000000000
  0
ARC
  8
0
  6
CONTINUOUS
 62
256
 10
-428.781749999999990
 20
-121.578303000000010
 40
1.500000000000000
 50
90.000000000000000
 51
174.036430000000220
  0
ARC
  8
0
  6
CONTINUOUS
 62
256
 10
-442.955902999999980
 20
-151.351023000000000
 40
1.499999999999975
 50
210.000000000000510
 51
305.531071999999480
  0
ARC
  8
0
  6
CONTINUOUS
 62
256
 10
-467.073394000000010
 20
-117.578303000000010
 40
43.000000000000021
 50
305.531071999999990
 51
354.468928000000010
  0
ARC
  8
0
  6
CONTINUOUS
 62
256
 10
-449.884105999999970
 20
-155.351023000000000
 40
1.499999999999989
 50
294.468928000000010
 51
29.999999999999456
  0
LINE
  8
0
  6
CONTINUOUS
 62
256
 10
-450.092636000000030
 20
-151.989838999999990
 11
-448.585067999999980
 21
-154.601023000000000
  0
ARC
  8
0
  6
CONTINUOUS
 62
256
 10
-451.391674000000020
 20
-152.739838999999990
 40
1.499999999999975
 50
30.000000000000544
 51
114.036429999999850
  0
ARC
  8
0
  6
CONTINUOUS
 62
256
 10
-467.073394000000010
 20
-117.578303000000010
 40
37.000000000000021
 50
245.963569999999950
 51
294.036429999999940
  0
ARC
  8
0
  6
CONTINUOUS
 62
256
 10
-467.073394000000010
 20
-117.578303000000010
 40
43.000000000000021
 50
245.531072000000020
 51
294.468927999999950
  0
ARC
  8
0
  6
CONTINUOUS
 62
256
 10
-484.262681999999980
 20
-155.351023000000000
 40
1.499999999999975
 50
149.999999999999460
 51
245.531072000000020
  0
LINE
  8
0
  6
CONTINUOUS
 62
256
 10
-485.561719999999980
 20
-154.601023000000000
 11
-484.054152999999990
 21
-151.989838999999990
  0
ARC
  8
0
  6
CONTINUOUS
 62
256
 10
-482.755114999999990
 20
-152.739838999999990
 40
1.499999999999986
 50
65.963570000000146
 51
149.999999999999460
  0
ARC
  8
0
  6
CONTINUOUS
 62
256
 10
-491.190885999999980
 20
-151.351023000000000
 40
1.499999999999989
 50
234.468928000000520
 51
329.999999999999490
  0
LINE
  8
0
  6
CONTINUOUS
 62
256
 10
-489.891846999999980
 20
-152.101023000000000
 11
-488.384279999999990
 21
-149.489838999999990
  0
LINE
  8
0
  6
CONTINUOUS
 62
256
 10
-425.766615000000000
 20
-115.078303000000010
 11
-428.781749999999990
 21
-115.078303000000010
  0
ARC
  8
0
  6
CONTINUOUS
 62
256
 10
-428.781749999999990
 20
-113.578303000000010
 40
1.500000000000012
 50
185.963569999999780
 51
270.000000000000000
  0
LINE
  8
0
  6
CONTINUOUS
 62
256
 10
-435.324379000000020
 20
-115.078303000000010
 11
-438.350580999999980
 21
-115.078303000000010
  0
ARC
  8
0
  6
CONTINUOUS
 62
256
 10
-435.324379000000020
 20
-113.578303000000010
 40
1.500000000000000
 50
270.000000000000000
 51
7.180756000000089
  0
ARC
  8
0
  6
CONTINUOUS
 62
256
 10
-467.073394000000010
 20
-117.578303000000010
 40
23.999999999999993
 50
10.240347999999988
 51
49.759652000000010
  0
ARC
  8
0
  6
CONTINUOUS
 62
256
 10
-452.538498000000000
 20
-100.403124000000010
 40
1.499999999999991
 50
49.759652000000230
 51
150.000000000000540
  0
LINE
  8
0
  6
CONTINUOUS
 62
256
 10
-455.365663999999980
 20
-102.299918000000010
 11
-453.837536000000000
 21
-99.653124000000005
  0
ARC
  8
0
  6
CONTINUOUS
 62
256
 10
-454.066624999999990
 20
-103.049918000000010
 40
1.499999999999975
 50
149.999999999999460
 51
228.162996000000190
  0
ARC
  8
0
  6
CONTINUOUS
 62
256
 10
-467.073394000000010
 20
-117.578303000000010
 40
17.999999999999975
 50
11.837004000000027
 51
48.162996000000071
  0
ARC
  8
0
  6
CONTINUOUS
 62
256
 10
-447.988060000000020
 20
-113.578303000000010
 40
1.499999999999997
 50
191.837003999999810
 51
270.000000000000000
  0
LINE
  8
0
  6
CONTINUOUS
 62
256
 10
-444.931805000000000
 20
-115.078303000000010
 11
-447.988060000000020
 21
-115.078303000000010
  0
ARC
  8
0
  6
CONTINUOUS
 62
256
 10
-444.931805000000000
 20
-113.578303000000010
 40
1.500000000000000
 50
270.000000000000000
 51
10.240347999999715
  0
ARC
  8
0
  6
CONTINUOUS
 62
256
 10
-467.073394000000010
 20
-117.578303000000010
 40
14.500000000000014
 50
17.920213000000000
 51
42.079786999999946
  0
ARC
  8
0
  6
CONTINUOUS
 62
256
 10
-457.424634000000030
 20
-108.866159999999990
 40
1.499999999999994
 50
42.079787000000181
 51
149.999999999999460
  0
LINE
  8
0
  6
CONTINUOUS
 62
256
 10
-460.325755000000020
 20
-110.891049000000000
 11
-458.723672000000020
 21
-108.116159999999990
  0
ARC
  8
0
  6
CONTINUOUS
 62
256
 10
-459.026717000000020
 20
-111.641049000000000
 40
1.499999999999975
 50
149.999999999999460
 51
216.421821999999960
  0
ARC
  8
0
  6
CONTINUOUS
 62
256
 10
-467.073394000000010
 20
-117.578303000000010
 40
8.499999999999991
 50
23.578178000000058
 51
36.421822000000063
  0
ARC
  8
0
  6
CONTINUOUS
 62
256
 10
-457.908243000000030
 20
-113.578303000000010
 40
1.499999999999984
 50
203.578178000000380
 51
270.000000000000000
  0
LINE
  8
0
  6
CONTINUOUS
 62
256
 10
-454.704076999999980
 20
-115.078303000000010
 11
-457.908243000000030
 21
-115.078303000000010
  0
ARC
  8
0
  6
CONTINUOUS
 62
256
 10
-454.704076999999980
 20
-113.578303000000010
 40
1.500000000000000
 50
270.000000000000000
 51
17.920212999999450
  0
ARC
  8
0
  6
CONTINUOUS
 62
256
 10
-467.073394000000010
 20
-117.578303000000010
 40
23.999999999999996
 50
190.240348000000040
 51
229.759652000000020
  0
ARC
  8
0
  6
CONTINUOUS
 62
256
 10
-489.214984000000020
 20
-121.578303000000010
 40
1.500000000000000
 50
90.000000000000000
 51
190.240347999999700
  0
LINE
  8
0
  6
CONTINUOUS
 62
256
 10
-486.158728999999990
 20
-120.078303000000010
 11
-489.214984000000020
 21
-120.078303000000010
  0
ARC
  8
0
  6
CONTINUOUS
 62
256
 10
-486.158728999999990
 20
-121.578303000000010
 40
1.499999999999997
 50
11.837003999999803
 51
90.000000000000000
  0
ARC
  8
0
  6
CONTINUOUS
 62
256
 10
-467.073394000000010
 20
-117.578303000000010
 40
17.999999999999975
 50
191.837004000000010
 51
228.162996000000080
  0
ARC
  8
0
  6
CONTINUOUS
 62
256
 10
-480.080163000000030
 20
-132.106687999999990
 40
1.499999999999975
 50
329.999999999999490
 51
48.162996000000220
  0
LINE
  8
0
  6
CONTINUOUS
 62
256
 10
-480.309253000000010
 20
-135.503481999999990
 11
-478.781124999999970
 21
-132.856687999999990
  0
ARC
  8
0
  6
CONTINUOUS
 62
256
 10
-481.608291000000010
 20
-134.753481999999990
 40
1.499999999999991
 50
229.759652000000220
 51
329.999999999999490
  0
ARC
  8
0
  6
CONTINUOUS
 62
256
 10
-467.073394000000010
 20
-117.578303000000010
 40
14.500000000000011
 50
197.920212999999930
 51
222.079786999999930
  0
ARC
  8
0
  6
CONTINUOUS
 62
256
 10
-479.442710999999970
 20
-121.578303000000010
 40
1.500000000000000
 50
90.000000000000000
 51
197.920212999999450
  0
LINE
  8
0
  6
CONTINUOUS
 62
256
 10
-476.238545999999990
 20
-120.078303000000010
 11
-479.442710999999970
 21
-120.078303000000010
  0
ARC
  8
0
  6
CONTINUOUS
 62
256
 10
-476.238545999999990
 20
-121.578303000000010
 40
1.499999999999984
 50
23.578178000000403
 51
90.000000000000000
  0
ARC
  8
0
  6
CONTINUOUS
 62
256
 10
-467.073394000000010
 20
-117.578303000000010
 40
8.499999999999991
 50
203.578178000000070
 51
216.421822000000050
  0
ARC
  8
0
  6
CONTINUOUS
 62
256
 10
-475.120071999999990
 20
-123.515557000000000
 40
1.499999999999975
 50
329.999999999999490
 51
36.421821999999963
  0
LINE
  8
0
  6
CONTINUOUS
 62
256
 10
-475.423115999999990
 20
-127.040446000000000
 11
-473.821034000000000
 21
-124.265557000000000
  0
ARC
  8
0
  6
CONTINUOUS
 62
256
 10
-476.722153999999990
 20
-126.290446000000000
 40
1.499999999999994
 50
222.079787000000180
 51
329.999999999999490
  0
ARC
  8
0
  6
CONTINUOUS
 62
256
 10
-467.073394000000010
 20
-117.578303000000010
 40
24.000000000000004
 50
130.240347999999980
 51
169.759651999999960
  0
ARC
  8
0
  6
CONTINUOUS
 62
256
 10
-489.214984000000020
 20
-113.578303000000010
 40
1.500000000000009
 50
169.759652000000300
 51
270.000000000000000
  0
LINE
  8
0
  6
CONTINUOUS
 62
256
 10
-486.158728999999990
 20
-115.078303000000010
 11
-489.214984000000020
 21
-115.078303000000010
  0
ARC
  8
0
  6
CONTINUOUS
 62
256
 10
-486.158728999999990
 20
-113.578303000000010
 40
1.500000000000000
 50
270.000000000000000
 51
348.162996000000190
  0
ARC
  8
0
  6
CONTINUOUS
 62
256
 10
-467.073394000000010
 20
-117.578303000000010
 40
17.999999999999989
 50
131.837003999999920
 51
168.162995999999990
  0
ARC
  8
0
  6
CONTINUOUS
 62
256
 10
-480.080163000000030
 20
-103.049918000000010
 40
1.499999999999989
 50
311.837003999999810
 51
30.000000000000544
  0
LINE
  8
0
  6
CONTINUOUS
 62
256
 10
-480.309253000000010
 20
-99.653124000000005
 11
-478.781124999999970
 21
-102.299918000000010
  0
ARC
  8
0
  6
CONTINUOUS
 62
256
 10
-481.608291000000010
 20
-100.403124000000010
 40
1.500000000000025
 50
29.999999999999456
 51
130.240347999999780
  0
ARC
  8
0
  6
CONTINUOUS
 62
256
 10
-467.073394000000010
 20
-117.578303000000010
 40
14.500000000000012
 50
137.920213000000070
 51
162.079787000000070
  0
ARC
  8
0
  6
CONTINUOUS
 62
256
 10
-479.442710999999970
 20
-113.578303000000010
 40
1.500000000000024
 50
162.079787000000550
 51
270.000000000000000
  0
LINE
  8
0
  6
CONTINUOUS
 62
256
 10
-476.238545999999990
 20
-115.078303000000010
 11
-479.442710999999970
 21
-115.078303000000010
  0
ARC
  8
0
  6
CONTINUOUS
 62
256
 10
-476.238545999999990
 20
-113.578303000000010
 40
1.500000000000000
 50
270.000000000000000
 51
336.421821999999620
  0
ARC
  8
0
  6
CONTINUOUS
 62
256
 10
-467.073394000000010
 20
-117.578303000000010
 40
8.499999999999989
 50
143.578177999999950
 51
156.421821999999930
  0
ARC
  8
0
  6
CONTINUOUS
 62
256
 10
-475.120071999999990
 20
-111.641049000000000
 40
1.500000000000000
 50
323.578178000000040
 51
30.000000000000544
  0
LINE
  8
0
  6
CONTINUOUS
 62
256
 10
-475.423115999999990
 20
-108.116159999999990
 11
-473.821034000000000
 21
-110.891049000000000
  0
ARC
  8
0
  6
CONTINUOUS
 62
256
 10
-476.722153999999990
 20
-108.866159999999990
 40
1.499999999999975
 50
30.000000000000544
 51
137.920212999999820
  0
ARC
  8
0
  6
CONTINUOUS
 62
256
 10
-467.073394000000010
 20
-117.578303000000010
 40
23.999999999999993
 50
70.240348000000012
 51
109.759651999999990
  0
ARC
  8
0
  6
CONTINUOUS
 62
256
 10
-459.466701000000000
 20
-96.403124000000005
 40
1.499999999999975
 50
329.999999999999490
 51
70.240347999999329
  0
LINE
  8
0
  6
CONTINUOUS
 62
256
 10
-459.695790999999990
 20
-99.799918000000005
 11
-458.167663000000000
 21
-97.153124000000005
  0
ARC
  8
0
  6
CONTINUOUS
 62
256
 10
-460.994828999999980
 20
-99.049918000000005
 40
1.500000000000007
 50
251.837003999999720
 51
329.999999999999490
  0
ARC
  8
0
  6
CONTINUOUS
 62
256
 10
-467.073394000000010
 20
-117.578303000000010
 40
17.999999999999996
 50
71.837004000000007
 51
108.162996000000010
  0
ARC
  8
0
  6
CONTINUOUS
 62
256
 10
-473.151959999999970
 20
-99.049918000000005
 40
1.499999999999975
 50
210.000000000000510
 51
288.162996000000310
  0
LINE
  8
0
  6
CONTINUOUS
 62
256
 10
-475.979126000000010
 20
-97.153124000000005
 11
-474.450998000000030
 21
-99.799918000000005
  0
ARC
  8
0
  6
CONTINUOUS
 62
256
 10
-474.680088000000010
 20
-96.403124000000005
 40
1.500000000000012
 50
109.759652000000680
 51
210.000000000000510
  0
ARC
  8
0
  6
CONTINUOUS
 62
256
 10
-467.073394000000010
 20
-117.578303000000010
 40
14.500000000000002
 50
77.920213000000032
 51
102.079786999999980
  0
ARC
  8
0
  6
CONTINUOUS
 62
256
 10
-464.352838000000020
 20
-104.866159999999990
 40
1.499999999999975
 50
329.999999999999490
 51
77.920213000000885
  0
LINE
  8
0
  6
CONTINUOUS
 62
256
 10
-464.655882000000020
 20
-108.391049000000000
 11
-463.053799000000030
 21
-105.616159999999990
  0
ARC
  8
0
  6
CONTINUOUS
 62
256
 10
-465.954920000000020
 20
-107.641049000000000
 40
1.500000000000001
 50
263.578178000000780
 51
329.999999999999490
  0
ARC
  8
0
  6
CONTINUOUS
 62
256
 10
-467.073394000000010
 20
-117.578303000000010
 40
8.500000000000007
 50
83.578177999999994
 51
96.421822000000020
  0
ARC
  8
0
  6
CONTINUOUS
 62
256
 10
-468.191868000000000
 20
-107.641049000000000
 40
1.499999999999975
 50
210.000000000000510
 51
276.421821999999220
  0
LINE
  8
0
  6
CONTINUOUS
 62
256
 10
-471.092988999999990
 20
-105.616159999999990
 11
-469.490906999999990
 21
-108.391049000000000
  0
ARC
  8
0
  6
CONTINUOUS
 62
256
 10
-469.793950999999990
 20
-104.866159999999990
 40
1.500000000000002
 50
102.079786999999110
 51
210.000000000000510
  0
ARC
  8
0
  6
CONTINUOUS
 62
256
 10
-467.073394000000010
 20
-117.578303000000010
 40
23.999999999999993
 50
250.240348000000010
 51
289.759652000000020
  0
ARC
  8
0
  6
CONTINUOUS
 62
256
 10
-459.466701000000000
 20
-138.753481999999990
 40
1.500000000000012
 50
289.759652000000640
 51
30.000000000000544
  0
LINE
  8
0
  6
CONTINUOUS
 62
256
 10
-459.695790999999990
 20
-135.356687999999990
 11
-458.167663000000000
 21
-138.003481999999990
  0
ARC
  8
0
  6
CONTINUOUS
 62
256
 10
-460.994828999999980
 20
-136.106687999999990
 40
1.500000000000025
 50
29.999999999999456
 51
108.162996000000290
  0
ARC
  8
0
  6
CONTINUOUS
 62
256
 10
-467.073394000000010
 20
-117.578303000000010
 40
17.999999999999996
 50
251.837003999999980
 51
288.162995999999960
  0
ARC
  8
0
  6
CONTINUOUS
 62
256
 10
-473.151959999999970
 20
-136.106687999999990
 40
1.500000000000007
 50
71.837003999999709
 51
149.999999999999460
  0
LINE
  8
0
  6
CONTINUOUS
 62
256
 10
-475.979126000000010
 20
-138.003481999999990
 11
-474.450998000000030
 21
-135.356687999999990
  0
ARC
  8
0
  6
CONTINUOUS
 62
256
 10
-474.680088000000010
 20
-138.753481999999990
 40
1.499999999999975
 50
149.999999999999460
 51
250.240347999999300
  0
ARC
  8
0
  6
CONTINUOUS
 62
256
 10
-467.073394000000010
 20
-117.578303000000010
 40
14.499999999999986
 50
257.920212999999990
 51
282.079786999999950
  0
ARC
  8
0
  6
CONTINUOUS
 62
256
 10
-464.352838000000020
 20
-130.290446000000000
 40
1.499999999999989
 50
282.079786999999270
 51
29.999999999999456
  0
LINE
  8
0
  6
CONTINUOUS
 62
256
 10
-464.655882000000020
 20
-126.765557000000000
 11
-463.053799000000030
 21
-129.540446000000000
  0
ARC
  8
0
  6
CONTINUOUS
 62
256
 10
-465.954920000000020
 20
-127.515557000000000
 40
1.500000000000025
 50
29.999999999999456
 51
96.421821999999253
  0
ARC
  8
0
  6
CONTINUOUS
 62
256
 10
-467.073394000000010
 20
-117.578303000000010
 40
8.500000000000007
 50
263.578177999999980
 51
276.421822000000020
  0
ARC
  8
0
  6
CONTINUOUS
 62
256
 10
-468.191868000000000
 20
-127.515557000000000
 40
1.500000000000001
 50
83.578178000000747
 51
150.000000000000540
  0
LINE
  8
0
  6
CONTINUOUS
 62
256
 10
-471.092988999999990
 20
-129.540446000000000
 11
-469.490906999999990
 21
-126.765557000000000
  0
ARC
  8
0
  6
CONTINUOUS
 62
256
 10
-469.793950999999990
 20
-130.290446000000000
 40
1.500000000000025
 50
150.000000000000540
 51
257.920213000000730
  0
ARC
  8
0
  6
CONTINUOUS
 62
256
 10
-467.073394000000010
 20
-117.578303000000010
 40
8.499999999999989
 50
323.578177999999920
 51
336.421821999999910
  0
ARC
  8
0
  6
CONTINUOUS
 62
256
 10
-467.073394000000010
 20
-117.578303000000010
 40
24.000000000000004
 50
310.240347999999980
 51
349.759652000000020
  0
LINE
  8
0
  6
CONTINUOUS
 62
256
 10
-460.325755000000020
 20
-124.265557000000000
 11
-458.723672000000020
 21
-127.040446000000000
  0
LINE
  8
0
  6
CONTINUOUS
 62
256
 10
-444.931805000000000
 20
-120.078303000000010
 11
-447.988060000000020
 21
-120.078303000000010
  0
LINE
  8
0
  6
CONTINUOUS
 62
256
 10
-454.704076999999980
 20
-120.078303000000010
 11
-457.908243000000030
 21
-120.078303000000010
  0
ARC
  8
0
  6
CONTINUOUS
 62
256
 10
-467.073394000000010
 20
-117.578303000000010
 40
14.500000000000021
 50
317.920213000000050
 51
342.079787000000010
  0
LINE
  8
0
  6
CONTINUOUS
 62
256
 10
-455.365663999999980
 20
-132.856687999999990
 11
-453.837536000000000
 21
-135.503481999999990
  0
ARC
  8
0
  6
CONTINUOUS
 62
256
 10
-457.424634000000030
 20
-126.290446000000000
 40
1.499999999999975
 50
210.000000000000510
 51
317.920212999999820
  0
ARC
  8
0
  6
CONTINUOUS
 62
256
 10
-444.931805000000000
 20
-121.578303000000010
 40
1.500000000000009
 50
349.759652000000300
 51
90.000000000000000
  0
ARC
  8
0
  6
CONTINUOUS
 62
256
 10
-454.066624999999990
 20
-132.106687999999990
 40
1.499999999999989
 50
131.837003999999810
 51
210.000000000000510
  0
ARC
  8
0
  6
CONTINUOUS
 62
256
 10
-447.988060000000020
 20
-121.578303000000010
 40
1.500000000000000
 50
90.000000000000000
 51
168.162996000000190
  0
ARC
  8
0
  6
CONTINUOUS
 62
256
 10
-454.704076999999980
 20
-121.578303000000010
 40
1.500000000000024
 50
342.079787000000580
 51
90.000000000000000
  0
ARC
  8
0
  6
CONTINUOUS
 62
256
 10
-452.538498000000000
 20
-134.753481999999990
 40
1.499999999999975
 50
210.000000000000510
 51
310.240347999999810
  0
ARC
  8
0
  6
CONTINUOUS
 62
256
 10
-457.908243000000030
 20
-121.578303000000010
 40
1.500000000000000
 50
90.000000000000000
 51
156.421821999999620
  0
ARC
  8
0
  6
CONTINUOUS
 62
256
 10
-459.026717000000020
 20
-123.515557000000000
 40
1.500000000000000
 50
143.578178000000040
 51
210.000000000000510
  0
CIRCLE
  8
0
  6
CONTINUOUS
 62
256
 10
-467.073394000000010
 20
-117.578303000000010
 40
5.000000000000000
  0
ARC
  8
0
  6
CONTINUOUS
 62
256
 10
-449.247885999999990
 20
-140.452989000000000
 40
1.500000000000018
 50
127.928142000000730
 51
210.000000000000510
  0
LINE
  8
0
  6
CONTINUOUS
 62
256
 10
-450.546923999999990
 20
-141.202989000000000
 11
-449.033822999999980
 21
-143.823757000000000
  0
ARC
  8
0
  6
CONTINUOUS
 62
256
 10
-438.350580999999980
 20
-121.578303000000010
 40
1.500000000000000
 50
90.000000000000000
 51
172.071857999999850
  0
ARC
  8
0
  6
CONTINUOUS
 62
256
 10
-467.073394000000010
 20
-117.578303000000010
 40
27.500000000000014
 50
307.928141999999980
 51
352.071858000000020
  0
ARC
  8
0
  6
CONTINUOUS
 62
256
 10
-447.734784999999990
 20
-143.073757000000000
 40
1.499999999999975
 50
210.000000000000510
 51
307.180756000000090
  0
ARC
  8
0
  6
CONTINUOUS
 62
256
 10
-444.463471000000030
 20
-148.739838999999990
 40
1.500000000000007
 50
125.963570000000810
 51
210.000000000000510
  0
ARC
  8
0
  6
CONTINUOUS
 62
256
 10
-467.073394000000010
 20
-117.578303000000010
 40
36.999999999999993
 50
305.963570000000000
 51
354.036429999999940
  0
ARC
  8
0
  6
CONTINUOUS
 62
256
 10
-467.073394000000010
 20
-117.578303000000010
 40
33.499999999999972
 50
307.180755999999920
 51
352.819244000000030
  0
LINE
  8
0
  6
CONTINUOUS
 62
256
 10
-454.877050999999990
 20
-143.702989000000000
 11
-453.363949999999990
 21
-146.323757000000000
  0
ARC
  8
0
  6
CONTINUOUS
 62
256
 10
-454.662987999999980
 20
-147.073757000000000
 40
1.500000000000002
 50
292.819243999998830
 51
30.000000000000544
  0
ARC
  8
0
  6
CONTINUOUS
 62
256
 10
-456.176088999999990
 20
-144.452989000000000
 40
1.499999999999975
 50
30.000000000000544
 51
112.071857999999120
  0
ARC
  8
0
  6
CONTINUOUS
 62
256
 10
-467.073394000000010
 20
-117.578303000000010
 40
27.500000000000014
 50
247.928142000000040
 51
292.071857999999960
  0
ARC
  8
0
  6
CONTINUOUS
 62
256
 10
-467.073394000000010
 20
-117.578303000000010
 40
33.500000000000007
 50
247.180756000000030
 51
292.819243999999970
  0
ARC
  8
0
  6
CONTINUOUS
 62
256
 10
-477.970699000000020
 20
-144.452989000000000
 40
1.499999999999998
 50
67.928142000000889
 51
149.999999999999460
  0
LINE
  8
0
  6
CONTINUOUS
 62
256
 10
-480.782839000000020
 20
-146.323757000000000
 11
-479.269737000000020
 21
-143.702989000000000
  0
ARC
  8
0
  6
CONTINUOUS
 62
256
 10
-479.483801000000030
 20
-147.073757000000000
 40
1.499999999999975
 50
149.999999999999460
 51
247.180756000001140
  0
ARC
  8
0
  6
CONTINUOUS
 62
256
 10
-508.380173000000010
 20
-121.578303000000010
 40
1.500000000000000
 50
90.000000000000000
 51
185.531072000000280
  0
LINE
  8
0
  6
CONTINUOUS
 62
256
 10
-505.365038000000030
 20
-120.078303000000010
 11
-508.380173000000010
 21
-120.078303000000010
  0
LINE
  8
0
  6
CONTINUOUS
 62
256
 10
-495.796207999999980
 20
-120.078303000000010
 11
-498.822409999999990
 21
-120.078303000000010
  0
ARC
  8
0
  6
CONTINUOUS
 62
256
 10
-505.365038000000030
 20
-121.578303000000010
 40
1.500000000000012
 50
5.963569999999792
 51
90.000000000000000
  0
ARC
  8
0
  6
CONTINUOUS
 62
256
 10
-498.822409999999990
 20
-121.578303000000010
 40
1.500000000000000
 50
90.000000000000000
 51
187.180756000000090
  0
ARC
  8
0
  6
CONTINUOUS
 62
256
 10
-495.796207999999980
 20
-121.578303000000010
 40
1.500000000000004
 50
7.928142000000149
 51
90.000000000000000
  0
ARC
  8
0
  6
CONTINUOUS
 62
256
 10
-467.073394000000010
 20
-117.578303000000010
 40
27.499999999999989
 50
187.928142000000010
 51
232.071858000000050
  0
ARC
  8
0
  6
CONTINUOUS
 62
256
 10
-467.073394000000010
 20
-117.578303000000010
 40
36.999999999999979
 50
185.963570000000000
 51
234.036429999999970
  0
ARC
  8
0
  6
CONTINUOUS
 62
256
 10
-467.073394000000010
 20
-117.578303000000010
 40
42.999999999999979
 50
185.531071999999990
 51
234.468927999999950
  0
ARC
  8
0
  6
CONTINUOUS
 62
256
 10
-467.073394000000010
 20
-117.578303000000010
 40
33.500000000000007
 50
187.180756000000000
 51
232.819244000000000
  0
ARC
  8
0
  6
CONTINUOUS
 62
256
 10
-484.898903000000020
 20
-140.452989000000000
 40
1.499999999999975
 50
329.999999999999490
 51
52.071857999999288
  0
ARC
  8
0
  6
CONTINUOUS
 62
256
 10
-489.683317999999990
 20
-148.739838999999990
 40
1.499999999999975
 50
329.999999999999490
 51
54.036429999999186
  0
LINE
  8
0
  6
CONTINUOUS
 62
256
 10
-485.112965999999970
 20
-143.823757000000000
 11
-483.599864000000030
 21
-141.202989000000000
  0
ARC
  8
0
  6
CONTINUOUS
 62
256
 10
-486.412004000000020
 20
-143.073757000000000
 40
1.499999999999994
 50
232.819243999999940
 51
329.999999999999490
  0
ARC
  8
0
  6
CONTINUOUS
 62
256
 10
-508.380173000000010
 20
-113.578303000000010
 40
1.499999999999979
 50
174.468927999999720
 51
270.000000000000000
  0
LINE
  8
0
  6
CONTINUOUS
 62
256
 10
-505.365038000000030
 20
-115.078303000000010
 11
-508.380173000000010
 21
-115.078303000000010
  0
LINE
  8
0
  6
CONTINUOUS
 62
256
 10
-495.796207999999980
 20
-115.078303000000010
 11
-498.822409999999990
 21
-115.078303000000010
  0
ARC
  8
0
  6
CONTINUOUS
 62
256
 10
-505.365038000000030
 20
-113.578303000000010
 40
1.500000000000000
 50
270.000000000000000
 51
354.036430000000220
  0
ARC
  8
0
  6
CONTINUOUS
 62
256
 10
-498.822409999999990
 20
-113.578303000000010
 40
1.500000000000028
 50
172.819243999999910
 51
270.000000000000000
  0
ARC
  8
0
  6
CONTINUOUS
 62
256
 10
-495.796207999999980
 20
-113.578303000000010
 40
1.500000000000000
 50
270.000000000000000
 51
352.071857999999850
  0
ARC
  8
0
  6
CONTINUOUS
 62
256
 10
-467.073394000000010
 20
-117.578303000000010
 40
27.500000000000004
 50
127.928141999999990
 51
172.071857999999990
  0
ARC
  8
0
  6
CONTINUOUS
 62
256
 10
-467.073394000000010
 20
-117.578303000000010
 40
37.000000000000000
 50
125.963569999999990
 51
174.036430000000000
  0
ARC
  8
0
  6
CONTINUOUS
 62
256
 10
-467.073394000000010
 20
-117.578303000000010
 40
43.000000000000014
 50
125.531072000000020
 51
174.468928000000010
  0
ARC
  8
0
  6
CONTINUOUS
 62
256
 10
-467.073394000000010
 20
-117.578303000000010
 40
33.500000000000007
 50
127.180756000000020
 51
172.819244000000000
  0
ARC
  8
0
  6
CONTINUOUS
 62
256
 10
-484.898903000000020
 20
-94.703616999999994
 40
1.500000000000018
 50
307.928142000000720
 51
29.999999999999456
  0
LINE
  8
0
  6
CONTINUOUS
 62
256
 10
-489.891846999999980
 20
-83.055582999999999
 11
-488.384279999999990
 21
-85.666766999999993
  0
ARC
  8
0
  6
CONTINUOUS
 62
256
 10
-489.683317999999990
 20
-86.416766999999993
 40
1.500000000000007
 50
305.963570000000860
 51
29.999999999999456
  0
LINE
  8
0
  6
CONTINUOUS
 62
256
 10
-485.112965999999970
 20
-91.332848999999996
 11
-483.599864000000030
 21
-93.953616999999994
  0
ARC
  8
0
  6
CONTINUOUS
 62
256
 10
-486.412004000000020
 20
-92.082848999999996
 40
1.500000000000025
 50
29.999999999999456
 51
127.180756000000090
  0
LINE
  8
0
  6
CONTINUOUS
 62
256
 10
-450.092636000000030
 20
-83.166766999999993
 11
-448.585067999999980
 21
-80.555582999999999
  0
LINE
  8
0
  6
CONTINUOUS
 62
256
 10
-454.877050999999990
 20
-91.453616999999994
 11
-453.363949999999990
 21
-88.832848999999996
  0
ARC
  8
0
  6
CONTINUOUS
 62
256
 10
-451.391674000000020
 20
-82.416766999999993
 40
1.499999999999999
 50
245.963570000000350
 51
329.999999999999490
  0
ARC
  8
0
  6
CONTINUOUS
 62
256
 10
-454.662987999999980
 20
-88.082848999999996
 40
1.499999999999975
 50
329.999999999999490
 51
67.180756000000954
  0
ARC
  8
0
  6
CONTINUOUS
 62
256
 10
-456.176088999999990
 20
-90.703616999999994
 40
1.499999999999998
 50
247.928142000000830
 51
329.999999999999490
  0
ARC
  8
0
  6
CONTINUOUS
 62
256
 10
-467.073394000000010
 20
-117.578303000000010
 40
27.499999999999989
 50
67.928142000000008
 51
112.071857999999980
  0
ARC
  8
0
  6
CONTINUOUS
 62
256
 10
-467.073394000000010
 20
-117.578303000000010
 40
37.000000000000000
 50
65.963570000000033
 51
114.036429999999970
  0
ARC
  8
0
  6
CONTINUOUS
 62
256
 10
-467.073394000000010
 20
-117.578303000000010
 40
33.500000000000000
 50
67.180756000000002
 51
112.819244000000000
  0
ARC
  8
0
  6
CONTINUOUS
 62
256
 10
-477.970699000000020
 20
-90.703616999999994
 40
1.499999999999975
 50
210.000000000000510
 51
292.071857999999110
  0
LINE
  8
0
  6
CONTINUOUS
 62
256
 10
-485.561719999999980
 20
-80.555582999999999
 11
-484.054152999999990
 21
-83.166766999999993
  0
ARC
  8
0
  6
CONTINUOUS
 62
256
 10
-482.755114999999990
 20
-82.416766999999993
 40
1.499999999999975
 50
210.000000000000510
 51
294.036429999999600
  0
LINE
  8
0
  6
CONTINUOUS
 62
256
 10
-480.782839000000020
 20
-88.832848999999996
 11
-479.269737000000020
 21
-91.453616999999994
  0
ARC
  8
0
  6
CONTINUOUS
 62
256
 10
-479.483801000000030
 20
-88.082848999999996
 40
1.499999999999989
 50
112.819243999999050
 51
210.000000000000510
  0
LINE
  8
0
  6
CONTINUOUS
 62
256
 10
-445.762509000000020
 20
-85.666766999999993
 11
-444.254940999999970
 21
-83.055582999999999
  0
LINE
  8
0
  6
CONTINUOUS
 62
256
 10
-450.546923999999990
 20
-93.953616999999994
 11
-449.033822999999980
 21
-91.332848999999996
  0
ARC
  8
0
  6
CONTINUOUS
 62
256
 10
-444.463471000000030
 20
-86.416766999999993
 40
1.500000000000025
 50
150.000000000000540
 51
234.036429999999170
  0
ARC
  8
0
  6
CONTINUOUS
 62
256
 10
-447.734784999999990
 20
-92.082848999999996
 40
1.499999999999994
 50
52.819243999999927
 51
150.000000000000540
  0
ARC
  8
0
  6
CONTINUOUS
 62
256
 10
-449.247885999999990
 20
-94.703616999999994
 40
1.500000000000025
 50
150.000000000000540
 51
232.071857999999280
  0
ARC
  8
0
  6
CONTINUOUS
 62
256
 10
-467.073394000000010
 20
-117.578303000000010
 40
36.999999999999979
 50
5.963570000000011
 51
54.036430000000010
  0
ARC
  8
0
  6
CONTINUOUS
 62
256
 10
-467.073394000000010
 20
-117.578303000000010
 40
42.999999999999979
 50
5.531071999999997
 51
54.468927999999977
  0
ARC
  8
0
  6
CONTINUOUS
 62
256
 10
-467.073394000000010
 20
-117.578303000000010
 40
33.500000000000007
 50
7.180755999999994
 51
52.819243999999983
  0
ARC
  8
0
  6
CONTINUOUS
 62
256
 10
-438.350580999999980
 20
-113.578303000000010
 40
1.500000000000004
 50
187.928142000000150
 51
270.000000000000000
  0
ARC
  8
0
  6
CONTINUOUS
 62
256
 10
-467.073394000000010
 20
89.421696999999995
 40
300.000000000000000
 50
265.138595000000010
 51
270.000000000000000
  0
LINE
  8
0
  6
CONTINUOUS
 62
256
 10
-497.073394000000010
 20
-204.517072000000010
 11
-497.073394000000010
 21
-181.078303000000010
  0
ARC
  8
0
  6
CONTINUOUS
 62
256
 10
-492.073394000000010
 20
-204.517072000000010
 40
5.000000000000000
 50
180.000000000000000
 51
265.138594999999900
  0
ARC
  8
0
  6
CONTINUOUS
 62
256
 10
-442.073394000000010
 20
-204.517072000000010
 40
4.999999999999989
 50
274.861405000000100
 51
0.000000000000000
  0
ARC
  8
0
  6
CONTINUOUS
 62
256
 10
-467.073394000000010
 20
89.421696999999995
 40
300.000000000000000
 50
270.000000000000000
 51
274.861404999999990
  0
LINE
  8
0
  6
CONTINUOUS
 62
256
 10
-464.573394000000010
 20
-211.078303000000010
 11
-464.573394000000010
 21
-210.567885999999990
  0
LINE
  8
0
  6
CONTINUOUS
 62
256
 10
-469.573394000000010
 20
-211.078303000000010
 11
-469.573394000000010
 21
-210.567885999999990
  0
LINE
  8
0
  6
CONTINUOUS
 62
256
 10
-469.573394000000010
 20
-211.078303000000010
 11
-464.573394000000010
 21
-211.078303000000010
  0
LINE
  8
0
  6
CONTINUOUS
 62
256
 10
-435.573394000000010
 20
-180.923297999999990
 11
-435.573394000000010
 21
-181.078303000000010
  0
LINE
  8
0
  6
CONTINUOUS
 62
256
 10
-437.073394000000010
 20
-204.517072000000010
 11
-437.073394000000010
 21
-181.077551000000000
  0
LINE
  8
0
  6
CONTINUOUS
 62
256
 10
-498.573394000000010
 20
-181.078303000000010
 11
-497.065893000000020
 21
-181.078303000000010
  0
LINE
  8
0
  6
CONTINUOUS
 62
256
 10
-437.080895000000000
 20
-181.078303000000010
 11
-435.573394000000010
 21
-181.078303000000010
  0
LINE
  8
0
  6
CONTINUOUS
 62
256
 10
-498.573394000000010
 20
-180.923297999999990
 11
-498.573394000000010
 21
-181.078303000000010
  0
ARC
  8
0
  6
CONTINUOUS
 62
256
 10
-707.673394000000030
 20
-117.578303000000010
 40
289.396999999999990
 50
0.000000000000000
 51
7.897989000000000
  0
ARC
  8
0
  6
CONTINUOUS
 62
256
 10
-507.182171999999980
 20
-78.636785000000003
 40
5.999999999999989
 50
134.999999999999830
 51
172.102011000000060
  0
LINE
  8
0
  6
CONTINUOUS
 62
256
 10
-511.424812999999970
 20
-74.394143999999997
 11
-506.848747000000000
 21
-69.818078999999997
  0
ARC
  8
0
  6
CONTINUOUS
 62
256
 10
-495.961424000000020
 20
-80.705402000000007
 40
15.397000000000000
 50
96.051984999999931
 51
135.000000000000090
  0
ARC
  8
0
  6
CONTINUOUS
 62
256
 10
-467.073394000000010
 20
-353.178303000000030
 40
289.396999999999990
 50
90.000000000000000
 51
96.051985000000002
  0
ARC
  8
0
  6
CONTINUOUS
 62
256
 10
-438.185364999999990
 20
-80.705402000000007
 40
15.397000000000016
 50
44.999999999999929
 51
83.948015000000069
  0
LINE
  8
0
  6
CONTINUOUS
 62
256
 10
-412.309874999999980
 20
-68.962811000000002
 11
-419.376324000000010
 21
-61.896362000000003
  0
ARC
  8
0
  6
CONTINUOUS
 62
256
 10
-517.170009000000050
 20
-73.629716000000002
 40
6.599999999999977
 50
134.999999999999830
 51
171.402918000000080
  0
LINE
  8
0
  6
CONTINUOUS
 62
256
 10
-521.836913999999980
 20
-68.962811000000002
 11
-514.770463999999950
 21
-61.896362000000003
  0
ARC
  8
0
  6
CONTINUOUS
 62
256
 10
-491.190885999999980
 20
-83.805582999999999
 40
1.500000000000025
 50
29.999999999999456
 51
125.531071999999480
  0
ARC
  8
0
  6
CONTINUOUS
 62
256
 10
-449.884105999999970
 20
-79.805582999999999
 40
1.499999999999975
 50
329.999999999999490
 51
65.531072000000222
  0
ARC
  8
0
  6
CONTINUOUS
 62
256
 10
-467.073394000000010
 20
-117.578303000000010
 40
43.000000000000007
 50
65.531071999999980
 51
114.468928000000030
  0
ARC
  8
0
  6
CONTINUOUS
 62
256
 10
-484.262681999999980
 20
-79.805582999999999
 40
1.500000000000002
 50
114.468927999999780
 51
210.000000000000510
  0
ARC
  8
0
  6
CONTINUOUS
 62
256
 10
-442.955902999999980
 20
-83.805582999999999
 40
1.499999999999989
 50
54.468928000000517
 51
149.999999999999460
  0
ARC
  8
0
  6
CONTINUOUS
 62
256
 10
-416.976780000000020
 20
-73.629716000000002
 40
6.600000000000019
 50
8.597081999999919
 51
44.999999999999829
  0
LINE
  8
0
  6
CONTINUOUS
 62
256
 10
-422.721975999999980
 20
-74.394143999999997
 11
-427.298042000000010
 21
-69.818078999999997
  0
ARC
  8
0
  6
CONTINUOUS
 62
256
 10
-426.964616999999980
 20
-78.636785000000003
 40
5.999999999999990
 50
7.897989000000010
 51
45.000000000000192
  0
ARC
  8
0
  6
CONTINUOUS
 62
256
 10
-495.961424000000020
 20
-80.705402000000007
 40
26.599999999999994
 50
96.051984999999974
 51
135.000000000000060
  0
ARC
  8
0
  6
CONTINUOUS
 62
256
 10
-467.073394000000010
 20
-353.178303000000030
 40
300.600000000000020
 50
83.948014999999998
 51
96.051985000000002
  0
ARC
  8
0
  6
CONTINUOUS
 62
256
 10
-438.185364999999990
 20
-80.705402000000007
 40
26.600000000000016
 50
44.999999999999957
 51
83.948015000000026
  0
LINE
  8
0
  6
DASHDOT
 62
256
 10
-60.713875999999999
 20
164.026093000000000
 11
-60.713875999999999
 21
25.649084999999999
  0
LINE
  8
0
  6
DASHDOT
 62
256
 10
-348.399906999999980
 20
98.590953999999996
 11
3.281510000000000
 21
98.590953999999996
  0
LINE
  8
0
  6
CONTINUOUS
 62
256
 10
-289.713876000000030
 20
155.590954000000010
 11
-192.713876000000000
 21
155.590954000000010
  0
LINE
  8
0
  6
CONTINUOUS
 62
256
 10
-289.713876000000030
 20
156.090954000000010
 11
-192.713876000000000
 21
156.090954000000010
  0
LINE
  8
0
  6
CONTINUOUS
 62
256
 10
-289.713876000000030
 20
154.590954000000010
 11
-192.713876000000000
 21
154.590954000000010
  0
LINE
  8
0
  6
CONTINUOUS
 62
256
 10
-289.713876000000030
 20
153.590954000000010
 11
-192.713876000000000
 21
153.590954000000010
  0
LINE
  8
0
  6
CONTINUOUS
 62
256
 10
-289.713876000000030
 20
148.906488000000000
 11
-192.713876000000000
 21
148.906488000000000
  0
LINE
  8
0
  6
CONTINUOUS
 62
256
 10
-289.713876000000030
 20
143.956740000000000
 11
-192.713876000000000
 21
143.956740000000000
  0
LINE
  8
0
  6
CONTINUOUS
 62
256
 10
-192.713876000000000
 20
157.090954000000010
 11
-289.713876000000030
 21
157.090954000000010
  0
LINE
  8
0
  6
CONTINUOUS
 62
256
 10
-289.713876000000030
 20
158.590954000000010
 11
-318.407899999999980
 21
158.590954000000010
  0
LINE
  8
0
  6
CONTINUOUS
 62
256
 10
-340.713876000000030
 20
98.590953999999996
 11
-340.713876000000030
 21
146.034158999999990
  0
ARC
  8
0
  6
CONTINUOUS
 62
256
 10
-318.407899999999980
 20
138.590954000000010
 40
20.000000000000000
 50
90.000000000000000
 51
125.000000000000010
  0
LINE
  8
0
  6
CONTINUOUS
 62
256
 10
-329.879429000000020
 20
154.973995000000000
 11
-339.605174999999970
 21
148.163953999999990
  0
ARC
  8
0
  6
CONTINUOUS
 62
256
 10
-338.113876000000000
 20
146.034158999999990
 40
2.599999999999996
 50
125.000000000000210
 51
180.000000000000000
  0
LINE
  8
0
  6
CONTINUOUS
 62
256
 10
-289.713876000000030
 20
41.590954000000004
 11
-192.713876000000000
 21
41.590954000000004
  0
LINE
  8
0
  6
CONTINUOUS
 62
256
 10
-289.713876000000030
 20
41.090954000000004
 11
-192.713876000000000
 21
41.090954000000004
  0
LINE
  8
0
  6
CONTINUOUS
 62
256
 10
-289.713876000000030
 20
42.590954000000004
 11
-192.713876000000000
 21
42.590954000000004
  0
LINE
  8
0
  6
CONTINUOUS
 62
256
 10
-289.713876000000030
 20
43.590954000000004
 11
-192.713876000000000
 21
43.590954000000004
  0
LINE
  8
0
  6
CONTINUOUS
 62
256
 10
-289.713876000000030
 20
48.275419999999997
 11
-192.713876000000000
 21
48.275419999999997
  0
LINE
  8
0
  6
CONTINUOUS
 62
256
 10
-289.713876000000030
 20
53.225166999999999
 11
-192.713876000000000
 21
53.225166999999999
  0
LINE
  8
0
  6
CONTINUOUS
 62
256
 10
-192.713876000000000
 20
40.090954000000004
 11
-289.713876000000030
 21
40.090954000000004
  0
LINE
  8
0
  6
CONTINUOUS
 62
256
 10
-289.713876000000030
 20
38.590954000000004
 11
-318.407899999999980
 21
38.590954000000004
  0
LINE
  8
0
  6
CONTINUOUS
 62
256
 10
-340.713876000000030
 20
98.590953999999996
 11
-340.713876000000030
 21
51.147748999999997
  0
ARC
  8
0
  6
CONTINUOUS
 62
256
 10
-318.407899999999980
 20
58.590954000000004
 40
20.000000000000004
 50
234.999999999999940
 51
270.000000000000000
  0
LINE
  8
0
  6
CONTINUOUS
 62
256
 10
-329.879429000000020
 20
42.207912999999998
 11
-339.605174999999970
 21
49.017952999999999
  0
ARC
  8
0
  6
CONTINUOUS
 62
256
 10
-338.113876000000000
 20
51.147748999999997
 40
2.600000000000023
 50
180.000000000000000
 51
234.999999999999890
  0
POLYLINE
  8
0
  6
CONTINUOUS
 62
256
 66
1
 70
1
  0
VERTEX
  8
0
  6
CONTINUOUS
 62
256
 10
-296.013876000000040
 20
150.514478999999990
  0
VERTEX
  8
0
  6
CONTINUOUS
 62
256
 10
-296.104185182104860
 20
151.217435510558180
  0
VERTEX
  8
0
  6
CONTINUOUS
 62
256
 10
-296.371642197196990
 20
151.893377796638130
  0
VERTEX
  8
0
  6
CONTINUOUS
 62
256
 10
-296.805968822178100
 20
152.516329775258670
  0
VERTEX
  8
0
  6
CONTINUOUS
 62
256
 10
-297.390474128423250
 20
153.062351751236830
  0
VERTEX
  8
0
  6
CONTINUOUS
 62
256
 10
-298.102695904807890
 20
153.510460406248480
  0
VERTEX
  8
0
  6
CONTINUOUS
 62
256
 10
-298.915263867884110
 20
153.843435175983730
  0
VERTEX
  8
0
  6
CONTINUOUS
 62
256
 10
-299.796951486524220
 20
154.048480026776080
  0
VERTEX
  8
0
  6
CONTINUOUS
 62
256
 10
-300.713876000000030
 20
154.117715199999990
  0
VERTEX
  8
0
  6
CONTINUOUS
 62
256
 10
-301.630800513475830
 20
154.048480026776080
  0
VERTEX
  8
0
  6
CONTINUOUS
 62
256
 10
-302.512488132115950
 20
153.843435175983730
  0
VERTEX
  8
0
  6
CONTINUOUS
 62
256
 10
-303.325056095192170
 20
153.510460406248480
  0
VERTEX
  8
0
  6
CONTINUOUS
 62
256
 10
-304.037277871576800
 20
153.062351751236830
  0
VERTEX
  8
0
  6
CONTINUOUS
 62
256
 10
-304.621783177821950
 20
152.516329775258670
  0
VERTEX
  8
0
  6
CONTINUOUS
 62
256
 10
-305.056109802803060
 20
151.893377796638130
  0
VERTEX
  8
0
  6
CONTINUOUS
 62
256
 10
-305.323566817895200
 20
151.217435510558180
  0
VERTEX
  8
0
  6
CONTINUOUS
 62
256
 10
-305.413876000000020
 20
150.514478999999990
  0
VERTEX
  8
0
  6
CONTINUOUS
 62
256
 10
-305.323566817895200
 20
149.811522489441810
  0
VERTEX
  8
0
  6
CONTINUOUS
 62
256
 10
-305.056109802803060
 20
149.135580203361850
  0
VERTEX
  8
0
  6
CONTINUOUS
 62
256
 10
-304.621783177821950
 20
148.512628224741320
  0
VERTEX
  8
0
  6
CONTINUOUS
 62
256
 10
-304.037277871576800
 20
147.966606248763160
  0
VERTEX
  8
0
  6
CONTINUOUS
 62
256
 10
-303.325056095192170
 20
147.518497593751500
  0
VERTEX
  8
0
  6
CONTINUOUS
 62
256
 10
-302.512488132115950
 20
147.185522824016260
  0
VERTEX
  8
0
  6
CONTINUOUS
 62
256
 10
-301.630800513475830
 20
146.980477973223940
  0
VERTEX
  8
0
  6
CONTINUOUS
 62
256
 10
-300.713876000000030
 20
146.911242800000000
  0
VERTEX
  8
0
  6
CONTINUOUS
 62
256
 10
-299.796951486524220
 20
146.980477973223940
  0
VERTEX
  8
0
  6
CONTINUOUS
 62
256
 10
-298.915263867884110
 20
147.185522824016260
  0
VERTEX
  8
0
  6
CONTINUOUS
 62
256
 10
-298.102695904807890
 20
147.518497593751500
  0
VERTEX
  8
0
  6
CONTINUOUS
 62
256
 10
-297.390474128423250
 20
147.966606248763160
  0
VERTEX
  8
0
  6
CONTINUOUS
 62
256
 10
-296.805968822178100
 20
148.512628224741320
  0
VERTEX
  8
0
  6
CONTINUOUS
 62
256
 10
-296.371642197196990
 20
149.135580203361850
  0
VERTEX
  8
0
  6
CONTINUOUS
 62
256
 10
-296.104185182104860
 20
149.811522489441810
  0
SEQEND
  8
0
  6
CONTINUOUS
 62
256
  0
LINE
  8
0
  6
CONTINUOUS
 62
256
 10
-302.713876000000030
 20
153.506854000000000
 11
-300.713876000000030
 21
152.331069000000010
  0
LINE
  8
0
  6
CONTINUOUS
 62
256
 10
-300.713876000000030
 20
152.331069000000010
 11
-298.713876000000030
 21
150.678427000000000
  0
LINE
  8
0
  6
CONTINUOUS
 62
256
 10
-298.713876000000030
 20
153.506854000000000
 11
-300.713876000000030
 21
152.331069000000010
  0
LINE
  8
0
  6
CONTINUOUS
 62
256
 10
-300.713876000000030
 20
152.331069000000010
 11
-302.713876000000030
 21
150.678427000000000
  0
POLYLINE
  8
0
  6
CONTINUOUS
 62
256
 66
1
 70
1
  0
VERTEX
  8
0
  6
CONTINUOUS
 62
256
 10
-296.013876000000040
 20
46.667428999999998
  0
VERTEX
  8
0
  6
CONTINUOUS
 62
256
 10
-296.104185182104860
 20
47.370385510558165
  0
VERTEX
  8
0
  6
CONTINUOUS
 62
256
 10
-296.371642197196990
 20
48.046327796638138
  0
VERTEX
  8
0
  6
CONTINUOUS
 62
256
 10
-296.805968822178100
 20
48.669279775258659
  0
VERTEX
  8
0
  6
CONTINUOUS
 62
256
 10
-297.390474128423250
 20
49.215301751236836
  0
VERTEX
  8
0
  6
CONTINUOUS
 62
256
 10
-298.102695904807890
 20
49.663410406248488
  0
VERTEX
  8
0
  6
CONTINUOUS
 62
256
 10
-298.915263867884110
 20
49.996385175983733
  0
VERTEX
  8
0
  6
CONTINUOUS
 62
256
 10
-299.796951486524220
 20
50.201430026776059
  0
VERTEX
  8
0
  6
CONTINUOUS
 62
256
 10
-300.713876000000030
 20
50.270665199999989
  0
VERTEX
  8
0
  6
CONTINUOUS
 62
256
 10
-301.630800513475830
 20
50.201430026776059
  0
VERTEX
  8
0
  6
CONTINUOUS
 62
256
 10
-302.512488132115950
 20
49.996385175983733
  0
VERTEX
  8
0
  6
CONTINUOUS
 62
256
 10
-303.325056095192170
 20
49.663410406248488
  0
VERTEX
  8
0
  6
CONTINUOUS
 62
256
 10
-304.037277871576800
 20
49.215301751236836
  0
VERTEX
  8
0
  6
CONTINUOUS
 62
256
 10
-304.621783177821950
 20
48.669279775258659
  0
VERTEX
  8
0
  6
CONTINUOUS
 62
256
 10
-305.056109802803060
 20
48.046327796638138
  0
VERTEX
  8
0
  6
CONTINUOUS
 62
256
 10
-305.323566817895200
 20
47.370385510558165
  0
VERTEX
  8
0
  6
CONTINUOUS
 62
256
 10
-305.413876000000020
 20
46.667428999999998
  0
VERTEX
  8
0
  6
CONTINUOUS
 62
256
 10
-305.323566817895200
 20
45.964472489441832
  0
VERTEX
  8
0
  6
CONTINUOUS
 62
256
 10
-305.056109802803060
 20
45.288530203361859
  0
VERTEX
  8
0
  6
CONTINUOUS
 62
256
 10
-304.621783177821950
 20
44.665578224741338
  0
VERTEX
  8
0
  6
CONTINUOUS
 62
256
 10
-304.037277871576800
 20
44.119556248763161
  0
VERTEX
  8
0
  6
CONTINUOUS
 62
256
 10
-303.325056095192170
 20
43.671447593751509
  0
VERTEX
  8
0
  6
CONTINUOUS
 62
256
 10
-302.512488132115950
 20
43.338472824016264
  0
VERTEX
  8
0
  6
CONTINUOUS
 62
256
 10
-301.630800513475830
 20
43.133427973223938
  0
VERTEX
  8
0
  6
CONTINUOUS
 62
256
 10
-300.713876000000030
 20
43.064192800000008
  0
VERTEX
  8
0
  6
CONTINUOUS
 62
256
 10
-299.796951486524220
 20
43.133427973223938
  0
VERTEX
  8
0
  6
CONTINUOUS
 62
256
 10
-298.915263867884110
 20
43.338472824016264
  0
VERTEX
  8
0
  6
CONTINUOUS
 62
256
 10
-298.102695904807890
 20
43.671447593751509
  0
VERTEX
  8
0
  6
CONTINUOUS
 62
256
 10
-297.390474128423250
 20
44.119556248763161
  0
VERTEX
  8
0
  6
CONTINUOUS
 62
256
 10
-296.805968822178100
 20
44.665578224741338
  0
VERTEX
  8
0
  6
CONTINUOUS
 62
256
 10
-296.371642197196990
 20
45.288530203361859
  0
VERTEX
  8
0
  6
CONTINUOUS
 62
256
 10
-296.104185182104860
 20
45.964472489441832
  0
SEQEND
  8
0
  6
CONTINUOUS
 62
256
  0
LINE
  8
0
  6
CONTINUOUS
 62
256
 10
-302.713876000000030
 20
43.675052999999998
 11
-300.713876000000030
 21
44.850839000000001
  0
LINE
  8
0
  6
CONTINUOUS
 62
256
 10
-300.713876000000030
 20
44.850839000000001
 11
-298.713876000000030
 21
46.503480000000003
  0
LINE
  8
0
  6
CONTINUOUS
 62
256
 10
-298.713876000000030
 20
43.675052999999998
 11
-300.713876000000030
 21
44.850839000000001
  0
LINE
  8
0
  6
CONTINUOUS
 62
256
 10
-300.713876000000030
 20
44.850839000000001
 11
-302.713876000000030
 21
46.503480000000003
  0
LINE
  8
0
  6
CONTINUOUS
 62
256
 10
-289.713876000000030
 20
98.590953999999996
 11
-289.713876000000030
 21
158.590954000000010
  0
LINE
  8
0
  6
CONTINUOUS
 62
256
 10
-289.713876000000030
 20
98.590953999999996
 11
-289.713876000000030
 21
38.590954000000004
  0
LINE
  8
0
  6
CONTINUOUS
 62
256
 10
-289.713876000000030
 20
134.305490999999990
 11
-192.713876000000000
 21
134.305490999999990
  0
LINE
  8
0
  6
CONTINUOUS
 62
256
 10
-289.713876000000030
 20
135.910138999999990
 11
-192.713876000000000
 21
135.910138999999990
  0
LINE
  8
0
  6
CONTINUOUS
 62
256
 10
-289.713876000000030
 20
62.876416999999996
 11
-192.713876000000000
 21
62.876416999999996
  0
LINE
  8
0
  6
CONTINUOUS
 62
256
 10
-289.713876000000030
 20
61.271768999999999
 11
-192.713876000000000
 21
61.271768999999999
  0
LINE
  8
0
  6
CONTINUOUS
 62
256
 10
-289.713876000000030
 20
124.782888000000000
 11
-192.713876000000000
 21
124.782888000000000
  0
LINE
  8
0
  6
CONTINUOUS
 62
256
 10
-289.713876000000030
 20
123.421007000000000
 11
-192.713876000000000
 21
123.421007000000000
  0
LINE
  8
0
  6
CONTINUOUS
 62
256
 10
-289.713876000000030
 20
128.873388000000010
 11
-192.713876000000000
 21
128.873388000000010
  0
LINE
  8
0
  6
CONTINUOUS
 62
256
 10
-289.713876000000030
 20
118.590954000000000
 11
-192.713876000000000
 21
118.590954000000000
  0
LINE
  8
0
  6
CONTINUOUS
 62
256
 10
-289.713876000000030
 20
78.590953999999996
 11
-192.713876000000000
 21
78.590953999999996
  0
LINE
  8
0
  6
CONTINUOUS
 62
256
 10
-289.713876000000030
 20
72.399019999999993
 11
-192.713876000000000
 21
72.399019999999993
  0
LINE
  8
0
  6
CONTINUOUS
 62
256
 10
-289.713876000000030
 20
73.760900000000007
 11
-192.713876000000000
 21
73.760900000000007
  0
LINE
  8
0
  6
CONTINUOUS
 62
256
 10
-289.713876000000030
 20
68.308519000000004
 11
-192.713876000000000
 21
68.308519000000004
  0
LINE
  8
0
  6
CONTINUOUS
 62
256
 10
-81.713875999999999
 20
155.590954000000010
 11
-60.713875999999999
 21
155.590954000000010
  0
ARC
  8
0
  6
CONTINUOUS
 62
256
 10
-81.713875999999999
 20
154.590954000000010
 40
1.000000000000000
 50
90.000000000000000
 51
180.000000000000000
  0
LINE
  8
0
  6
CONTINUOUS
 62
256
 10
-82.713875999999999
 20
151.590954000000010
 11
-82.713875999999999
 21
154.590954000000010
  0
LINE
  8
0
  6
CONTINUOUS
 62
256
 10
-39.713875999999999
 20
155.590954000000010
 11
-60.713875999999999
 21
155.590954000000010
  0
ARC
  8
0
  6
CONTINUOUS
 62
256
 10
-39.713875999999999
 20
154.590954000000010
 40
1.000000000000000
 50
0.000000000000000
 51
90.000000000000000
  0
LINE
  8
0
  6
CONTINUOUS
 62
256
 10
-38.713875999999999
 20
151.590954000000010
 11
-38.713875999999999
 21
154.590954000000010
  0
LINE
  8
0
  6
CONTINUOUS
 62
256
 10
-81.713875999999999
 20
41.590954000000004
 11
-60.713875999999999
 21
41.590954000000004
  0
ARC
  8
0
  6
CONTINUOUS
 62
256
 10
-81.713875999999999
 20
42.590954000000004
 40
1.000000000000000
 50
180.000000000000000
 51
270.000000000000000
  0
LINE
  8
0
  6
CONTINUOUS
 62
256
 10
-82.713875999999999
 20
45.590954000000004
 11
-82.713875999999999
 21
42.590954000000004
  0
LINE
  8
0
  6
CONTINUOUS
 62
256
 10
-39.713875999999999
 20
41.590954000000004
 11
-60.713875999999999
 21
41.590954000000004
  0
ARC
  8
0
  6
CONTINUOUS
 62
256
 10
-39.713875999999999
 20
42.590954000000004
 40
1.000000000000000
 50
270.000000000000000
 51
0.000000000000000
  0
LINE
  8
0
  6
CONTINUOUS
 62
256
 10
-38.713875999999999
 20
45.590954000000004
 11
-38.713875999999999
 21
42.590954000000004
  0
ARC
  8
0
  6
CONTINUOUS
 62
256
 10
-177.713876000000000
 20
58.406222999999997
 40
5.000000000000000
 50
270.000000000000000
 51
0.000000000000000
  0
ARC
  8
0
  6
CONTINUOUS
 62
256
 10
-177.713876000000000
 20
51.494646000000003
 40
5.000000000000000
 50
270.000000000000000
 51
0.000000000000000
  0
ARC
  8
0
  6
CONTINUOUS
 62
256
 10
-167.713876000000000
 20
58.042166999999999
 40
4.999999999999996
 50
107.457602999999930
 51
180.000000000000000
  0
ARC
  8
0
  6
CONTINUOUS
 62
256
 10
-167.713876000000000
 20
51.494646000000003
 40
4.999999999999996
 50
107.457602999999930
 51
180.000000000000000
  0
LINE
  8
0
  6
CONTINUOUS
 62
256
 10
-182.713876000000000
 20
53.406222999999997
 11
-177.713876000000000
 21
53.406222999999997
  0
LINE
  8
0
  6
CONTINUOUS
 62
256
 10
-182.713876000000000
 20
46.494646000000003
 11
-177.713876000000000
 21
46.494646000000003
  0
LINE
  8
0
  6
CONTINUOUS
 62
256
 10
-185.713876000000000
 20
56.406222999999997
 11
-185.713876000000000
 21
98.590953999999996
  0
LINE
  8
0
  6
CONTINUOUS
 62
256
 10
-182.713876000000000
 20
59.589686999999998
 11
-177.713876000000000
 21
59.589686999999998
  0
LINE
  8
0
  6
CONTINUOUS
 62
256
 10
-185.713876000000000
 20
43.090954000000004
 11
-185.713876000000000
 21
43.494646000000003
  0
LINE
  8
0
  6
CONTINUOUS
 62
256
 10
-185.713876000000000
 20
43.090954000000004
 11
-185.713876000000000
 21
43.494646000000003
  0
LINE
  8
0
  6
CONTINUOUS
 62
256
 10
-185.713876000000000
 20
43.090954000000004
 11
-185.713876000000000
 21
42.090954000000004
  0
ARC
  8
0
  6
CONTINUOUS
 62
256
 10
-182.713876000000000
 20
62.589686999999998
 40
3.000000000000000
 50
180.000000000000000
 51
270.000000000000000
  0
ARC
  8
0
  6
CONTINUOUS
 62
256
 10
-182.713876000000000
 20
43.494646000000003
 40
3.000000000000000
 50
90.000000000000000
 51
180.000000000000000
  0
ARC
  8
0
  6
CONTINUOUS
 62
256
 10
-182.713876000000000
 20
56.406222999999997
 40
3.000000000000000
 50
180.000000000000000
 51
270.000000000000000
  0
ARC
  8
0
  6
CONTINUOUS
 62
256
 10
-188.713876000000000
 20
42.090954000000004
 40
3.000000000000000
 50
270.000000000000000
 51
0.000000000000000
  0
ARC
  8
0
  6
CONTINUOUS
 62
256
 10
-177.713876000000000
 20
145.687261000000010
 40
5.000000000000000
 50
0.000000000000000
 51
90.000000000000000
  0
ARC
  8
0
  6
CONTINUOUS
 62
256
 10
-177.713876000000000
 20
138.775685000000010
 40
5.000000000000000
 50
0.000000000000000
 51
90.000000000000000
  0
ARC
  8
0
  6
CONTINUOUS
 62
256
 10
-167.713876000000000
 20
145.687261000000010
 40
5.000000000000000
 50
180.000000000000000
 51
252.542397000000110
  0
ARC
  8
0
  6
CONTINUOUS
 62
256
 10
-167.713876000000000
 20
139.139740999999990
 40
5.000000000000000
 50
180.000000000000000
 51
252.542397000000110
  0
LINE
  8
0
  6
CONTINUOUS
 62
256
 10
-182.713876000000000
 20
143.775685000000010
 11
-177.713876000000000
 21
143.775685000000010
  0
LINE
  8
0
  6
CONTINUOUS
 62
256
 10
-182.713876000000000
 20
150.687261000000010
 11
-177.713876000000000
 21
150.687261000000010
  0
LINE
  8
0
  6
CONTINUOUS
 62
256
 10
-185.713876000000000
 20
154.090954000000010
 11
-185.713876000000000
 21
153.687261000000010
  0
LINE
  8
0
  6
CONTINUOUS
 62
256
 10
-185.713876000000000
 20
140.775685000000010
 11
-185.713876000000000
 21
98.590953999999996
  0
LINE
  8
0
  6
CONTINUOUS
 62
256
 10
-182.713876000000000
 20
137.592221000000000
 11
-177.713876000000000
 21
137.592221000000000
  0
LINE
  8
0
  6
CONTINUOUS
 62
256
 10
-185.713876000000000
 20
154.090954000000010
 11
-185.713876000000000
 21
155.090954000000010
  0
ARC
  8
0
  6
CONTINUOUS
 62
256
 10
-182.713876000000000
 20
134.592221000000000
 40
3.000000000000000
 50
90.000000000000000
 51
180.000000000000000
  0
ARC
  8
0
  6
CONTINUOUS
 62
256
 10
-182.713876000000000
 20
140.775685000000010
 40
3.000000000000000
 50
90.000000000000000
 51
180.000000000000000
  0
ARC
  8
0
  6
CONTINUOUS
 62
256
 10
-188.713876000000000
 20
155.090954000000010
 40
3.000000000000000
 50
0.000000000000000
 51
90.000000000000000
  0
LINE
  8
0
  6
CONTINUOUS
 62
256
 10
-159.713876000000000
 20
49.590954000000004
 11
-159.923337000000000
 21
61.590954000000004
  0
LINE
  8
0
  6
CONTINUOUS
 62
256
 10
-103.213876000000000
 20
45.590954000000004
 11
-103.213876000000000
 21
49.590954000000004
  0
LINE
  8
0
  6
CONTINUOUS
 62
256
 10
0.286124000000000
 20
49.590954000000004
 11
-17.641264000000000
 21
49.590954000000004
  0
LINE
  8
0
  6
CONTINUOUS
 62
256
 10
-18.213875999999999
 20
45.590954000000004
 11
-18.213875999999999
 21
49.590954000000004
  0
LINE
  8
0
  6
CONTINUOUS
 62
256
 10
-103.213876000000000
 20
45.590954000000004
 11
-37.713875999999999
 21
45.590954000000004
  0
LINE
  8
0
  6
CONTINUOUS
 62
256
 10
-18.213875999999999
 20
45.590954000000004
 11
-37.713875999999999
 21
45.590954000000004
  0
LINE
  8
0
  6
CONTINUOUS
 62
256
 10
-37.713875999999999
 20
151.590954000000010
 11
-18.213875999999999
 21
151.590954000000010
  0
LINE
  8
0
  6
CONTINUOUS
 62
256
 10
-18.213875999999999
 20
147.590954000000010
 11
-18.213875999999999
 21
151.590954000000010
  0
LINE
  8
0
  6
CONTINUOUS
 62
256
 10
-159.932064000000000
 20
61.590954000000004
 11
-158.588023999999990
 21
137.590954000000010
  0
LINE
  8
0
  6
CONTINUOUS
 62
256
 10
-158.588023999999990
 20
137.590954000000010
 11
-158.588023999999990
 21
147.590954000000010
  0
LINE
  8
0
  6
CONTINUOUS
 62
256
 10
-103.213876000000000
 20
147.590954000000010
 11
-103.213876000000000
 21
151.590954000000010
  0
LINE
  8
0
  6
CONTINUOUS
 62
256
 10
-37.713875999999999
 20
151.590954000000010
 11
-103.213876000000000
 21
151.590954000000010
  0
LINE
  8
0
  6
CONTINUOUS
 62
256
 10
0.495585000000000
 20
61.590954000000004
 11
0.286124000000000
 21
49.590954000000004
  0
LINE
  8
0
  6
CONTINUOUS
 62
256
 10
-0.839728000000000
 20
147.590954000000010
 11
-17.641264000000000
 21
147.590954000000010
  0
LINE
  8
0
  6
CONTINUOUS
 62
256
 10
-0.839728000000000
 20
137.590954000000010
 11
-0.839728000000000
 21
147.590954000000010
  0
LINE
  8
0
  6
CONTINUOUS
 62
256
 10
0.504312000000000
 20
61.590954000000004
 11
-0.839728000000000
 21
137.590954000000010
  0
LINE
  8
0
  6
CONTINUOUS
 62
256
 10
-17.641264000000000
 20
49.590954000000004
 11
-159.713876000000000
 21
49.590954000000004
  0
LINE
  8
0
  6
CONTINUOUS
 62
256
 10
-17.641264000000000
 20
147.590954000000010
 11
-158.588023999999990
 21
147.590954000000010
  0
LINE
  8
0
  6
CONTINUOUS
 62
256
 10
-159.923337000000000
 20
61.590954000000004
 11
-63.504415000000002
 21
61.590954000000004
  0
LINE
  8
0
  6
CONTINUOUS
 62
256
 10
-63.504415000000002
 20
61.590954000000004
 11
0.504312000000000
 21
61.590954000000004
  0
ARC
  8
0
  6
CONTINUOUS
 62
256
 10
-160.588023999999990
 20
138.590954000000010
 40
2.000000000000000
 50
270.000000000000000
 51
0.000000000000000
  0
ARC
  8
0
  6
CONTINUOUS
 62
256
 10
-162.713876000000000
 20
60.590954000000004
 40
2.999999999999998
 50
19.471221000000021
 51
90.000000000000000
  0
ARC
  8
0
  6
CONTINUOUS
 62
256
 10
-166.213876000000000
 20
139.590954000000010
 40
3.000000000000000
 50
180.000000000000000
 51
270.000000000000000
  0
LINE
  8
0
  6
CONTINUOUS
 62
256
 10
-160.588023999999990
 20
136.590954000000010
 11
-166.213876000000000
 21
136.590954000000010
  0
ARC
  8
0
  6
CONTINUOUS
 62
256
 10
-166.213876000000000
 20
60.590954000000004
 40
3.000000000000000
 50
90.000000000000000
 51
180.000000000000000
  0
LINE
  8
0
  6
CONTINUOUS
 62
256
 10
-166.213876000000000
 20
63.590954000000004
 11
-162.713876000000000
 21
63.590954000000004
  0
LINE
  8
0
  6
CONTINUOUS
 62
256
 10
-169.213876000000000
 20
155.090954000000010
 11
-169.213876000000000
 21
42.090954000000004
  0
LINE
  8
0
  6
DASHED
 62
256
 10
-169.213876000000000
 20
118.051503000000000
 11
-169.213876000000000
 21
98.590953999999996
  0
LINE
  8
0
  6
DASHED
 62
256
 10
-169.213876000000000
 20
118.051503000000000
 11
-169.213876000000000
 21
98.590953999999996
  0
LINE
  8
0
  6
CONTINUOUS
 62
256
 10
-172.213876000000000
 20
39.090954000000004
 11
-192.713876000000000
 21
39.090954000000004
  0
LINE
  8
0
  6
CONTINUOUS
 62
256
 10
-192.713876000000000
 20
98.590953999999996
 11
-192.713876000000000
 21
39.090954000000004
  0
ARC
  8
0
  6
CONTINUOUS
 62
256
 10
-172.213876000000000
 20
42.090954000000004
 40
3.000000000000000
 50
270.000000000000000
 51
0.000000000000000
  0
LINE
  8
0
  6
CONTINUOUS
 62
256
 10
-185.713876000000000
 20
78.590953999999996
 11
-192.713876000000000
 21
78.590953999999996
  0
ARC
  8
0
  6
CONTINUOUS
 62
256
 10
-172.213876000000000
 20
155.090954000000010
 40
3.000000000000000
 50
0.000000000000000
 51
90.000000000000000
  0
LINE
  8
0
  6
CONTINUOUS
 62
256
 10
-172.213876000000000
 20
158.090954000000010
 11
-192.713876000000000
 21
158.090954000000010
  0
LINE
  8
0
  6
CONTINUOUS
 62
256
 10
-192.713876000000000
 20
98.590953999999996
 11
-192.713876000000000
 21
158.090954000000010
  0
ARC
  8
0
  6
CONTINUOUS
 62
256
 10
-182.713876000000000
 20
153.687261000000010
 40
3.000000000000000
 50
180.000000000000000
 51
270.000000000000000
  0
LINE
  8
0
  6
DASHDOT
 62
256
 10
-294.522209999999970
 20
-195.578303000000010
 11
-275.333170000000000
 21
-195.578303000000010
  0
LINE
  8
0
  6
DASHDOT
 62
256
 10
-285.213876000000030
 20
-178.294452000000010
 11
-285.213876000000030
 21
-206.273800999999990
  0
ARC
  8
0
  6
DASHED
 62
256
 10
-285.213876000000030
 20
-195.578303000000010
 40
7.000000000000000
 50
180.000000000000000
 51
0.000000000000000
  0
LINE
  8
0
  6
DASHED
 62
256
 10
-278.213876000000030
 20
-181.078303000000010
 11
-278.213876000000030
 21
-195.578303000000010
  0
LINE
  8
0
  6
DASHED
 62
256
 10
-292.213876000000030
 20
-181.078303000000010
 11
-292.213876000000030
 21
-195.578303000000010
  0
LINE
  8
0
  6
DASHDOT
 62
256
 10
-245.624175000000010
 20
-195.578303000000010
 11
-225.249992999999990
 21
-195.578303000000010
  0
LINE
  8
0
  6
DASHDOT
 62
256
 10
-235.213876000000000
 20
-178.294452000000010
 11
-235.213876000000000
 21
-206.273800999999990
  0
CIRCLE
  8
0
  6
DASHED
 62
256
 10
-235.213876000000000
 20
-195.578303000000010
 40
6.000000000000000
  0
ARC
  8
0
  6
DASHED
 62
256
 10
-235.213876000000000
 20
-195.578303000000010
 40
7.000000000000000
 50
180.000000000000000
 51
0.000000000000000
  0
LINE
  8
0
  6
DASHED
 62
256
 10
-242.213876000000000
 20
-181.078303000000010
 11
-242.213876000000000
 21
-195.578303000000010
  0
LINE
  8
0
  6
DASHED
 62
256
 10
-228.213876000000000
 20
-181.078303000000010
 11
-228.213876000000000
 21
-195.578303000000010
  0
LINE
  8
0
  6
CONTINUOUS
 62
256
 10
-185.713876000000000
 20
118.590954000000000
 11
-192.713876000000000
 21
118.590954000000000
  0
ARC
  8
0
  6
CONTINUOUS
 62
256
 10
176.355178000000000
 20
-77.578361999999998
 40
2.000000000000000
 50
270.000000000000000
 51
0.000000000000000
  0
LINE
  8
0
  6
CONTINUOUS
 62
256
 10
111.355461000000010
 20
-70.078303000000005
 11
111.355461000000010
 21
-71.678362000000007
  0
LINE
  8
0
  6
CONTINUOUS
 62
256
 10
147.354907999999990
 20
-71.678362000000007
 11
147.354910999999990
 21
-69.178303000000000
  0
LINE
  8
0
  6
CONTINUOUS
 62
256
 10
129.855460999999990
 20
-69.178303000000000
 11
147.354925000000010
 21
-69.178303000000000
  0
LINE
  8
0
  6
CONTINUOUS
 62
256
 10
111.355461000000010
 20
-70.078303000000005
 11
129.855460999999990
 21
-70.078303000000005
  0
LINE
  8
0
  6
CONTINUOUS
 62
256
 10
129.855460999999990
 20
-69.178303000000000
 11
129.855460999999990
 21
-70.078303000000005
  0
ENDSEC
  0
EOF
