  0
SECTION
  2
HEADER
  9
$TEXTSIZE
 40
2.5
  9
$ACADVER
  1
AC1009
  9
$DIMASZ
 40
3.863703297614046
  9
$DIMEXE
 40
2.000000000000000
  9
$DIMEXO
 40
1.000000000000000
  9
$DIMLFAC
 40
1.000000000000000
  9
$DIMSCALE
 40
1.000000000000000
  9
$DIMTAD
 70
1
  9
$DIMTFAC
 40
0.625000000000000
  9
$DIMTXT
 40
6.000000000000000
  9
$LUPREC
 70
3
  9
$REGENMODE
 70
1
  9
$TEXTSTYLE
  7
STANDARD1
  0
ENDSEC
  0
SECTION
  2
TABLES
  0
TABLE
  2
LTYPE
 70
4
  0
LTYPE
  2
CONTINUOUS
 70
64
  3
Solid line
 72
65
 73
0
 40
0.0
  0
LTYPE
  2
DASHED
 70
64
  3
-- -- -- -- -- -- -- -- -- -- -- -- -- -- --
 72
65
 73
2
 40
0.75
 49
0.5
 49
-0.25
  0
LTYPE
  2
DASHDOT
 70
64
  3
__ . __ . __ . __ . __ . __ . __ . __ . __ . __
 72
65
 73
4
 40
1.0
 49
0.5
 49
-0.25
 49
0.0
 49
-0.25
  0
LTYPE
  2
DIVIDE
 70
64
  3
__ . . __ . . __ . . __ . . __ . . __ . . __
 72
65
 73
6
 40
1.25
 49
0.5
 49
-0.25
 49
0.0
 49
-0.25
 49
0.0
 49
-0.25
  0
ENDTAB
  0
TABLE
  2
LAYER
 70
2
  0
LAYER
  2
0
 70
64
 62
53
  6
CONTINUOUS
  0
LAYER
  2
1
 70
64
 62
102
  6
CONTINUOUS
  0
ENDTAB
  0
TABLE
  2
STYLE
 70
4
  0
STYLE
  2
STANDARD1
 70
64
 40
0.0
 41
1.0
 50
0.0
 71
0
 42
3.200000047683716
  3
MONOTXT
  4
BIGFONT
  0
STYLE
  2
STANDARD2
 70
68
 40
0.0
 41
1.0
 50
0.0
 71
0
 42
3.200000047683716
  3
MONOTXT
  4
BIGFONT
  0
STYLE
  2
STANDARD3
 70
64
 40
0.0
 41
1.0
 50
0.0
 71
0
 42
3.200000047683716
  3
MONOTXT
  4

  0
STYLE
  2
STANDARD4
 70
68
 40
0.0
 41
1.0
 50
0.0
 71
0
 42
3.200000047683716
  3
MONOTXT
  4

  0
ENDTAB
  0
TABLE
  2
VIEW
 70
0
  0
ENDTAB
  0
ENDSEC
  0
SECTION
  2
BLOCKS
  0
BLOCK
  8
0
  2
ZU_SYM_1
 70
64
 10
0.000000000000000
 20
0.000000000000000
  0
CIRCLE
  8
0
  6
CONTINUOUS
 62
256
 10
0.000000000000000
 20
0.000000000000000
 40
5.000000000000000
  0
POINT
  8
0
  6
CONTINUOUS
 62
256
 10
0.000000000000000
 20
0.000000000000000
  0
LINE
  8
0
  6
CONTINUOUS
 62
256
 10
-2.499998000000000
 20
-1.443372000000000
 11
-2.499999000000000
 21
1.443378000000000
  0
LINE
  8
0
  6
CONTINUOUS
 62
256
 10
2.499998000000000
 20
1.443372000000000
 11
2.499999000000000
 21
-1.443374000000000
  0
LINE
  8
0
  6
CONTINUOUS
 62
256
 10
0.000005000000000
 20
2.886749000000000
 11
2.499999000000000
 21
1.443372000000000
  0
LINE
  8
0
  6
CONTINUOUS
 62
256
 10
-0.000006000000000
 20
-2.886747000000000
 11
-2.499998000000000
 21
-1.443372000000000
  0
LINE
  8
0
  6
CONTINUOUS
 62
256
 10
0.000005000000000
 20
2.886748000000000
 11
-2.500000000000000
 21
1.443377000000000
  0
LINE
  8
0
  6
CONTINUOUS
 62
256
 10
2.499999000000000
 20
-1.443374000000000
 11
-0.000005000000000
 21
-2.886748000000000
  0
ENDBLK
  8
0
  0
BLOCK
  8
0
  2
ZU_SYM_2
 70
64
 10
0.000000000000000
 20
0.000000000000000
  0
CIRCLE
  8
0
  6
CONTINUOUS
 62
256
 10
0.000000000000000
 20
0.000000000000000
 40
5.000000000000000
  0
POINT
  8
0
  6
CONTINUOUS
 62
256
 10
0.000000000000000
 20
0.000000000000000
  0
LINE
  8
0
  6
CONTINUOUS
 62
256
 10
-2.499998000000000
 20
-1.443372000000000
 11
-2.499999000000000
 21
1.443378000000000
  0
LINE
  8
0
  6
CONTINUOUS
 62
256
 10
2.499998000000000
 20
1.443372000000000
 11
2.499999000000000
 21
-1.443374000000000
  0
LINE
  8
0
  6
CONTINUOUS
 62
256
 10
0.000005000000000
 20
2.886749000000000
 11
2.499999000000000
 21
1.443372000000000
  0
LINE
  8
0
  6
CONTINUOUS
 62
256
 10
-0.000006000000000
 20
-2.886747000000000
 11
-2.499998000000000
 21
-1.443372000000000
  0
LINE
  8
0
  6
CONTINUOUS
 62
256
 10
0.000005000000000
 20
2.886748000000000
 11
-2.500000000000000
 21
1.443377000000000
  0
LINE
  8
0
  6
CONTINUOUS
 62
256
 10
2.499999000000000
 20
-1.443374000000000
 11
-0.000005000000000
 21
-2.886748000000000
  0
ENDBLK
  8
0
  0
BLOCK
  8
0
  2
ZU_SYM_3
 70
64
 10
0.000000000000000
 20
0.000000000000000
  0
CIRCLE
  8
0
  6
CONTINUOUS
 62
256
 10
0.000000000000000
 20
0.000000000000000
 40
5.000000000000000
  0
POINT
  8
0
  6
CONTINUOUS
 62
256
 10
0.000000000000000
 20
0.000000000000000
  0
LINE
  8
0
  6
CONTINUOUS
 62
256
 10
-2.499998000000000
 20
-1.443372000000000
 11
-2.499999000000000
 21
1.443378000000000
  0
LINE
  8
0
  6
CONTINUOUS
 62
256
 10
2.499998000000000
 20
1.443372000000000
 11
2.499999000000000
 21
-1.443374000000000
  0
LINE
  8
0
  6
CONTINUOUS
 62
256
 10
0.000005000000000
 20
2.886749000000000
 11
2.499999000000000
 21
1.443372000000000
  0
LINE
  8
0
  6
CONTINUOUS
 62
256
 10
-0.000006000000000
 20
-2.886747000000000
 11
-2.499998000000000
 21
-1.443372000000000
  0
LINE
  8
0
  6
CONTINUOUS
 62
256
 10
0.000005000000000
 20
2.886748000000000
 11
-2.500000000000000
 21
1.443377000000000
  0
LINE
  8
0
  6
CONTINUOUS
 62
256
 10
2.499999000000000
 20
-1.443374000000000
 11
-0.000005000000000
 21
-2.886748000000000
  0
ENDBLK
  8
0
  0
BLOCK
  8
0
  2
ZU_SYM_4
 70
64
 10
0.000000000000000
 20
0.000000000000000
  0
CIRCLE
  8
0
  6
CONTINUOUS
 62
256
 10
0.000000000000000
 20
0.000000000000000
 40
5.000000000000000
  0
POINT
  8
0
  6
CONTINUOUS
 62
256
 10
0.000000000000000
 20
0.000000000000000
  0
LINE
  8
0
  6
CONTINUOUS
 62
256
 10
-2.499998000000000
 20
-1.443372000000000
 11
-2.499999000000000
 21
1.443378000000000
  0
LINE
  8
0
  6
CONTINUOUS
 62
256
 10
2.499998000000000
 20
1.443372000000000
 11
2.499999000000000
 21
-1.443374000000000
  0
LINE
  8
0
  6
CONTINUOUS
 62
256
 10
0.000005000000000
 20
2.886749000000000
 11
2.499999000000000
 21
1.443372000000000
  0
LINE
  8
0
  6
CONTINUOUS
 62
256
 10
-0.000006000000000
 20
-2.886747000000000
 11
-2.499998000000000
 21
-1.443372000000000
  0
LINE
  8
0
  6
CONTINUOUS
 62
256
 10
0.000005000000000
 20
2.886748000000000
 11
-2.500000000000000
 21
1.443377000000000
  0
LINE
  8
0
  6
CONTINUOUS
 62
256
 10
2.499999000000000
 20
-1.443374000000000
 11
-0.000005000000000
 21
-2.886748000000000
  0
ENDBLK
  8
0
  0
ENDSEC
  0
SECTION
  2
ENTITIES
  0
TEXT
  8
0
  6
CONTINUOUS
 62
256
 10
-70.375488281250000
 20
-13.156250000000000
 40
2.799999952316284
  1
ü@
 50
0.000002504478167
 41
0.996000017370497
  7
STANDARD1
  0
TEXT
  8
0
  6
CONTINUOUS
 62
256
 10
1.624511957168579
 20
-253.406250000000000
 40
2.799999952316284
  1
ü@
 50
0.000002504478167
 41
0.996000017370497
  7
STANDARD1
  0
TEXT
  8
0
  6
CONTINUOUS
 62
256
 10
593.625610351562500
 20
-261.521423339843750
 40
3.299999952316284
  1
1/1
 50
0.000002504478167
 41
0.850909097352304
  7
STANDARD1
  0
TEXT
  8
0
  6
CONTINUOUS
 62
256
 10
591.207641601562500
 20
-261.521423339843750
 40
3.299999952316284
  1
 
 50
0.000002504478167
 41
1.733333298293026
  7
STANDARD1
  0
TEXT
  8
0
  6
CONTINUOUS
 62
256
 10
578.156982421875000
 20
-261.521423339843750
 40
3.299999952316284
  1
SCALE
 50
0.000002504478167
 41
0.821052645401140
  7
STANDARD1
  0
TEXT
  8
0
  6
CONTINUOUS
 62
256
 10
574.905639648437500
 20
-261.521423339843750
 40
3.299999952316284
  1
 
 50
0.000002504478167
 41
1.733333298293026
  7
STANDARD1
  0
TEXT
  8
0
  6
CONTINUOUS
 62
256
 10
589.759826660156250
 20
-256.221435546875000
 40
3.299999952316284
  1
1/240
 50
0.000002504478167
 41
0.821052645401140
  7
STANDARD1
  0
TEXT
  8
0
  6
CONTINUOUS
 62
256
 10
585.977783203125000
 20
-256.221435546875000
 40
3.299999952316284
  1
ü`
 50
0.000002504478167
 41
1.176000019651471
  7
STANDARD1
  0
TEXT
  8
0
  6
CONTINUOUS
 62
256
 10
574.905639648437500
 20
-256.221435546875000
 40
3.299999952316284
  1
1/80
 50
0.000002504478167
 41
0.832000075658163
  7
STANDARD1
  0
TEXT
  8
0
  6
CONTINUOUS
 62
256
 10
574.905639648437500
 20
-250.921417236328120
 40
3.299999952316284
  1
GM-SHYM-RH
 50
0.000002504478167
 41
0.799999980493025
  7
STANDARD1
  0
TEXT
  8
0
  6
CONTINUOUS
 62
256
 10
580.731018066406250
 20
-245.621429443359370
 40
3.299999952316284
  1
0.4kW
 50
0.000002504478167
 41
0.821052645401140
  7
STANDARD1
  0
TEXT
  8
0
  6
CONTINUOUS
 62
256
 10
574.905639648437500
 20
-245.621429443359370
 40
3.299999952316284
  1
  
 50
0.000002504478167
 41
1.485714400175845
  7
STANDARD1
  0
TEXT
  8
0
  6
CONTINUOUS
 62
256
 10
580.725097656250000
 20
-240.321426391601560
 40
3.299999952316284
  1
SHY005
 50
0.000002504478167
 41
0.813913121261144
  7
STANDARD1
  0
TEXT
  8
0
  6
CONTINUOUS
 62
256
 10
574.905639648437500
 20
-240.321426391601560
 40
3.299999952316284
  1
  
 50
0.000002504478167
 41
1.485714400175845
  7
STANDARD1
  0
LINE
  8
0
  6
DASHDOT
 62
256
 10
-563.092279999999960
 20
-133.462277000000000
 11
-417.417832999999970
 21
-133.462277000000000
  0
LINE
  8
0
  6
DASHDOT
 62
256
 10
-490.250887999999970
 20
-38.163600000000002
 11
-490.250887999999970
 21
-233.083608000000000
  0
LINE
  8
0
  6
CONTINUOUS
 62
256
 10
-444.250887999999970
 20
-45.471161000000002
 11
-444.250887999999970
 21
-76.224198999999999
  0
LINE
  8
0
  6
CONTINUOUS
 62
256
 10
-548.250888000000030
 20
-47.120665000000002
 11
-548.250888000000030
 21
-98.844363000000001
  0
LINE
  8
0
  6
CONTINUOUS
 62
256
 10
-432.250491000000010
 20
-98.847792999999996
 11
-432.250491000000010
 21
-45.680629000000003
  0
LINE
  8
0
  6
CONTINUOUS
 62
256
 10
-553.250888000000030
 20
-164.962434000000000
 11
-548.595867000000000
 21
-164.962434000000000
  0
LINE
  8
0
  6
CONTINUOUS
 62
256
 10
-431.905910000000010
 20
-164.962434000000000
 11
-427.250491000000010
 21
-164.962434000000000
  0
LINE
  8
0
  6
CONTINUOUS
 62
256
 10
-548.250888000000030
 20
-168.080192000000010
 11
-548.250888000000030
 21
-219.804203000000000
  0
LINE
  8
0
  6
CONTINUOUS
 62
256
 10
-432.250491000000010
 20
-168.076762000000000
 11
-432.250491000000010
 21
-220.744315000000000
  0
LINE
  8
0
  6
CONTINUOUS
 62
256
 10
-444.250887999999970
 20
-190.700356000000000
 11
-444.250887999999970
 21
-221.453706000000010
  0
LINE
  8
0
  6
CONTINUOUS
 62
256
 10
-520.243385999999990
 20
-220.127252000000000
 11
-538.750888000000030
 21
-219.804203000000000
  0
LINE
  8
0
  6
CONTINUOUS
 62
256
 10
-444.250887999999970
 20
-221.453706000000010
 11
-460.310898000000010
 21
-221.173378000000010
  0
LINE
  8
0
  6
CONTINUOUS
 62
256
 10
-538.750888000000030
 20
-47.120665000000002
 11
-548.250888000000030
 21
-47.120665000000002
  0
LINE
  8
0
  6
CONTINUOUS
 62
256
 10
-553.250888000000030
 20
-69.962434000000002
 11
-553.250888000000030
 21
-164.962434000000000
  0
LINE
  8
0
  6
CONTINUOUS
 62
256
 10
-553.250888000000030
 20
-69.962434000000002
 11
-548.250888000000030
 21
-69.962434000000002
  0
ARC
  8
0
  6
CONTINUOUS
 62
256
 10
-556.250888000000030
 20
-94.462434000000002
 40
1.000000000000000
 50
90.000000000000000
 51
180.000000000000000
  0
LINE
  8
0
  6
CONTINUOUS
 62
256
 10
-557.250888000000030
 20
-94.462434000000002
 11
-557.250888000000030
 21
-117.462434000000000
  0
LINE
  8
0
  6
CONTINUOUS
 62
256
 10
-556.250888000000030
 20
-93.462434000000002
 11
-553.250888000000030
 21
-93.462434000000002
  0
ARC
  8
0
  6
CONTINUOUS
 62
256
 10
-556.250888000000030
 20
-140.462434000000000
 40
1.000000000000000
 50
180.000000000000000
 51
270.000000000000000
  0
LINE
  8
0
  6
CONTINUOUS
 62
256
 10
-557.250888000000030
 20
-140.462434000000000
 11
-557.250888000000030
 21
-117.462434000000000
  0
LINE
  8
0
  6
CONTINUOUS
 62
256
 10
-556.250888000000030
 20
-141.462434000000000
 11
-553.250888000000030
 21
-141.462434000000000
  0
LINE
  8
0
  6
CONTINUOUS
 62
256
 10
-538.750888000000030
 20
-219.804203000000000
 11
-548.250888000000030
 21
-219.804203000000000
  0
LINE
  8
0
  6
CONTINUOUS
 62
256
 10
-432.750338000000000
 20
-221.252963999999990
 11
-444.250887999999970
 21
-221.453706000000010
  0
LINE
  8
0
  6
CONTINUOUS
 62
256
 10
-432.250491000000010
 20
-220.744315000000000
 11
-432.750338000000000
 21
-221.252963999999990
  0
LINE
  8
0
  6
CONTINUOUS
 62
256
 10
-444.250887999999970
 20
-45.471161000000002
 11
-538.750888000000030
 21
-47.120665000000002
  0
LINE
  8
0
  6
CONTINUOUS
 62
256
 10
-432.250491000000010
 20
-45.680629000000003
 11
-444.250887999999970
 21
-45.471161000000002
  0
LINE
  8
0
  6
CONTINUOUS
 62
256
 10
-427.250491000000010
 20
-117.462434000000000
 11
-427.250491000000010
 21
-69.962434000000002
  0
LINE
  8
0
  6
CONTINUOUS
 62
256
 10
-432.250491000000010
 20
-69.962434000000002
 11
-427.250491000000010
 21
-69.962434000000002
  0
ARC
  8
0
  6
CONTINUOUS
 62
256
 10
-424.250887999999970
 20
-94.462434000000002
 40
1.000000000000000
 50
0.000000000000000
 51
90.000000000000000
  0
LINE
  8
0
  6
CONTINUOUS
 62
256
 10
-423.250887999999970
 20
-94.462434000000002
 11
-423.250887999999970
 21
-117.462434000000000
  0
LINE
  8
0
  6
CONTINUOUS
 62
256
 10
-424.250887999999970
 20
-93.462434000000002
 11
-427.250887999999970
 21
-93.462434000000002
  0
LINE
  8
0
  6
CONTINUOUS
 62
256
 10
-423.250887999999970
 20
-140.462434000000000
 11
-423.250887999999970
 21
-117.462434000000000
  0
LINE
  8
0
  6
CONTINUOUS
 62
256
 10
-427.250491000000010
 20
-117.462434000000000
 11
-427.250491000000010
 21
-164.962434000000000
  0
ARC
  8
0
  6
CONTINUOUS
 62
256
 10
-424.250887999999970
 20
-140.462434000000000
 40
1.000000000000000
 50
270.000000000000000
 51
0.000000000000000
  0
LINE
  8
0
  6
CONTINUOUS
 62
256
 10
-424.250887999999970
 20
-141.462434000000000
 11
-427.250887999999970
 21
-141.462434000000000
  0
ARC
  8
0
  6
CONTINUOUS
 62
256
 10
-549.250888000000030
 20
-113.962277000000000
 40
0.499999999999976
 50
133.310429999997300
 51
180.000000000000000
  0
LINE
  8
0
  6
CONTINUOUS
 62
256
 10
-549.750888000000030
 20
-116.131669000000000
 11
-549.750888000000030
 21
-113.962277000000000
  0
ARC
  8
0
  6
CONTINUOUS
 62
256
 10
-549.250888000000030
 20
-152.962277000000000
 40
0.500000000000000
 50
180.000000000000000
 51
226.689570000003810
  0
LINE
  8
0
  6
CONTINUOUS
 62
256
 10
-549.750888000000030
 20
-150.792886000000010
 11
-549.750888000000030
 21
-152.962277000000000
  0
LINE
  8
0
  6
CONTINUOUS
 62
256
 10
-430.750887999999970
 20
-150.792886000000010
 11
-430.750887999999970
 21
-152.962277000000000
  0
ARC
  8
0
  6
CONTINUOUS
 62
256
 10
-431.250887999999970
 20
-152.962277000000000
 40
0.500000000000026
 50
313.310430000000960
 51
0.000000000000000
  0
LINE
  8
0
  6
CONTINUOUS
 62
256
 10
-430.750887999999970
 20
-116.131669000000000
 11
-430.750887999999970
 21
-113.962277000000000
  0
ARC
  8
0
  6
CONTINUOUS
 62
256
 10
-431.250887999999970
 20
-113.962277000000000
 40
0.500000000000000
 50
0.000000000000000
 51
46.689569999997964
  0
ARC
  8
0
  6
CONTINUOUS
 62
256
 10
-730.850888000000050
 20
-133.462277000000000
 40
289.396999999999990
 50
0.000000000000000
 51
7.897989000000000
  0
LINE
  8
0
  6
CONTINUOUS
 62
256
 10
-521.750888000000030
 20
-196.807272000000010
 11
-521.750888000000030
 21
-196.962277000000000
  0
LINE
  8
0
  6
CONTINUOUS
 62
256
 10
-460.258389000000020
 20
-196.962277000000000
 11
-458.750887999999970
 21
-196.962277000000000
  0
LINE
  8
0
  6
CONTINUOUS
 62
256
 10
-521.750888000000030
 20
-196.962277000000000
 11
-520.243386999999980
 21
-196.962277000000000
  0
LINE
  8
0
  6
CONTINUOUS
 62
256
 10
-460.250887999999970
 20
-220.401047000000010
 11
-460.250887999999970
 21
-196.961524999999990
  0
LINE
  8
0
  6
CONTINUOUS
 62
256
 10
-458.750887999999970
 20
-196.807272000000010
 11
-458.750887999999970
 21
-196.962277000000000
  0
LINE
  8
0
  6
CONTINUOUS
 62
256
 10
-492.750887999999970
 20
-226.962277000000000
 11
-487.750887999999970
 21
-226.962277000000000
  0
LINE
  8
0
  6
CONTINUOUS
 62
256
 10
-492.750887999999970
 20
-226.962277000000000
 11
-492.750887999999970
 21
-226.451861000000010
  0
LINE
  8
0
  6
CONTINUOUS
 62
256
 10
-487.750887999999970
 20
-226.962277000000000
 11
-487.750887999999970
 21
-226.451861000000010
  0
ARC
  8
0
  6
CONTINUOUS
 62
256
 10
-490.250887999999970
 20
73.537723000000000
 40
300.000000000000000
 50
270.000000000000000
 51
274.861404999999990
  0
ARC
  8
0
  6
CONTINUOUS
 62
256
 10
-465.250887999999970
 20
-220.401047000000010
 40
4.999999999999989
 50
274.861405000000100
 51
0.000000000000000
  0
ARC
  8
0
  6
CONTINUOUS
 62
256
 10
-515.250888000000030
 20
-220.401047000000010
 40
5.000000000000000
 50
180.000000000000000
 51
265.138595000000580
  0
LINE
  8
0
  6
CONTINUOUS
 62
256
 10
-520.250888000000030
 20
-220.401047000000010
 11
-520.250888000000030
 21
-196.962277000000000
  0
ARC
  8
0
  6
CONTINUOUS
 62
256
 10
-490.250887999999970
 20
73.537723000000000
 40
300.000000000000000
 50
265.138595000000010
 51
270.000000000000000
  0
ARC
  8
0
  6
CONTINUOUS
 62
256
 10
-461.528075000000000
 20
-129.462277000000000
 40
1.500000000000004
 50
187.928142000000150
 51
270.000000000000000
  0
ARC
  8
0
  6
CONTINUOUS
 62
256
 10
-490.250887999999970
 20
-133.462277000000000
 40
33.500000000000007
 50
7.180756000000018
 51
52.819243999999983
  0
ARC
  8
0
  6
CONTINUOUS
 62
256
 10
-490.250887999999970
 20
-133.462277000000000
 40
42.999999999999979
 50
5.531071999999997
 51
54.468927999999977
  0
ARC
  8
0
  6
CONTINUOUS
 62
256
 10
-490.250887999999970
 20
-133.462277000000000
 40
36.999999999999979
 50
5.963569999999989
 51
54.036430000000010
  0
ARC
  8
0
  6
CONTINUOUS
 62
256
 10
-472.425380000000020
 20
-110.587591000000000
 40
1.500000000000025
 50
150.000000000000540
 51
232.071857999999280
  0
ARC
  8
0
  6
CONTINUOUS
 62
256
 10
-508.076395999999990
 20
-110.587591000000000
 40
1.500000000000018
 50
307.928142000000720
 51
30.000000000000544
  0
ARC
  8
0
  6
CONTINUOUS
 62
256
 10
-490.250887999999970
 20
-133.462277000000000
 40
33.500000000000007
 50
127.180756000000020
 51
172.819244000000000
  0
ARC
  8
0
  6
CONTINUOUS
 62
256
 10
-490.250887999999970
 20
-133.462277000000000
 40
43.000000000000014
 50
125.531072000000020
 51
174.468928000000030
  0
ARC
  8
0
  6
CONTINUOUS
 62
256
 10
-490.250887999999970
 20
-133.462277000000000
 40
37.000000000000000
 50
125.963569999999990
 51
174.036429999999970
  0
ARC
  8
0
  6
CONTINUOUS
 62
256
 10
-490.250887999999970
 20
-133.462277000000000
 40
27.500000000000004
 50
127.928141999999990
 51
172.071858000000020
  0
ARC
  8
0
  6
CONTINUOUS
 62
256
 10
-518.973701000000010
 20
-129.462277000000000
 40
1.500000000000000
 50
270.000000000000000
 51
352.071857999999850
  0
ARC
  8
0
  6
CONTINUOUS
 62
256
 10
-521.999904000000020
 20
-129.462277000000000
 40
1.499999999999970
 50
172.819244000000170
 51
270.000000000000000
  0
ARC
  8
0
  6
CONTINUOUS
 62
256
 10
-528.542532000000050
 20
-129.462277000000000
 40
1.500000000000000
 50
270.000000000000000
 51
354.036430000000000
  0
LINE
  8
0
  6
CONTINUOUS
 62
256
 10
-518.973701000000010
 20
-130.962277000000000
 11
-521.999904000000020
 21
-130.962277000000000
  0
LINE
  8
0
  6
CONTINUOUS
 62
256
 10
-528.542532000000050
 20
-130.962277000000000
 11
-531.557667000000040
 21
-130.962277000000000
  0
ARC
  8
0
  6
CONTINUOUS
 62
256
 10
-531.557667000000040
 20
-129.462277000000000
 40
1.500000000000034
 50
174.468928000000490
 51
270.000000000000000
  0
ARC
  8
0
  6
CONTINUOUS
 62
256
 10
-509.589497999999990
 20
-158.957731999999990
 40
1.499999999999994
 50
232.819243999999940
 51
329.999999999999490
  0
LINE
  8
0
  6
CONTINUOUS
 62
256
 10
-508.290460000000000
 20
-159.707731999999990
 11
-506.777357999999990
 21
-157.086963000000000
  0
ARC
  8
0
  6
CONTINUOUS
 62
256
 10
-512.860812000000010
 20
-164.623814000000010
 40
1.499999999999975
 50
329.999999999999490
 51
54.036429999999186
  0
ARC
  8
0
  6
CONTINUOUS
 62
256
 10
-508.076395999999990
 20
-156.336963000000000
 40
1.499999999999975
 50
329.999999999999490
 51
52.071857999999288
  0
ARC
  8
0
  6
CONTINUOUS
 62
256
 10
-490.250887999999970
 20
-133.462277000000000
 40
33.500000000000000
 50
187.180755999999970
 51
232.819244000000000
  0
ARC
  8
0
  6
CONTINUOUS
 62
256
 10
-490.250887999999970
 20
-133.462277000000000
 40
43.000000000000028
 50
185.531071999999970
 51
234.468927999999950
  0
ARC
  8
0
  6
CONTINUOUS
 62
256
 10
-490.250887999999970
 20
-133.462277000000000
 40
36.999999999999979
 50
185.963569999999980
 51
234.036429999999970
  0
ARC
  8
0
  6
CONTINUOUS
 62
256
 10
-490.250887999999970
 20
-133.462277000000000
 40
27.500000000000043
 50
187.928141999999980
 51
232.071858000000050
  0
ARC
  8
0
  6
CONTINUOUS
 62
256
 10
-518.973701000000010
 20
-137.462277000000000
 40
1.500000000000004
 50
7.928142000000149
 51
90.000000000000000
  0
ARC
  8
0
  6
CONTINUOUS
 62
256
 10
-521.999904000000020
 20
-137.462277000000000
 40
1.500000000000000
 50
90.000000000000000
 51
187.180755999999830
  0
ARC
  8
0
  6
CONTINUOUS
 62
256
 10
-528.542532000000050
 20
-137.462277000000000
 40
1.499999999999955
 50
5.963570000000017
 51
90.000000000000000
  0
LINE
  8
0
  6
CONTINUOUS
 62
256
 10
-518.973701000000010
 20
-135.962277000000000
 11
-521.999904000000020
 21
-135.962277000000000
  0
LINE
  8
0
  6
CONTINUOUS
 62
256
 10
-528.542532000000050
 20
-135.962277000000000
 11
-531.557667000000040
 21
-135.962277000000000
  0
ARC
  8
0
  6
CONTINUOUS
 62
256
 10
-531.557667000000040
 20
-137.462277000000000
 40
1.500000000000000
 50
90.000000000000000
 51
185.531071999999510
  0
ARC
  8
0
  6
CONTINUOUS
 62
256
 10
-502.661294000000000
 20
-162.957731999999990
 40
1.500000000000025
 50
150.000000000000540
 51
247.180756000001140
  0
LINE
  8
0
  6
CONTINUOUS
 62
256
 10
-503.960332999999990
 20
-162.207731999999990
 11
-502.447230999999990
 21
-159.586963000000000
  0
ARC
  8
0
  6
CONTINUOUS
 62
256
 10
-501.148192999999990
 20
-160.336963000000000
 40
1.499999999999998
 50
67.928142000000889
 51
150.000000000000540
  0
ARC
  8
0
  6
CONTINUOUS
 62
256
 10
-490.250887999999970
 20
-133.462277000000000
 40
33.500000000000007
 50
247.180756000000030
 51
292.819244000000030
  0
ARC
  8
0
  6
CONTINUOUS
 62
256
 10
-490.250887999999970
 20
-133.462277000000000
 40
27.499999999999989
 50
247.928142000000040
 51
292.071857999999960
  0
ARC
  8
0
  6
CONTINUOUS
 62
256
 10
-479.353583000000010
 20
-160.336963000000000
 40
1.499999999999975
 50
30.000000000000544
 51
112.071857999999120
  0
ARC
  8
0
  6
CONTINUOUS
 62
256
 10
-477.840482000000010
 20
-162.957731999999990
 40
1.499999999999976
 50
292.819243999999230
 51
30.000000000000544
  0
LINE
  8
0
  6
CONTINUOUS
 62
256
 10
-478.054545000000020
 20
-159.586963000000000
 11
-476.541444000000010
 21
-162.207731999999990
  0
ARC
  8
0
  6
CONTINUOUS
 62
256
 10
-490.250887999999970
 20
-133.462277000000000
 40
33.500000000000000
 50
307.180755999999920
 51
352.819244000000030
  0
ARC
  8
0
  6
CONTINUOUS
 62
256
 10
-490.250887999999970
 20
-133.462277000000000
 40
36.999999999999993
 50
305.963570000000000
 51
354.036429999999940
  0
ARC
  8
0
  6
CONTINUOUS
 62
256
 10
-467.640964999999990
 20
-164.623814000000010
 40
1.500000000000007
 50
125.963570000000810
 51
210.000000000000510
  0
ARC
  8
0
  6
CONTINUOUS
 62
256
 10
-470.912279000000010
 20
-158.957731999999990
 40
1.499999999999975
 50
210.000000000000510
 51
307.180756000000090
  0
ARC
  8
0
  6
CONTINUOUS
 62
256
 10
-490.250887999999970
 20
-133.462277000000000
 40
27.500000000000014
 50
307.928141999999980
 51
352.071858000000020
  0
ARC
  8
0
  6
CONTINUOUS
 62
256
 10
-461.528075000000000
 20
-137.462277000000000
 40
1.500000000000000
 50
90.000000000000000
 51
172.071857999999850
  0
LINE
  8
0
  6
CONTINUOUS
 62
256
 10
-473.724418000000010
 20
-157.086963000000000
 11
-472.211317000000010
 21
-159.707731999999990
  0
ARC
  8
0
  6
CONTINUOUS
 62
256
 10
-472.425380000000020
 20
-156.336963000000000
 40
1.500000000000018
 50
127.928142000000730
 51
210.000000000000510
  0
CIRCLE
  8
0
  6
CONTINUOUS
 62
256
 10
-490.250887999999970
 20
-133.462277000000000
 40
5.000000000000000
  0
ARC
  8
0
  6
CONTINUOUS
 62
256
 10
-482.204210999999990
 20
-139.399531000000000
 40
1.500000000000009
 50
143.578177999999610
 51
210.000000000000510
  0
ARC
  8
0
  6
CONTINUOUS
 62
256
 10
-481.085736999999990
 20
-137.462277000000000
 40
1.500000000000000
 50
90.000000000000000
 51
156.421822000000110
  0
ARC
  8
0
  6
CONTINUOUS
 62
256
 10
-475.715992000000030
 20
-150.637457000000010
 40
1.499999999999975
 50
210.000000000000510
 51
310.240347999999810
  0
ARC
  8
0
  6
CONTINUOUS
 62
256
 10
-477.881571000000010
 20
-137.462277000000000
 40
1.500000000000028
 50
342.079787000000070
 51
90.000000000000000
  0
ARC
  8
0
  6
CONTINUOUS
 62
256
 10
-471.165553999999990
 20
-137.462277000000000
 40
1.500000000000000
 50
90.000000000000000
 51
168.162995999999680
  0
ARC
  8
0
  6
CONTINUOUS
 62
256
 10
-477.244119000000010
 20
-147.990661999999990
 40
1.499999999999989
 50
131.837003999999810
 51
210.000000000000510
  0
ARC
  8
0
  6
CONTINUOUS
 62
256
 10
-468.109298000000020
 20
-137.462277000000000
 40
1.500000000000012
 50
349.759651999999790
 51
90.000000000000000
  0
ARC
  8
0
  6
CONTINUOUS
 62
256
 10
-480.602127999999990
 20
-142.174420000000000
 40
1.499999999999975
 50
210.000000000000510
 51
317.920212999999420
  0
LINE
  8
0
  6
CONTINUOUS
 62
256
 10
-478.543157000000010
 20
-148.740661999999990
 11
-477.015030000000020
 21
-151.387457000000010
  0
ARC
  8
0
  6
CONTINUOUS
 62
256
 10
-490.250887999999970
 20
-133.462277000000000
 40
14.500000000000012
 50
317.920213000000050
 51
342.079787000000070
  0
LINE
  8
0
  6
CONTINUOUS
 62
256
 10
-477.881571000000010
 20
-135.962277000000000
 11
-481.085736999999990
 21
-135.962277000000000
  0
LINE
  8
0
  6
CONTINUOUS
 62
256
 10
-468.109298000000020
 20
-135.962277000000000
 11
-471.165553999999990
 21
-135.962277000000000
  0
LINE
  8
0
  6
CONTINUOUS
 62
256
 10
-483.503248999999980
 20
-140.149531000000000
 11
-481.901165999999990
 21
-142.924420000000000
  0
ARC
  8
0
  6
CONTINUOUS
 62
256
 10
-490.250887999999970
 20
-133.462277000000000
 40
24.000000000000004
 50
310.240347999999980
 51
349.759652000000020
  0
ARC
  8
0
  6
CONTINUOUS
 62
256
 10
-490.250887999999970
 20
-133.462277000000000
 40
8.499999999999989
 50
323.578177999999920
 51
336.421821999999910
  0
ARC
  8
0
  6
CONTINUOUS
 62
256
 10
-492.971445000000020
 20
-146.174420000000000
 40
1.500000000000025
 50
150.000000000000540
 51
257.920213000000730
  0
LINE
  8
0
  6
CONTINUOUS
 62
256
 10
-494.270483000000010
 20
-145.424420000000000
 11
-492.668400000000020
 21
-142.649531000000000
  0
ARC
  8
0
  6
CONTINUOUS
 62
256
 10
-491.369362000000020
 20
-143.399531000000000
 40
1.500000000000001
 50
83.578178000000747
 51
150.000000000000540
  0
ARC
  8
0
  6
CONTINUOUS
 62
256
 10
-490.250887999999970
 20
-133.462277000000000
 40
8.500000000000007
 50
263.578177999999980
 51
276.421822000000020
  0
ARC
  8
0
  6
CONTINUOUS
 62
256
 10
-489.132413999999980
 20
-143.399531000000000
 40
1.499999999999975
 50
30.000000000000544
 51
96.421821999999253
  0
LINE
  8
0
  6
CONTINUOUS
 62
256
 10
-487.833375999999990
 20
-142.649531000000000
 11
-486.231292999999990
 21
-145.424420000000000
  0
ARC
  8
0
  6
CONTINUOUS
 62
256
 10
-487.530330999999990
 20
-146.174420000000000
 40
1.499999999999989
 50
282.079786999999270
 51
30.000000000000544
  0
ARC
  8
0
  6
CONTINUOUS
 62
256
 10
-490.250887999999970
 20
-133.462277000000000
 40
14.499999999999986
 50
257.920212999999990
 51
282.079786999999950
  0
ARC
  8
0
  6
CONTINUOUS
 62
256
 10
-497.857581999999980
 20
-154.637457000000010
 40
1.500000000000025
 50
150.000000000000540
 51
250.240347999999300
  0
LINE
  8
0
  6
CONTINUOUS
 62
256
 10
-499.156619999999980
 20
-153.887457000000010
 11
-497.628491999999990
 21
-151.240661999999990
  0
ARC
  8
0
  6
CONTINUOUS
 62
256
 10
-496.329454000000000
 20
-151.990661999999990
 40
1.500000000000007
 50
71.837003999999709
 51
149.999999999999460
  0
ARC
  8
0
  6
CONTINUOUS
 62
256
 10
-490.250887999999970
 20
-133.462277000000000
 40
17.999999999999996
 50
251.837003999999980
 51
288.162995999999960
  0
ARC
  8
0
  6
CONTINUOUS
 62
256
 10
-484.172322000000010
 20
-151.990661999999990
 40
1.500000000000025
 50
29.999999999999456
 51
108.162996000000290
  0
LINE
  8
0
  6
CONTINUOUS
 62
256
 10
-482.873284000000010
 20
-151.240661999999990
 11
-481.345156999999970
 21
-153.887457000000010
  0
ARC
  8
0
  6
CONTINUOUS
 62
256
 10
-482.644195000000020
 20
-154.637457000000010
 40
1.500000000000012
 50
289.759652000000640
 51
30.000000000000544
  0
ARC
  8
0
  6
CONTINUOUS
 62
256
 10
-490.250887999999970
 20
-133.462277000000000
 40
23.999999999999993
 50
250.240348000000010
 51
289.759652000000020
  0
ARC
  8
0
  6
CONTINUOUS
 62
256
 10
-492.971445000000020
 20
-120.750135000000000
 40
1.499999999999989
 50
102.079786999999230
 51
210.000000000000510
  0
LINE
  8
0
  6
CONTINUOUS
 62
256
 10
-494.270483000000010
 20
-121.500135000000000
 11
-492.668400000000020
 21
-124.275023000000000
  0
ARC
  8
0
  6
CONTINUOUS
 62
256
 10
-491.369362000000020
 20
-123.525023000000000
 40
1.499999999999975
 50
210.000000000000510
 51
276.421821999999220
  0
ARC
  8
0
  6
CONTINUOUS
 62
256
 10
-490.250887999999970
 20
-133.462277000000000
 40
8.500000000000007
 50
83.578177999999994
 51
96.421822000000020
  0
ARC
  8
0
  6
CONTINUOUS
 62
256
 10
-489.132413999999980
 20
-123.525023000000000
 40
1.500000000000001
 50
263.578178000000780
 51
329.999999999999490
  0
LINE
  8
0
  6
CONTINUOUS
 62
256
 10
-487.833375999999990
 20
-124.275023000000000
 11
-486.231292999999990
 21
-121.500135000000000
  0
ARC
  8
0
  6
CONTINUOUS
 62
256
 10
-487.530330999999990
 20
-120.750135000000000
 40
1.499999999999975
 50
329.999999999999490
 51
77.920213000000771
  0
ARC
  8
0
  6
CONTINUOUS
 62
256
 10
-490.250887999999970
 20
-133.462277000000000
 40
14.500000000000002
 50
77.920213000000032
 51
102.079786999999980
  0
ARC
  8
0
  6
CONTINUOUS
 62
256
 10
-497.857581999999980
 20
-112.287098000000000
 40
1.500000000000012
 50
109.759652000000680
 51
210.000000000000510
  0
LINE
  8
0
  6
CONTINUOUS
 62
256
 10
-499.156619999999980
 20
-113.037098000000000
 11
-497.628491999999990
 21
-115.683893000000000
  0
ARC
  8
0
  6
CONTINUOUS
 62
256
 10
-496.329454000000000
 20
-114.933893000000000
 40
1.499999999999975
 50
210.000000000000510
 51
288.162996000000310
  0
ARC
  8
0
  6
CONTINUOUS
 62
256
 10
-490.250887999999970
 20
-133.462277000000000
 40
17.999999999999996
 50
71.837004000000007
 51
108.162996000000010
  0
ARC
  8
0
  6
CONTINUOUS
 62
256
 10
-484.172322000000010
 20
-114.933893000000000
 40
1.500000000000007
 50
251.837003999999720
 51
329.999999999999490
  0
LINE
  8
0
  6
CONTINUOUS
 62
256
 10
-482.873284000000010
 20
-115.683893000000000
 11
-481.345156999999970
 21
-113.037098000000000
  0
ARC
  8
0
  6
CONTINUOUS
 62
256
 10
-482.644195000000020
 20
-112.287098000000000
 40
1.499999999999975
 50
329.999999999999490
 51
70.240347999999329
  0
ARC
  8
0
  6
CONTINUOUS
 62
256
 10
-499.899648000000010
 20
-124.750135000000000
 40
1.499999999999975
 50
30.000000000000544
 51
137.920212999999820
  0
LINE
  8
0
  6
CONTINUOUS
 62
256
 10
-498.600610000000020
 20
-124.000135000000000
 11
-496.998527000000020
 21
-126.775023000000000
  0
ARC
  8
0
  6
CONTINUOUS
 62
256
 10
-498.297566000000020
 20
-127.525023000000000
 40
1.500000000000009
 50
323.578177999999580
 51
30.000000000000544
  0
ARC
  8
0
  6
CONTINUOUS
 62
256
 10
-490.250887999999970
 20
-133.462277000000000
 40
8.499999999999989
 50
143.578177999999950
 51
156.421821999999930
  0
ARC
  8
0
  6
CONTINUOUS
 62
256
 10
-499.416040000000010
 20
-129.462277000000000
 40
1.500000000000000
 50
270.000000000000000
 51
336.421822000000080
  0
LINE
  8
0
  6
CONTINUOUS
 62
256
 10
-499.416040000000010
 20
-130.962277000000000
 11
-502.620205000000000
 21
-130.962277000000000
  0
ARC
  8
0
  6
CONTINUOUS
 62
256
 10
-502.620205000000000
 20
-129.462277000000000
 40
1.500000000000028
 50
162.079787000000040
 51
270.000000000000000
  0
ARC
  8
0
  6
CONTINUOUS
 62
256
 10
-490.250887999999970
 20
-133.462277000000000
 40
14.500000000000012
 50
137.920213000000070
 51
162.079787000000070
  0
ARC
  8
0
  6
CONTINUOUS
 62
256
 10
-504.785784999999980
 20
-116.287098000000000
 40
1.499999999999975
 50
30.000000000000544
 51
130.240347999999780
  0
LINE
  8
0
  6
CONTINUOUS
 62
256
 10
-503.486746999999980
 20
-115.537098000000000
 11
-501.958619000000000
 21
-118.183893000000000
  0
ARC
  8
0
  6
CONTINUOUS
 62
256
 10
-503.257656999999990
 20
-118.933893000000000
 40
1.499999999999989
 50
311.837003999999810
 51
29.999999999999456
  0
ARC
  8
0
  6
CONTINUOUS
 62
256
 10
-490.250887999999970
 20
-133.462277000000000
 40
17.999999999999989
 50
131.837003999999920
 51
168.162995999999940
  0
ARC
  8
0
  6
CONTINUOUS
 62
256
 10
-509.336223000000020
 20
-129.462277000000000
 40
1.500000000000000
 50
270.000000000000000
 51
348.162995999999680
  0
LINE
  8
0
  6
CONTINUOUS
 62
256
 10
-509.336223000000020
 20
-130.962277000000000
 11
-512.392477999999980
 21
-130.962277000000000
  0
ARC
  8
0
  6
CONTINUOUS
 62
256
 10
-512.392477999999980
 20
-129.462277000000000
 40
1.499999999999956
 50
169.759651999999360
 51
270.000000000000000
  0
ARC
  8
0
  6
CONTINUOUS
 62
256
 10
-490.250887999999970
 20
-133.462277000000000
 40
24.000000000000004
 50
130.240347999999980
 51
169.759652000000020
  0
ARC
  8
0
  6
CONTINUOUS
 62
256
 10
-499.899648000000010
 20
-142.174420000000000
 40
1.500000000000003
 50
222.079787000000580
 51
329.999999999999490
  0
LINE
  8
0
  6
CONTINUOUS
 62
256
 10
-498.600610000000020
 20
-142.924420000000000
 11
-496.998527000000020
 21
-140.149531000000000
  0
ARC
  8
0
  6
CONTINUOUS
 62
256
 10
-498.297566000000020
 20
-139.399531000000000
 40
1.499999999999975
 50
329.999999999999490
 51
36.421822000000404
  0
ARC
  8
0
  6
CONTINUOUS
 62
256
 10
-490.250887999999970
 20
-133.462277000000000
 40
8.499999999999991
 50
203.578178000000070
 51
216.421822000000050
  0
ARC
  8
0
  6
CONTINUOUS
 62
256
 10
-499.416040000000010
 20
-137.462277000000000
 40
1.499999999999979
 50
23.578177999999905
 51
90.000000000000000
  0
LINE
  8
0
  6
CONTINUOUS
 62
256
 10
-499.416040000000010
 20
-135.962277000000000
 11
-502.620205000000000
 21
-135.962277000000000
  0
ARC
  8
0
  6
CONTINUOUS
 62
256
 10
-502.620205000000000
 20
-137.462277000000000
 40
1.500000000000000
 50
90.000000000000000
 51
197.920212999999960
  0
ARC
  8
0
  6
CONTINUOUS
 62
256
 10
-490.250887999999970
 20
-133.462277000000000
 40
14.500000000000011
 50
197.920212999999930
 51
222.079786999999930
  0
ARC
  8
0
  6
CONTINUOUS
 62
256
 10
-504.785784999999980
 20
-150.637457000000010
 40
1.499999999999991
 50
229.759652000000220
 51
329.999999999999490
  0
LINE
  8
0
  6
CONTINUOUS
 62
256
 10
-503.486746999999980
 20
-151.387457000000010
 11
-501.958619000000000
 21
-148.740661999999990
  0
ARC
  8
0
  6
CONTINUOUS
 62
256
 10
-503.257656999999990
 20
-147.990661999999990
 40
1.499999999999975
 50
329.999999999999490
 51
48.162996000000220
  0
ARC
  8
0
  6
CONTINUOUS
 62
256
 10
-490.250887999999970
 20
-133.462277000000000
 40
17.999999999999972
 50
191.837003999999980
 51
228.162996000000080
  0
ARC
  8
0
  6
CONTINUOUS
 62
256
 10
-509.336223000000020
 20
-137.462277000000000
 40
1.500000000000000
 50
11.837004000000336
 51
90.000000000000000
  0
LINE
  8
0
  6
CONTINUOUS
 62
256
 10
-509.336223000000020
 20
-135.962277000000000
 11
-512.392477999999980
 21
-135.962277000000000
  0
ARC
  8
0
  6
CONTINUOUS
 62
256
 10
-512.392477999999980
 20
-137.462277000000000
 40
1.500000000000000
 50
90.000000000000000
 51
190.240348000000640
  0
ARC
  8
0
  6
CONTINUOUS
 62
256
 10
-490.250887999999970
 20
-133.462277000000000
 40
23.999999999999993
 50
190.240347999999980
 51
229.759652000000020
  0
ARC
  8
0
  6
CONTINUOUS
 62
256
 10
-477.881571000000010
 20
-129.462277000000000
 40
1.500000000000000
 50
270.000000000000000
 51
17.920212999999968
  0
LINE
  8
0
  6
CONTINUOUS
 62
256
 10
-477.881571000000010
 20
-130.962277000000000
 11
-481.085736999999990
 21
-130.962277000000000
  0
ARC
  8
0
  6
CONTINUOUS
 62
256
 10
-481.085736999999990
 20
-129.462277000000000
 40
1.499999999999979
 50
203.578177999999890
 51
270.000000000000000
  0
ARC
  8
0
  6
CONTINUOUS
 62
256
 10
-490.250887999999970
 20
-133.462277000000000
 40
8.499999999999991
 50
23.578178000000058
 51
36.421822000000063
  0
ARC
  8
0
  6
CONTINUOUS
 62
256
 10
-482.204210999999990
 20
-127.525023000000000
 40
1.500000000000025
 50
150.000000000000540
 51
216.421822000000390
  0
LINE
  8
0
  6
CONTINUOUS
 62
256
 10
-483.503248999999980
 20
-126.775023000000000
 11
-481.901165999999990
 21
-124.000135000000000
  0
ARC
  8
0
  6
CONTINUOUS
 62
256
 10
-480.602127999999990
 20
-124.750135000000000
 40
1.499999999999994
 50
42.079787000000181
 51
150.000000000000540
  0
ARC
  8
0
  6
CONTINUOUS
 62
256
 10
-490.250887999999970
 20
-133.462277000000000
 40
14.500000000000011
 50
17.920212999999947
 51
42.079786999999946
  0
ARC
  8
0
  6
CONTINUOUS
 62
256
 10
-468.109298000000020
 20
-129.462277000000000
 40
1.500000000000000
 50
270.000000000000000
 51
10.240348000000250
  0
LINE
  8
0
  6
CONTINUOUS
 62
256
 10
-468.109298000000020
 20
-130.962277000000000
 11
-471.165553999999990
 21
-130.962277000000000
  0
ARC
  8
0
  6
CONTINUOUS
 62
256
 10
-471.165553999999990
 20
-129.462277000000000
 40
1.500000000000000
 50
191.837004000000320
 51
270.000000000000000
  0
ARC
  8
0
  6
CONTINUOUS
 62
256
 10
-490.250887999999970
 20
-133.462277000000000
 40
17.999999999999972
 50
11.837003999999983
 51
48.162996000000071
  0
ARC
  8
0
  6
CONTINUOUS
 62
256
 10
-477.244119000000010
 20
-118.933893000000000
 40
1.499999999999975
 50
149.999999999999460
 51
228.162996000000190
  0
LINE
  8
0
  6
CONTINUOUS
 62
256
 10
-478.543157000000010
 20
-118.183893000000000
 11
-477.015030000000020
 21
-115.537098000000000
  0
ARC
  8
0
  6
CONTINUOUS
 62
256
 10
-475.715992000000030
 20
-116.287098000000000
 40
1.499999999999991
 50
49.759652000000230
 51
150.000000000000540
  0
ARC
  8
0
  6
CONTINUOUS
 62
256
 10
-490.250887999999970
 20
-133.462277000000000
 40
23.999999999999993
 50
10.240347999999988
 51
49.759652000000010
  0
ARC
  8
0
  6
CONTINUOUS
 62
256
 10
-458.501871999999990
 20
-129.462277000000000
 40
1.500000000000000
 50
270.000000000000000
 51
7.180755999999549
  0
LINE
  8
0
  6
CONTINUOUS
 62
256
 10
-458.501871999999990
 20
-130.962277000000000
 11
-461.528075000000000
 21
-130.962277000000000
  0
ARC
  8
0
  6
CONTINUOUS
 62
256
 10
-451.959244000000010
 20
-129.462277000000000
 40
1.500000000000012
 50
185.963569999999780
 51
270.000000000000000
  0
LINE
  8
0
  6
CONTINUOUS
 62
256
 10
-448.944109000000030
 20
-130.962277000000000
 11
-451.959244000000010
 21
-130.962277000000000
  0
LINE
  8
0
  6
CONTINUOUS
 62
256
 10
-513.069341000000010
 20
-167.984996999999990
 11
-511.561774000000010
 21
-165.373814000000010
  0
ARC
  8
0
  6
CONTINUOUS
 62
256
 10
-514.368379000000000
 20
-167.234996999999990
 40
1.500000000000022
 50
234.468927999998730
 51
330.000000000000570
  0
ARC
  8
0
  6
CONTINUOUS
 62
256
 10
-505.932609000000010
 20
-168.623814000000010
 40
1.499999999999986
 50
65.963570000000146
 51
149.999999999999460
  0
LINE
  8
0
  6
CONTINUOUS
 62
256
 10
-508.739214000000000
 20
-170.484996999999990
 11
-507.231647000000010
 21
-167.873814000000010
  0
ARC
  8
0
  6
CONTINUOUS
 62
256
 10
-507.440176000000010
 20
-171.234996999999990
 40
1.499999999999975
 50
149.999999999999460
 51
245.531072000000020
  0
ARC
  8
0
  6
CONTINUOUS
 62
256
 10
-490.250887999999970
 20
-133.462277000000000
 40
42.999999999999993
 50
245.531071999999970
 51
294.468927999999950
  0
ARC
  8
0
  6
CONTINUOUS
 62
256
 10
-490.250887999999970
 20
-133.462277000000000
 40
37.000000000000000
 50
245.963569999999950
 51
294.036429999999940
  0
ARC
  8
0
  6
CONTINUOUS
 62
256
 10
-474.569167999999990
 20
-168.623814000000010
 40
1.500000000000025
 50
29.999999999999456
 51
114.036429999999850
  0
LINE
  8
0
  6
CONTINUOUS
 62
256
 10
-473.270129999999990
 20
-167.873814000000010
 11
-471.762562000000000
 21
-170.484996999999990
  0
ARC
  8
0
  6
CONTINUOUS
 62
256
 10
-473.061600000000000
 20
-171.234996999999990
 40
1.499999999999989
 50
294.468928000000010
 51
29.999999999999456
  0
ARC
  8
0
  6
CONTINUOUS
 62
256
 10
-490.250887999999970
 20
-133.462277000000000
 40
43.000000000000021
 50
305.531071999999990
 51
354.468928000000010
  0
ARC
  8
0
  6
CONTINUOUS
 62
256
 10
-466.133397000000000
 20
-167.234996999999990
 40
1.499999999999975
 50
210.000000000000510
 51
305.531071999999480
  0
ARC
  8
0
  6
CONTINUOUS
 62
256
 10
-451.959244000000010
 20
-137.462277000000000
 40
1.500000000000000
 50
90.000000000000000
 51
174.036430000000220
  0
ARC
  8
0
  6
CONTINUOUS
 62
256
 10
-458.501871999999990
 20
-137.462277000000000
 40
1.500000000000026
 50
352.819244000000480
 51
90.000000000000000
  0
LINE
  8
0
  6
CONTINUOUS
 62
256
 10
-458.501871999999990
 20
-135.962277000000000
 11
-461.528075000000000
 21
-135.962277000000000
  0
LINE
  8
0
  6
CONTINUOUS
 62
256
 10
-468.940002999999990
 20
-165.373814000000010
 11
-467.432435000000000
 21
-167.984996999999990
  0
LINE
  8
0
  6
CONTINUOUS
 62
256
 10
-448.944109000000030
 20
-135.962277000000000
 11
-451.959244000000010
 21
-135.962277000000000
  0
ARC
  8
0
  6
CONTINUOUS
 62
256
 10
-490.250887999999970
 20
-133.462277000000000
 40
27.499999999999986
 50
7.928141999999994
 51
52.071858000000006
  0
ARC
  8
0
  6
CONTINUOUS
 62
256
 10
-490.250887999999970
 20
-133.462277000000000
 40
17.999999999999989
 50
311.837003999999920
 51
348.162996000000020
  0
ARC
  8
0
  6
CONTINUOUS
 62
256
 10
-448.944109000000030
 20
-129.462277000000000
 40
1.500000000000000
 50
270.000000000000000
 51
5.531071999999735
  0
ARC
  8
0
  6
CONTINUOUS
 62
256
 10
-448.944109000000030
 20
-137.462277000000000
 40
1.499999999999977
 50
354.468928000000290
 51
90.000000000000000
  0
LINE
  8
0
  6
CONTINUOUS
 62
256
 10
-435.487369000000000
 20
-182.077769999999990
 11
-442.553817999999980
 21
-189.144218999999990
  0
ARC
  8
0
  6
CONTINUOUS
 62
256
 10
-730.850888000000050
 20
-133.462277000000000
 40
300.600000000000020
 50
0.000000000000000
 51
8.597081999999999
  0
ARC
  8
0
  6
CONTINUOUS
 62
256
 10
-249.650888000000010
 20
-133.462277000000000
 40
300.600000000000020
 50
180.000000000000000
 51
188.597082000000000
  0
ARC
  8
0
  6
CONTINUOUS
 62
256
 10
-440.154273999999990
 20
-177.410865000000000
 40
6.600000000000017
 50
315.000000000000170
 51
351.402917999999940
  0
ARC
  8
0
  6
CONTINUOUS
 62
256
 10
-730.850888000000050
 20
-133.462277000000000
 40
300.600000000000020
 50
351.402918000000000
 51
0.000000000000000
  0
ARC
  8
0
  6
CONTINUOUS
 62
256
 10
-490.250887999999970
 20
102.137722999999990
 40
300.600000000000020
 50
263.948015000000000
 51
276.051985000000000
  0
LINE
  8
0
  6
CONTINUOUS
 62
256
 10
-545.014407000000010
 20
-182.077769999999990
 11
-537.947957999999970
 21
-189.144218999999990
  0
ARC
  8
0
  6
CONTINUOUS
 62
256
 10
-540.347502999999960
 20
-177.410865000000000
 40
6.600000000000022
 50
188.597082000000030
 51
225.000000000000170
  0
ARC
  8
0
  6
CONTINUOUS
 62
256
 10
-249.650888000000010
 20
-133.462277000000000
 40
300.600000000000020
 50
171.402918000000000
 51
180.000000000000000
  0
ARC
  8
0
  6
CONTINUOUS
 62
256
 10
-461.362858000000020
 20
-170.335178000000010
 40
26.600000000000009
 50
276.051984999999950
 51
315.000000000000060
  0
ARC
  8
0
  6
CONTINUOUS
 62
256
 10
-519.138917999999990
 20
-170.335178000000010
 40
26.599999999999977
 50
225.000000000000030
 51
263.948015000000050
  0
ARC
  8
0
  6
CONTINUOUS
 62
256
 10
-490.250887999999970
 20
102.137722999999990
 40
289.396999999999990
 50
270.000000000000000
 51
276.051985000000000
  0
ARC
  8
0
  6
CONTINUOUS
 62
256
 10
-461.362858000000020
 20
-170.335178000000010
 40
15.397000000000000
 50
276.051984999999890
 51
314.999999999999940
  0
LINE
  8
0
  6
CONTINUOUS
 62
256
 10
-445.899470000000010
 20
-176.646435999999990
 11
-450.475534999999980
 21
-181.222500999999990
  0
ARC
  8
0
  6
CONTINUOUS
 62
256
 10
-450.142111000000000
 20
-172.403795000000000
 40
5.999999999999989
 50
314.999999999999770
 51
352.102010999999950
  0
ARC
  8
0
  6
CONTINUOUS
 62
256
 10
-730.850888000000050
 20
-133.462277000000000
 40
289.396999999999990
 50
352.102011000000000
 51
360.000000000000000
  0
ARC
  8
0
  6
CONTINUOUS
 62
256
 10
-490.250887999999970
 20
102.137722999999990
 40
289.397000000000050
 50
263.948015000000000
 51
270.000000000000000
  0
ARC
  8
0
  6
CONTINUOUS
 62
256
 10
-519.138917999999990
 20
-170.335178000000010
 40
15.397000000000016
 50
224.999999999999910
 51
263.948015000000110
  0
LINE
  8
0
  6
CONTINUOUS
 62
256
 10
-534.602306000000000
 20
-176.646435999999990
 11
-530.026241000000030
 21
-181.222500999999990
  0
ARC
  8
0
  6
CONTINUOUS
 62
256
 10
-530.359665999999950
 20
-172.403795000000000
 40
5.999999999999990
 50
187.897989000000000
 51
224.999999999999800
  0
ARC
  8
0
  6
CONTINUOUS
 62
256
 10
-249.650888000000010
 20
-133.462277000000000
 40
289.397000000000050
 50
180.000000000000000
 51
187.897989000000000
  0
ARC
  8
0
  6
CONTINUOUS
 62
256
 10
-249.650888000000010
 20
-133.462277000000000
 40
289.396999999999990
 50
172.102011000000030
 51
180.000000000000000
  0
ARC
  8
0
  6
CONTINUOUS
 62
256
 10
-450.142111000000000
 20
-94.520758999999998
 40
5.999999999999990
 50
7.897989000000010
 51
45.000000000000192
  0
ARC
  8
0
  6
CONTINUOUS
 62
256
 10
-470.912279000000010
 20
-107.966823000000010
 40
1.499999999999994
 50
52.819243999999927
 51
150.000000000000540
  0
ARC
  8
0
  6
CONTINUOUS
 62
256
 10
-467.640964999999990
 20
-102.300741000000000
 40
1.499999999999975
 50
149.999999999999460
 51
234.036429999999170
  0
LINE
  8
0
  6
CONTINUOUS
 62
256
 10
-473.724418000000010
 20
-109.837591000000000
 11
-472.211317000000010
 21
-107.216823000000010
  0
LINE
  8
0
  6
CONTINUOUS
 62
256
 10
-468.940002999999990
 20
-101.550741000000000
 11
-467.432435000000000
 21
-98.939556999999994
  0
ARC
  8
0
  6
CONTINUOUS
 62
256
 10
-466.133397000000000
 20
-99.689556999999994
 40
1.499999999999989
 50
54.468928000000517
 51
149.999999999999460
  0
ARC
  8
0
  6
CONTINUOUS
 62
256
 10
-502.661294000000000
 20
-103.966823000000010
 40
1.499999999999989
 50
112.819243999999050
 51
210.000000000000510
  0
LINE
  8
0
  6
CONTINUOUS
 62
256
 10
-503.960332999999990
 20
-104.716823000000010
 11
-502.447230999999990
 21
-107.337591000000000
  0
ARC
  8
0
  6
CONTINUOUS
 62
256
 10
-505.932609000000010
 20
-98.300741000000002
 40
1.499999999999975
 50
210.000000000000510
 51
294.036429999999600
  0
LINE
  8
0
  6
CONTINUOUS
 62
256
 10
-508.739214000000000
 20
-96.439556999999994
 11
-507.231647000000010
 21
-99.050741000000002
  0
ARC
  8
0
  6
CONTINUOUS
 62
256
 10
-507.440176000000010
 20
-95.689556999999994
 40
1.500000000000002
 50
114.468927999999780
 51
210.000000000000510
  0
ARC
  8
0
  6
CONTINUOUS
 62
256
 10
-501.148192999999990
 20
-106.587591000000000
 40
1.499999999999975
 50
210.000000000000510
 51
292.071857999999110
  0
ARC
  8
0
  6
CONTINUOUS
 62
256
 10
-490.250887999999970
 20
-133.462277000000000
 40
33.500000000000000
 50
67.180756000000002
 51
112.819244000000000
  0
ARC
  8
0
  6
CONTINUOUS
 62
256
 10
-490.250887999999970
 20
-133.462277000000000
 40
43.000000000000007
 50
65.531071999999980
 51
114.468928000000030
  0
ARC
  8
0
  6
CONTINUOUS
 62
256
 10
-490.250887999999970
 20
-133.462277000000000
 40
37.000000000000000
 50
65.963570000000033
 51
114.036429999999970
  0
ARC
  8
0
  6
CONTINUOUS
 62
256
 10
-490.250887999999970
 20
-133.462277000000000
 40
27.499999999999989
 50
67.928142000000008
 51
112.071857999999980
  0
ARC
  8
0
  6
CONTINUOUS
 62
256
 10
-479.353583000000010
 20
-106.587591000000000
 40
1.499999999999998
 50
247.928142000000830
 51
329.999999999999490
  0
ARC
  8
0
  6
CONTINUOUS
 62
256
 10
-477.840482000000010
 20
-103.966823000000010
 40
1.499999999999975
 50
329.999999999999490
 51
67.180756000000954
  0
ARC
  8
0
  6
CONTINUOUS
 62
256
 10
-474.569167999999990
 20
-98.300741000000002
 40
1.499999999999999
 50
245.963570000000350
 51
329.999999999999490
  0
LINE
  8
0
  6
CONTINUOUS
 62
256
 10
-478.054545000000020
 20
-107.337591000000000
 11
-476.541444000000010
 21
-104.716823000000010
  0
LINE
  8
0
  6
CONTINUOUS
 62
256
 10
-473.270129999999990
 20
-99.050741000000002
 11
-471.762562000000000
 21
-96.439556999999994
  0
ARC
  8
0
  6
CONTINUOUS
 62
256
 10
-473.061600000000000
 20
-95.689556999999994
 40
1.499999999999975
 50
329.999999999999490
 51
65.531072000000222
  0
ARC
  8
0
  6
CONTINUOUS
 62
256
 10
-509.589497999999990
 20
-107.966823000000010
 40
1.499999999999975
 50
30.000000000000544
 51
127.180756000000090
  0
LINE
  8
0
  6
CONTINUOUS
 62
256
 10
-508.290460000000000
 20
-107.216823000000010
 11
-506.777357999999990
 21
-109.837591000000000
  0
ARC
  8
0
  6
CONTINUOUS
 62
256
 10
-512.860812000000010
 20
-102.300741000000000
 40
1.500000000000007
 50
305.963570000000860
 51
29.999999999999456
  0
LINE
  8
0
  6
CONTINUOUS
 62
256
 10
-513.069341000000010
 20
-98.939556999999994
 11
-511.561774000000010
 21
-101.550741000000000
  0
ARC
  8
0
  6
CONTINUOUS
 62
256
 10
-514.368379000000000
 20
-99.689556999999994
 40
1.500000000000025
 50
29.999999999999456
 51
125.531072000001260
  0
ARC
  8
0
  6
CONTINUOUS
 62
256
 10
-490.250887999999970
 20
-133.462277000000000
 40
23.999999999999993
 50
70.240348000000012
 51
109.759651999999990
  0
ARC
  8
0
  6
CONTINUOUS
 62
256
 10
-530.359665999999950
 20
-94.520758999999998
 40
6.000000000000028
 50
135.000000000000200
 51
172.102011000000000
  0
LINE
  8
0
  6
CONTINUOUS
 62
256
 10
-445.899470000000010
 20
-90.278119000000004
 11
-450.475534999999980
 21
-85.702053000000006
  0
ARC
  8
0
  6
CONTINUOUS
 62
256
 10
-461.362858000000020
 20
-96.589376000000001
 40
15.397000000000016
 50
44.999999999999929
 51
83.948015000000069
  0
ARC
  8
0
  6
CONTINUOUS
 62
256
 10
-519.138917999999990
 20
-96.589376000000001
 40
15.397000000000000
 50
96.051984999999931
 51
135.000000000000090
  0
LINE
  8
0
  6
CONTINUOUS
 62
256
 10
-534.602306000000000
 20
-90.278119000000004
 11
-530.026241000000030
 21
-85.702053000000006
  0
ARC
  8
0
  6
CONTINUOUS
 62
256
 10
-490.250887999999970
 20
-369.062276999999990
 40
289.396999999999990
 50
83.948014999999998
 51
90.000000000000000
  0
ARC
  8
0
  6
CONTINUOUS
 62
256
 10
-490.250887999999970
 20
-369.062276999999990
 40
289.396999999999990
 50
90.000000000000000
 51
96.051985000000002
  0
ARC
  8
0
  6
CONTINUOUS
 62
256
 10
-440.154273999999990
 20
-89.513689999999997
 40
6.600000000000019
 50
8.597081999999919
 51
44.999999999999829
  0
LINE
  8
0
  6
CONTINUOUS
 62
256
 10
-435.487369000000000
 20
-84.846784999999997
 11
-442.553817999999980
 21
-77.780336000000005
  0
ARC
  8
0
  6
CONTINUOUS
 62
256
 10
-461.362858000000020
 20
-96.589376000000001
 40
26.600000000000016
 50
44.999999999999957
 51
83.948015000000026
  0
ARC
  8
0
  6
CONTINUOUS
 62
256
 10
-490.250887999999970
 20
-369.062276999999990
 40
300.600000000000020
 50
83.948014999999998
 51
96.051985000000002
  0
ARC
  8
0
  6
CONTINUOUS
 62
256
 10
-519.138917999999990
 20
-96.589376000000001
 40
26.599999999999994
 50
96.051984999999974
 51
134.999999999999970
  0
ARC
  8
0
  6
CONTINUOUS
 62
256
 10
-540.347502999999960
 20
-89.513689999999997
 40
6.599999999999977
 50
134.999999999999830
 51
171.402918000000080
  0
LINE
  8
0
  6
CONTINUOUS
 62
256
 10
-545.014407000000010
 20
-84.846784999999997
 11
-537.947957999999970
 21
-77.780336000000005
  0
LINE
  8
0
  6
DASHDOT
 62
256
 10
-318.902359999999990
 20
-211.462277000000000
 11
-299.713320000000010
 21
-211.462277000000000
  0
LINE
  8
0
  6
DASHDOT
 62
256
 10
-309.594025999999990
 20
-194.178426000000000
 11
-309.594025999999990
 21
-222.157776000000010
  0
ARC
  8
0
  6
DASHED
 62
256
 10
-309.594025999999990
 20
-211.462277000000000
 40
7.000000000000000
 50
180.000000000000000
 51
0.000000000000000
  0
LINE
  8
0
  6
DASHED
 62
256
 10
-302.594025999999990
 20
-196.962277000000000
 11
-302.594025999999990
 21
-211.462277000000000
  0
LINE
  8
0
  6
DASHED
 62
256
 10
-316.594025999999990
 20
-196.962277000000000
 11
-316.594025999999990
 21
-211.462277000000000
  0
LINE
  8
0
  6
DASHDOT
 62
256
 10
-270.004324999999990
 20
-211.462277000000000
 11
-249.630143000000000
 21
-211.462277000000000
  0
LINE
  8
0
  6
DASHDOT
 62
256
 10
-259.594025999999990
 20
-194.178426000000000
 11
-259.594025999999990
 21
-222.157776000000010
  0
CIRCLE
  8
0
  6
DASHED
 62
256
 10
-259.594025999999990
 20
-211.462277000000000
 40
6.000000000000000
  0
ARC
  8
0
  6
DASHED
 62
256
 10
-259.594025999999990
 20
-211.462277000000000
 40
7.000000000000000
 50
180.000000000000000
 51
0.000000000000000
  0
LINE
  8
0
  6
DASHED
 62
256
 10
-266.594025999999990
 20
-196.962277000000000
 11
-266.594025999999990
 21
-211.462277000000000
  0
LINE
  8
0
  6
DASHED
 62
256
 10
-252.594026000000010
 20
-196.962277000000000
 11
-252.594026000000010
 21
-211.462277000000000
  0
CIRCLE
  8
0
  6
CONTINUOUS
 62
256
 10
-14.593793000000000
 20
-206.462434000000000
 40
6.000000000000000
  0
CIRCLE
  8
0
  6
CONTINUOUS
 62
256
 10
-14.593793000000000
 20
-206.462434000000000
 40
5.052999999999999
  0
CIRCLE
  8
0
  6
CONTINUOUS
 62
256
 10
-173.593793000000010
 20
-206.462434000000000
 40
6.000000000000000
  0
CIRCLE
  8
0
  6
CONTINUOUS
 62
256
 10
-173.593793000000010
 20
-206.462434000000000
 40
5.052999999999997
  0
CIRCLE
  8
0
  6
CONTINUOUS
 62
256
 10
-173.593793000000010
 20
-60.462434000000002
 40
6.000000000000000
  0
CIRCLE
  8
0
  6
CONTINUOUS
 62
256
 10
-173.593793000000010
 20
-60.462434000000002
 40
5.052999999999997
  0
ARC
  8
0
  6
CONTINUOUS
 62
256
 10
-173.593793000000010
 20
-206.462434000000000
 40
15.500000000000004
 50
31.585980000000028
 51
80.793103999999943
  0
LINE
  8
0
  6
DASHDOT
 62
256
 10
4.916902000000000
 20
-117.462434000000000
 11
-143.953104000000000
 21
-117.462434000000000
  0
ARC
  8
0
  6
CONTINUOUS
 62
256
 10
-71.593793000000005
 20
-117.462434000000000
 40
17.499999999999996
 50
106.601550000000000
 51
73.398450000000011
  0
LINE
  8
0
  6
CONTINUOUS
 62
256
 10
-76.593793000000005
 20
-100.691924000000000
 11
-76.593793000000005
 21
-96.662434000000005
  0
LINE
  8
0
  6
CONTINUOUS
 62
256
 10
-76.593793000000005
 20
-96.662434000000005
 11
-66.593793000000005
 21
-96.662434000000005
  0
LINE
  8
0
  6
CONTINUOUS
 62
256
 10
-66.593793000000005
 20
-100.691924000000000
 11
-66.593793000000005
 21
-96.662434000000005
  0
LINE
  8
0
  6
DASHDOT
 62
256
 10
-71.593793000000005
 20
-42.501868999999999
 11
-71.593793000000005
 21
-194.083273999999990
  0
POINT
  8
0
  6
CONTINUOUS
 62
256
 10
-71.593793000000005
 20
-117.462434000000000
  0
CIRCLE
  8
0
  6
CONTINUOUS
 62
256
 10
-71.593793000000005
 20
-117.462434000000000
 40
47.500000000000000
  0
CIRCLE
  8
0
  6
CONTINUOUS
 62
256
 10
-71.593793000000005
 20
-117.462434000000000
 40
24.000000000000000
  0
ARC
  8
0
  6
CONTINUOUS
 62
256
 10
-191.593793000000010
 20
-70.525440000000003
 40
2.999999999999997
 50
271.000000000000110
 51
0.000000000000000
  0
ARC
  8
0
  6
CONTINUOUS
 62
256
 10
-191.593793000000010
 20
-196.399114999999990
 40
3.000000000000000
 50
0.000000000000000
 51
88.999999999999858
  0
LINE
  8
0
  6
CONTINUOUS
 62
256
 10
-217.094026000000010
 20
-192.944821999999990
 11
-191.541436000000000
 21
-193.399572000000010
  0
LINE
  8
0
  6
CONTINUOUS
 62
256
 10
-217.094026000000010
 20
-73.979731999999998
 11
-191.541436000000000
 21
-73.524983000000006
  0
LINE
  8
0
  6
CONTINUOUS
 62
256
 10
-217.094026000000010
 20
-133.462277000000000
 11
-217.094026000000010
 21
-73.962277000000000
  0
LINE
  8
0
  6
CONTINUOUS
 62
256
 10
-217.094026000000010
 20
-133.462277000000000
 11
-217.094026000000010
 21
-192.962277000000000
  0
LINE
  8
0
  6
CONTINUOUS
 62
256
 10
-188.593793000000010
 20
-57.462434000000002
 11
-188.593793000000010
 21
-209.462434000000000
  0
LINE
  8
0
  6
CONTINUOUS
 62
256
 10
-11.593793000000000
 20
-45.462434000000002
 11
-176.593793000000010
 21
-45.462434000000002
  0
LINE
  8
0
  6
CONTINUOUS
 62
256
 10
0.406207000000000
 20
-209.462434000000000
 11
0.406207000000000
 21
-57.462434000000002
  0
LINE
  8
0
  6
CONTINUOUS
 62
256
 10
-176.593793000000010
 20
-221.462434000000000
 11
-11.593793000000000
 21
-221.462434000000000
  0
LINE
  8
0
  6
DASHDOT
 62
256
 10
-14.593793000000000
 20
-43.705934999999997
 11
-14.593793000000000
 21
-73.871842000000001
  0
LINE
  8
0
  6
DASHDOT
 62
256
 10
-2.593793000000000
 20
-60.462434000000002
 11
-26.234283000000001
 21
-60.462434000000002
  0
LINE
  8
0
  6
DASHDOT
 62
256
 10
-2.593793000000000
 20
-206.462434000000000
 11
-26.453042000000000
 21
-206.462434000000000
  0
LINE
  8
0
  6
DASHDOT
 62
256
 10
-173.593793000000010
 20
-48.462434000000002
 11
-173.593793000000010
 21
-73.434323000000006
  0
LINE
  8
0
  6
DASHDOT
 62
256
 10
-24.046688000000000
 20
-212.462745000000010
 11
-39.797370999999998
 21
-212.462745000000010
  0
LINE
  8
0
  6
DASHDOT
 62
256
 10
-23.006103000000000
 20
-54.462744999999998
 11
-39.797370999999998
 21
-54.462744999999998
  0
LINE
  8
0
  6
DASHDOT
 62
256
 10
-31.593920000000001
 20
-46.507089000000001
 11
-31.593920000000001
 21
-62.715108999999998
  0
LINE
  8
0
  6
DASHDOT
 62
256
 10
-155.593920000000000
 20
-47.620704000000003
 11
-155.593920000000000
 21
-62.496349000000002
  0
LINE
  8
0
  6
DASHDOT
 62
256
 10
-173.593793000000010
 20
-194.627077000000010
 11
-173.593793000000010
 21
-219.232468000000010
  0
LINE
  8
0
  6
DASHDOT
 62
256
 10
-155.593920000000000
 20
-204.908773000000000
 11
-155.593920000000000
 21
-219.346899000000010
  0
LINE
  8
0
  6
DASHDOT
 62
256
 10
-31.593920000000001
 20
-204.252495000000010
 11
-31.593920000000001
 21
-219.128140000000000
  0
LINE
  8
0
  6
DASHDOT
 62
256
 10
-14.593793000000000
 20
-194.189559000000000
 11
-14.593793000000000
 21
-218.586265000000000
  0
LINE
  8
0
  6
DASHDOT
 62
256
 10
-161.646402999999990
 20
-60.462434000000002
 11
-187.593793000000010
 21
-60.462434000000002
  0
LINE
  8
0
  6
DASHDOT
 62
256
 10
-148.739594000000010
 20
-54.462744999999998
 11
-162.958959999999990
 21
-54.462744999999998
  0
LINE
  8
0
  6
DASHDOT
 62
256
 10
-148.302075000000000
 20
-212.462745000000010
 11
-163.427428999999990
 21
-212.462745000000010
  0
LINE
  8
0
  6
DASHDOT
 62
256
 10
-160.990125000000010
 20
-206.462434000000000
 11
-187.593793000000010
 21
-206.462434000000000
  0
CIRCLE
  8
0
  6
CONTINUOUS
 62
256
 10
-31.593920000000001
 20
-212.462745000000010
 40
5.500000000000000
  0
CIRCLE
  8
0
  6
CONTINUOUS
 62
256
 10
-31.593920000000001
 20
-54.462744999999998
 40
5.500000000000000
  0
CIRCLE
  8
0
  6
CONTINUOUS
 62
256
 10
-155.593920000000000
 20
-54.462744999999998
 40
5.500000000000000
  0
CIRCLE
  8
0
  6
CONTINUOUS
 62
256
 10
-155.593920000000000
 20
-212.462745000000010
 40
5.500000000000000
  0
LINE
  8
0
  6
CONTINUOUS
 62
256
 10
-217.094026000000010
 20
-153.462277000000000
 11
-211.094026000000010
 21
-153.462277000000000
  0
LINE
  8
0
  6
CONTINUOUS
 62
256
 10
-217.094026000000010
 20
-113.462277000000000
 11
-211.094026000000010
 21
-113.462277000000000
  0
LINE
  8
0
  6
CONTINUOUS
 62
256
 10
-208.094026000000010
 20
-185.558584999999990
 11
-203.094026000000010
 21
-185.558584999999990
  0
LINE
  8
0
  6
CONTINUOUS
 62
256
 10
-208.094026000000010
 20
-178.647009000000000
 11
-203.094026000000010
 21
-178.647009000000000
  0
LINE
  8
0
  6
CONTINUOUS
 62
256
 10
-208.094026000000010
 20
-88.277546000000001
 11
-203.094026000000010
 21
-88.277546000000001
  0
LINE
  8
0
  6
CONTINUOUS
 62
256
 10
-208.094026000000010
 20
-81.365970000000004
 11
-203.094026000000010
 21
-81.365970000000004
  0
LINE
  8
0
  6
CONTINUOUS
 62
256
 10
-211.094026000000010
 20
-77.962277000000000
 11
-211.094026000000010
 21
-76.962277000000000
  0
LINE
  8
0
  6
CONTINUOUS
 62
256
 10
-208.094026000000010
 20
-94.461010000000002
 11
-203.094026000000010
 21
-94.461010000000002
  0
LINE
  8
0
  6
CONTINUOUS
 62
256
 10
-211.094026000000010
 20
-91.277546000000001
 11
-211.094026000000010
 21
-133.462277000000000
  0
LINE
  8
0
  6
CONTINUOUS
 62
256
 10
-211.094026000000010
 20
-77.962277000000000
 11
-211.094026000000010
 21
-78.365970000000004
  0
LINE
  8
0
  6
CONTINUOUS
 62
256
 10
-211.094026000000010
 20
-188.962277000000000
 11
-211.094026000000010
 21
-189.962277000000000
  0
LINE
  8
0
  6
CONTINUOUS
 62
256
 10
-211.094026000000010
 20
-188.962277000000000
 11
-211.094026000000010
 21
-188.558584999999990
  0
LINE
  8
0
  6
CONTINUOUS
 62
256
 10
-211.094026000000010
 20
-188.962277000000000
 11
-211.094026000000010
 21
-188.558584999999990
  0
LINE
  8
0
  6
CONTINUOUS
 62
256
 10
-208.094026000000010
 20
-172.463544000000010
 11
-203.094026000000010
 21
-172.463544000000010
  0
LINE
  8
0
  6
CONTINUOUS
 62
256
 10
-211.094026000000010
 20
-175.647009000000000
 11
-211.094026000000010
 21
-133.462277000000000
  0
ARC
  8
0
  6
CONTINUOUS
 62
256
 10
-208.094026000000010
 20
-78.365970000000004
 40
3.000000000000000
 50
180.000000000000000
 51
270.000000000000000
  0
ARC
  8
0
  6
CONTINUOUS
 62
256
 10
-208.094026000000010
 20
-91.277546000000001
 40
3.000000000000000
 50
90.000000000000000
 51
180.000000000000000
  0
ARC
  8
0
  6
CONTINUOUS
 62
256
 10
-208.094026000000010
 20
-97.461010000000002
 40
3.000000000000000
 50
90.000000000000000
 51
180.000000000000000
  0
ARC
  8
0
  6
CONTINUOUS
 62
256
 10
-214.094026000000010
 20
-76.962277000000000
 40
3.000000000000000
 50
0.000000000000000
 51
90.000000000000000
  0
ARC
  8
0
  6
CONTINUOUS
 62
256
 10
-214.094026000000010
 20
-189.962277000000000
 40
3.000000000000000
 50
270.000000000000000
 51
0.000000000000000
  0
ARC
  8
0
  6
CONTINUOUS
 62
256
 10
-208.094026000000010
 20
-175.647009000000000
 40
3.000000000000000
 50
180.000000000000000
 51
270.000000000000000
  0
ARC
  8
0
  6
CONTINUOUS
 62
256
 10
-208.094026000000010
 20
-188.558584999999990
 40
3.000000000000000
 50
90.000000000000000
 51
180.000000000000000
  0
ARC
  8
0
  6
CONTINUOUS
 62
256
 10
-208.094026000000010
 20
-169.463544000000010
 40
3.000000000000000
 50
180.000000000000000
 51
270.000000000000000
  0
LINE
  8
0
  6
CONTINUOUS
 62
256
 10
-200.094026000000010
 20
-190.201278000000000
 11
-200.094026000000010
 21
-76.723276999999996
  0
ARC
  8
0
  6
CONTINUOUS
 62
256
 10
-203.094026000000010
 20
-76.723276999999996
 40
3.000000000000000
 50
0.000000000000000
 51
90.981172999999970
  0
ARC
  8
0
  6
CONTINUOUS
 62
256
 10
-203.094026000000010
 20
-190.201278000000000
 40
2.999999999999992
 50
269.018827000000040
 51
0.000000000000000
  0
ARC
  8
0
  6
CONTINUOUS
 62
256
 10
-203.094026000000010
 20
-182.558584999999990
 40
3.000000000000000
 50
270.000000000000000
 51
0.000000000000000
  0
ARC
  8
0
  6
CONTINUOUS
 62
256
 10
-203.094026000000010
 20
-175.647009000000000
 40
3.000000000000000
 50
270.000000000000000
 51
0.000000000000000
  0
ARC
  8
0
  6
CONTINUOUS
 62
256
 10
-203.094026000000010
 20
-84.365970000000004
 40
3.000000000000000
 50
0.000000000000000
 51
90.000000000000000
  0
ARC
  8
0
  6
CONTINUOUS
 62
256
 10
-203.094026000000010
 20
-91.277546000000001
 40
3.000000000000000
 50
0.000000000000000
 51
90.000000000000000
  0
LINE
  8
0
  6
DASHED
 62
256
 10
-188.593793000000010
 20
-98.016081999999997
 11
-188.593793000000010
 21
-84.235789999999994
  0
LINE
  8
0
  6
DASHED
 62
256
 10
-188.593793000000010
 20
-168.908472999999990
 11
-188.593793000000010
 21
-182.688763999999990
  0
ARC
  8
0
  6
CONTINUOUS
 62
256
 10
-169.593793000000010
 20
-181.784509000000010
 40
9.500000000000000
 50
180.000000000000000
 51
260.793103999999970
  0
ARC
  8
0
  6
CONTINUOUS
 62
256
 10
-155.704835000000000
 20
-195.463107000000010
 40
5.500000000000008
 50
211.585980000000010
 51
270.373824999999900
  0
ARC
  8
0
  6
CONTINUOUS
 62
256
 10
-155.593920000000000
 20
-212.462745000000010
 40
11.499999999999995
 50
20.668437000000083
 51
90.373825000000068
  0
ARC
  8
0
  6
CONTINUOUS
 62
256
 10
-139.688063000000000
 20
-206.462434000000000
 40
5.499999999999998
 50
200.668437000000150
 51
270.000000000000000
  0
LINE
  8
0
  6
CONTINUOUS
 62
256
 10
-47.499775999999997
 20
-211.962434000000000
 11
-139.688063000000000
 21
-211.962434000000000
  0
ARC
  8
0
  6
CONTINUOUS
 62
256
 10
-47.499775999999997
 20
-206.462434000000000
 40
5.500000000000000
 50
270.000000000000000
 51
339.331562999999850
  0
ARC
  8
0
  6
CONTINUOUS
 62
256
 10
-31.593920000000001
 20
-212.462745000000010
 40
11.500000000000002
 50
93.046047000000002
 51
159.331562999999930
  0
ARC
  8
0
  6
CONTINUOUS
 62
256
 10
-32.497275000000002
 20
-195.486763000000000
 40
5.500000000000014
 50
273.046046999999930
 51
328.489758000000110
  0
ARC
  8
0
  6
CONTINUOUS
 62
256
 10
-14.593793000000000
 20
-206.462434000000000
 40
15.499999999999998
 50
99.206896000000000
 51
148.489758000000020
  0
ARC
  8
0
  6
CONTINUOUS
 62
256
 10
-18.593793000000002
 20
-181.784509000000010
 40
9.500000000000009
 50
279.206895999999970
 51
0.000000000000000
  0
LINE
  8
0
  6
CONTINUOUS
 62
256
 10
-9.093793000000000
 20
-85.140359000000004
 11
-9.093793000000000
 21
-181.784509000000010
  0
ARC
  8
0
  6
CONTINUOUS
 62
256
 10
-18.593793000000002
 20
-85.140359000000004
 40
9.500000000000000
 50
0.000000000000000
 51
80.793103999999985
  0
ARC
  8
0
  6
CONTINUOUS
 62
256
 10
-14.593793000000000
 20
-60.462434000000002
 40
15.500000000000002
 50
211.512299999999980
 51
260.793103999999970
  0
ARC
  8
0
  6
CONTINUOUS
 62
256
 10
-32.496879999999997
 20
-71.438747000000006
 40
5.499999999999998
 50
31.512299999999954
 51
86.955283000000023
  0
ARC
  8
0
  6
CONTINUOUS
 62
256
 10
-31.593920000000001
 20
-54.462744999999998
 40
11.500000000000000
 50
200.666196000000010
 51
266.955283000000010
  0
ARC
  8
0
  6
CONTINUOUS
 62
256
 10
-47.500011000000001
 20
-60.462434000000002
 40
5.500000000000004
 50
20.666196000000014
 51
90.000000000000000
  0
LINE
  8
0
  6
CONTINUOUS
 62
256
 10
-139.687828999999990
 20
-54.962434000000002
 11
-47.500011000000001
 21
-54.962434000000002
  0
ARC
  8
0
  6
CONTINUOUS
 62
256
 10
-139.687828999999990
 20
-60.462434000000002
 40
5.500000000000000
 50
90.000000000000000
 51
159.333804000000010
  0
ARC
  8
0
  6
CONTINUOUS
 62
256
 10
-155.593920000000000
 20
-54.462744999999998
 40
11.499999999999998
 50
269.624890999999930
 51
339.333803999999990
  0
ARC
  8
0
  6
CONTINUOUS
 62
256
 10
-155.705216000000010
 20
-71.462380999999993
 40
5.500000000000004
 50
89.624891000000005
 51
148.412034999999920
  0
ARC
  8
0
  6
CONTINUOUS
 62
256
 10
-173.593793000000010
 20
-60.462434000000002
 40
15.499999999999995
 50
279.206895999999920
 51
328.412035000000000
  0
ARC
  8
0
  6
CONTINUOUS
 62
256
 10
-169.593793000000010
 20
-85.140359000000004
 40
9.499999999999996
 50
99.206896000000043
 51
180.000000000000000
  0
LINE
  8
0
  6
CONTINUOUS
 62
256
 10
-179.093793000000010
 20
-181.784509000000010
 11
-179.093793000000010
 21
-85.140359000000004
  0
ARC
  8
0
  6
CONTINUOUS
 62
256
 10
-176.593793000000010
 20
-209.462434000000000
 40
11.000000000000000
 50
180.000000000000000
 51
270.000000000000000
  0
ARC
  8
0
  6
CONTINUOUS
 62
256
 10
-11.593793000000000
 20
-209.462434000000000
 40
11.000000000000000
 50
270.000000000000000
 51
0.000000000000000
  0
ARC
  8
0
  6
CONTINUOUS
 62
256
 10
-11.593793000000000
 20
-209.462434000000000
 40
12.000000000000000
 50
270.000000000000000
 51
0.000000000000000
  0
ARC
  8
0
  6
CONTINUOUS
 62
256
 10
-176.593793000000010
 20
-209.462434000000000
 40
12.000000000000000
 50
180.000000000000000
 51
270.000000000000000
  0
ARC
  8
0
  6
CONTINUOUS
 62
256
 10
-11.593793000000000
 20
-57.462434000000002
 40
12.000000000000000
 50
0.000000000000000
 51
90.000000000000000
  0
ARC
  8
0
  6
CONTINUOUS
 62
256
 10
-11.593793000000000
 20
-57.462434000000002
 40
11.000000000000000
 50
0.000000000000000
 51
90.000000000000000
  0
ARC
  8
0
  6
CONTINUOUS
 62
256
 10
-176.593793000000010
 20
-57.462434000000002
 40
11.000000000000000
 50
90.000000000000000
 51
180.000000000000000
  0
ARC
  8
0
  6
CONTINUOUS
 62
256
 10
-176.593793000000010
 20
-57.462434000000002
 40
12.000000000000000
 50
90.000000000000000
 51
180.000000000000000
  0
ARC
  8
0
  6
CONTINUOUS
 62
256
 10
-14.593793000000000
 20
-206.462434000000000
 40
17.499999999999996
 50
99.206896000000000
 51
148.489758000000020
  0
ARC
  8
0
  6
CONTINUOUS
 62
256
 10
-32.497275000000002
 20
-195.486763000000000
 40
3.500000000000009
 50
273.046046999999930
 51
328.489757999999990
  0
ARC
  8
0
  6
CONTINUOUS
 62
256
 10
-31.593920000000001
 20
-212.462745000000010
 40
13.500000000000007
 50
93.046047000000002
 51
159.331563000000050
  0
ARC
  8
0
  6
CONTINUOUS
 62
256
 10
-47.499775999999997
 20
-206.462434000000000
 40
3.500000000000000
 50
270.000000000000000
 51
339.331562999999960
  0
LINE
  8
0
  6
CONTINUOUS
 62
256
 10
-139.688063000000000
 20
-209.962434000000000
 11
-47.499775999999997
 21
-209.962434000000000
  0
ARC
  8
0
  6
CONTINUOUS
 62
256
 10
-139.688063000000000
 20
-206.462434000000000
 40
3.500000000000014
 50
200.668436999999950
 51
270.000000000000000
  0
ARC
  8
0
  6
CONTINUOUS
 62
256
 10
-155.593920000000000
 20
-212.462745000000010
 40
13.499999999999993
 50
20.668436999999983
 51
90.373824999999997
  0
ARC
  8
0
  6
CONTINUOUS
 62
256
 10
-155.704835000000000
 20
-195.463107000000010
 40
3.499999999999992
 50
211.585980000000030
 51
270.373825000000070
  0
ARC
  8
0
  6
CONTINUOUS
 62
256
 10
-173.593793000000010
 20
-206.462434000000000
 40
17.500000000000021
 50
31.585980000000021
 51
80.793104000000028
  0
ARC
  8
0
  6
CONTINUOUS
 62
256
 10
-169.593793000000010
 20
-181.784509000000010
 40
7.500000000000000
 50
180.000000000000000
 51
260.793103999999970
  0
LINE
  8
0
  6
CONTINUOUS
 62
256
 10
-177.093793000000010
 20
-85.140359000000004
 11
-177.093793000000010
 21
-181.784509000000010
  0
ARC
  8
0
  6
CONTINUOUS
 62
256
 10
-169.593793000000010
 20
-85.140359000000004
 40
7.500000000000000
 50
99.206896000000029
 51
180.000000000000000
  0
ARC
  8
0
  6
CONTINUOUS
 62
256
 10
-173.593793000000010
 20
-60.462434000000002
 40
17.499999999999993
 50
279.206895999999970
 51
328.412035000000000
  0
ARC
  8
0
  6
CONTINUOUS
 62
256
 10
-155.705216000000010
 20
-71.462380999999993
 40
3.500000000000001
 50
89.624890999999892
 51
148.412034999999950
  0
ARC
  8
0
  6
CONTINUOUS
 62
256
 10
-155.593920000000000
 20
-54.462744999999998
 40
13.500000000000002
 50
269.624890999999990
 51
339.333803999999990
  0
ARC
  8
0
  6
CONTINUOUS
 62
256
 10
-139.687828999999990
 20
-60.462434000000002
 40
3.500000000000000
 50
90.000000000000000
 51
159.333803999999930
  0
LINE
  8
0
  6
CONTINUOUS
 62
256
 10
-47.500011000000001
 20
-56.962434000000002
 11
-139.687828999999990
 21
-56.962434000000002
  0
ARC
  8
0
  6
CONTINUOUS
 62
256
 10
-47.500011000000001
 20
-60.462434000000002
 40
3.500000000000004
 50
20.666196000000028
 51
90.000000000000000
  0
ARC
  8
0
  6
CONTINUOUS
 62
256
 10
-31.593920000000001
 20
-54.462744999999998
 40
13.499999999999998
 50
200.666196000000010
 51
266.955283000000010
  0
ARC
  8
0
  6
CONTINUOUS
 62
256
 10
-32.496879999999997
 20
-71.438747000000006
 40
3.499999999999996
 50
31.512299999999929
 51
86.955283000000023
  0
ARC
  8
0
  6
CONTINUOUS
 62
256
 10
-14.593793000000000
 20
-60.462434000000002
 40
17.500000000000000
 50
211.512299999999980
 51
260.793103999999970
  0
ARC
  8
0
  6
CONTINUOUS
 62
256
 10
-18.593793000000002
 20
-85.140359000000004
 40
7.500000000000000
 50
0.000000000000000
 51
80.793104000000014
  0
LINE
  8
0
  6
CONTINUOUS
 62
256
 10
-11.093793000000000
 20
-181.784509000000010
 11
-11.093793000000000
 21
-85.140359000000004
  0
ARC
  8
0
  6
CONTINUOUS
 62
256
 10
-18.593793000000002
 20
-181.784509000000010
 40
7.500000000000013
 50
279.206895999999920
 51
0.000000000000000
  0
LINE
  8
0
  6
CONTINUOUS
 62
256
 10
-0.593793000000000
 20
-209.462434000000000
 11
-0.593793000000000
 21
-57.462434000000002
  0
LINE
  8
0
  6
CONTINUOUS
 62
256
 10
-176.593793000000010
 20
-220.462434000000000
 11
-11.593793000000000
 21
-220.462434000000000
  0
LINE
  8
0
  6
CONTINUOUS
 62
256
 10
-187.593793000000010
 20
-57.462434000000002
 11
-187.593793000000010
 21
-209.462434000000000
  0
LINE
  8
0
  6
CONTINUOUS
 62
256
 10
-11.593793000000000
 20
-46.462434000000002
 11
-176.593793000000010
 21
-46.462434000000002
  0
LINE
  8
0
  6
CONTINUOUS
 62
256
 10
-247.094026000000010
 20
-73.962277000000000
 11
-217.094026000000010
 21
-73.962277000000000
  0
LINE
  8
0
  6
CONTINUOUS
 62
256
 10
-314.094025999999990
 20
-76.462277000000000
 11
-217.094026000000010
 21
-76.462277000000000
  0
LINE
  8
0
  6
CONTINUOUS
 62
256
 10
-314.094025999999990
 20
-77.462277000000000
 11
-217.094026000000010
 21
-77.462277000000000
  0
LINE
  8
0
  6
CONTINUOUS
 62
256
 10
-314.094025999999990
 20
-78.462277000000000
 11
-217.094026000000010
 21
-78.462277000000000
  0
LINE
  8
0
  6
CONTINUOUS
 62
256
 10
-314.094025999999990
 20
-83.146743000000001
 11
-217.094026000000010
 21
-83.146743000000001
  0
LINE
  8
0
  6
CONTINUOUS
 62
256
 10
-314.094025999999990
 20
-88.096491000000000
 11
-217.094026000000010
 21
-88.096491000000000
  0
LINE
  8
0
  6
CONTINUOUS
 62
256
 10
-314.094025999999990
 20
-118.462277000000000
 11
-217.094026000000010
 21
-118.462277000000000
  0
LINE
  8
0
  6
CONTINUOUS
 62
256
 10
-314.094025999999990
 20
-114.089016000000000
 11
-217.094026000000010
 21
-114.089016000000000
  0
LINE
  8
0
  6
CONTINUOUS
 62
256
 10
-314.094025999999990
 20
-112.822778000000000
 11
-217.094026000000010
 21
-112.822778000000000
  0
LINE
  8
0
  6
CONTINUOUS
 62
256
 10
-314.094025999999990
 20
-108.632223999999990
 11
-217.094026000000010
 21
-108.632223999999990
  0
LINE
  8
0
  6
CONTINUOUS
 62
256
 10
-314.094025999999990
 20
-107.270343999999990
 11
-217.094026000000010
 21
-107.270343999999990
  0
LINE
  8
0
  6
CONTINUOUS
 62
256
 10
-314.094025999999990
 20
-103.179843000000010
 11
-217.094026000000010
 21
-103.179843000000010
  0
LINE
  8
0
  6
CONTINUOUS
 62
256
 10
-314.094025999999990
 20
-101.711485999999990
 11
-217.094026000000010
 21
-101.711485999999990
  0
LINE
  8
0
  6
CONTINUOUS
 62
256
 10
-314.094025999999990
 20
-97.747739999999993
 11
-217.094026000000010
 21
-97.747739999999993
  0
LINE
  8
0
  6
CONTINUOUS
 62
256
 10
-314.094025999999990
 20
-96.143091999999996
 11
-217.094026000000010
 21
-96.143091999999996
  0
LINE
  8
0
  6
CONTINUOUS
 62
256
 10
-314.094025999999990
 20
-148.462277000000000
 11
-217.094026000000010
 21
-148.462277000000000
  0
LINE
  8
0
  6
CONTINUOUS
 62
256
 10
-314.094025999999990
 20
-152.835539000000010
 11
-217.094026000000010
 21
-152.835539000000010
  0
LINE
  8
0
  6
CONTINUOUS
 62
256
 10
-314.094025999999990
 20
-154.101777000000000
 11
-217.094026000000010
 21
-154.101777000000000
  0
LINE
  8
0
  6
CONTINUOUS
 62
256
 10
-314.094025999999990
 20
-158.292330999999990
 11
-217.094026000000010
 21
-158.292330999999990
  0
LINE
  8
0
  6
CONTINUOUS
 62
256
 10
-314.094025999999990
 20
-159.654211000000000
 11
-217.094026000000010
 21
-159.654211000000000
  0
LINE
  8
0
  6
CONTINUOUS
 62
256
 10
-314.094025999999990
 20
-163.744711999999990
 11
-217.094026000000010
 21
-163.744711999999990
  0
LINE
  8
0
  6
CONTINUOUS
 62
256
 10
-314.094025999999990
 20
-165.213068999999990
 11
-217.094026000000010
 21
-165.213068999999990
  0
LINE
  8
0
  6
CONTINUOUS
 62
256
 10
-314.094025999999990
 20
-169.176815000000000
 11
-217.094026000000010
 21
-169.176815000000000
  0
LINE
  8
0
  6
CONTINUOUS
 62
256
 10
-314.094025999999990
 20
-170.781462000000000
 11
-217.094026000000010
 21
-170.781462000000000
  0
LINE
  8
0
  6
CONTINUOUS
 62
256
 10
-314.094025999999990
 20
-178.828064000000010
 11
-217.094026000000010
 21
-178.828064000000010
  0
LINE
  8
0
  6
CONTINUOUS
 62
256
 10
-314.094025999999990
 20
-183.777812000000010
 11
-217.094026000000010
 21
-183.777812000000010
  0
LINE
  8
0
  6
CONTINUOUS
 62
256
 10
-314.094025999999990
 20
-188.462277000000000
 11
-217.094026000000010
 21
-188.462277000000000
  0
LINE
  8
0
  6
CONTINUOUS
 62
256
 10
-314.094025999999990
 20
-189.462277000000000
 11
-217.094026000000010
 21
-189.462277000000000
  0
LINE
  8
0
  6
CONTINUOUS
 62
256
 10
-314.094025999999990
 20
-190.462277000000000
 11
-217.094026000000010
 21
-190.462277000000000
  0
LINE
  8
0
  6
CONTINUOUS
 62
256
 10
-247.094026000000010
 20
-192.962277000000000
 11
-217.094026000000010
 21
-192.962277000000000
  0
LINE
  8
0
  6
CONTINUOUS
 62
256
 10
-314.094025999999990
 20
-73.962277000000000
 11
-217.094026000000010
 21
-73.962277000000000
  0
ARC
  8
0
  6
CONTINUOUS
 62
256
 10
-321.094025999999990
 20
-198.081498000000010
 40
3.000000000000000
 50
90.000000000000000
 51
180.000000000000000
  0
ARC
  8
0
  6
CONTINUOUS
 62
256
 10
-317.094025999999990
 20
-192.081498000000010
 40
3.000000000000000
 50
270.000000000000000
 51
0.000000000000000
  0
LINE
  8
0
  6
CONTINUOUS
 62
256
 10
-324.094025999999990
 20
-198.462277000000000
 11
-324.094025999999990
 21
-198.081498000000010
  0
LINE
  8
0
  6
CONTINUOUS
 62
256
 10
-321.094025999999990
 20
-195.081498000000010
 11
-317.094025999999990
 21
-195.081498000000010
  0
LINE
  8
0
  6
CONTINUOUS
 62
256
 10
-247.094026000000010
 20
-196.962277000000000
 11
-247.094026000000010
 21
-191.962277000000000
  0
LINE
  8
0
  6
CONTINUOUS
 62
256
 10
-255.094025999999990
 20
-226.962277000000000
 11
-263.094025999999990
 21
-226.962277000000000
  0
LINE
  8
0
  6
CONTINUOUS
 62
256
 10
-263.094025999999990
 20
-226.462277000000000
 11
-263.094025999999990
 21
-226.962277000000000
  0
LINE
  8
0
  6
CONTINUOUS
 62
256
 10
-257.594025999999990
 20
-226.462277000000000
 11
-257.594025999999990
 21
-226.962277000000000
  0
LINE
  8
0
  6
CONTINUOUS
 62
256
 10
-255.094025999999990
 20
-226.462277000000000
 11
-255.094025999999990
 21
-226.962277000000000
  0
LINE
  8
0
  6
CONTINUOUS
 62
256
 10
-249.094026000000010
 20
-226.462277000000000
 11
-320.094025999999990
 21
-226.462277000000000
  0
ARC
  8
0
  6
CONTINUOUS
 62
256
 10
-320.094025999999990
 20
-225.462277000000000
 40
1.000000000000000
 50
180.000000000000000
 51
270.000000000000000
  0
ARC
  8
0
  6
CONTINUOUS
 62
256
 10
-249.094026000000010
 20
-225.462277000000000
 40
1.000000000000000
 50
270.000000000000000
 51
0.000000000000000
  0
LINE
  8
0
  6
CONTINUOUS
 62
256
 10
-248.094026000000010
 20
-225.462277000000000
 11
-248.094026000000010
 21
-196.962277000000000
  0
LINE
  8
0
  6
CONTINUOUS
 62
256
 10
-321.094025999999990
 20
-225.462277000000000
 11
-321.094025999999990
 21
-196.962277000000000
  0
LINE
  8
0
  6
CONTINUOUS
 62
256
 10
-247.094026000000010
 20
-196.962277000000000
 11
-322.094025999999990
 21
-196.962277000000000
  0
LINE
  8
0
  6
CONTINUOUS
 62
256
 10
-247.094026000000010
 20
-191.962277000000000
 11
-314.094025999999990
 21
-191.962277000000000
  0
LINE
  8
0
  6
CONTINUOUS
 62
256
 10
-322.094025999999990
 20
-196.962277000000000
 11
-322.094025999999990
 21
-195.253071000000010
  0
ARC
  8
0
  6
CONTINUOUS
 62
256
 10
-342.788050000000000
 20
-178.462277000000000
 40
19.999999999999996
 50
234.999999999999940
 51
270.000000000000000
  0
LINE
  8
0
  6
CONTINUOUS
 62
256
 10
-324.094025999999990
 20
-198.462277000000000
 11
-342.788050000000000
 21
-198.462277000000000
  0
ARC
  8
0
  6
CONTINUOUS
 62
256
 10
-362.494026000000020
 20
-185.905482000000010
 40
2.600000000000023
 50
180.000000000000000
 51
234.999999999999770
  0
LINE
  8
0
  6
CONTINUOUS
 62
256
 10
-354.259578999999970
 20
-194.845317999999990
 11
-363.985324999999990
 21
-188.035278000000010
  0
LINE
  8
0
  6
CONTINUOUS
 62
256
 10
-365.094025999999990
 20
-133.462277000000000
 11
-365.094025999999990
 21
-185.905482000000010
  0
LINE
  8
0
  6
CONTINUOUS
 62
256
 10
-217.094026000000010
 20
-192.962277000000000
 11
-217.094026000000010
 21
-133.462277000000000
  0
LINE
  8
0
  6
CONTINUOUS
 62
256
 10
-314.094025999999990
 20
-133.462277000000000
 11
-314.094025999999990
 21
-192.081498000000010
  0
ARC
  8
0
  6
CONTINUOUS
 62
256
 10
-362.494026000000020
 20
-81.019071999999994
 40
2.600000000000007
 50
125.000000000000040
 51
180.000000000000000
  0
LINE
  8
0
  6
CONTINUOUS
 62
256
 10
-354.259578999999970
 20
-72.079237000000006
 11
-363.985324999999990
 21
-78.889277000000007
  0
ARC
  8
0
  6
CONTINUOUS
 62
256
 10
-342.788050000000000
 20
-88.462277000000000
 40
20.000000000000000
 50
90.000000000000000
 51
125.000000000000040
  0
LINE
  8
0
  6
CONTINUOUS
 62
256
 10
-365.094025999999990
 20
-133.462277000000000
 11
-365.094025999999990
 21
-81.019071999999994
  0
LINE
  8
0
  6
CONTINUOUS
 62
256
 10
-314.094025999999990
 20
-68.462277000000000
 11
-342.788050000000000
 21
-68.462277000000000
  0
LINE
  8
0
  6
CONTINUOUS
 62
256
 10
-217.094026000000010
 20
-73.962277000000000
 11
-217.094026000000010
 21
-133.462277000000000
  0
LINE
  8
0
  6
CONTINUOUS
 62
256
 10
-314.094025999999990
 20
-133.462277000000000
 11
-314.094025999999990
 21
-68.462277000000000
  0
LINE
  8
0
  6
CONTINUOUS
 62
256
 10
-325.094025999999990
 20
-79.722161999999997
 11
-327.094025999999990
 21
-81.374803999999997
  0
LINE
  8
0
  6
CONTINUOUS
 62
256
 10
-323.094025999999990
 20
-78.546377000000007
 11
-325.094025999999990
 21
-79.722161999999997
  0
LINE
  8
0
  6
CONTINUOUS
 62
256
 10
-325.094025999999990
 20
-79.722161999999997
 11
-323.094025999999990
 21
-81.374803999999997
  0
LINE
  8
0
  6
CONTINUOUS
 62
256
 10
-327.094025999999990
 20
-78.546377000000007
 11
-325.094025999999990
 21
-79.722161999999997
  0
POLYLINE
  8
0
  6
CONTINUOUS
 62
256
 66
1
 70
1
  0
VERTEX
  8
0
  6
CONTINUOUS
 62
256
 10
-320.394026000000000
 20
-81.538752000000002
  0
VERTEX
  8
0
  6
CONTINUOUS
 62
256
 10
-320.484335182104810
 20
-80.835795489441836
  0
VERTEX
  8
0
  6
CONTINUOUS
 62
256
 10
-320.751792197196950
 20
-80.159853203361862
  0
VERTEX
  8
0
  6
CONTINUOUS
 62
256
 10
-321.186118822178060
 20
-79.536901224741342
  0
VERTEX
  8
0
  6
CONTINUOUS
 62
256
 10
-321.770624128423210
 20
-78.990879248763150
  0
VERTEX
  8
0
  6
CONTINUOUS
 62
256
 10
-322.482845904807850
 20
-78.542770593751513
  0
VERTEX
  8
0
  6
CONTINUOUS
 62
256
 10
-323.295413867884060
 20
-78.209795824016254
  0
VERTEX
  8
0
  6
CONTINUOUS
 62
256
 10
-324.177101486524180
 20
-78.004750973223935
  0
VERTEX
  8
0
  6
CONTINUOUS
 62
256
 10
-325.094025999999990
 20
-77.935515800000005
  0
VERTEX
  8
0
  6
CONTINUOUS
 62
256
 10
-326.010950513475790
 20
-78.004750973223935
  0
VERTEX
  8
0
  6
CONTINUOUS
 62
256
 10
-326.892638132115910
 20
-78.209795824016254
  0
VERTEX
  8
0
  6
CONTINUOUS
 62
256
 10
-327.705206095192120
 20
-78.542770593751513
  0
VERTEX
  8
0
  6
CONTINUOUS
 62
256
 10
-328.417427871576760
 20
-78.990879248763150
  0
VERTEX
  8
0
  6
CONTINUOUS
 62
256
 10
-329.001933177821910
 20
-79.536901224741342
  0
VERTEX
  8
0
  6
CONTINUOUS
 62
256
 10
-329.436259802803020
 20
-80.159853203361862
  0
VERTEX
  8
0
  6
CONTINUOUS
 62
256
 10
-329.703716817895160
 20
-80.835795489441836
  0
VERTEX
  8
0
  6
CONTINUOUS
 62
256
 10
-329.794025999999970
 20
-81.538752000000002
  0
VERTEX
  8
0
  6
CONTINUOUS
 62
256
 10
-329.703716817895160
 20
-82.241708510558169
  0
VERTEX
  8
0
  6
CONTINUOUS
 62
256
 10
-329.436259802803020
 20
-82.917650796638142
  0
VERTEX
  8
0
  6
CONTINUOUS
 62
256
 10
-329.001933177821910
 20
-83.540602775258662
  0
VERTEX
  8
0
  6
CONTINUOUS
 62
256
 10
-328.417427871576760
 20
-84.086624751236840
  0
VERTEX
  8
0
  6
CONTINUOUS
 62
256
 10
-327.705206095192120
 20
-84.534733406248492
  0
VERTEX
  8
0
  6
CONTINUOUS
 62
256
 10
-326.892638132115910
 20
-84.867708175983751
  0
VERTEX
  8
0
  6
CONTINUOUS
 62
256
 10
-326.010950513475790
 20
-85.072753026776070
  0
VERTEX
  8
0
  6
CONTINUOUS
 62
256
 10
-325.094025999999990
 20
-85.141988200000000
  0
VERTEX
  8
0
  6
CONTINUOUS
 62
256
 10
-324.177101486524180
 20
-85.072753026776070
  0
VERTEX
  8
0
  6
CONTINUOUS
 62
256
 10
-323.295413867884060
 20
-84.867708175983751
  0
VERTEX
  8
0
  6
CONTINUOUS
 62
256
 10
-322.482845904807850
 20
-84.534733406248492
  0
VERTEX
  8
0
  6
CONTINUOUS
 62
256
 10
-321.770624128423210
 20
-84.086624751236855
  0
VERTEX
  8
0
  6
CONTINUOUS
 62
256
 10
-321.186118822178060
 20
-83.540602775258662
  0
VERTEX
  8
0
  6
CONTINUOUS
 62
256
 10
-320.751792197196950
 20
-82.917650796638142
  0
VERTEX
  8
0
  6
CONTINUOUS
 62
256
 10
-320.484335182104810
 20
-82.241708510558169
  0
SEQEND
  8
0
  6
CONTINUOUS
 62
256
  0
LINE
  8
0
  6
CONTINUOUS
 62
256
 10
-325.094025999999990
 20
-187.202392000000000
 11
-327.094025999999990
 21
-185.549750999999990
  0
LINE
  8
0
  6
CONTINUOUS
 62
256
 10
-323.094025999999990
 20
-188.378177999999990
 11
-325.094025999999990
 21
-187.202392000000000
  0
LINE
  8
0
  6
CONTINUOUS
 62
256
 10
-325.094025999999990
 20
-187.202392000000000
 11
-323.094025999999990
 21
-185.549750999999990
  0
LINE
  8
0
  6
CONTINUOUS
 62
256
 10
-327.094025999999990
 20
-188.378177999999990
 11
-325.094025999999990
 21
-187.202392000000000
  0
POLYLINE
  8
0
  6
CONTINUOUS
 62
256
 66
1
 70
1
  0
VERTEX
  8
0
  6
CONTINUOUS
 62
256
 10
-320.394026000000000
 20
-185.385802000000010
  0
VERTEX
  8
0
  6
CONTINUOUS
 62
256
 10
-320.484335182104810
 20
-184.682845489441830
  0
VERTEX
  8
0
  6
CONTINUOUS
 62
256
 10
-320.751792197196950
 20
-184.006903203361870
  0
VERTEX
  8
0
  6
CONTINUOUS
 62
256
 10
-321.186118822178060
 20
-183.383951224741340
  0
VERTEX
  8
0
  6
CONTINUOUS
 62
256
 10
-321.770624128423210
 20
-182.837929248763170
  0
VERTEX
  8
0
  6
CONTINUOUS
 62
256
 10
-322.482845904807850
 20
-182.389820593751520
  0
VERTEX
  8
0
  6
CONTINUOUS
 62
256
 10
-323.295413867884060
 20
-182.056845824016280
  0
VERTEX
  8
0
  6
CONTINUOUS
 62
256
 10
-324.177101486524180
 20
-181.851800973223930
  0
VERTEX
  8
0
  6
CONTINUOUS
 62
256
 10
-325.094025999999990
 20
-181.782565800000010
  0
VERTEX
  8
0
  6
CONTINUOUS
 62
256
 10
-326.010950513475790
 20
-181.851800973223930
  0
VERTEX
  8
0
  6
CONTINUOUS
 62
256
 10
-326.892638132115910
 20
-182.056845824016280
  0
VERTEX
  8
0
  6
CONTINUOUS
 62
256
 10
-327.705206095192120
 20
-182.389820593751520
  0
VERTEX
  8
0
  6
CONTINUOUS
 62
256
 10
-328.417427871576760
 20
-182.837929248763170
  0
VERTEX
  8
0
  6
CONTINUOUS
 62
256
 10
-329.001933177821910
 20
-183.383951224741340
  0
VERTEX
  8
0
  6
CONTINUOUS
 62
256
 10
-329.436259802803020
 20
-184.006903203361870
  0
VERTEX
  8
0
  6
CONTINUOUS
 62
256
 10
-329.703716817895160
 20
-184.682845489441830
  0
VERTEX
  8
0
  6
CONTINUOUS
 62
256
 10
-329.794025999999970
 20
-185.385802000000010
  0
VERTEX
  8
0
  6
CONTINUOUS
 62
256
 10
-329.703716817895160
 20
-186.088758510558190
  0
VERTEX
  8
0
  6
CONTINUOUS
 62
256
 10
-329.436259802803020
 20
-186.764700796638150
  0
VERTEX
  8
0
  6
CONTINUOUS
 62
256
 10
-329.001933177821910
 20
-187.387652775258690
  0
VERTEX
  8
0
  6
CONTINUOUS
 62
256
 10
-328.417427871576760
 20
-187.933674751236850
  0
VERTEX
  8
0
  6
CONTINUOUS
 62
256
 10
-327.705206095192120
 20
-188.381783406248500
  0
VERTEX
  8
0
  6
CONTINUOUS
 62
256
 10
-326.892638132115910
 20
-188.714758175983750
  0
VERTEX
  8
0
  6
CONTINUOUS
 62
256
 10
-326.010950513475790
 20
-188.919803026776070
  0
VERTEX
  8
0
  6
CONTINUOUS
 62
256
 10
-325.094025999999990
 20
-188.989038200000010
  0
VERTEX
  8
0
  6
CONTINUOUS
 62
256
 10
-324.177101486524180
 20
-188.919803026776070
  0
VERTEX
  8
0
  6
CONTINUOUS
 62
256
 10
-323.295413867884060
 20
-188.714758175983750
  0
VERTEX
  8
0
  6
CONTINUOUS
 62
256
 10
-322.482845904807850
 20
-188.381783406248500
  0
VERTEX
  8
0
  6
CONTINUOUS
 62
256
 10
-321.770624128423210
 20
-187.933674751236850
  0
VERTEX
  8
0
  6
CONTINUOUS
 62
256
 10
-321.186118822178060
 20
-187.387652775258690
  0
VERTEX
  8
0
  6
CONTINUOUS
 62
256
 10
-320.751792197196950
 20
-186.764700796638150
  0
VERTEX
  8
0
  6
CONTINUOUS
 62
256
 10
-320.484335182104810
 20
-186.088758510558190
  0
SEQEND
  8
0
  6
CONTINUOUS
 62
256
  0
LINE
  8
0
  6
DASHDOT
 62
256
 10
-168.153786999999990
 20
-133.462277000000000
 11
-375.023238999999990
 21
-133.462277000000000
  0
CIRCLE
  8
0
  6
CONTINUOUS
 62
256
 10
-14.593793000000000
 20
-60.462434000000002
 40
5.052999999999999
  0
CIRCLE
  8
0
  6
CONTINUOUS
 62
256
 10
-14.593793000000000
 20
-60.462434000000002
 40
6.000000000000000
  0
INSERT
  8
0
  2
ZU_SYM_1
 10
-155.593920000000000
 20
-54.462744999999998
  0
INSERT
  8
0
  2
ZU_SYM_2
 10
-31.593920000000001
 20
-54.462744999999998
  0
INSERT
  8
0
  2
ZU_SYM_3
 10
-31.593920000000001
 20
-212.462745000000010
  0
INSERT
  8
0
  2
ZU_SYM_4
 10
-155.593920000000000
 20
-212.462745000000010
  0
ARC
  8
0
  6
CONTINUOUS
 62
256
 10
204.141551999999990
 20
-137.462434000000000
 40
2.500000000000000
 50
0.000000000000000
 51
90.000000000000000
  0
ARC
  8
0
  6
CONTINUOUS
 62
256
 10
75.141414999999995
 20
-137.462434000000000
 40
2.500000000000000
 50
90.000000000000000
 51
180.000000000000000
  0
ARC
  8
0
  6
CONTINUOUS
 62
256
 10
206.241552000000010
 20
-141.062434000000000
 40
0.400000000000006
 50
270.000000000000000
 51
0.000000000000000
  0
ARC
  8
0
  6
CONTINUOUS
 62
256
 10
206.241552000000010
 20
-93.862433999999993
 40
0.400000000000006
 50
0.000000000000000
 51
90.000000000000000
  0
ARC
  8
0
  6
CONTINUOUS
 62
256
 10
188.541521999999990
 20
-141.862434000000010
 40
0.400000000000006
 50
90.000000000000000
 51
179.999929999999470
  0
ARC
  8
0
  6
CONTINUOUS
 62
256
 10
73.041415000000001
 20
-141.062434000000000
 40
0.400000000000006
 50
180.000000000000000
 51
270.000000000000000
  0
ARC
  8
0
  6
CONTINUOUS
 62
256
 10
73.041415000000001
 20
-93.862433999999993
 40
0.400000000000006
 50
90.000000000000000
 51
180.000000000000000
  0
ARC
  8
0
  6
CONTINUOUS
 62
256
 10
204.141551999999990
 20
-97.462434000000002
 40
2.500000000000000
 50
270.000000000000000
 51
0.000000000000000
  0
ARC
  8
0
  6
CONTINUOUS
 62
256
 10
75.141414999999995
 20
-97.462434000000002
 40
2.500000000000000
 50
180.000000000000000
 51
270.000000000000000
  0
LINE
  8
0
  6
CONTINUOUS
 62
256
 10
72.641414999999995
 20
-96.662434000000005
 11
206.641551999999990
 21
-96.662434000000005
  0
LINE
  8
0
  6
CONTINUOUS
 62
256
 10
75.141414999999995
 20
-99.962434000000002
 11
95.891414999999995
 21
-99.962434000000002
  0
LINE
  8
0
  6
CONTINUOUS
 62
256
 10
95.891414999999995
 20
-98.962434000000002
 11
98.641414999999995
 21
-98.962434000000002
  0
LINE
  8
0
  6
CONTINUOUS
 62
256
 10
95.891414999999995
 20
-117.462434000000000
 11
95.891414999999995
 21
-98.962434000000002
  0
LINE
  8
0
  6
CONTINUOUS
 62
256
 10
98.641414999999995
 20
-117.462434000000000
 11
98.641414999999995
 21
-98.962434000000002
  0
LINE
  8
0
  6
CONTINUOUS
 62
256
 10
98.641414999999995
 20
-99.962434000000002
 11
124.641414999999990
 21
-99.962434000000002
  0
LINE
  8
0
  6
CONTINUOUS
 62
256
 10
124.641414999999990
 20
-117.462434000000000
 11
124.641414999999990
 21
-99.662434000000005
  0
LINE
  8
0
  6
CONTINUOUS
 62
256
 10
124.641414999999990
 20
-99.662434000000005
 11
154.641551999999990
 21
-99.662434000000005
  0
LINE
  8
0
  6
CONTINUOUS
 62
256
 10
154.641551999999990
 20
-117.462434000000000
 11
154.641551999999990
 21
-99.662434000000005
  0
LINE
  8
0
  6
CONTINUOUS
 62
256
 10
154.641551999999990
 20
-99.962434000000002
 11
180.641551999999990
 21
-99.962434000000002
  0
LINE
  8
0
  6
CONTINUOUS
 62
256
 10
180.641551999999990
 20
-98.962434000000002
 11
183.391551999999990
 21
-98.962434000000002
  0
LINE
  8
0
  6
CONTINUOUS
 62
256
 10
180.641551999999990
 20
-117.462434000000000
 11
180.641551999999990
 21
-98.962434000000002
  0
LINE
  8
0
  6
CONTINUOUS
 62
256
 10
183.391551999999990
 20
-117.462434000000000
 11
183.391551999999990
 21
-98.962434000000002
  0
LINE
  8
0
  6
CONTINUOUS
 62
256
 10
183.391551999999990
 20
-99.962434000000002
 11
204.141551999999990
 21
-99.962434000000002
  0
LINE
  8
0
  6
CONTINUOUS
 62
256
 10
75.141414999999995
 20
-134.962434000000000
 11
95.891414999999995
 21
-134.962434000000000
  0
LINE
  8
0
  6
CONTINUOUS
 62
256
 10
95.891414999999995
 20
-136.962434000000000
 11
98.641414999999995
 21
-136.962434000000000
  0
LINE
  8
0
  6
CONTINUOUS
 62
256
 10
95.891414999999995
 20
-117.462434000000000
 11
95.891414999999995
 21
-136.962434000000000
  0
LINE
  8
0
  6
CONTINUOUS
 62
256
 10
98.641414999999995
 20
-117.462434000000000
 11
98.641414999999995
 21
-136.962434000000000
  0
LINE
  8
0
  6
CONTINUOUS
 62
256
 10
98.641414999999995
 20
-134.962434000000000
 11
124.641414999999990
 21
-134.962434000000000
  0
LINE
  8
0
  6
CONTINUOUS
 62
256
 10
124.641414999999990
 20
-117.462434000000000
 11
124.641414999999990
 21
-135.262434000000010
  0
LINE
  8
0
  6
CONTINUOUS
 62
256
 10
124.641414999999990
 20
-135.262434000000010
 11
154.641551999999990
 21
-135.262434000000010
  0
LINE
  8
0
  6
CONTINUOUS
 62
256
 10
154.641551999999990
 20
-117.462434000000000
 11
154.641551999999990
 21
-135.262434000000010
  0
LINE
  8
0
  6
CONTINUOUS
 62
256
 10
154.641551999999990
 20
-134.962434000000000
 11
180.641551999999990
 21
-134.962434000000000
  0
LINE
  8
0
  6
CONTINUOUS
 62
256
 10
180.641551999999990
 20
-136.962434000000000
 11
183.391551999999990
 21
-136.962434000000000
  0
LINE
  8
0
  6
CONTINUOUS
 62
256
 10
180.641551999999990
 20
-117.462434000000000
 11
180.641551999999990
 21
-136.962434000000000
  0
LINE
  8
0
  6
CONTINUOUS
 62
256
 10
183.391551999999990
 20
-117.462434000000000
 11
183.391551999999990
 21
-136.962434000000000
  0
LINE
  8
0
  6
CONTINUOUS
 62
256
 10
183.391551999999990
 20
-134.962434000000000
 11
204.141551999999990
 21
-134.962434000000000
  0
LINE
  8
0
  6
CONTINUOUS
 62
256
 10
91.141446000000002
 20
-142.462434000000000
 11
105.141444000000010
 21
-142.462434000000000
  0
LINE
  8
0
  6
CONTINUOUS
 62
256
 10
105.141444000000010
 20
-142.462434000000000
 11
105.141447000000000
 21
-144.462434000000000
  0
LINE
  8
0
  6
CONTINUOUS
 62
256
 10
105.141444000000010
 20
-142.462434000000000
 11
105.141447000000000
 21
-144.462434000000000
  0
LINE
  8
0
  6
CONTINUOUS
 62
256
 10
151.141551999999990
 20
-144.462434000000000
 11
151.141551999999990
 21
-142.462434000000000
  0
LINE
  8
0
  6
CONTINUOUS
 62
256
 10
105.141447000000000
 20
-144.462434000000000
 11
151.141551999999990
 21
-144.462434000000000
  0
LINE
  8
0
  6
CONTINUOUS
 62
256
 10
188.141522000000010
 20
-142.462434000000000
 11
151.141551999999990
 21
-142.462434000000000
  0
LINE
  8
0
  6
CONTINUOUS
 62
256
 10
91.641446000000002
 20
-92.462434000000002
 11
105.141444000000010
 21
-92.462434000000002
  0
LINE
  8
0
  6
CONTINUOUS
 62
256
 10
91.141446000000002
 20
-92.462447999999995
 11
91.141444000000007
 21
-93.462434000000002
  0
LINE
  8
0
  6
CONTINUOUS
 62
256
 10
105.141444000000010
 20
-92.462434000000002
 11
105.141447000000000
 21
-90.462434000000002
  0
LINE
  8
0
  6
CONTINUOUS
 62
256
 10
91.141446000000002
 20
-92.462434000000002
 11
105.141444000000010
 21
-92.462434000000002
  0
LINE
  8
0
  6
CONTINUOUS
 62
256
 10
151.141551999999990
 20
-90.462434000000002
 11
151.141551999999990
 21
-92.462434000000002
  0
LINE
  8
0
  6
CONTINUOUS
 62
256
 10
105.141381000000000
 20
-90.462434000000002
 11
151.141551999999990
 21
-90.462434000000002
  0
LINE
  8
0
  6
CONTINUOUS
 62
256
 10
187.641522000000010
 20
-92.462434000000002
 11
173.641551999999990
 21
-92.462434000000002
  0
LINE
  8
0
  6
CONTINUOUS
 62
256
 10
188.141522000000010
 20
-92.462434000000002
 11
151.141551999999990
 21
-92.462434000000002
  0
LINE
  8
0
  6
CONTINUOUS
 62
256
 10
188.141522000000010
 20
-92.462447999999995
 11
188.141523000000010
 21
-93.462434000000002
  0
LINE
  8
0
  6
CONTINUOUS
 62
256
 10
206.641551999999990
 20
-117.462434000000000
 11
206.641551999999990
 21
-141.062434000000000
  0
LINE
  8
0
  6
CONTINUOUS
 62
256
 10
72.641414999999995
 20
-117.462434000000000
 11
72.641414999999995
 21
-141.062434000000000
  0
LINE
  8
0
  6
DASHDOT
 62
256
 10
69.637923999999998
 20
-117.462434000000000
 11
209.794489000000000
 21
-117.462434000000000
  0
LINE
  8
0
  6
CONTINUOUS
 62
256
 10
188.141522000000010
 20
-92.462432000000007
 11
188.141523000000010
 21
-93.462434000000002
  0
LINE
  8
0
  6
CONTINUOUS
 62
256
 10
206.241552000000010
 20
-141.462434000000000
 11
188.541521999999990
 21
-141.462434000000000
  0
LINE
  8
0
  6
CONTINUOUS
 62
256
 10
206.241552000000010
 20
-93.462434000000002
 11
188.141523000000010
 21
-93.462434000000002
  0
LINE
  8
0
  6
CONTINUOUS
 62
256
 10
188.141522000000010
 20
-142.462434000000000
 11
174.141520000000010
 21
-142.462434000000000
  0
LINE
  8
0
  6
CONTINUOUS
 62
256
 10
206.641551999999990
 20
-93.862433999999993
 11
206.641551999999990
 21
-117.462434000000000
  0
LINE
  8
0
  6
CONTINUOUS
 62
256
 10
91.141446000000002
 20
-92.462432000000007
 11
91.141444000000007
 21
-93.462434000000002
  0
LINE
  8
0
  6
CONTINUOUS
 62
256
 10
73.041415000000001
 20
-93.462434000000002
 11
91.141444000000007
 21
-93.462434000000002
  0
LINE
  8
0
  6
CONTINUOUS
 62
256
 10
73.041415000000001
 20
-141.462434000000000
 11
91.141444000000007
 21
-141.462434000000000
  0
LINE
  8
0
  6
CONTINUOUS
 62
256
 10
91.141446000000002
 20
-92.462434000000002
 11
105.141444000000010
 21
-92.462434000000002
  0
LINE
  8
0
  6
CONTINUOUS
 62
256
 10
105.141444000000010
 20
-92.462434000000002
 11
105.141447000000000
 21
-90.462434000000002
  0
LINE
  8
0
  6
CONTINUOUS
 62
256
 10
72.641414999999995
 20
-93.862433999999993
 11
72.641414999999995
 21
-117.462434000000000
  0
LINE
  8
0
  6
CONTINUOUS
 62
256
 10
91.141446000000002
 20
-142.462434000000000
 11
91.141444000000007
 21
-141.462434000000000
  0
LINE
  8
0
  6
CONTINUOUS
 62
256
 10
91.641446000000002
 20
-142.462434000000000
 11
105.141444000000010
 21
-142.462434000000000
  0
LINE
  8
0
  6
CONTINUOUS
 62
256
 10
188.141522000000010
 20
-142.462415999999990
 11
188.141522000000010
 21
-141.862433000000010
  0
LINE
  8
0
  6
CONTINUOUS
 62
256
 10
188.141522000000010
 20
-92.462432000000007
 11
175.641579000000010
 21
-92.462417000000002
  0
LINE
  8
0
  6
CONTINUOUS
 62
256
 10
91.141446000000002
 20
-142.462434000000000
 11
105.141444000000010
 21
-142.462434000000000
  0
LINE
  8
0
  6
CONTINUOUS
 62
256
 10
105.141381000000000
 20
-90.462434000000002
 11
105.141383000000000
 21
-92.462434000000002
  0
LINE
  8
0
  6
CONTINUOUS
 62
256
 10
91.141446000000002
 20
-92.462432000000007
 11
105.141383000000000
 21
-92.462414999999993
  0
CIRCLE
  8
0
  6
CONTINUOUS
 62
256
 10
301.957130000000010
 20
-117.462434000000000
 40
24.000000000000000
  0
ARC
  8
0
  6
CONTINUOUS
 62
256
 10
301.957130000000010
 20
-117.462434000000000
 40
17.500000000000004
 50
106.601550000000100
 51
73.398449999999912
  0
LINE
  8
0
  6
DASHDOT
 62
256
 10
333.394991000000000
 20
-117.462434000000000
 11
271.748733000000020
 21
-117.462434000000000
  0
LINE
  8
0
  6
CONTINUOUS
 62
256
 10
306.957130000000010
 20
-96.662434000000005
 11
296.957130000000010
 21
-96.662434000000005
  0
LINE
  8
0
  6
CONTINUOUS
 62
256
 10
296.957130000000010
 20
-100.691924000000000
 11
296.957130000000010
 21
-96.662434000000005
  0
LINE
  8
0
  6
CONTINUOUS
 62
256
 10
306.957130000000010
 20
-100.691924000000000
 11
306.957130000000010
 21
-96.662434000000005
  0
LINE
  8
0
  6
DASHDOT
 62
256
 10
301.957130000000010
 20
-149.201113999999990
 11
301.957130000000010
 21
-87.104883000000001
  0
LINE
  8
0
  6
DASHDOT
 62
256
 10
455.700080000000010
 20
-133.462277000000000
 11
477.939273000000010
 21
-133.462277000000000
  0
LINE
  8
0
  6
DASHDOT
 62
256
 10
536.420114000000010
 20
-117.462434000000000
 11
395.571890999999990
 21
-117.462434000000000
  0
LINE
  8
0
  6
CONTINUOUS
 62
256
 10
420.941306000000000
 20
-221.224719999999990
 11
515.441306000000050
 21
-219.575217000000010
  0
ARC
  8
0
  6
DASHED
 62
256
 10
486.441306000000000
 20
-74.462277000000000
 40
0.500000000000000
 50
0.000000000000000
 51
90.000000000000000
  0
ARC
  8
0
  6
DASHED
 62
256
 10
466.941306000000000
 20
-475.962276999999970
 40
400.000000000000060
 50
85.885655000000000
 51
87.065974999999995
  0
ARC
  8
0
  6
DASHED
 62
256
 10
493.487760999999980
 20
-106.915823000000000
 40
30.000000000000018
 50
4.114344999999991
 51
85.885655000000028
  0
ARC
  8
0
  6
DASHED
 62
256
 10
525.941306000000050
 20
-113.962277000000000
 40
0.500000000000000
 50
0.000000000000000
 51
90.000000000000000
  0
ARC
  8
0
  6
DASHED
 62
256
 10
525.941306000000050
 20
-152.962277000000000
 40
0.500000000000000
 50
270.000000000000000
 51
0.000000000000000
  0
ARC
  8
0
  6
DASHED
 62
256
 10
124.441306000000000
 20
-133.462277000000000
 40
399.999999999999940
 50
355.885654999999990
 51
357.065974999999980
  0
ARC
  8
0
  6
DASHED
 62
256
 10
524.416304999999970
 20
-153.962277000000000
 40
0.500000000000000
 50
90.000000000000000
 51
177.065974999999950
  0
ARC
  8
0
  6
DASHED
 62
256
 10
124.441306000000000
 20
-133.462277000000000
 40
400.000000000000000
 50
2.934025000000001
 51
4.114345000000000
  0
ARC
  8
0
  6
DASHED
 62
256
 10
493.487760999999980
 20
-160.008732000000010
 40
29.999999999999989
 50
274.114344999999960
 51
355.885654999999990
  0
ARC
  8
0
  6
DASHED
 62
256
 10
466.941306000000000
 20
209.037723000000000
 40
400.000000000000000
 50
272.934025000000020
 51
274.114345000000010
  0
ARC
  8
0
  6
DASHED
 62
256
 10
486.441306000000000
 20
-192.462277000000000
 40
0.500000000000000
 50
270.000000000000000
 51
0.000000000000000
  0
ARC
  8
0
  6
DASHED
 62
256
 10
487.441306000000000
 20
-190.937276999999990
 40
0.499999999999999
 50
92.934025000000204
 51
180.000000000000000
  0
ARC
  8
0
  6
DASHED
 62
256
 10
447.441306000000000
 20
-192.462277000000000
 40
0.500000000000000
 50
180.000000000000000
 51
270.000000000000000
  0
ARC
  8
0
  6
DASHED
 62
256
 10
446.441306000000000
 20
-190.937276999999990
 40
0.500000000000000
 50
0.000000000000000
 51
87.065974999999796
  0
ARC
  8
0
  6
DASHED
 62
256
 10
447.441306000000000
 20
-192.462277000000000
 40
0.500000000000000
 50
180.000000000000000
 51
270.000000000000000
  0
ARC
  8
0
  6
DASHED
 62
256
 10
446.441306000000000
 20
-190.937276999999990
 40
0.500000000000000
 50
0.000000000000000
 51
87.065974999999796
  0
ARC
  8
0
  6
DASHED
 62
256
 10
466.941306000000000
 20
209.037723000000000
 40
399.999999999999940
 50
265.885654999999990
 51
267.065974999999980
  0
ARC
  8
0
  6
DASHED
 62
256
 10
440.394851000000020
 20
-160.008732000000010
 40
30.000000000000018
 50
184.114344999999960
 51
265.885655000000040
  0
ARC
  8
0
  6
DASHED
 62
256
 10
809.441306000000050
 20
-133.462277000000000
 40
400.000000000000000
 50
182.934025000000020
 51
184.114344999999960
  0
ARC
  8
0
  6
DASHED
 62
256
 10
407.941306000000000
 20
-152.962277000000000
 40
0.500000000000000
 50
180.000000000000000
 51
270.000000000000000
  0
ARC
  8
0
  6
DASHED
 62
256
 10
409.466306999999970
 20
-153.962277000000000
 40
0.500000000000028
 50
2.934025000000031
 51
90.000000000000000
  0
ARC
  8
0
  6
DASHED
 62
256
 10
409.466306999999970
 20
-153.962277000000000
 40
0.500000000000028
 50
2.934025000000031
 51
90.000000000000000
  0
ARC
  8
0
  6
DASHED
 62
256
 10
407.941306000000000
 20
-113.962277000000000
 40
0.500000000000000
 50
90.000000000000000
 51
180.000000000000000
  0
ARC
  8
0
  6
DASHED
 62
256
 10
409.466306999999970
 20
-112.962277000000000
 40
0.500000000000000
 50
270.000000000000000
 51
357.065974999999980
  0
ARC
  8
0
  6
DASHED
 62
256
 10
407.941306000000000
 20
-113.962277000000000
 40
0.500000000000000
 50
90.000000000000000
 51
180.000000000000000
  0
ARC
  8
0
  6
DASHED
 62
256
 10
409.466306999999970
 20
-112.962277000000000
 40
0.500000000000000
 50
270.000000000000000
 51
357.065974999999980
  0
ARC
  8
0
  6
DASHED
 62
256
 10
809.441306000000050
 20
-133.462277000000000
 40
400.000000000000060
 50
175.885655000000010
 51
177.065975000000010
  0
ARC
  8
0
  6
DASHED
 62
256
 10
440.394851000000020
 20
-106.915823000000000
 40
30.000000000000004
 50
94.114344999999972
 51
175.885655000000010
  0
ARC
  8
0
  6
DASHED
 62
256
 10
466.941306000000000
 20
-475.962276999999970
 40
400.000000000000000
 50
92.934025000000005
 51
94.114345000000000
  0
ARC
  8
0
  6
DASHED
 62
256
 10
447.441306000000000
 20
-74.462277000000000
 40
0.500000000000000
 50
90.000000000000000
 51
180.000000000000000
  0
ARC
  8
0
  6
DASHED
 62
256
 10
446.441306000000000
 20
-75.987278000000003
 40
0.499999999999999
 50
272.934025000000190
 51
0.000000000000000
  0
ARC
  8
0
  6
DASHED
 62
256
 10
487.441306000000000
 20
-75.987278000000003
 40
0.500000000000000
 50
180.000000000000000
 51
267.065974999999810
  0
ARC
  8
0
  6
DASHED
 62
256
 10
524.416304999999970
 20
-112.962277000000000
 40
0.500000000000028
 50
182.934025000000020
 51
270.000000000000000
  0
LINE
  8
0
  6
DASHDOT
 62
256
 10
466.941306000000000
 20
-42.451720000000002
 11
466.941306000000000
 21
-230.906796000000010
  0
LINE
  8
0
  6
DASHED
 62
256
 10
466.941306000000000
 20
-73.962277000000000
 11
486.441306000000000
 21
-73.962277000000000
  0
LINE
  8
0
  6
DASHED
 62
256
 10
486.941306000000000
 20
-74.462277000000000
 11
486.941306000000000
 21
-75.987278000000003
  0
LINE
  8
0
  6
DASHED
 62
256
 10
525.941306000000050
 20
-113.462277000000000
 11
524.416304999999970
 21
-113.462277000000000
  0
LINE
  8
0
  6
DASHED
 62
256
 10
526.441306000000050
 20
-133.462277000000000
 11
526.441306000000050
 21
-113.962277000000000
  0
LINE
  8
0
  6
DASHED
 62
256
 10
526.441306000000050
 20
-133.462277000000000
 11
526.441306000000050
 21
-152.962277000000000
  0
LINE
  8
0
  6
DASHED
 62
256
 10
525.941306000000050
 20
-153.462277000000000
 11
524.416304999999970
 21
-153.462277000000000
  0
LINE
  8
0
  6
DASHED
 62
256
 10
466.941306000000000
 20
-192.962277000000000
 11
486.441306000000000
 21
-192.962277000000000
  0
LINE
  8
0
  6
DASHED
 62
256
 10
486.941306000000000
 20
-192.462277000000000
 11
486.941306000000000
 21
-190.937276999999990
  0
LINE
  8
0
  6
DASHED
 62
256
 10
466.941306000000000
 20
-192.962277000000000
 11
447.441306000000000
 21
-192.962277000000000
  0
LINE
  8
0
  6
DASHED
 62
256
 10
446.941306000000000
 20
-192.462277000000000
 11
446.941306000000000
 21
-190.937276999999990
  0
LINE
  8
0
  6
DASHED
 62
256
 10
466.941306000000000
 20
-192.962277000000000
 11
447.441306000000000
 21
-192.962277000000000
  0
LINE
  8
0
  6
DASHED
 62
256
 10
446.941306000000000
 20
-192.462277000000000
 11
446.941306000000000
 21
-190.937276999999990
  0
LINE
  8
0
  6
DASHED
 62
256
 10
407.441306000000000
 20
-133.462277000000000
 11
407.441306000000000
 21
-152.962277000000000
  0
LINE
  8
0
  6
DASHED
 62
256
 10
407.941306000000000
 20
-153.462277000000000
 11
409.466306999999970
 21
-153.462277000000000
  0
LINE
  8
0
  6
DASHED
 62
256
 10
407.441306000000000
 20
-133.462277000000000
 11
407.441306000000000
 21
-113.962277000000000
  0
LINE
  8
0
  6
DASHED
 62
256
 10
407.941306000000000
 20
-113.462277000000000
 11
409.466306999999970
 21
-113.462277000000000
  0
LINE
  8
0
  6
DASHED
 62
256
 10
466.941306000000000
 20
-73.962277000000000
 11
447.441306000000000
 21
-73.962277000000000
  0
LINE
  8
0
  6
DASHED
 62
256
 10
446.941306000000000
 20
-74.462277000000000
 11
446.941306000000000
 21
-75.987278000000003
  0
LINE
  8
0
  6
CONTINUOUS
 62
256
 10
408.940907999999980
 20
-133.233604000000010
 11
408.940907999999980
 21
-45.451956000000003
  0
LINE
  8
0
  6
CONTINUOUS
 62
256
 10
403.940907999999980
 20
-117.233761000000000
 11
403.940907999999980
 21
-69.962434000000002
  0
LINE
  8
0
  6
CONTINUOUS
 62
256
 10
403.940907999999980
 20
-117.233761000000000
 11
403.940907999999980
 21
-164.962434000000000
  0
LINE
  8
0
  6
CONTINUOUS
 62
256
 10
408.940907999999980
 20
-133.233604000000010
 11
408.940907999999980
 21
-220.515642000000010
  0
LINE
  8
0
  6
CONTINUOUS
 62
256
 10
408.940907999999980
 20
-220.515642000000010
 11
409.440756000000020
 21
-221.024291000000010
  0
LINE
  8
0
  6
CONTINUOUS
 62
256
 10
408.940907999999980
 20
-45.451956000000003
 11
420.941306000000000
 21
-45.242488000000002
  0
LINE
  8
0
  6
CONTINUOUS
 62
256
 10
420.941306000000000
 20
-45.242488000000002
 11
420.941306000000000
 21
-133.233604000000010
  0
LINE
  8
0
  6
CONTINUOUS
 62
256
 10
420.941306000000000
 20
-45.242488000000002
 11
515.441306000000050
 21
-46.891992000000002
  0
LINE
  8
0
  6
CONTINUOUS
 62
256
 10
524.941306000000050
 20
-46.891992000000002
 11
524.941306000000050
 21
-133.233604000000010
  0
LINE
  8
0
  6
CONTINUOUS
 62
256
 10
529.941306000000050
 20
-69.962434000000002
 11
529.941306000000050
 21
-164.962434000000000
  0
LINE
  8
0
  6
CONTINUOUS
 62
256
 10
515.441306000000050
 20
-46.891992000000002
 11
524.941306000000050
 21
-46.891992000000002
  0
LINE
  8
0
  6
CONTINUOUS
 62
256
 10
524.941306000000050
 20
-133.233604000000010
 11
524.941306000000050
 21
-219.575529999999990
  0
LINE
  8
0
  6
CONTINUOUS
 62
256
 10
515.441306000000050
 20
-219.575529999999990
 11
524.941306000000050
 21
-219.575529999999990
  0
LINE
  8
0
  6
CONTINUOUS
 62
256
 10
420.941306000000000
 20
-133.233604000000010
 11
420.941306000000000
 21
-221.225033000000000
  0
LINE
  8
0
  6
CONTINUOUS
 62
256
 10
409.440756000000020
 20
-221.024291000000010
 11
420.941306000000000
 21
-221.225033000000000
  0
LINE
  8
0
  6
CONTINUOUS
 62
256
 10
532.941306000000050
 20
-93.462434000000002
 11
529.941306000000050
 21
-93.462434000000002
  0
LINE
  8
0
  6
CONTINUOUS
 62
256
 10
533.941306000000050
 20
-94.462434000000002
 11
533.941306000000050
 21
-117.462434000000000
  0
ARC
  8
0
  6
CONTINUOUS
 62
256
 10
532.941306000000050
 20
-94.462434000000002
 40
1.000000000000000
 50
0.000000000000000
 51
90.000000000000000
  0
LINE
  8
0
  6
CONTINUOUS
 62
256
 10
532.941306000000050
 20
-141.462434000000000
 11
529.941306000000050
 21
-141.462434000000000
  0
LINE
  8
0
  6
CONTINUOUS
 62
256
 10
533.941306000000050
 20
-140.462434000000000
 11
533.941306000000050
 21
-117.462434000000000
  0
ARC
  8
0
  6
CONTINUOUS
 62
256
 10
532.941306000000050
 20
-140.462434000000000
 40
1.000000000000000
 50
270.000000000000000
 51
0.000000000000000
  0
LINE
  8
0
  6
CONTINUOUS
 62
256
 10
400.941306000000000
 20
-141.462434000000000
 11
403.941306000000000
 21
-141.462434000000000
  0
LINE
  8
0
  6
CONTINUOUS
 62
256
 10
399.941306000000000
 20
-140.462434000000000
 11
399.941306000000000
 21
-117.462434000000000
  0
ARC
  8
0
  6
CONTINUOUS
 62
256
 10
400.941306000000000
 20
-140.462434000000000
 40
1.000000000000000
 50
180.000000000000000
 51
270.000000000000000
  0
LINE
  8
0
  6
CONTINUOUS
 62
256
 10
400.941306000000000
 20
-93.462434000000002
 11
403.941306000000000
 21
-93.462434000000002
  0
LINE
  8
0
  6
CONTINUOUS
 62
256
 10
399.941306000000000
 20
-94.462434000000002
 11
399.941306000000000
 21
-117.462434000000000
  0
ARC
  8
0
  6
CONTINUOUS
 62
256
 10
400.941306000000000
 20
-94.462434000000002
 40
1.000000000000000
 50
90.000000000000000
 51
180.000000000000000
  0
ARC
  8
0
  6
CONTINUOUS
 62
256
 10
226.341306000000000
 20
-133.462277000000000
 40
300.600000000000020
 50
353.386989000000030
 51
353.984877999999980
  0
ARC
  8
0
  6
CONTINUOUS
 62
256
 10
466.941306000000000
 20
73.537723000000000
 40
300.000000000000000
 50
265.138595000000010
 51
270.000000000000000
  0
ARC
  8
0
  6
CONTINUOUS
 62
256
 10
441.941306000000000
 20
-220.401047000000010
 40
5.000000000000006
 50
186.244704000000100
 51
265.138594999999900
  0
ARC
  8
0
  6
CONTINUOUS
 62
256
 10
491.941306000000000
 20
-220.401047000000010
 40
4.999999999999989
 50
274.861405000000100
 51
0.000000000000000
  0
ARC
  8
0
  6
CONTINUOUS
 62
256
 10
466.941306000000000
 20
73.537723000000000
 40
300.000000000000000
 50
270.000000000000000
 51
274.861404999999990
  0
LINE
  8
0
  6
CONTINUOUS
 62
256
 10
469.441306000000000
 20
-226.962277000000000
 11
469.441306000000000
 21
-226.451861000000010
  0
LINE
  8
0
  6
CONTINUOUS
 62
256
 10
464.441306000000000
 20
-226.962277000000000
 11
464.441306000000000
 21
-226.451861000000010
  0
LINE
  8
0
  6
CONTINUOUS
 62
256
 10
464.441306000000000
 20
-226.962277000000000
 11
469.441306000000000
 21
-226.962277000000000
  0
LINE
  8
0
  6
CONTINUOUS
 62
256
 10
496.941306000000000
 20
-220.401047000000010
 11
496.941306000000000
 21
-219.898135000000000
  0
ARC
  8
0
  6
CONTINUOUS
 62
256
 10
707.541305999999960
 20
-133.462277000000000
 40
300.600000000000020
 50
186.015121999999990
 51
186.612352999999980
  0
LINE
  8
0
  6
DASHDOT
 62
256
 10
406.397706000000030
 20
-206.462434000000000
 11
527.698070000000030
 21
-206.462434000000000
  0
LINE
  8
0
  6
DASHDOT
 62
256
 10
406.397706000000030
 20
-60.462434000000002
 11
527.698070000000030
 21
-60.462434000000002
  0
LINE
  8
0
  6
CONTINUOUS
 62
256
 10
529.941306000000050
 20
-164.962434000000000
 11
524.941306000000050
 21
-164.962434000000000
  0
LINE
  8
0
  6
CONTINUOUS
 62
256
 10
529.941306000000050
 20
-69.962434000000002
 11
524.941306000000050
 21
-69.962434000000002
  0
LINE
  8
0
  6
CONTINUOUS
 62
256
 10
403.941306000000000
 20
-69.962434000000002
 11
408.941306000000000
 21
-69.962434000000002
  0
LINE
  8
0
  6
CONTINUOUS
 62
256
 10
403.941306000000000
 20
-164.962434000000000
 11
408.941306000000000
 21
-164.962434000000000
  0
LINE
  8
0
  6
DASHDOT
 62
256
 10
-376.907749000000020
 20
108.976260999999990
 11
11.170389999999999
 21
108.976260999999990
  0
LINE
  8
0
  6
DASHDOT
 62
256
 10
-71.593793000000005
 20
32.260517999999998
 11
-71.593793000000005
 21
189.641669000000010
  0
LINE
  8
0
  6
CONTINUOUS
 62
256
 10
-314.093793000000010
 20
78.693826999999999
 11
-217.093793000000010
 21
78.693826999999999
  0
LINE
  8
0
  6
CONTINUOUS
 62
256
 10
-314.093793000000010
 20
84.146208000000001
 11
-217.093793000000010
 21
84.146208000000001
  0
LINE
  8
0
  6
CONTINUOUS
 62
256
 10
-314.093793000000010
 20
82.784328000000002
 11
-217.093793000000010
 21
82.784328000000002
  0
LINE
  8
0
  6
CONTINUOUS
 62
256
 10
-314.093793000000010
 20
88.976260999999994
 11
-217.093793000000010
 21
88.976260999999994
  0
LINE
  8
0
  6
CONTINUOUS
 62
256
 10
-314.093793000000010
 20
128.976260999999990
 11
-217.093793000000010
 21
128.976260999999990
  0
LINE
  8
0
  6
CONTINUOUS
 62
256
 10
-314.093793000000010
 20
139.258695999999990
 11
-217.093793000000010
 21
139.258695999999990
  0
LINE
  8
0
  6
CONTINUOUS
 62
256
 10
-314.093793000000010
 20
133.806315000000010
 11
-217.093793000000010
 21
133.806315000000010
  0
LINE
  8
0
  6
CONTINUOUS
 62
256
 10
-314.093793000000010
 20
135.168195000000000
 11
-217.093793000000010
 21
135.168195000000000
  0
LINE
  8
0
  6
CONTINUOUS
 62
256
 10
-314.093793000000010
 20
71.657076000000004
 11
-217.093793000000010
 21
71.657076000000004
  0
LINE
  8
0
  6
CONTINUOUS
 62
256
 10
-314.093793000000010
 20
73.261724000000001
 11
-217.093793000000010
 21
73.261724000000001
  0
LINE
  8
0
  6
CONTINUOUS
 62
256
 10
-314.093793000000010
 20
146.295446000000000
 11
-217.093793000000010
 21
146.295446000000000
  0
LINE
  8
0
  6
CONTINUOUS
 62
256
 10
-314.093793000000010
 20
144.690799000000000
 11
-217.093793000000010
 21
144.690799000000000
  0
LINE
  8
0
  6
CONTINUOUS
 62
256
 10
-314.093793000000010
 20
108.976260999999990
 11
-314.093793000000010
 21
48.976261000000001
  0
LINE
  8
0
  6
CONTINUOUS
 62
256
 10
-314.093793000000010
 20
108.976260999999990
 11
-314.093793000000010
 21
168.976260999999990
  0
LINE
  8
0
  6
CONTINUOUS
 62
256
 10
-325.093793000000010
 20
55.236145999999998
 11
-327.093793000000010
 21
56.888787999999998
  0
LINE
  8
0
  6
CONTINUOUS
 62
256
 10
-323.093793000000010
 20
54.060361000000000
 11
-325.093793000000010
 21
55.236145999999998
  0
LINE
  8
0
  6
CONTINUOUS
 62
256
 10
-325.093793000000010
 20
55.236145999999998
 11
-323.093793000000010
 21
56.888787999999998
  0
LINE
  8
0
  6
CONTINUOUS
 62
256
 10
-327.093793000000010
 20
54.060361000000000
 11
-325.093793000000010
 21
55.236145999999998
  0
POLYLINE
  8
0
  6
CONTINUOUS
 62
256
 66
1
 70
1
  0
VERTEX
  8
0
  6
CONTINUOUS
 62
256
 10
-320.393793000000020
 20
57.052736000000003
  0
VERTEX
  8
0
  6
CONTINUOUS
 62
256
 10
-320.484102182104830
 20
57.755692510558170
  0
VERTEX
  8
0
  6
CONTINUOUS
 62
256
 10
-320.751559197196970
 20
58.431634796638143
  0
VERTEX
  8
0
  6
CONTINUOUS
 62
256
 10
-321.185885822178080
 20
59.054586775258663
  0
VERTEX
  8
0
  6
CONTINUOUS
 62
256
 10
-321.770391128423230
 20
59.600608751236841
  0
VERTEX
  8
0
  6
CONTINUOUS
 62
256
 10
-322.482612904807870
 20
60.048717406248493
  0
VERTEX
  8
0
  6
CONTINUOUS
 62
256
 10
-323.295180867884080
 20
60.381692175983737
  0
VERTEX
  8
0
  6
CONTINUOUS
 62
256
 10
-324.176868486524200
 20
60.586737026776063
  0
VERTEX
  8
0
  6
CONTINUOUS
 62
256
 10
-325.093793000000010
 20
60.655972199999994
  0
VERTEX
  8
0
  6
CONTINUOUS
 62
256
 10
-326.010717513475810
 20
60.586737026776063
  0
VERTEX
  8
0
  6
CONTINUOUS
 62
256
 10
-326.892405132115930
 20
60.381692175983737
  0
VERTEX
  8
0
  6
CONTINUOUS
 62
256
 10
-327.704973095192140
 20
60.048717406248493
  0
VERTEX
  8
0
  6
CONTINUOUS
 62
256
 10
-328.417194871576780
 20
59.600608751236841
  0
VERTEX
  8
0
  6
CONTINUOUS
 62
256
 10
-329.001700177821930
 20
59.054586775258663
  0
VERTEX
  8
0
  6
CONTINUOUS
 62
256
 10
-329.436026802803040
 20
58.431634796638143
  0
VERTEX
  8
0
  6
CONTINUOUS
 62
256
 10
-329.703483817895180
 20
57.755692510558170
  0
VERTEX
  8
0
  6
CONTINUOUS
 62
256
 10
-329.793792999999990
 20
57.052736000000003
  0
VERTEX
  8
0
  6
CONTINUOUS
 62
256
 10
-329.703483817895180
 20
56.349779489441836
  0
VERTEX
  8
0
  6
CONTINUOUS
 62
256
 10
-329.436026802803040
 20
55.673837203361863
  0
VERTEX
  8
0
  6
CONTINUOUS
 62
256
 10
-329.001700177821930
 20
55.050885224741343
  0
VERTEX
  8
0
  6
CONTINUOUS
 62
256
 10
-328.417194871576780
 20
54.504863248763165
  0
VERTEX
  8
0
  6
CONTINUOUS
 62
256
 10
-327.704973095192140
 20
54.056754593751513
  0
VERTEX
  8
0
  6
CONTINUOUS
 62
256
 10
-326.892405132115930
 20
53.723779824016269
  0
VERTEX
  8
0
  6
CONTINUOUS
 62
256
 10
-326.010717513475810
 20
53.518734973223943
  0
VERTEX
  8
0
  6
CONTINUOUS
 62
256
 10
-325.093793000000010
 20
53.449499800000012
  0
VERTEX
  8
0
  6
CONTINUOUS
 62
256
 10
-324.176868486524200
 20
53.518734973223943
  0
VERTEX
  8
0
  6
CONTINUOUS
 62
256
 10
-323.295180867884080
 20
53.723779824016269
  0
VERTEX
  8
0
  6
CONTINUOUS
 62
256
 10
-322.482612904807870
 20
54.056754593751513
  0
VERTEX
  8
0
  6
CONTINUOUS
 62
256
 10
-321.770391128423230
 20
54.504863248763165
  0
VERTEX
  8
0
  6
CONTINUOUS
 62
256
 10
-321.185885822178080
 20
55.050885224741343
  0
VERTEX
  8
0
  6
CONTINUOUS
 62
256
 10
-320.751559197196970
 20
55.673837203361863
  0
VERTEX
  8
0
  6
CONTINUOUS
 62
256
 10
-320.484102182104830
 20
56.349779489441836
  0
SEQEND
  8
0
  6
CONTINUOUS
 62
256
  0
LINE
  8
0
  6
CONTINUOUS
 62
256
 10
-325.093793000000010
 20
162.716376000000000
 11
-327.093793000000010
 21
161.063735000000010
  0
LINE
  8
0
  6
CONTINUOUS
 62
256
 10
-323.093793000000010
 20
163.892162000000010
 11
-325.093793000000010
 21
162.716376000000000
  0
LINE
  8
0
  6
CONTINUOUS
 62
256
 10
-325.093793000000010
 20
162.716376000000000
 11
-323.093793000000010
 21
161.063735000000010
  0
LINE
  8
0
  6
CONTINUOUS
 62
256
 10
-327.093793000000010
 20
163.892162000000010
 11
-325.093793000000010
 21
162.716376000000000
  0
POLYLINE
  8
0
  6
CONTINUOUS
 62
256
 66
1
 70
1
  0
VERTEX
  8
0
  6
CONTINUOUS
 62
256
 10
-320.393793000000020
 20
160.899786000000010
  0
VERTEX
  8
0
  6
CONTINUOUS
 62
256
 10
-320.484102182104830
 20
161.602742510558190
  0
VERTEX
  8
0
  6
CONTINUOUS
 62
256
 10
-320.751559197196970
 20
162.278684796638150
  0
VERTEX
  8
0
  6
CONTINUOUS
 62
256
 10
-321.185885822178080
 20
162.901636775258680
  0
VERTEX
  8
0
  6
CONTINUOUS
 62
256
 10
-321.770391128423230
 20
163.447658751236840
  0
VERTEX
  8
0
  6
CONTINUOUS
 62
256
 10
-322.482612904807870
 20
163.895767406248500
  0
VERTEX
  8
0
  6
CONTINUOUS
 62
256
 10
-323.295180867884080
 20
164.228742175983740
  0
VERTEX
  8
0
  6
CONTINUOUS
 62
256
 10
-324.176868486524200
 20
164.433787026776090
  0
VERTEX
  8
0
  6
CONTINUOUS
 62
256
 10
-325.093793000000010
 20
164.503022200000000
  0
VERTEX
  8
0
  6
CONTINUOUS
 62
256
 10
-326.010717513475810
 20
164.433787026776090
  0
VERTEX
  8
0
  6
CONTINUOUS
 62
256
 10
-326.892405132115930
 20
164.228742175983740
  0
VERTEX
  8
0
  6
CONTINUOUS
 62
256
 10
-327.704973095192140
 20
163.895767406248500
  0
VERTEX
  8
0
  6
CONTINUOUS
 62
256
 10
-328.417194871576780
 20
163.447658751236840
  0
VERTEX
  8
0
  6
CONTINUOUS
 62
256
 10
-329.001700177821930
 20
162.901636775258680
  0
VERTEX
  8
0
  6
CONTINUOUS
 62
256
 10
-329.436026802803040
 20
162.278684796638150
  0
VERTEX
  8
0
  6
CONTINUOUS
 62
256
 10
-329.703483817895180
 20
161.602742510558190
  0
VERTEX
  8
0
  6
CONTINUOUS
 62
256
 10
-329.793792999999990
 20
160.899786000000010
  0
VERTEX
  8
0
  6
CONTINUOUS
 62
256
 10
-329.703483817895180
 20
160.196829489441820
  0
VERTEX
  8
0
  6
CONTINUOUS
 62
256
 10
-329.436026802803040
 20
159.520887203361870
  0
VERTEX
  8
0
  6
CONTINUOUS
 62
256
 10
-329.001700177821930
 20
158.897935224741330
  0
VERTEX
  8
0
  6
CONTINUOUS
 62
256
 10
-328.417194871576780
 20
158.351913248763170
  0
VERTEX
  8
0
  6
CONTINUOUS
 62
256
 10
-327.704973095192140
 20
157.903804593751520
  0
VERTEX
  8
0
  6
CONTINUOUS
 62
256
 10
-326.892405132115930
 20
157.570829824016270
  0
VERTEX
  8
0
  6
CONTINUOUS
 62
256
 10
-326.010717513475810
 20
157.365784973223950
  0
VERTEX
  8
0
  6
CONTINUOUS
 62
256
 10
-325.093793000000010
 20
157.296549800000010
  0
VERTEX
  8
0
  6
CONTINUOUS
 62
256
 10
-324.176868486524200
 20
157.365784973223950
  0
VERTEX
  8
0
  6
CONTINUOUS
 62
256
 10
-323.295180867884080
 20
157.570829824016270
  0
VERTEX
  8
0
  6
CONTINUOUS
 62
256
 10
-322.482612904807870
 20
157.903804593751520
  0
VERTEX
  8
0
  6
CONTINUOUS
 62
256
 10
-321.770391128423230
 20
158.351913248763170
  0
VERTEX
  8
0
  6
CONTINUOUS
 62
256
 10
-321.185885822178080
 20
158.897935224741330
  0
VERTEX
  8
0
  6
CONTINUOUS
 62
256
 10
-320.751559197196970
 20
159.520887203361870
  0
VERTEX
  8
0
  6
CONTINUOUS
 62
256
 10
-320.484102182104830
 20
160.196829489441820
  0
SEQEND
  8
0
  6
CONTINUOUS
 62
256
  0
ARC
  8
0
  6
CONTINUOUS
 62
256
 10
-362.493792999999980
 20
61.533056000000002
 40
2.600000000000023
 50
180.000000000000000
 51
234.999999999999890
  0
LINE
  8
0
  6
CONTINUOUS
 62
256
 10
-354.259345999999990
 20
52.593220000000002
 11
-363.985092000000010
 21
59.403261000000001
  0
ARC
  8
0
  6
CONTINUOUS
 62
256
 10
-342.787817000000020
 20
68.976260999999994
 40
20.000000000000007
 50
234.999999999999940
 51
270.000000000000000
  0
LINE
  8
0
  6
CONTINUOUS
 62
256
 10
-365.093793000000010
 20
108.976260999999990
 11
-365.093793000000010
 21
61.533056000000002
  0
LINE
  8
0
  6
CONTINUOUS
 62
256
 10
-314.093793000000010
 20
48.976261000000001
 11
-342.787817000000020
 21
48.976261000000001
  0
LINE
  8
0
  6
CONTINUOUS
 62
256
 10
-217.093793000000010
 20
50.476261000000001
 11
-314.093793000000010
 21
50.476261000000001
  0
LINE
  8
0
  6
CONTINUOUS
 62
256
 10
-314.093793000000010
 20
63.610475000000001
 11
-217.093793000000010
 21
63.610475000000001
  0
LINE
  8
0
  6
CONTINUOUS
 62
256
 10
-314.093793000000010
 20
58.660727000000001
 11
-217.093793000000010
 21
58.660727000000001
  0
LINE
  8
0
  6
CONTINUOUS
 62
256
 10
-314.093793000000010
 20
53.976261000000001
 11
-217.093793000000010
 21
53.976261000000001
  0
LINE
  8
0
  6
CONTINUOUS
 62
256
 10
-314.093793000000010
 20
52.976261000000001
 11
-217.093793000000010
 21
52.976261000000001
  0
LINE
  8
0
  6
CONTINUOUS
 62
256
 10
-314.093793000000010
 20
51.476261000000001
 11
-217.093793000000010
 21
51.476261000000001
  0
LINE
  8
0
  6
CONTINUOUS
 62
256
 10
-314.093793000000010
 20
51.976261000000001
 11
-217.093793000000010
 21
51.976261000000001
  0
ARC
  8
0
  6
CONTINUOUS
 62
256
 10
-362.493792999999980
 20
156.419466000000000
 40
2.599999999999996
 50
125.000000000000210
 51
180.000000000000000
  0
LINE
  8
0
  6
CONTINUOUS
 62
256
 10
-354.259345999999990
 20
165.359302000000010
 11
-363.985092000000010
 21
158.549262000000000
  0
ARC
  8
0
  6
CONTINUOUS
 62
256
 10
-342.787817000000020
 20
148.976260999999990
 40
20.000000000000000
 50
90.000000000000000
 51
125.000000000000060
  0
LINE
  8
0
  6
CONTINUOUS
 62
256
 10
-365.093793000000010
 20
108.976260999999990
 11
-365.093793000000010
 21
156.419466000000000
  0
LINE
  8
0
  6
CONTINUOUS
 62
256
 10
-314.093793000000010
 20
168.976260999999990
 11
-342.787817000000020
 21
168.976260999999990
  0
LINE
  8
0
  6
CONTINUOUS
 62
256
 10
-217.093793000000010
 20
167.476260999999990
 11
-314.093793000000010
 21
167.476260999999990
  0
LINE
  8
0
  6
CONTINUOUS
 62
256
 10
-314.093793000000010
 20
154.342048000000010
 11
-217.093793000000010
 21
154.342048000000010
  0
LINE
  8
0
  6
CONTINUOUS
 62
256
 10
-314.093793000000010
 20
159.291796000000010
 11
-217.093793000000010
 21
159.291796000000010
  0
LINE
  8
0
  6
CONTINUOUS
 62
256
 10
-314.093793000000010
 20
163.976260999999990
 11
-217.093793000000010
 21
163.976260999999990
  0
LINE
  8
0
  6
CONTINUOUS
 62
256
 10
-314.093793000000010
 20
164.976260999999990
 11
-217.093793000000010
 21
164.976260999999990
  0
LINE
  8
0
  6
CONTINUOUS
 62
256
 10
-314.093793000000010
 20
166.476260999999990
 11
-217.093793000000010
 21
166.476260999999990
  0
LINE
  8
0
  6
CONTINUOUS
 62
256
 10
-314.093793000000010
 20
165.976260999999990
 11
-217.093793000000010
 21
165.976260999999990
  0
ARC
  8
0
  6
CONTINUOUS
 62
256
 10
-48.822465999999999
 20
174.976260999999990
 40
1.000000000000000
 50
0.000000000000000
 51
90.000000000000000
  0
LINE
  8
0
  6
CONTINUOUS
 62
256
 10
-48.822465999999999
 20
175.976260999999990
 11
-71.822466000000006
 21
175.976260999999990
  0
LINE
  8
0
  6
CONTINUOUS
 62
256
 10
-47.822465999999999
 20
174.976260999999990
 11
-47.822465999999999
 21
171.976260999999990
  0
ARC
  8
0
  6
CONTINUOUS
 62
256
 10
-94.822466000000006
 20
174.976260999999990
 40
1.000000000000000
 50
90.000000000000000
 51
180.000000000000000
  0
LINE
  8
0
  6
CONTINUOUS
 62
256
 10
-94.822466000000006
 20
175.976260999999990
 11
-71.822466000000006
 21
175.976260999999990
  0
LINE
  8
0
  6
CONTINUOUS
 62
256
 10
-95.822466000000006
 20
174.976260999999990
 11
-95.822466000000006
 21
171.976260999999990
  0
ARC
  8
0
  6
CONTINUOUS
 62
256
 10
-94.822466000000006
 20
42.976261000000001
 40
1.000000000000000
 50
180.000000000000000
 51
270.000000000000000
  0
LINE
  8
0
  6
CONTINUOUS
 62
256
 10
-94.822466000000006
 20
41.976261000000001
 11
-71.822466000000006
 21
41.976261000000001
  0
LINE
  8
0
  6
CONTINUOUS
 62
256
 10
-95.822466000000006
 20
42.976261000000001
 11
-95.822466000000006
 21
45.976261000000001
  0
ARC
  8
0
  6
CONTINUOUS
 62
256
 10
-48.822465999999999
 20
42.976261000000001
 40
1.000000000000000
 50
270.000000000000000
 51
0.000000000000000
  0
LINE
  8
0
  6
CONTINUOUS
 62
256
 10
-48.822465999999999
 20
41.976261000000001
 11
-71.822466000000006
 21
41.976261000000001
  0
LINE
  8
0
  6
CONTINUOUS
 62
256
 10
-47.822465999999999
 20
42.976261000000001
 11
-47.822465999999999
 21
45.976261000000001
  0
LINE
  8
0
  6
CONTINUOUS
 62
256
 10
-0.512652000000000
 20
50.975864000000001
 11
-0.004003000000000
 21
51.475710999999997
  0
LINE
  8
0
  6
CONTINUOUS
 62
256
 10
-71.593793000000005
 20
45.975864000000001
 11
-119.093793000000010
 21
45.975864000000001
  0
LINE
  8
0
  6
CONTINUOUS
 62
256
 10
-188.593793000000010
 20
50.975864000000001
 11
-188.803260999999990
 21
62.976261000000001
  0
LINE
  8
0
  6
CONTINUOUS
 62
256
 10
-187.153757000000010
 20
157.476260999999990
 11
-187.153757000000010
 21
166.976260999999990
  0
LINE
  8
0
  6
CONTINUOUS
 62
256
 10
-188.803260999999990
 20
62.976261000000001
 11
-187.153757000000010
 21
157.476260999999990
  0
LINE
  8
0
  6
CONTINUOUS
 62
256
 10
-0.004003000000000
 20
51.475710999999997
 11
0.196739000000000
 21
62.976261000000001
  0
LINE
  8
0
  6
CONTINUOUS
 62
256
 10
-1.452764000000000
 20
157.476260999999990
 11
-1.452764000000000
 21
166.976260999999990
  0
LINE
  8
0
  6
CONTINUOUS
 62
256
 10
0.196739000000000
 20
62.976261000000001
 11
-1.452764000000000
 21
157.476260999999990
  0
LINE
  8
0
  6
CONTINUOUS
 62
256
 10
-187.153757000000010
 20
166.976260999999990
 11
-87.794690000000003
 21
166.976260999999990
  0
LINE
  8
0
  6
CONTINUOUS
 62
256
 10
-188.803260999999990
 20
62.976261000000001
 11
-87.794690000000003
 21
62.976261000000001
  0
LINE
  8
0
  6
CONTINUOUS
 62
256
 10
-87.794690000000003
 20
50.975864000000001
 11
-188.593793000000010
 21
50.975864000000001
  0
LINE
  8
0
  6
CONTINUOUS
 62
256
 10
-87.794690000000003
 20
50.975864000000001
 11
-0.512652000000000
 21
50.975864000000001
  0
LINE
  8
0
  6
CONTINUOUS
 62
256
 10
-87.794690000000003
 20
62.976261000000001
 11
0.196739000000000
 21
62.976261000000001
  0
LINE
  8
0
  6
CONTINUOUS
 62
256
 10
-87.794690000000003
 20
166.976260999999990
 11
-1.452764000000000
 21
166.976260999999990
  0
LINE
  8
0
  6
CONTINUOUS
 62
256
 10
-200.093793000000010
 20
52.237260999999997
 11
-200.093793000000010
 21
165.715262000000000
  0
ARC
  8
0
  6
CONTINUOUS
 62
256
 10
-197.093793000000010
 20
155.976260999999990
 40
3.000000000000000
 50
180.000000000000000
 51
270.000000000000000
  0
LINE
  8
0
  6
CONTINUOUS
 62
256
 10
-189.197699000000000
 20
152.976260999999990
 11
-197.093793000000010
 21
152.976260999999990
  0
ARC
  8
0
  6
CONTINUOUS
 62
256
 10
-197.093793000000010
 20
61.976658999999998
 40
3.000000000000000
 50
90.000000000000000
 51
180.000000000000000
  0
ARC
  8
0
  6
CONTINUOUS
 62
256
 10
-203.093793000000010
 20
151.160992999999990
 40
3.000000000000000
 50
0.000000000000000
 51
90.000000000000000
  0
ARC
  8
0
  6
CONTINUOUS
 62
256
 10
-203.093793000000010
 20
158.072568999999990
 40
3.000000000000000
 50
0.000000000000000
 51
90.000000000000000
  0
ARC
  8
0
  6
CONTINUOUS
 62
256
 10
-203.093793000000010
 20
66.791529999999995
 40
3.000000000000000
 50
270.000000000000000
 51
0.000000000000000
  0
ARC
  8
0
  6
CONTINUOUS
 62
256
 10
-203.093793000000010
 20
59.879953999999998
 40
3.000000000000000
 50
270.000000000000000
 51
0.000000000000000
  0
ARC
  8
0
  6
CONTINUOUS
 62
256
 10
-203.093793000000010
 20
52.237260999999997
 40
2.999999999999999
 50
269.018827000000040
 51
0.000000000000000
  0
ARC
  8
0
  6
CONTINUOUS
 62
256
 10
-203.093793000000010
 20
165.715262000000000
 40
3.000000000000000
 50
0.000000000000000
 51
90.981172999999970
  0
ARC
  8
0
  6
CONTINUOUS
 62
256
 10
-208.093793000000010
 20
72.974993999999995
 40
3.000000000000000
 50
180.000000000000000
 51
270.000000000000000
  0
ARC
  8
0
  6
CONTINUOUS
 62
256
 10
-208.093793000000010
 20
53.879953999999998
 40
3.000000000000000
 50
90.000000000000000
 51
180.000000000000000
  0
ARC
  8
0
  6
CONTINUOUS
 62
256
 10
-208.093793000000010
 20
66.791529999999995
 40
3.000000000000000
 50
180.000000000000000
 51
270.000000000000000
  0
ARC
  8
0
  6
CONTINUOUS
 62
256
 10
-214.093793000000010
 20
52.476261000000001
 40
3.000000000000000
 50
270.000000000000000
 51
0.000000000000000
  0
ARC
  8
0
  6
CONTINUOUS
 62
256
 10
-214.093793000000010
 20
165.476260999999990
 40
3.000000000000000
 50
0.000000000000000
 51
90.000000000000000
  0
ARC
  8
0
  6
CONTINUOUS
 62
256
 10
-208.093793000000010
 20
144.977528000000010
 40
3.000000000000000
 50
90.000000000000000
 51
180.000000000000000
  0
ARC
  8
0
  6
CONTINUOUS
 62
256
 10
-208.093793000000010
 20
151.160992999999990
 40
3.000000000000000
 50
90.000000000000000
 51
180.000000000000000
  0
ARC
  8
0
  6
CONTINUOUS
 62
256
 10
-208.093793000000010
 20
164.072568999999990
 40
3.000000000000000
 50
180.000000000000000
 51
270.000000000000000
  0
LINE
  8
0
  6
CONTINUOUS
 62
256
 10
-211.093793000000010
 20
66.791529999999995
 11
-211.093793000000010
 21
108.976260999999990
  0
LINE
  8
0
  6
CONTINUOUS
 62
256
 10
-208.093793000000010
 20
69.974993999999995
 11
-203.093793000000010
 21
69.974993999999995
  0
LINE
  8
0
  6
CONTINUOUS
 62
256
 10
-211.093793000000010
 20
53.476261000000001
 11
-211.093793000000010
 21
53.879953999999998
  0
LINE
  8
0
  6
CONTINUOUS
 62
256
 10
-211.093793000000010
 20
53.476261000000001
 11
-211.093793000000010
 21
53.879953999999998
  0
LINE
  8
0
  6
CONTINUOUS
 62
256
 10
-211.093793000000010
 20
53.476261000000001
 11
-211.093793000000010
 21
52.476261000000001
  0
LINE
  8
0
  6
CONTINUOUS
 62
256
 10
-211.093793000000010
 20
164.476260999999990
 11
-211.093793000000010
 21
164.072568999999990
  0
LINE
  8
0
  6
CONTINUOUS
 62
256
 10
-211.093793000000010
 20
151.160992999999990
 11
-211.093793000000010
 21
108.976260999999990
  0
LINE
  8
0
  6
CONTINUOUS
 62
256
 10
-208.093793000000010
 20
147.977528000000010
 11
-203.093793000000010
 21
147.977528000000010
  0
LINE
  8
0
  6
CONTINUOUS
 62
256
 10
-211.093793000000010
 20
164.476260999999990
 11
-211.093793000000010
 21
165.476260999999990
  0
LINE
  8
0
  6
CONTINUOUS
 62
256
 10
-208.093793000000010
 20
161.072568999999990
 11
-203.093793000000010
 21
161.072568999999990
  0
LINE
  8
0
  6
CONTINUOUS
 62
256
 10
-208.093793000000010
 20
154.160992999999990
 11
-203.093793000000010
 21
154.160992999999990
  0
LINE
  8
0
  6
CONTINUOUS
 62
256
 10
-208.093793000000010
 20
63.791530000000002
 11
-203.093793000000010
 21
63.791530000000002
  0
LINE
  8
0
  6
CONTINUOUS
 62
256
 10
-208.093793000000010
 20
56.879953999999998
 11
-203.093793000000010
 21
56.879953999999998
  0
LINE
  8
0
  6
CONTINUOUS
 62
256
 10
-217.093793000000010
 20
128.976260999999990
 11
-211.093793000000010
 21
128.976260999999990
  0
LINE
  8
0
  6
CONTINUOUS
 62
256
 10
-217.093793000000010
 20
88.976260999999994
 11
-211.093793000000010
 21
88.976260999999994
  0
ARC
  8
0
  6
CONTINUOUS
 62
256
 10
-190.803558000000010
 20
62.976658999999998
 40
1.999999999999998
 50
359.000000000000060
 51
90.000000000000000
  0
ARC
  8
0
  6
CONTINUOUS
 62
256
 10
-189.197699000000000
 20
154.976260999999990
 40
2.000000000000000
 50
270.000000000000000
 51
358.999999999999830
  0
LINE
  8
0
  6
CONTINUOUS
 62
256
 10
-217.093793000000010
 20
108.976260999999990
 11
-217.093793000000010
 21
49.476261000000001
  0
LINE
  8
0
  6
CONTINUOUS
 62
256
 10
-217.093793000000010
 20
108.976260999999990
 11
-217.093793000000010
 21
168.476260999999990
  0
LINE
  8
0
  6
CONTINUOUS
 62
256
 10
-217.093793000000010
 20
168.458806000000010
 11
-203.145163999999990
 21
168.714822000000000
  0
LINE
  8
0
  6
CONTINUOUS
 62
256
 10
-217.093793000000010
 20
49.493715999999999
 11
-203.145163999999990
 21
49.237701000000001
  0
LINE
  8
0
  6
CONTINUOUS
 62
256
 10
-197.093793000000010
 20
64.976658999999998
 11
-190.803558000000010
 21
64.976658999999998
  0
LINE
  8
0
  6
CONTINUOUS
 62
256
 10
-24.093793000000002
 20
171.976659000000010
 11
-24.093793000000002
 21
166.976260999999990
  0
LINE
  8
0
  6
CONTINUOUS
 62
256
 10
-71.365120000000005
 20
171.976659000000010
 11
-24.093793000000002
 21
171.976659000000010
  0
LINE
  8
0
  6
CONTINUOUS
 62
256
 10
-119.093793000000010
 20
171.976659000000010
 11
-119.093793000000010
 21
166.976260999999990
  0
LINE
  8
0
  6
CONTINUOUS
 62
256
 10
-71.365120000000005
 20
171.976659000000010
 11
-119.093793000000010
 21
171.976659000000010
  0
LINE
  8
0
  6
CONTINUOUS
 62
256
 10
-24.093793000000002
 20
45.976261000000001
 11
-119.093793000000010
 21
45.976261000000001
  0
LINE
  8
0
  6
CONTINUOUS
 62
256
 10
-24.093793000000002
 20
45.976261000000001
 11
-24.093793000000002
 21
50.976261000000001
  0
LINE
  8
0
  6
CONTINUOUS
 62
256
 10
-119.093793000000010
 20
45.976261000000001
 11
-119.093793000000010
 21
50.976261000000001
  0
ENDSEC
  0
EOF
