  0
SECTION
  2
HEADER
  9
$TEXTSIZE
 40
2.5
  9
$ACADVER
  1
AC1009
  9
$DIMASZ
 40
3.863703297614046
  9
$DIMEXE
 40
2.000000000000000
  9
$DIMEXO
 40
1.000000000000000
  9
$DIMLFAC
 40
1.000000000000000
  9
$DIMSCALE
 40
1.000000000000000
  9
$DIMTAD
 70
1
  9
$DIMTFAC
 40
0.625000000000000
  9
$DIMTXT
 40
3.200000047683716
  9
$LUPREC
 70
3
  9
$REGENMODE
 70
1
  9
$TEXTSTYLE
  7
STANDARD1
  0
ENDSEC
  0
SECTION
  2
TABLES
  0
TABLE
  2
LTYPE
 70
4
  0
LTYPE
  2
CONTINUOUS
 70
64
  3
Solid line
 72
65
 73
0
 40
0.0
  0
LTYPE
  2
DASHED
 70
64
  3
-- -- -- -- -- -- -- -- -- -- -- -- -- -- --
 72
65
 73
2
 40
0.75
 49
0.5
 49
-0.25
  0
LTYPE
  2
DASHDOT
 70
64
  3
__ . __ . __ . __ . __ . __ . __ . __ . __ . __
 72
65
 73
4
 40
1.0
 49
0.5
 49
-0.25
 49
0.0
 49
-0.25
  0
LTYPE
  2
DIVIDE
 70
64
  3
__ . . __ . . __ . . __ . . __ . . __ . . __
 72
65
 73
6
 40
1.25
 49
0.5
 49
-0.25
 49
0.0
 49
-0.25
 49
0.0
 49
-0.25
  0
ENDTAB
  0
TABLE
  2
LAYER
 70
4
  0
LAYER
  2
0
 70
64
 62
53
  6
CONTINUOUS
  0
LAYER
  2
1
 70
64
 62
102
  6
CONTINUOUS
  0
LAYER
  2
2
 70
64
 62
102
  6
CONTINUOUS
  0
LAYER
  2
3
 70
64
 62
191
  6
CONTINUOUS
  0
ENDTAB
  0
TABLE
  2
STYLE
 70
4
  0
STYLE
  2
STANDARD1
 70
64
 40
0.0
 41
1.0
 50
0.0
 71
0
 42
3.200000047683716
  3
MONOTXT
  4
BIGFONT
  0
STYLE
  2
STANDARD2
 70
68
 40
0.0
 41
1.0
 50
0.0
 71
0
 42
3.200000047683716
  3
MONOTXT
  4
BIGFONT
  0
STYLE
  2
STANDARD3
 70
64
 40
0.0
 41
1.0
 50
0.0
 71
0
 42
3.200000047683716
  3
MONOTXT
  4

  0
STYLE
  2
STANDARD4
 70
68
 40
0.0
 41
1.0
 50
0.0
 71
0
 42
3.200000047683716
  3
MONOTXT
  4

  0
ENDTAB
  0
TABLE
  2
VIEW
 70
0
  0
ENDTAB
  0
ENDSEC
  0
SECTION
  2
BLOCKS
  0
BLOCK
  8
0
  2
ZU_SYM_1
 70
64
 10
0.000000000000000
 20
0.000000000000000
  0
LINE
  8
0
  6
CONTINUOUS
 62
256
 10
-1.299999000000000
 20
0.300007000000000
 11
-0.000001000000000
 21
0.600002000000000
  0
LINE
  8
0
  6
CONTINUOUS
 62
256
 10
-1.300000000000000
 20
-0.299995000000000
 11
-0.000004000000000
 21
-0.000001000000000
  0
LINE
  8
0
  6
CONTINUOUS
 62
256
 10
-1.300018000000000
 20
-4.599993000000000
 11
-1.299981000000000
 21
4.600004000000000
  0
ARC
  8
0
  6
CONTINUOUS
 62
256
 10
0.740001000000000
 20
-0.000003000000000
 40
5.539999000000000
 50
155.470187000000040
 51
204.529249999999960
  0
ARC
  8
0
  6
CONTINUOUS
 62
256
 10
-3.229986000000000
 20
3.450012000000000
 40
1.570000000000000
 50
179.999744999999990
 51
227.099745999999980
  0
ARC
  8
0
  6
CONTINUOUS
 62
256
 10
-3.230014000000000
 20
-3.449986000000000
 40
1.570000000000000
 50
132.899744000000000
 51
179.999744999999990
  0
LINE
  8
0
  6
CONTINUOUS
 62
256
 10
-4.299987000000000
 20
2.300014000000000
 11
-1.299990000000000
 21
2.300004000000000
  0
LINE
  8
0
  6
CONTINUOUS
 62
256
 10
-4.300006000000000
 20
-2.299980000000000
 11
-1.300007000000000
 21
-2.299992000000000
  0
LINE
  8
0
  6
CONTINUOUS
 62
256
 10
0.000016000000000
 20
4.599992000000000
 11
-0.000021000000000
 21
-4.599992000000000
  0
LINE
  8
0
  6
CONTINUOUS
 62
256
 10
-4.299978000000000
 20
4.600015000000000
 11
0.000013000000000
 21
4.599998000000000
  0
LINE
  8
0
  6
CONTINUOUS
 62
256
 10
-4.799962000000000
 20
3.900001000000000
 11
-4.299962000000000
 21
4.599999000000000
  0
LINE
  8
0
  6
CONTINUOUS
 62
256
 10
-4.800010000000000
 20
-3.899973000000000
 11
-4.799979000000000
 21
3.900012000000000
  0
LINE
  8
0
  6
CONTINUOUS
 62
256
 10
-4.299996000000000
 20
-4.599962000000000
 11
-4.799990000000000
 21
-3.899959000000000
  0
LINE
  8
0
  6
CONTINUOUS
 62
256
 10
-0.000025000000000
 20
-4.599994000000000
 11
-4.300015000000000
 21
-4.599977000000000
  0
POINT
  8
0
  6
CONTINUOUS
 62
256
 10
0.000000000000000
 20
0.000000000000000
  0
ENDBLK
  8
0
  0
BLOCK
  8
0
  2
ZU_SYM_2
 70
64
 10
0.000000000000000
 20
0.000000000000000
  0
LINE
  8
0
  6
CONTINUOUS
 62
256
 10
-1.299999000000000
 20
0.300007000000000
 11
-0.000001000000000
 21
0.600002000000000
  0
LINE
  8
0
  6
CONTINUOUS
 62
256
 10
-1.300000000000000
 20
-0.299995000000000
 11
-0.000004000000000
 21
-0.000001000000000
  0
LINE
  8
0
  6
CONTINUOUS
 62
256
 10
-1.300018000000000
 20
-4.599993000000000
 11
-1.299981000000000
 21
4.600004000000000
  0
ARC
  8
0
  6
CONTINUOUS
 62
256
 10
0.740001000000000
 20
-0.000003000000000
 40
5.539999000000000
 50
155.470187000000040
 51
204.529249999999960
  0
ARC
  8
0
  6
CONTINUOUS
 62
256
 10
-3.229986000000000
 20
3.450012000000000
 40
1.570000000000000
 50
179.999744999999990
 51
227.099745999999980
  0
ARC
  8
0
  6
CONTINUOUS
 62
256
 10
-3.230014000000000
 20
-3.449986000000000
 40
1.570000000000000
 50
132.899744000000000
 51
179.999744999999990
  0
LINE
  8
0
  6
CONTINUOUS
 62
256
 10
-4.299987000000000
 20
2.300014000000000
 11
-1.299990000000000
 21
2.300004000000000
  0
LINE
  8
0
  6
CONTINUOUS
 62
256
 10
-4.300006000000000
 20
-2.299980000000000
 11
-1.300007000000000
 21
-2.299992000000000
  0
LINE
  8
0
  6
CONTINUOUS
 62
256
 10
0.000016000000000
 20
4.599992000000000
 11
-0.000021000000000
 21
-4.599992000000000
  0
LINE
  8
0
  6
CONTINUOUS
 62
256
 10
-4.299978000000000
 20
4.600015000000000
 11
0.000013000000000
 21
4.599998000000000
  0
LINE
  8
0
  6
CONTINUOUS
 62
256
 10
-4.799962000000000
 20
3.900001000000000
 11
-4.299962000000000
 21
4.599999000000000
  0
LINE
  8
0
  6
CONTINUOUS
 62
256
 10
-4.800010000000000
 20
-3.899973000000000
 11
-4.799979000000000
 21
3.900012000000000
  0
LINE
  8
0
  6
CONTINUOUS
 62
256
 10
-4.299996000000000
 20
-4.599962000000000
 11
-4.799990000000000
 21
-3.899959000000000
  0
LINE
  8
0
  6
CONTINUOUS
 62
256
 10
-0.000025000000000
 20
-4.599994000000000
 11
-4.300015000000000
 21
-4.599977000000000
  0
POINT
  8
0
  6
CONTINUOUS
 62
256
 10
0.000000000000000
 20
0.000000000000000
  0
ENDBLK
  8
0
  0
BLOCK
  8
0
  2
ZU_SYM_3
 70
64
 10
0.000000000000000
 20
0.000000000000000
  0
POINT
  8
0
  6
CONTINUOUS
 62
256
 10
0.000000000000000
 20
0.000000000000000
  0
LINE
  8
0
  6
CONTINUOUS
 62
256
 10
-2.300001000000000
 20
-4.000000000000000
 11
-4.600000000000000
 21
-0.000001000000000
  0
LINE
  8
0
  6
CONTINUOUS
 62
256
 10
-4.600000000000000
 20
0.000001000000000
 11
-2.300001000000000
 21
4.000000000000000
  0
LINE
  8
0
  6
CONTINUOUS
 62
256
 10
-2.299999000000000
 20
4.000000000000000
 11
2.299999000000000
 21
4.000000000000000
  0
LINE
  8
0
  6
CONTINUOUS
 62
256
 10
2.300001000000000
 20
4.000000000000000
 11
4.600000000000000
 21
0.000001000000000
  0
LINE
  8
0
  6
CONTINUOUS
 62
256
 10
4.600000000000000
 20
-0.000001000000000
 11
2.300001000000000
 21
-4.000000000000000
  0
LINE
  8
0
  6
CONTINUOUS
 62
256
 10
2.299999000000000
 20
-4.000000000000000
 11
-2.299999000000000
 21
-4.000000000000000
  0
CIRCLE
  8
0
  6
CONTINUOUS
 62
256
 10
0.000000000000000
 20
0.000000000000000
 40
4.000000000000000
  0
ENDBLK
  8
0
  0
BLOCK
  8
0
  2
ZU_SYM_4
 70
64
 10
0.000000000000000
 20
0.000000000000000
  0
POINT
  8
0
  6
CONTINUOUS
 62
256
 10
0.000000000000000
 20
0.000000000000000
  0
LINE
  8
0
  6
CONTINUOUS
 62
256
 10
-2.300001000000000
 20
-4.000000000000000
 11
-4.600000000000000
 21
-0.000001000000000
  0
LINE
  8
0
  6
CONTINUOUS
 62
256
 10
-4.600000000000000
 20
0.000001000000000
 11
-2.300001000000000
 21
4.000000000000000
  0
LINE
  8
0
  6
CONTINUOUS
 62
256
 10
-2.299999000000000
 20
4.000000000000000
 11
2.299999000000000
 21
4.000000000000000
  0
LINE
  8
0
  6
CONTINUOUS
 62
256
 10
2.300001000000000
 20
4.000000000000000
 11
4.600000000000000
 21
0.000001000000000
  0
LINE
  8
0
  6
CONTINUOUS
 62
256
 10
4.600000000000000
 20
-0.000001000000000
 11
2.300001000000000
 21
-4.000000000000000
  0
LINE
  8
0
  6
CONTINUOUS
 62
256
 10
2.299999000000000
 20
-4.000000000000000
 11
-2.299999000000000
 21
-4.000000000000000
  0
CIRCLE
  8
0
  6
CONTINUOUS
 62
256
 10
0.000000000000000
 20
0.000000000000000
 40
4.000000000000000
  0
ENDBLK
  8
0
  0
BLOCK
  8
0
  2
ZU_SYM_5
 70
64
 10
0.000000000000000
 20
0.000000000000000
  0
POINT
  8
0
  6
CONTINUOUS
 62
256
 10
0.000000000000000
 20
0.000000000000000
  0
LINE
  8
0
  6
CONTINUOUS
 62
256
 10
-2.300001000000000
 20
-4.000000000000000
 11
-4.600000000000000
 21
-0.000001000000000
  0
LINE
  8
0
  6
CONTINUOUS
 62
256
 10
-4.600000000000000
 20
0.000001000000000
 11
-2.300001000000000
 21
4.000000000000000
  0
LINE
  8
0
  6
CONTINUOUS
 62
256
 10
-2.299999000000000
 20
4.000000000000000
 11
2.299999000000000
 21
4.000000000000000
  0
LINE
  8
0
  6
CONTINUOUS
 62
256
 10
2.300001000000000
 20
4.000000000000000
 11
4.600000000000000
 21
0.000001000000000
  0
LINE
  8
0
  6
CONTINUOUS
 62
256
 10
4.600000000000000
 20
-0.000001000000000
 11
2.300001000000000
 21
-4.000000000000000
  0
LINE
  8
0
  6
CONTINUOUS
 62
256
 10
2.299999000000000
 20
-4.000000000000000
 11
-2.299999000000000
 21
-4.000000000000000
  0
CIRCLE
  8
0
  6
CONTINUOUS
 62
256
 10
0.000000000000000
 20
0.000000000000000
 40
4.000000000000000
  0
ENDBLK
  8
0
  0
BLOCK
  8
0
  2
ZU_SYM_6
 70
64
 10
0.000000000000000
 20
0.000000000000000
  0
POINT
  8
0
  6
CONTINUOUS
 62
256
 10
0.000000000000000
 20
0.000000000000000
  0
LINE
  8
0
  6
CONTINUOUS
 62
256
 10
-2.300001000000000
 20
-4.000000000000000
 11
-4.600000000000000
 21
-0.000001000000000
  0
LINE
  8
0
  6
CONTINUOUS
 62
256
 10
-4.600000000000000
 20
0.000001000000000
 11
-2.300001000000000
 21
4.000000000000000
  0
LINE
  8
0
  6
CONTINUOUS
 62
256
 10
-2.299999000000000
 20
4.000000000000000
 11
2.299999000000000
 21
4.000000000000000
  0
LINE
  8
0
  6
CONTINUOUS
 62
256
 10
2.300001000000000
 20
4.000000000000000
 11
4.600000000000000
 21
0.000001000000000
  0
LINE
  8
0
  6
CONTINUOUS
 62
256
 10
4.600000000000000
 20
-0.000001000000000
 11
2.300001000000000
 21
-4.000000000000000
  0
LINE
  8
0
  6
CONTINUOUS
 62
256
 10
2.299999000000000
 20
-4.000000000000000
 11
-2.299999000000000
 21
-4.000000000000000
  0
CIRCLE
  8
0
  6
CONTINUOUS
 62
256
 10
0.000000000000000
 20
0.000000000000000
 40
4.000000000000000
  0
ENDBLK
  8
0
  0
BLOCK
  8
0
  2
ZU_SYM_7
 70
64
 10
0.000000000000000
 20
0.000000000000000
  0
LINE
  8
0
  6
CONTINUOUS
 62
256
 10
1.999999000000000
 20
-1.154699000000000
 11
-0.000002000000000
 21
-2.309398000000000
  0
LINE
  8
0
  6
CONTINUOUS
 62
256
 10
-1.999999000000000
 20
1.154700000000000
 11
0.000002000000000
 21
2.309399000000000
  0
LINE
  8
0
  6
CONTINUOUS
 62
256
 10
-0.000002000000000
 20
-2.309397000000000
 11
-1.999997000000000
 21
-1.154696000000000
  0
LINE
  8
0
  6
CONTINUOUS
 62
256
 10
1.999998000000000
 20
1.154696000000000
 11
0.000002000000000
 21
2.309399000000000
  0
LINE
  8
0
  6
CONTINUOUS
 62
256
 10
1.999998000000000
 20
1.154695000000000
 11
1.999999000000000
 21
-1.154699000000000
  0
LINE
  8
0
  6
CONTINUOUS
 62
256
 10
-1.999998000000000
 20
-1.154696000000000
 11
-1.999999000000000
 21
1.154700000000000
  0
POINT
  8
0
  6
CONTINUOUS
 62
256
 10
0.000000000000000
 20
0.000000000000000
  0
CIRCLE
  8
0
  6
CONTINUOUS
 62
256
 10
0.000000000000000
 20
0.000000000000000
 40
4.249999000000000
  0
ENDBLK
  8
0
  0
BLOCK
  8
0
  2
ZU_SYM_8
 70
64
 10
0.000000000000000
 20
0.000000000000000
  0
LINE
  8
0
  6
CONTINUOUS
 62
256
 10
1.999999000000000
 20
-1.154699000000000
 11
-0.000002000000000
 21
-2.309398000000000
  0
LINE
  8
0
  6
CONTINUOUS
 62
256
 10
-1.999999000000000
 20
1.154700000000000
 11
0.000002000000000
 21
2.309399000000000
  0
LINE
  8
0
  6
CONTINUOUS
 62
256
 10
-0.000002000000000
 20
-2.309397000000000
 11
-1.999997000000000
 21
-1.154696000000000
  0
LINE
  8
0
  6
CONTINUOUS
 62
256
 10
1.999998000000000
 20
1.154696000000000
 11
0.000002000000000
 21
2.309399000000000
  0
LINE
  8
0
  6
CONTINUOUS
 62
256
 10
1.999998000000000
 20
1.154695000000000
 11
1.999999000000000
 21
-1.154699000000000
  0
LINE
  8
0
  6
CONTINUOUS
 62
256
 10
-1.999998000000000
 20
-1.154696000000000
 11
-1.999999000000000
 21
1.154700000000000
  0
POINT
  8
0
  6
CONTINUOUS
 62
256
 10
0.000000000000000
 20
0.000000000000000
  0
CIRCLE
  8
0
  6
CONTINUOUS
 62
256
 10
0.000000000000000
 20
0.000000000000000
 40
4.249999000000000
  0
ENDBLK
  8
0
  0
BLOCK
  8
0
  2
ZU_SYM_9
 70
64
 10
0.000000000000000
 20
0.000000000000000
  0
LINE
  8
0
  6
CONTINUOUS
 62
256
 10
1.999999000000000
 20
-1.154699000000000
 11
-0.000002000000000
 21
-2.309398000000000
  0
LINE
  8
0
  6
CONTINUOUS
 62
256
 10
-1.999999000000000
 20
1.154700000000000
 11
0.000002000000000
 21
2.309399000000000
  0
LINE
  8
0
  6
CONTINUOUS
 62
256
 10
-0.000002000000000
 20
-2.309397000000000
 11
-1.999997000000000
 21
-1.154696000000000
  0
LINE
  8
0
  6
CONTINUOUS
 62
256
 10
1.999998000000000
 20
1.154696000000000
 11
0.000002000000000
 21
2.309399000000000
  0
LINE
  8
0
  6
CONTINUOUS
 62
256
 10
1.999998000000000
 20
1.154695000000000
 11
1.999999000000000
 21
-1.154699000000000
  0
LINE
  8
0
  6
CONTINUOUS
 62
256
 10
-1.999998000000000
 20
-1.154696000000000
 11
-1.999999000000000
 21
1.154700000000000
  0
POINT
  8
0
  6
CONTINUOUS
 62
256
 10
0.000000000000000
 20
0.000000000000000
  0
CIRCLE
  8
0
  6
CONTINUOUS
 62
256
 10
0.000000000000000
 20
0.000000000000000
 40
4.249999000000000
  0
ENDBLK
  8
0
  0
BLOCK
  8
0
  2
ZU_SYM_10
 70
64
 10
0.000000000000000
 20
0.000000000000000
  0
LINE
  8
0
  6
CONTINUOUS
 62
256
 10
1.999999000000000
 20
-1.154699000000000
 11
-0.000002000000000
 21
-2.309398000000000
  0
LINE
  8
0
  6
CONTINUOUS
 62
256
 10
-1.999999000000000
 20
1.154700000000000
 11
0.000002000000000
 21
2.309399000000000
  0
LINE
  8
0
  6
CONTINUOUS
 62
256
 10
-0.000002000000000
 20
-2.309397000000000
 11
-1.999997000000000
 21
-1.154696000000000
  0
LINE
  8
0
  6
CONTINUOUS
 62
256
 10
1.999998000000000
 20
1.154696000000000
 11
0.000002000000000
 21
2.309399000000000
  0
LINE
  8
0
  6
CONTINUOUS
 62
256
 10
1.999998000000000
 20
1.154695000000000
 11
1.999999000000000
 21
-1.154699000000000
  0
LINE
  8
0
  6
CONTINUOUS
 62
256
 10
-1.999998000000000
 20
-1.154696000000000
 11
-1.999999000000000
 21
1.154700000000000
  0
POINT
  8
0
  6
CONTINUOUS
 62
256
 10
0.000000000000000
 20
0.000000000000000
  0
CIRCLE
  8
0
  6
CONTINUOUS
 62
256
 10
0.000000000000000
 20
0.000000000000000
 40
4.249999000000000
  0
ENDBLK
  8
0
  0
BLOCK
  8
0
  2
ZU_SYM_11
 70
64
 10
0.000000000000000
 20
0.000000000000000
  0
LINE
  8
0
  6
CONTINUOUS
 62
256
 10
-1.299999000000000
 20
0.300007000000000
 11
-0.000001000000000
 21
0.600002000000000
  0
LINE
  8
0
  6
CONTINUOUS
 62
256
 10
-1.300000000000000
 20
-0.299995000000000
 11
-0.000004000000000
 21
-0.000001000000000
  0
LINE
  8
0
  6
CONTINUOUS
 62
256
 10
-1.300018000000000
 20
-4.599993000000000
 11
-1.299981000000000
 21
4.600004000000000
  0
ARC
  8
0
  6
CONTINUOUS
 62
256
 10
0.740001000000000
 20
-0.000003000000000
 40
5.539999000000000
 50
155.470187000000040
 51
204.529249999999960
  0
ARC
  8
0
  6
CONTINUOUS
 62
256
 10
-3.229986000000000
 20
3.450012000000000
 40
1.570000000000000
 50
179.999744999999990
 51
227.099745999999980
  0
ARC
  8
0
  6
CONTINUOUS
 62
256
 10
-3.230014000000000
 20
-3.449986000000000
 40
1.570000000000000
 50
132.899744000000000
 51
179.999744999999990
  0
LINE
  8
0
  6
CONTINUOUS
 62
256
 10
-4.299987000000000
 20
2.300014000000000
 11
-1.299990000000000
 21
2.300004000000000
  0
LINE
  8
0
  6
CONTINUOUS
 62
256
 10
-4.300006000000000
 20
-2.299980000000000
 11
-1.300007000000000
 21
-2.299992000000000
  0
LINE
  8
0
  6
CONTINUOUS
 62
256
 10
0.000016000000000
 20
4.599992000000000
 11
-0.000021000000000
 21
-4.599992000000000
  0
LINE
  8
0
  6
CONTINUOUS
 62
256
 10
-4.299978000000000
 20
4.600015000000000
 11
0.000013000000000
 21
4.599998000000000
  0
LINE
  8
0
  6
CONTINUOUS
 62
256
 10
-4.799962000000000
 20
3.900001000000000
 11
-4.299962000000000
 21
4.599999000000000
  0
LINE
  8
0
  6
CONTINUOUS
 62
256
 10
-4.800010000000000
 20
-3.899973000000000
 11
-4.799979000000000
 21
3.900012000000000
  0
LINE
  8
0
  6
CONTINUOUS
 62
256
 10
-4.299996000000000
 20
-4.599962000000000
 11
-4.799990000000000
 21
-3.899959000000000
  0
LINE
  8
0
  6
CONTINUOUS
 62
256
 10
-0.000025000000000
 20
-4.599994000000000
 11
-4.300015000000000
 21
-4.599977000000000
  0
POINT
  8
0
  6
CONTINUOUS
 62
256
 10
0.000000000000000
 20
0.000000000000000
  0
ENDBLK
  8
0
  0
BLOCK
  8
0
  2
ZU_SYM_12
 70
64
 10
0.000000000000000
 20
0.000000000000000
  0
LINE
  8
0
  6
CONTINUOUS
 62
256
 10
-1.299999000000000
 20
0.300007000000000
 11
-0.000001000000000
 21
0.600002000000000
  0
LINE
  8
0
  6
CONTINUOUS
 62
256
 10
-1.300000000000000
 20
-0.299995000000000
 11
-0.000004000000000
 21
-0.000001000000000
  0
LINE
  8
0
  6
CONTINUOUS
 62
256
 10
-1.300018000000000
 20
-4.599993000000000
 11
-1.299981000000000
 21
4.600004000000000
  0
ARC
  8
0
  6
CONTINUOUS
 62
256
 10
0.740001000000000
 20
-0.000003000000000
 40
5.539999000000000
 50
155.470187000000040
 51
204.529249999999960
  0
ARC
  8
0
  6
CONTINUOUS
 62
256
 10
-3.229986000000000
 20
3.450012000000000
 40
1.570000000000000
 50
179.999744999999990
 51
227.099745999999980
  0
ARC
  8
0
  6
CONTINUOUS
 62
256
 10
-3.230014000000000
 20
-3.449986000000000
 40
1.570000000000000
 50
132.899744000000000
 51
179.999744999999990
  0
LINE
  8
0
  6
CONTINUOUS
 62
256
 10
-4.299987000000000
 20
2.300014000000000
 11
-1.299990000000000
 21
2.300004000000000
  0
LINE
  8
0
  6
CONTINUOUS
 62
256
 10
-4.300006000000000
 20
-2.299980000000000
 11
-1.300007000000000
 21
-2.299992000000000
  0
LINE
  8
0
  6
CONTINUOUS
 62
256
 10
0.000016000000000
 20
4.599992000000000
 11
-0.000021000000000
 21
-4.599992000000000
  0
LINE
  8
0
  6
CONTINUOUS
 62
256
 10
-4.299978000000000
 20
4.600015000000000
 11
0.000013000000000
 21
4.599998000000000
  0
LINE
  8
0
  6
CONTINUOUS
 62
256
 10
-4.799962000000000
 20
3.900001000000000
 11
-4.299962000000000
 21
4.599999000000000
  0
LINE
  8
0
  6
CONTINUOUS
 62
256
 10
-4.800010000000000
 20
-3.899973000000000
 11
-4.799979000000000
 21
3.900012000000000
  0
LINE
  8
0
  6
CONTINUOUS
 62
256
 10
-4.299996000000000
 20
-4.599962000000000
 11
-4.799990000000000
 21
-3.899959000000000
  0
LINE
  8
0
  6
CONTINUOUS
 62
256
 10
-0.000025000000000
 20
-4.599994000000000
 11
-4.300015000000000
 21
-4.599977000000000
  0
POINT
  8
0
  6
CONTINUOUS
 62
256
 10
0.000000000000000
 20
0.000000000000000
  0
ENDBLK
  8
0
  0
ENDSEC
  0
SECTION
  2
ENTITIES
  0
CIRCLE
  8
0
  6
CONTINUOUS
 62
256
 10
-24.022472000000000
 20
-47.280881000000001
 40
7.000000000000000
  0
CIRCLE
  8
0
  6
CONTINUOUS
 62
256
 10
-142.022471999999990
 20
-47.280881000000001
 40
7.000000000000000
  0
CIRCLE
  8
0
  6
CONTINUOUS
 62
256
 10
-142.022471999999990
 20
-152.280880999999990
 40
7.000000000000000
  0
CIRCLE
  8
0
  6
CONTINUOUS
 62
256
 10
-24.022472000000000
 20
-152.280880999999990
 40
7.000000000000000
  0
LINE
  8
0
  6
DASHED
 62
256
 10
339.628402999999990
 20
-40.280881000000001
 11
350.628402999999990
 21
-40.280881000000001
  0
LINE
  8
0
  6
DASHED
 62
256
 10
339.628402999999990
 20
-54.280881000000001
 11
350.628402999999990
 21
-54.280881000000001
  0
LINE
  8
0
  6
DASHED
 62
256
 10
350.628402999999990
 20
-54.280881000000001
 11
350.628402999999990
 21
-40.280881000000001
  0
LINE
  8
0
  6
DASHED
 62
256
 10
350.628402999999990
 20
-51.780881000000001
 11
415.628402999999990
 21
-51.780881000000001
  0
LINE
  8
0
  6
DASHED
 62
256
 10
350.628402999999990
 20
-42.780881000000001
 11
415.628402999999990
 21
-42.780881000000001
  0
LINE
  8
0
  6
DASHED
 62
256
 10
426.628402999999990
 20
-40.280881000000001
 11
415.628402999999990
 21
-40.280881000000001
  0
LINE
  8
0
  6
DASHED
 62
256
 10
415.628402999999990
 20
-54.280881000000001
 11
415.628402999999990
 21
-40.280881000000001
  0
LINE
  8
0
  6
DASHED
 62
256
 10
426.628402999999990
 20
-54.280881000000001
 11
415.628402999999990
 21
-54.280881000000001
  0
LINE
  8
0
  6
DASHED
 62
256
 10
415.628402999999990
 20
-159.280880999999990
 11
415.628402999999990
 21
-145.280880999999990
  0
LINE
  8
0
  6
DASHED
 62
256
 10
426.628402999999990
 20
-145.280880999999990
 11
415.628402999999990
 21
-145.280880999999990
  0
LINE
  8
0
  6
DASHED
 62
256
 10
350.628402999999990
 20
-147.780880999999990
 11
415.628402999999990
 21
-147.780880999999990
  0
LINE
  8
0
  6
DASHED
 62
256
 10
350.628402999999990
 20
-159.280880999999990
 11
350.628402999999990
 21
-145.280880999999990
  0
LINE
  8
0
  6
DASHED
 62
256
 10
339.628402999999990
 20
-145.280880999999990
 11
350.628402999999990
 21
-145.280880999999990
  0
LINE
  8
0
  6
DASHED
 62
256
 10
339.628402999999990
 20
-159.280880999999990
 11
350.628402999999990
 21
-159.280880999999990
  0
LINE
  8
0
  6
DASHED
 62
256
 10
350.628402999999990
 20
-156.780880999999990
 11
415.628402999999990
 21
-156.780880999999990
  0
LINE
  8
0
  6
DASHED
 62
256
 10
426.628402999999990
 20
-159.280880999999990
 11
415.628402999999990
 21
-159.280880999999990
  0
LINE
  8
0
  6
CONTINUOUS
 62
256
 10
-66.022471999999993
 20
133.771125000000010
 11
-13.999955999999999
 21
133.771125000000010
  0
LINE
  8
0
  6
CONTINUOUS
 62
256
 10
-13.999955999999999
 20
124.271125000000000
 11
-13.999955999999999
 21
133.771125000000010
  0
LINE
  8
0
  6
CONTINUOUS
 62
256
 10
-12.839194000000001
 20
57.771124999999998
 11
-13.999955999999999
 21
124.271125000000000
  0
LINE
  8
0
  6
CONTINUOUS
 62
256
 10
-154.014050000000000
 20
57.771124999999998
 11
-12.830467000000001
 21
57.771124999999998
  0
LINE
  8
0
  6
CONTINUOUS
 62
256
 10
-154.013745000000000
 20
57.771124999999998
 11
-152.852982999999990
 21
124.271125000000000
  0
LINE
  8
0
  6
CONTINUOUS
 62
256
 10
-152.852982999999990
 20
133.771125000000010
 11
-66.022471999999993
 21
133.771125000000010
  0
LINE
  8
0
  6
CONTINUOUS
 62
256
 10
-152.852982999999990
 20
124.271125000000000
 11
-152.852982999999990
 21
133.771125000000010
  0
LINE
  8
0
  6
CONTINUOUS
 62
256
 10
-166.515966999999990
 20
36.552822999999997
 11
-182.022471999999990
 21
36.823490000000000
  0
LINE
  8
0
  6
CONTINUOUS
 62
256
 10
-166.515966999999990
 20
143.989427000000010
 11
-182.022471999999990
 21
143.718760000000000
  0
ARC
  8
0
  6
CONTINUOUS
 62
256
 10
-156.014050000000000
 20
57.771124999999998
 40
2.000000000000000
 50
0.000000000000000
 51
90.000000000000000
  0
ARC
  8
0
  6
CONTINUOUS
 62
256
 10
-154.852982999999990
 20
133.771125000000010
 40
2.000000000000000
 50
270.000000000000000
 51
0.000000000000000
  0
LINE
  8
0
  6
CONTINUOUS
 62
256
 10
-28.522472000000000
 20
42.771124999999998
 11
-103.522471999999990
 21
42.771124999999998
  0
LINE
  8
0
  6
CONTINUOUS
 62
256
 10
-139.147265000000000
 20
46.771124999999998
 11
-125.112106999999990
 21
46.771124999999998
  0
LINE
  8
0
  6
CONTINUOUS
 62
256
 10
-28.522472000000000
 20
42.771124999999998
 11
-28.522472000000000
 21
46.771124999999998
  0
LINE
  8
0
  6
CONTINUOUS
 62
256
 10
-103.522471999999990
 20
42.771124999999998
 11
-103.522471999999990
 21
46.771124999999998
  0
LINE
  8
0
  6
CONTINUOUS
 62
256
 10
-28.522472000000000
 20
133.771125000000010
 11
-28.522472000000000
 21
137.771125000000010
  0
LINE
  8
0
  6
CONTINUOUS
 62
256
 10
-28.522472000000000
 20
137.771125000000010
 11
-103.522471999999990
 21
137.771125000000010
  0
LINE
  8
0
  6
CONTINUOUS
 62
256
 10
-103.522471999999990
 20
133.771125000000010
 11
-103.522471999999990
 21
137.771125000000010
  0
LINE
  8
0
  6
CONTINUOUS
 62
256
 10
-12.830467000000001
 20
57.771124999999998
 11
-13.022472000000000
 21
46.771124999999998
  0
LINE
  8
0
  6
CONTINUOUS
 62
256
 10
-13.022472000000000
 20
46.771124999999998
 11
-153.813011999999990
 21
46.771124999999998
  0
LINE
  8
0
  6
CONTINUOUS
 62
256
 10
-154.005017000000010
 20
57.771124999999998
 11
-153.813011999999990
 21
46.771124999999998
  0
LINE
  8
0
  6
CONTINUOUS
 62
256
 10
-154.852982999999990
 20
131.771125000000010
 11
-161.022471999999990
 21
131.771125000000010
  0
ARC
  8
0
  6
CONTINUOUS
 62
256
 10
-161.022471999999990
 20
134.771125000000010
 40
3.000000000000000
 50
180.000000000000000
 51
270.000000000000000
  0
ARC
  8
0
  6
CONTINUOUS
 62
256
 10
-167.022471999999990
 20
39.509756000000003
 40
2.999999999999997
 50
268.999999999999830
 51
0.000000000000000
  0
LINE
  8
0
  6
CONTINUOUS
 62
256
 10
-156.014050000000000
 20
59.771124999999998
 11
-161.022471999999990
 21
59.771124999999998
  0
ARC
  8
0
  6
CONTINUOUS
 62
256
 10
-161.022471999999990
 20
56.771124999999998
 40
3.000000000000000
 50
90.000000000000000
 51
180.000000000000000
  0
ARC
  8
0
  6
CONTINUOUS
 62
256
 10
-167.022471999999990
 20
141.032494000000010
 40
3.000000000000000
 50
0.000000000000000
 51
91.000000000000142
  0
LINE
  8
0
  6
CONTINUOUS
 62
256
 10
-164.022471999999990
 20
141.032494000000010
 11
-164.022471999999990
 21
123.771125000000000
  0
LINE
  8
0
  6
CONTINUOUS
 62
256
 10
-164.022471999999990
 20
39.509756000000003
 11
-164.022471999999990
 21
45.771124999999998
  0
LINE
  8
0
  6
CONTINUOUS
 62
256
 10
-182.022471999999990
 20
90.271124999999998
 11
-182.022471999999990
 21
143.771125000000010
  0
LINE
  8
0
  6
CONTINUOUS
 62
256
 10
-182.022471999999990
 20
90.271124999999998
 11
-182.022471999999990
 21
36.771124999999998
  0
ARC
  8
0
  6
CONTINUOUS
 62
256
 10
-167.022471999999990
 20
121.163291000000000
 40
3.000000000000000
 50
0.000000000000000
 51
90.000000000000000
  0
ARC
  8
0
  6
CONTINUOUS
 62
256
 10
-167.022471999999990
 20
59.378959000000002
 40
3.000000000000000
 50
270.000000000000000
 51
0.000000000000000
  0
ARC
  8
0
  6
CONTINUOUS
 62
256
 10
-167.022471999999990
 20
141.032494000000010
 40
3.000000000000000
 50
0.000000000000000
 51
91.000000000000142
  0
ARC
  8
0
  6
CONTINUOUS
 62
256
 10
-167.022471999999990
 20
39.509756000000003
 40
2.999999999999997
 50
268.999999999999830
 51
0.000000000000000
  0
LINE
  8
0
  6
CONTINUOUS
 62
256
 10
-164.022471999999990
 20
39.509756000000003
 11
-164.022471999999990
 21
90.271124999999998
  0
LINE
  8
0
  6
CONTINUOUS
 62
256
 10
-164.022471999999990
 20
141.032494000000010
 11
-164.022471999999990
 21
90.271124999999998
  0
ARC
  8
0
  6
CONTINUOUS
 62
256
 10
-175.022471999999990
 20
50.841473000000001
 40
2.000000000000000
 50
180.000000000000000
 51
270.000000000000000
  0
ARC
  8
0
  6
CONTINUOUS
 62
256
 10
-174.022471999999990
 20
42.771124999999998
 40
3.000000000000000
 50
90.000000000000000
 51
180.000000000000000
  0
ARC
  8
0
  6
CONTINUOUS
 62
256
 10
-169.022471999999990
 20
50.771124999999998
 40
5.000000000000000
 50
270.000000000000000
 51
0.000000000000000
  0
ARC
  8
0
  6
CONTINUOUS
 62
256
 10
-169.022471999999990
 20
53.841473000000001
 40
5.000000000000000
 50
270.000000000000000
 51
0.000000000000000
  0
ARC
  8
0
  6
CONTINUOUS
 62
256
 10
-174.022471999999990
 20
59.378959000000002
 40
3.000000000000000
 50
180.000000000000000
 51
270.000000000000000
  0
ARC
  8
0
  6
CONTINUOUS
 62
256
 10
-169.022471999999990
 20
129.771125000000010
 40
5.000000000000000
 50
0.000000000000000
 51
90.000000000000000
  0
ARC
  8
0
  6
CONTINUOUS
 62
256
 10
-169.022471999999990
 20
126.700776000000000
 40
5.000000000000000
 50
0.000000000000000
 51
90.000000000000000
  0
ARC
  8
0
  6
CONTINUOUS
 62
256
 10
-175.022471999999990
 20
129.700775999999990
 40
2.000000000000000
 50
90.000000000000000
 51
180.000000000000000
  0
ARC
  8
0
  6
CONTINUOUS
 62
256
 10
-174.022471999999990
 20
137.771125000000010
 40
3.000000000000000
 50
180.000000000000000
 51
270.000000000000000
  0
ARC
  8
0
  6
CONTINUOUS
 62
256
 10
-174.022471999999990
 20
121.163291000000000
 40
3.000000000000000
 50
90.000000000000000
 51
180.000000000000000
  0
ARC
  8
0
  6
CONTINUOUS
 62
256
 10
-180.022471999999990
 20
39.736671999999999
 40
2.999999999999997
 50
268.999999999999830
 51
0.000000000000000
  0
ARC
  8
0
  6
CONTINUOUS
 62
256
 10
-180.022471999999990
 20
140.805578000000000
 40
3.000000000000000
 50
0.000000000000000
 51
91.000000000000142
  0
LINE
  8
0
  6
CONTINUOUS
 62
256
 10
-177.022471999999990
 20
42.771124999999998
 11
-177.022471999999990
 21
39.736671999999999
  0
LINE
  8
0
  6
CONTINUOUS
 62
256
 10
-175.022471999999990
 20
48.841473000000001
 11
-169.022471999999990
 21
48.841473000000001
  0
LINE
  8
0
  6
CONTINUOUS
 62
256
 10
-174.022471999999990
 20
45.771124999999998
 11
-169.022471999999990
 21
45.771124999999998
  0
LINE
  8
0
  6
CONTINUOUS
 62
256
 10
-177.022471999999990
 20
90.271124999999998
 11
-177.022471999999990
 21
50.841473000000001
  0
LINE
  8
0
  6
CONTINUOUS
 62
256
 10
-167.022471999999990
 20
56.378959000000002
 11
-174.022471999999990
 21
56.378959000000002
  0
LINE
  8
0
  6
CONTINUOUS
 62
256
 10
-164.022471999999990
 20
53.378959000000002
 11
-164.022471999999990
 21
50.771124999999998
  0
LINE
  8
0
  6
CONTINUOUS
 62
256
 10
-177.022471999999990
 20
70.271124999999998
 11
-182.022471999999990
 21
70.271124999999998
  0
LINE
  8
0
  6
CONTINUOUS
 62
256
 10
-177.022471999999990
 20
90.271124999999998
 11
-177.022471999999990
 21
129.700775999999990
  0
LINE
  8
0
  6
CONTINUOUS
 62
256
 10
-177.022471999999990
 20
110.271125000000000
 11
-182.022471999999990
 21
110.271125000000000
  0
LINE
  8
0
  6
CONTINUOUS
 62
256
 10
-167.022471999999990
 20
124.163291000000000
 11
-174.022471999999990
 21
124.163291000000000
  0
LINE
  8
0
  6
CONTINUOUS
 62
256
 10
-164.022471999999990
 20
127.163291000000000
 11
-164.022471999999990
 21
129.771125000000010
  0
LINE
  8
0
  6
CONTINUOUS
 62
256
 10
-175.022471999999990
 20
131.700775999999990
 11
-169.022471999999990
 21
131.700775999999990
  0
LINE
  8
0
  6
CONTINUOUS
 62
256
 10
-174.022471999999990
 20
134.771125000000010
 11
-169.022471999999990
 21
134.771125000000010
  0
LINE
  8
0
  6
CONTINUOUS
 62
256
 10
-177.022471999999990
 20
137.771125000000010
 11
-177.022471999999990
 21
140.805578000000000
  0
LINE
  8
0
  6
CONTINUOUS
 62
256
 10
-48.022472000000000
 20
141.771125000000010
 11
-66.022471999999993
 21
141.771125000000010
  0
LINE
  8
0
  6
CONTINUOUS
 62
256
 10
-47.022472000000000
 20
140.771125000000010
 11
-47.022472000000000
 21
137.771125000000010
  0
ARC
  8
0
  6
CONTINUOUS
 62
256
 10
-48.022472000000000
 20
140.771125000000010
 40
1.000000000000000
 50
0.000000000000000
 51
90.000000000000000
  0
LINE
  8
0
  6
CONTINUOUS
 62
256
 10
-85.022471999999993
 20
140.771125000000010
 11
-85.022471999999993
 21
137.771125000000010
  0
ARC
  8
0
  6
CONTINUOUS
 62
256
 10
-84.022471999999993
 20
140.771125000000010
 40
1.000000000000000
 50
90.000000000000000
 51
180.000000000000000
  0
LINE
  8
0
  6
CONTINUOUS
 62
256
 10
-84.022471999999993
 20
141.771125000000010
 11
-66.022471999999993
 21
141.771125000000010
  0
ARC
  8
0
  6
CONTINUOUS
 62
256
 10
-48.022472000000000
 20
39.771124999999998
 40
1.000000000000000
 50
270.000000000000000
 51
0.000000000000000
  0
LINE
  8
0
  6
CONTINUOUS
 62
256
 10
-47.022472000000000
 20
39.771124999999998
 11
-47.022472000000000
 21
42.771124999999998
  0
LINE
  8
0
  6
CONTINUOUS
 62
256
 10
-48.022472000000000
 20
38.771124999999998
 11
-66.022471999999993
 21
38.771124999999998
  0
LINE
  8
0
  6
CONTINUOUS
 62
256
 10
-85.022471999999993
 20
39.771124999999998
 11
-85.022471999999993
 21
42.771124999999998
  0
ARC
  8
0
  6
CONTINUOUS
 62
256
 10
-84.022471999999993
 20
39.771124999999998
 40
1.000000000000000
 50
180.000000000000000
 51
270.000000000000000
  0
LINE
  8
0
  6
CONTINUOUS
 62
256
 10
-84.022471999999993
 20
38.771124999999998
 11
-66.022471999999993
 21
38.771124999999998
  0
LINE
  8
0
  6
CONTINUOUS
 62
256
 10
-281.022471999999990
 20
61.514729000000003
 11
-182.022471999999990
 21
61.514729000000003
  0
LINE
  8
0
  6
CONTINUOUS
 62
256
 10
-281.022471999999990
 20
62.993752000000001
 11
-182.022471999999990
 21
62.993752000000001
  0
LINE
  8
0
  6
CONTINUOUS
 62
256
 10
-281.022471999999990
 20
66.086483000000001
 11
-182.022471999999990
 21
66.086483000000001
  0
LINE
  8
0
  6
CONTINUOUS
 62
256
 10
-281.022471999999990
 20
67.432884999999999
 11
-182.022471999999990
 21
67.432884999999999
  0
LINE
  8
0
  6
CONTINUOUS
 62
256
 10
-281.022471999999990
 20
70.271124999999998
 11
-182.022471999999990
 21
70.271124999999998
  0
LINE
  8
0
  6
CONTINUOUS
 62
256
 10
-281.022471999999990
 20
110.271125000000000
 11
-182.022471999999990
 21
110.271125000000000
  0
LINE
  8
0
  6
CONTINUOUS
 62
256
 10
-281.022471999999990
 20
113.109364000000000
 11
-182.022471999999990
 21
113.109364000000000
  0
LINE
  8
0
  6
CONTINUOUS
 62
256
 10
-281.022471999999990
 20
114.455766000000000
 11
-182.022471999999990
 21
114.455766000000000
  0
LINE
  8
0
  6
CONTINUOUS
 62
256
 10
-281.022471999999990
 20
117.548497000000000
 11
-182.022471999999990
 21
117.548497000000000
  0
LINE
  8
0
  6
CONTINUOUS
 62
256
 10
-281.022471999999990
 20
119.027520000000000
 11
-182.022471999999990
 21
119.027520000000000
  0
LINE
  8
0
  6
CONTINUOUS
 62
256
 10
-287.522471999999990
 20
90.271124999999998
 11
-287.522471999999990
 21
70.771124999999998
  0
ARC
  8
0
  6
CONTINUOUS
 62
256
 10
-287.022471999999990
 20
70.771124999999998
 40
0.500000000000000
 50
180.000000000000000
 51
224.884861999997950
  0
ARC
  8
0
  6
CONTINUOUS
 62
256
 10
-287.730999000000000
 20
70.065439999999995
 40
0.500000000000022
 50
1.652906999999268
 51
44.884861999997973
  0
LINE
  8
0
  6
CONTINUOUS
 62
256
 10
-281.522471999999990
 20
45.173144999999998
 11
-285.522471999999990
 21
45.173144999999998
  0
ARC
  8
0
  6
CONTINUOUS
 62
256
 10
-285.522471999999990
 20
45.673144999999998
 40
0.500000000000000
 50
180.000000000000000
 51
270.000000000000000
  0
LINE
  8
0
  6
CONTINUOUS
 62
256
 10
-286.022471999999990
 20
45.673144999999998
 11
-286.022471999999990
 21
61.072482999999998
  0
ARC
  8
0
  6
CONTINUOUS
 62
256
 10
-285.981674000000000
 20
62.780329000000002
 40
1.000000000000004
 50
182.253953000000080
 51
238.640964000000680
  0
ARC
  8
0
  6
CONTINUOUS
 62
256
 10
-296.022471999999990
 20
44.143583999999997
 40
10.000000000000000
 50
0.000000000000000
 51
3.725037000000020
  0
ARC
  8
0
  6
CONTINUOUS
 62
256
 10
-287.022471999999990
 20
61.072482999999998
 40
1.000000000000000
 50
0.000000000000000
 51
58.640964000000714
  0
LINE
  8
0
  6
CONTINUOUS
 62
256
 10
-281.022471999999990
 20
37.771124999999998
 11
-283.693248999999980
 21
37.771124999999998
  0
ARC
  8
0
  6
CONTINUOUS
 62
256
 10
-283.693248999999980
 20
39.771124999999998
 40
1.999999999999982
 50
184.148950000000070
 51
270.000000000000000
  0
LINE
  8
0
  6
CONTINUOUS
 62
256
 10
-281.522471999999990
 20
45.173144999999998
 11
-281.522471999999990
 21
54.022725000000001
  0
LINE
  8
0
  6
CONTINUOUS
 62
256
 10
-281.022471999999990
 20
54.022725000000001
 11
-281.522471999999990
 21
54.022725000000001
  0
LINE
  8
0
  6
CONTINUOUS
 62
256
 10
-281.522471999999990
 20
46.931725000000000
 11
-281.022471999999990
 21
46.931725000000000
  0
LINE
  8
0
  6
DASHDOT
 62
256
 10
-277.965071000000020
 20
50.673144999999998
 11
-292.596235999999980
 21
50.673144999999998
  0
LINE
  8
0
  6
CONTINUOUS
 62
256
 10
-182.022471999999990
 20
37.771124999999998
 11
-281.022471999999990
 21
37.771124999999998
  0
ARC
  8
0
  6
CONTINUOUS
 62
256
 10
412.477528000000010
 20
90.271124999999998
 40
700.000000000000000
 50
183.620061999999960
 51
184.148949999999990
  0
ARC
  8
0
  6
CONTINUOUS
 62
256
 10
412.477528000000010
 20
90.271124999999998
 40
700.000000000000000
 50
181.652906999999970
 51
182.865818999999960
  0
ARC
  8
0
  6
CONTINUOUS
 62
256
 10
-283.835441000000000
 20
41.771124999999998
 40
2.000000000000023
 50
183.984363999999860
 51
270.000000000000000
  0
ARC
  8
0
  6
CONTINUOUS
 62
256
 10
-283.800434000000000
 20
41.271124999999998
 40
1.999999999999989
 50
184.025507999999920
 51
270.000000000000000
  0
LINE
  8
0
  6
CONTINUOUS
 62
256
 10
-281.022471999999990
 20
39.771124999999998
 11
-283.835441000000000
 21
39.771124999999998
  0
LINE
  8
0
  6
CONTINUOUS
 62
256
 10
-281.022471999999990
 20
39.271124999999998
 11
-283.800434000000000
 21
39.271124999999998
  0
LINE
  8
0
  6
CONTINUOUS
 62
256
 10
-281.022471999999990
 20
39.771124999999998
 11
-182.022471999999990
 21
39.771124999999998
  0
LINE
  8
0
  6
CONTINUOUS
 62
256
 10
-281.022471999999990
 20
39.271124999999998
 11
-182.022471999999990
 21
39.271124999999998
  0
LINE
  8
0
  6
CONTINUOUS
 62
256
 10
-281.022471999999990
 20
45.766469000000001
 11
-182.022471999999990
 21
45.766469000000001
  0
LINE
  8
0
  6
CONTINUOUS
 62
256
 10
-281.022471999999990
 20
44.138041999999999
 11
-182.022471999999990
 21
44.138041999999999
  0
LINE
  8
0
  6
CONTINUOUS
 62
256
 10
-281.022471999999990
 20
49.229210999999999
 11
-182.022471999999990
 21
49.229210999999999
  0
LINE
  8
0
  6
CONTINUOUS
 62
256
 10
-281.022471999999990
 20
50.230688999999998
 11
-182.022471999999990
 21
50.230688999999998
  0
LINE
  8
0
  6
CONTINUOUS
 62
256
 10
-281.022471999999990
 20
56.967523999999997
 11
-182.022471999999990
 21
56.967523999999997
  0
LINE
  8
0
  6
CONTINUOUS
 62
256
 10
-281.022471999999990
 20
58.556733999999999
 11
-182.022471999999990
 21
58.556733999999999
  0
LINE
  8
0
  6
CONTINUOUS
 62
256
 10
-286.022471999999990
 20
56.447375999999998
 11
-281.022471999999990
 21
56.447375999999998
  0
LINE
  8
0
  6
CONTINUOUS
 62
256
 10
-286.022471999999990
 20
59.055639999999997
 11
-281.022471999999990
 21
59.055639999999997
  0
LINE
  8
0
  6
CONTINUOUS
 62
256
 10
-286.022471999999990
 20
60.956955999999998
 11
-281.022471999999990
 21
60.956955999999998
  0
LINE
  8
0
  6
CONTINUOUS
 62
256
 10
-287.008074000000020
 20
63.440309999999997
 11
-281.022471999999990
 21
63.440309999999997
  0
LINE
  8
0
  6
CONTINUOUS
 62
256
 10
-287.087816999999970
 20
65.606808999999998
 11
-281.022471999999990
 21
65.606808999999998
  0
LINE
  8
0
  6
CONTINUOUS
 62
256
 10
-287.162563999999970
 20
67.826931999999999
 11
-281.022471999999990
 21
67.826931999999999
  0
LINE
  8
0
  6
CONTINUOUS
 62
256
 10
-287.275263999999990
 20
70.271124999999998
 11
-281.022471999999990
 21
70.271124999999998
  0
LINE
  8
0
  6
CONTINUOUS
 62
256
 10
-281.022471999999990
 20
37.771124999999998
 11
-281.022471999999990
 21
90.271124999999998
  0
LINE
  8
0
  6
CONTINUOUS
 62
256
 10
-287.275263999999990
 20
110.271125000000000
 11
-281.022471999999990
 21
110.271125000000000
  0
LINE
  8
0
  6
CONTINUOUS
 62
256
 10
-287.162563999999970
 20
112.715317000000000
 11
-281.022471999999990
 21
112.715317000000000
  0
LINE
  8
0
  6
CONTINUOUS
 62
256
 10
-287.087816999999970
 20
114.935440000000000
 11
-281.022471999999990
 21
114.935440000000000
  0
LINE
  8
0
  6
CONTINUOUS
 62
256
 10
-287.008074000000020
 20
117.101939000000000
 11
-281.022471999999990
 21
117.101939000000000
  0
LINE
  8
0
  6
CONTINUOUS
 62
256
 10
-286.022471999999990
 20
119.585292999999990
 11
-281.022471999999990
 21
119.585292999999990
  0
LINE
  8
0
  6
CONTINUOUS
 62
256
 10
-286.022471999999990
 20
121.486610000000000
 11
-281.022471999999990
 21
121.486610000000000
  0
LINE
  8
0
  6
CONTINUOUS
 62
256
 10
-286.022471999999990
 20
124.094873000000010
 11
-281.022471999999990
 21
124.094873000000010
  0
LINE
  8
0
  6
CONTINUOUS
 62
256
 10
-281.022471999999990
 20
130.311559999999990
 11
-182.022471999999990
 21
130.311559999999990
  0
LINE
  8
0
  6
CONTINUOUS
 62
256
 10
-281.022471999999990
 20
134.775780000000000
 11
-182.022471999999990
 21
134.775780000000000
  0
LINE
  8
0
  6
CONTINUOUS
 62
256
 10
-281.022471999999990
 20
121.985516000000000
 11
-182.022471999999990
 21
121.985516000000000
  0
LINE
  8
0
  6
CONTINUOUS
 62
256
 10
-281.022471999999990
 20
123.574726000000000
 11
-182.022471999999990
 21
123.574726000000000
  0
LINE
  8
0
  6
CONTINUOUS
 62
256
 10
-281.022471999999990
 20
131.313039000000000
 11
-182.022471999999990
 21
131.313039000000000
  0
LINE
  8
0
  6
CONTINUOUS
 62
256
 10
-281.022471999999990
 20
136.404207000000010
 11
-182.022471999999990
 21
136.404207000000010
  0
LINE
  8
0
  6
CONTINUOUS
 62
256
 10
-281.022471999999990
 20
141.271125000000010
 11
-182.022471999999990
 21
141.271125000000010
  0
LINE
  8
0
  6
CONTINUOUS
 62
256
 10
-281.022471999999990
 20
140.771125000000010
 11
-182.022471999999990
 21
140.771125000000010
  0
ARC
  8
0
  6
CONTINUOUS
 62
256
 10
-283.800434000000000
 20
139.271125000000010
 40
2.000000000000000
 50
90.000000000000000
 51
175.974492000000280
  0
ARC
  8
0
  6
CONTINUOUS
 62
256
 10
-283.835441000000000
 20
138.771125000000010
 40
2.000000000000000
 50
90.000000000000000
 51
176.015636000000140
  0
LINE
  8
0
  6
CONTINUOUS
 62
256
 10
-281.022471999999990
 20
141.271125000000010
 11
-283.800434000000000
 21
141.271125000000010
  0
LINE
  8
0
  6
CONTINUOUS
 62
256
 10
-281.022471999999990
 20
140.771125000000010
 11
-283.835441000000000
 21
140.771125000000010
  0
LINE
  8
0
  6
CONTINUOUS
 62
256
 10
-287.522471999999990
 20
90.271124999999998
 11
-287.522471999999990
 21
109.771125000000000
  0
ARC
  8
0
  6
CONTINUOUS
 62
256
 10
-287.022471999999990
 20
109.771125000000000
 40
0.500000000000015
 50
135.115138000002050
 51
180.000000000000000
  0
ARC
  8
0
  6
CONTINUOUS
 62
256
 10
-287.730999000000000
 20
110.476809000000000
 40
0.500000000000015
 50
315.115138000002050
 51
358.347093000000770
  0
LINE
  8
0
  6
CONTINUOUS
 62
256
 10
-281.522471999999990
 20
135.369104999999990
 11
-285.522471999999990
 21
135.369104999999990
  0
ARC
  8
0
  6
CONTINUOUS
 62
256
 10
-285.522471999999990
 20
134.869104999999990
 40
0.500000000000000
 50
90.000000000000000
 51
180.000000000000000
  0
LINE
  8
0
  6
CONTINUOUS
 62
256
 10
-286.022471999999990
 20
134.869104999999990
 11
-286.022471999999990
 21
119.469766000000010
  0
ARC
  8
0
  6
CONTINUOUS
 62
256
 10
-285.981674000000000
 20
117.761920000000000
 40
0.999999999999990
 50
121.359035999999310
 51
177.746046999999920
  0
ARC
  8
0
  6
CONTINUOUS
 62
256
 10
-296.022471999999990
 20
136.398664999999990
 40
9.999999999999993
 50
356.274962999999960
 51
0.000000000000000
  0
ARC
  8
0
  6
CONTINUOUS
 62
256
 10
-287.022471999999990
 20
119.469766000000010
 40
0.999999999999990
 50
301.359035999999260
 51
0.000000000000000
  0
LINE
  8
0
  6
CONTINUOUS
 62
256
 10
-281.022471999999990
 20
142.771125000000010
 11
-283.693248999999980
 21
142.771125000000010
  0
ARC
  8
0
  6
CONTINUOUS
 62
256
 10
-283.693248999999980
 20
140.771125000000010
 40
2.000000000000000
 50
90.000000000000000
 51
175.851050000000300
  0
LINE
  8
0
  6
CONTINUOUS
 62
256
 10
-281.522471999999990
 20
135.369104999999990
 11
-281.522471999999990
 21
126.519524000000000
  0
LINE
  8
0
  6
CONTINUOUS
 62
256
 10
-281.022471999999990
 20
126.519524000000000
 11
-281.522471999999990
 21
126.519524000000000
  0
LINE
  8
0
  6
CONTINUOUS
 62
256
 10
-281.522471999999990
 20
133.610524000000000
 11
-281.022471999999990
 21
133.610524000000000
  0
LINE
  8
0
  6
DASHDOT
 62
256
 10
-277.965071000000020
 20
129.869104999999990
 11
-292.596235999999980
 21
129.869104999999990
  0
LINE
  8
0
  6
CONTINUOUS
 62
256
 10
-281.022471999999990
 20
142.771125000000010
 11
-281.022471999999990
 21
90.271124999999998
  0
LINE
  8
0
  6
CONTINUOUS
 62
256
 10
-182.022471999999990
 20
142.771125000000010
 11
-281.022471999999990
 21
142.771125000000010
  0
ARC
  8
0
  6
CONTINUOUS
 62
256
 10
412.477528000000010
 20
90.271124999999998
 40
700.000000000000000
 50
175.851049999999990
 51
176.379938000000010
  0
ARC
  8
0
  6
CONTINUOUS
 62
256
 10
412.477528000000010
 20
90.271124999999998
 40
700.000000000000000
 50
177.134181000000010
 51
178.347093000000000
  0
INSERT
  8
0
  2
ZU_SYM_1
 10
-286.022470000000000
 20
50.673144999999998
 41
-1.000000000000000
 50
180.000000000000000
  0
INSERT
  8
0
  2
ZU_SYM_2
 10
-286.022470000000000
 20
129.869104999999990
  0
LINE
  8
0
  6
DASHDOT
 62
256
 10
-299.561795000000020
 20
90.271124999999998
 11
-5.961774000000000
 21
90.271124999999998
  0
LINE
  8
0
  6
DASHDOT
 62
256
 10
-66.022471999999993
 20
35.251469000000000
 11
-66.022471999999993
 21
149.689127000000010
  0
TEXT
  8
0
  6
CONTINUOUS
 62
256
 10
468.006042480468750
 20
-213.473388671875000
 40
3.299999952316284
  1
1/1
 50
0.000002504478167
 41
0.850909097352304
  7
STANDARD1
  0
TEXT
  8
0
  6
CONTINUOUS
 62
256
 10
465.588043212890620
 20
-213.473388671875000
 40
3.299999952316284
  1
 
 50
0.000002504478167
 41
1.733333298293026
  7
STANDARD1
  0
TEXT
  8
0
  6
CONTINUOUS
 62
256
 10
452.537414550781250
 20
-213.473388671875000
 40
3.299999952316284
  1
SCALE
 50
0.000002504478167
 41
0.821052645401140
  7
STANDARD1
  0
TEXT
  8
0
  6
CONTINUOUS
 62
256
 10
449.286041259765620
 20
-213.473388671875000
 40
3.299999952316284
  1
 
 50
0.000002504478167
 41
1.733333298293026
  7
STANDARD1
  0
TEXT
  8
0
  6
CONTINUOUS
 62
256
 10
461.566223144531250
 20
-208.173385620117190
 40
3.299999952316284
  1
1/240
 50
0.000002504478167
 41
0.821052645401140
  7
STANDARD1
  0
TEXT
  8
0
  6
CONTINUOUS
 62
256
 10
457.784210205078120
 20
-208.173385620117190
 40
3.299999952316284
  1
ü`
 50
0.000002504478167
 41
1.176000019651471
  7
STANDARD1
  0
TEXT
  8
0
  6
CONTINUOUS
 62
256
 10
449.286041259765620
 20
-208.173385620117190
 40
3.299999952316284
  1
1/5
 50
0.000002504478167
 41
0.850909097352304
  7
STANDARD1
  0
TEXT
  8
0
  6
CONTINUOUS
 62
256
 10
449.286041259765620
 20
-202.873382568359370
 40
3.299999952316284
  1
GM-SHYF-RH
 50
0.000002504478167
 41
0.799999980493025
  7
STANDARD1
  0
TEXT
  8
0
  6
CONTINUOUS
 62
256
 10
455.111419677734370
 20
-197.573394775390620
 40
3.299999952316284
  1
0.1kW
 50
0.000002504478167
 41
0.821052645401140
  7
STANDARD1
  0
TEXT
  8
0
  6
CONTINUOUS
 62
256
 10
449.286041259765620
 20
-197.573394775390620
 40
3.299999952316284
  1
  
 50
0.000002504478167
 41
1.485714400175845
  7
STANDARD1
  0
TEXT
  8
0
  6
CONTINUOUS
 62
256
 10
455.105529785156250
 20
-192.273391723632810
 40
3.299999952316284
  1
SHY011
 50
0.000002504478167
 41
0.813913121261144
  7
STANDARD1
  0
TEXT
  8
0
  6
CONTINUOUS
 62
256
 10
449.286041259765620
 20
-192.273391723632810
 40
3.299999952316284
  1
  
 50
0.000002504478167
 41
1.485714400175845
  7
STANDARD1
  0
INSERT
  8
0
  2
ZU_SYM_3
 10
-448.572500999999990
 20
-62.682901000000001
 50
90.000000000000000
  0
INSERT
  8
0
  2
ZU_SYM_4
 10
-369.376540999999970
 20
-62.682901000000001
 41
-1.000000000000000
 50
270.000000000000000
  0
LINE
  8
0
  6
CONTINUOUS
 62
256
 10
-452.474520999999980
 20
-51.789608999999999
 11
-456.474520999999980
 21
-51.789608999999999
  0
LINE
  8
0
  6
CONTINUOUS
 62
256
 10
-456.474520999999980
 20
-51.789608999999999
 11
-456.474520999999980
 21
-59.780881000000001
  0
LINE
  8
0
  6
CONTINUOUS
 62
256
 10
-452.474520999999980
 20
-55.571508000000001
 11
-452.474520999999980
 21
-37.450369999999999
  0
LINE
  8
0
  6
CONTINUOUS
 62
256
 10
-365.474520999999980
 20
-36.472887000000000
 11
-365.474520999999980
 21
-55.571508000000001
  0
LINE
  8
0
  6
CONTINUOUS
 62
256
 10
-376.474520999999980
 20
-36.280881000000001
 11
-365.474520999999980
 21
-36.472887000000000
  0
LINE
  8
0
  6
CONTINUOUS
 62
256
 10
-376.474520999999980
 20
-50.285983999999999
 11
-376.474520999999980
 21
-39.772154000000000
  0
LINE
  8
0
  6
CONTINUOUS
 62
256
 10
-376.474520999999980
 20
-36.272154000000000
 11
-376.474520999999980
 21
-40.780881000000001
  0
LINE
  8
0
  6
CONTINUOUS
 62
256
 10
-361.474520999999980
 20
-51.780881000000001
 11
-365.474520999999980
 21
-51.780881000000001
  0
LINE
  8
0
  6
CONTINUOUS
 62
256
 10
-361.474520999999980
 20
-51.780881000000001
 11
-361.474520999999980
 21
-59.780881000000001
  0
ARC
  8
0
  6
CONTINUOUS
 62
256
 10
-756.474520999999980
 20
-82.280880999999994
 40
400.000000000000000
 50
0.071529999999999
 51
1.431984000000000
  0
ARC
  8
0
  6
CONTINUOUS
 62
256
 10
-61.474521000000003
 20
-82.280880999999994
 40
400.000000000000000
 50
178.568016000000000
 51
179.947000000000000
  0
LINE
  8
0
  6
DASHDOT
 62
256
 10
-408.974520999999980
 20
-30.802672000000001
 11
-408.974520999999980
 21
-192.852398999999990
  0
LINE
  8
0
  6
CONTINUOUS
 62
256
 10
-431.418713000000030
 20
-53.319567999999997
 11
-431.475890999999990
 21
-52.228544999999997
  0
ARC
  8
0
  6
CONTINUOUS
 62
256
 10
-430.420083999999970
 20
-53.267232000000000
 40
0.999999999999997
 50
182.999999999999890
 51
293.631429999999170
  0
ARC
  8
0
  6
CONTINUOUS
 62
256
 10
-432.474520999999980
 20
-52.280881000000001
 40
0.999999999999997
 50
2.999999999999903
 51
177.000000000000110
  0
LINE
  8
0
  6
CONTINUOUS
 62
256
 10
-433.638837000000020
 20
-55.390025000000001
 11
-433.473149999999980
 21
-52.228544999999997
  0
LINE
  8
0
  6
CONTINUOUS
 62
256
 10
-435.805336000000010
 20
-55.482942999999999
 11
-435.975890999999990
 21
-52.228544999999997
  0
ARC
  8
0
  6
CONTINUOUS
 62
256
 10
-436.974520999999980
 20
-52.280881000000001
 40
0.999999999999997
 50
2.999999999999903
 51
177.000000000000110
  0
ARC
  8
0
  6
CONTINUOUS
 62
256
 10
-441.474520999999980
 20
-52.780881000000001
 40
0.999999999999997
 50
2.999999999999903
 51
177.000000000000110
  0
ARC
  8
0
  6
CONTINUOUS
 62
256
 10
-408.974520999999980
 20
-102.280880999999990
 40
52.500000000000007
 50
113.111602000000020
 51
113.663704999999980
  0
ARC
  8
0
  6
CONTINUOUS
 62
256
 10
-429.974520999999980
 20
-53.074682000000003
 40
0.999999999999995
 50
293.111601999998870
 51
0.000000000000000
  0
ARC
  8
0
  6
CONTINUOUS
 62
256
 10
-408.974520999999980
 20
-102.280880999999990
 40
52.500000000000007
 50
113.111602000000020
 51
113.695081000000030
  0
LINE
  8
0
  6
CONTINUOUS
 62
256
 10
-386.530328000000000
 20
-53.319567999999997
 11
-386.473149999999980
 21
-52.228544999999997
  0
ARC
  8
0
  6
CONTINUOUS
 62
256
 10
-387.528957999999990
 20
-53.267232000000000
 40
0.999999999999996
 50
246.368570000000860
 51
357.000000000000060
  0
ARC
  8
0
  6
CONTINUOUS
 62
256
 10
-385.474520999999980
 20
-52.280881000000001
 40
0.999999999999997
 50
2.999999999999903
 51
177.000000000000110
  0
LINE
  8
0
  6
CONTINUOUS
 62
256
 10
-384.310205000000000
 20
-55.390025000000001
 11
-384.475890999999990
 21
-52.228544999999997
  0
LINE
  8
0
  6
CONTINUOUS
 62
256
 10
-382.143706000000010
 20
-55.482942999999999
 11
-381.973149999999980
 21
-52.228544999999997
  0
ARC
  8
0
  6
CONTINUOUS
 62
256
 10
-380.974520999999980
 20
-52.280881000000001
 40
0.999999999999997
 50
2.999999999999903
 51
177.000000000000110
  0
ARC
  8
0
  6
CONTINUOUS
 62
256
 10
-376.474520999999980
 20
-52.780881000000001
 40
0.999999999999997
 50
2.999999999999903
 51
177.000000000000110
  0
ARC
  8
0
  6
CONTINUOUS
 62
256
 10
-408.974520999999980
 20
-102.280880999999990
 40
52.499999999999993
 50
66.336295000000021
 51
66.888397999999981
  0
ARC
  8
0
  6
CONTINUOUS
 62
256
 10
-387.974520999999980
 20
-53.074682000000003
 40
1.000000000000000
 50
180.000000000000000
 51
246.888398000001160
  0
ARC
  8
0
  6
CONTINUOUS
 62
256
 10
-408.974520999999980
 20
-102.280880999999990
 40
52.500000000000007
 50
66.304918999999984
 51
66.888397999999981
  0
ARC
  8
0
  6
CONTINUOUS
 62
256
 10
-443.796899000000000
 20
-58.879843999999999
 40
1.000000000000003
 50
227.999999999999800
 51
357.000000000000060
  0
LINE
  8
0
  6
CONTINUOUS
 62
256
 10
-442.798269000000000
 20
-58.932180000000002
 11
-442.473149999999980
 21
-52.728544999999997
  0
ARC
  8
0
  6
CONTINUOUS
 62
256
 10
-408.974520999999980
 20
-102.280880999999990
 40
61.500000000000007
 50
131.401106000000000
 51
138.598893999999970
  0
ARC
  8
0
  6
CONTINUOUS
 62
256
 10
-448.984764999999980
 20
-56.899934000000002
 40
1.000000000000003
 50
47.999999999999801
 51
131.401105999999090
  0
ARC
  8
0
  6
CONTINUOUS
 62
256
 10
-452.375557000000010
 20
-67.458502999999993
 40
0.999999999999996
 50
272.999999999999090
 51
42.000000000001023
  0
LINE
  8
0
  6
CONTINUOUS
 62
256
 10
-452.323220999999990
 20
-68.457132999999999
 11
-458.526857000000010
 21
-68.782252000000000
  0
ARC
  8
0
  6
CONTINUOUS
 62
256
 10
-454.355467999999970
 20
-62.270637000000001
 40
1.000000000000002
 50
138.598894000000290
 51
222.000000000000680
  0
ARC
  8
0
  6
CONTINUOUS
 62
256
 10
-439.287319000000020
 20
-58.197049000000000
 40
0.999999999999990
 50
304.513078999998980
 51
357.000000000000060
  0
ARC
  8
0
  6
CONTINUOUS
 62
256
 10
-439.191375999999990
 20
-58.131230000000002
 40
0.999999999999997
 50
182.999999999999890
 51
304.388475999999800
  0
ARC
  8
0
  6
CONTINUOUS
 62
256
 10
-434.637466000000020
 20
-55.337688999999997
 40
0.999999999999989
 50
298.664583999998800
 51
357.000000000000060
  0
ARC
  8
0
  6
CONTINUOUS
 62
256
 10
-434.806706000000020
 20
-55.430607000000002
 40
0.999999999999997
 50
182.999999999999890
 51
298.871351999999210
  0
LINE
  8
0
  6
CONTINUOUS
 62
256
 10
-438.288688999999980
 20
-58.249384999999997
 11
-437.973149999999980
 21
-52.228544999999997
  0
LINE
  8
0
  6
CONTINUOUS
 62
256
 10
-440.190005999999980
 20
-58.183565999999999
 11
-440.475890999999990
 21
-52.728544999999997
  0
ARC
  8
0
  6
CONTINUOUS
 62
256
 10
-408.974520999999980
 20
-102.280880999999990
 40
52.499999999999993
 50
118.562833999999970
 51
118.973448999999970
  0
ARC
  8
0
  6
CONTINUOUS
 62
256
 10
-408.974520999999980
 20
-102.280880999999990
 40
52.499999999999993
 50
118.562833999999970
 51
118.973448999999970
  0
LINE
  8
0
  6
CONTINUOUS
 62
256
 10
-453.006016999999990
 20
-72.966712999999999
 11
-459.026857000000010
 21
-73.282252000000000
  0
LINE
  8
0
  6
CONTINUOUS
 62
256
 10
-453.071836000000020
 20
-71.065396000000007
 11
-458.526857000000010
 21
-70.779510999999999
  0
ARC
  8
0
  6
CONTINUOUS
 62
256
 10
-458.474520999999980
 20
-69.780880999999994
 40
0.999999999999996
 50
92.999999999999091
 51
267.000000000000910
  0
ARC
  8
0
  6
CONTINUOUS
 62
256
 10
-458.974520999999980
 20
-74.280880999999994
 40
0.999999999999996
 50
92.999999999999091
 51
267.000000000000910
  0
ARC
  8
0
  6
CONTINUOUS
 62
256
 10
-453.124170999999990
 20
-72.064025999999998
 40
1.000000000000025
 50
328.884247000000410
 51
87.000000000000909
  0
ARC
  8
0
  6
CONTINUOUS
 62
256
 10
-453.058353000000010
 20
-71.968082999999993
 40
0.999999999999996
 50
272.999999999999090
 51
322.214196999999560
  0
LINE
  8
0
  6
CONTINUOUS
 62
256
 10
-445.065885999999980
 20
-74.082239999999999
 11
-455.098613000000000
 21
-62.939767000000003
  0
LINE
  8
0
  6
CONTINUOUS
 62
256
 10
-437.173161999999990
 20
-66.189515999999998
 11
-448.315633999999990
 21
-56.156789000000003
  0
ARC
  8
0
  6
CONTINUOUS
 62
256
 10
-374.152143000000020
 20
-58.879843999999999
 40
0.999999999999997
 50
182.999999999999890
 51
312.000000000000170
  0
LINE
  8
0
  6
CONTINUOUS
 62
256
 10
-375.150773000000020
 20
-58.932180000000002
 11
-375.475890999999990
 21
-52.728544999999997
  0
ARC
  8
0
  6
CONTINUOUS
 62
256
 10
-408.974520999999980
 20
-102.280880999999990
 40
61.499999999999979
 50
41.401106000000013
 51
48.598894000000001
  0
ARC
  8
0
  6
CONTINUOUS
 62
256
 10
-368.964276999999980
 20
-56.899934000000002
 40
0.999999999999983
 50
48.598894000000925
 51
132.000000000000200
  0
ARC
  8
0
  6
CONTINUOUS
 62
256
 10
-365.573484000000010
 20
-67.458502999999993
 40
0.999999999999987
 50
137.999999999999010
 51
267.000000000000910
  0
LINE
  8
0
  6
CONTINUOUS
 62
256
 10
-365.625819999999980
 20
-68.457132999999999
 11
-359.422185000000010
 21
-68.782252000000000
  0
ARC
  8
0
  6
CONTINUOUS
 62
256
 10
-363.593573999999990
 20
-62.270637000000001
 40
0.999999999999982
 50
317.999999999999320
 51
41.401105999999722
  0
ARC
  8
0
  6
CONTINUOUS
 62
256
 10
-378.661722999999990
 20
-58.197049000000000
 40
0.999999999999997
 50
182.999999999999890
 51
235.486921000001050
  0
ARC
  8
0
  6
CONTINUOUS
 62
256
 10
-378.757664999999970
 20
-58.131230000000002
 40
0.999999999999996
 50
235.611524000000170
 51
357.000000000000060
  0
ARC
  8
0
  6
CONTINUOUS
 62
256
 10
-383.311576000000000
 20
-55.337688999999997
 40
0.999999999999997
 50
182.999999999999890
 51
241.335416000001200
  0
ARC
  8
0
  6
CONTINUOUS
 62
256
 10
-383.142336000000000
 20
-55.430607000000002
 40
0.999999999999995
 50
241.128648000000770
 51
357.000000000000060
  0
LINE
  8
0
  6
CONTINUOUS
 62
256
 10
-379.660351999999990
 20
-58.249384999999997
 11
-379.975890999999990
 21
-52.228544999999997
  0
LINE
  8
0
  6
CONTINUOUS
 62
256
 10
-377.759035999999980
 20
-58.183565999999999
 11
-377.473149999999980
 21
-52.728544999999997
  0
ARC
  8
0
  6
CONTINUOUS
 62
256
 10
-408.974520999999980
 20
-102.280880999999990
 40
52.499999999999986
 50
61.026551000000019
 51
61.437166000000026
  0
ARC
  8
0
  6
CONTINUOUS
 62
256
 10
-408.974520999999980
 20
-102.280880999999990
 40
52.499999999999986
 50
61.026551000000019
 51
61.437166000000026
  0
LINE
  8
0
  6
CONTINUOUS
 62
256
 10
-364.943023999999980
 20
-72.966712999999999
 11
-358.922185000000010
 21
-73.282252000000000
  0
LINE
  8
0
  6
CONTINUOUS
 62
256
 10
-364.877206000000000
 20
-71.065396000000007
 11
-359.422185000000010
 21
-70.779510999999999
  0
ARC
  8
0
  6
CONTINUOUS
 62
256
 10
-359.474520999999980
 20
-69.780880999999994
 40
0.999999999999996
 50
272.999999999999090
 51
87.000000000000909
  0
ARC
  8
0
  6
CONTINUOUS
 62
256
 10
-358.974520999999980
 20
-74.280880999999994
 40
0.999999999999996
 50
272.999999999999090
 51
87.000000000000909
  0
ARC
  8
0
  6
CONTINUOUS
 62
256
 10
-364.824869999999980
 20
-72.064025999999998
 40
0.999999999999996
 50
92.999999999999091
 51
211.115752999999530
  0
ARC
  8
0
  6
CONTINUOUS
 62
256
 10
-364.890688000000010
 20
-71.968082999999993
 40
0.999999999999998
 50
217.785803000000440
 51
267.000000000000910
  0
LINE
  8
0
  6
CONTINUOUS
 62
256
 10
-372.883155999999990
 20
-74.082239999999999
 11
-362.850429000000020
 21
-62.939767000000003
  0
LINE
  8
0
  6
CONTINUOUS
 62
256
 10
-380.775878999999970
 20
-66.189515999999998
 11
-369.633406999999980
 21
-56.156789000000003
  0
ARC
  8
0
  6
CONTINUOUS
 62
256
 10
-436.474520999999980
 20
-74.780880999999994
 40
25.000000000000000
 50
86.561350000000019
 51
174.269825000000000
  0
ARC
  8
0
  6
CONTINUOUS
 62
256
 10
-429.474520999999980
 20
-49.280881000000001
 40
0.500000000000000
 50
270.000000000000000
 51
0.000000000000000
  0
ARC
  8
0
  6
CONTINUOUS
 62
256
 10
-428.474520999999980
 20
-49.280881000000001
 40
0.500000000000000
 50
90.000000000000000
 51
180.000000000000000
  0
ARC
  8
0
  6
CONTINUOUS
 62
256
 10
-428.974520999999980
 20
-449.780881000000020
 40
400.000000000000000
 50
90.071529999999996
 51
90.859540999999993
  0
LINE
  8
0
  6
CONTINUOUS
 62
256
 10
-428.974520999999980
 20
-49.480880999999997
 11
-428.974520999999980
 21
-53.074682000000003
  0
ARC
  8
0
  6
CONTINUOUS
 62
256
 10
-428.274520999999990
 20
-49.480880999999997
 40
0.700000000000003
 50
90.000000000000000
 51
180.000000000000000
  0
LINE
  8
0
  6
CONTINUOUS
 62
256
 10
-428.274520999999990
 20
-48.780881000000001
 11
-408.974520999999980
 21
-48.780881000000001
  0
ARC
  8
0
  6
CONTINUOUS
 62
256
 10
-388.474520999999980
 20
-49.280881000000001
 40
0.500000000000000
 50
180.000000000000000
 51
270.000000000000000
  0
ARC
  8
0
  6
CONTINUOUS
 62
256
 10
-389.474520999999980
 20
-49.280881000000001
 40
0.500000000000000
 50
0.000000000000000
 51
90.000000000000000
  0
ARC
  8
0
  6
CONTINUOUS
 62
256
 10
-388.974520999999980
 20
-449.780881000000020
 40
400.000000000000000
 50
88.568016000000000
 51
89.928470000000004
  0
LINE
  8
0
  6
CONTINUOUS
 62
256
 10
-389.474520999999980
 20
-48.780881000000001
 11
-428.474520999999980
 21
-48.780881000000001
  0
LINE
  8
0
  6
CONTINUOUS
 62
256
 10
-388.974520999999980
 20
-49.480880999999997
 11
-388.974520999999980
 21
-53.074682000000003
  0
ARC
  8
0
  6
CONTINUOUS
 62
256
 10
-389.674521000000030
 20
-49.480880999999997
 40
0.699999999999989
 50
0.000000000000000
 51
90.000000000000000
  0
LINE
  8
0
  6
CONTINUOUS
 62
256
 10
-389.674521000000030
 20
-48.780881000000001
 11
-408.974520999999980
 21
-48.780881000000001
  0
ARC
  8
0
  6
CONTINUOUS
 62
256
 10
-381.474520999999980
 20
-74.780880999999994
 40
24.999999999999979
 50
5.730175000000014
 51
84.269824999999955
  0
LINE
  8
0
  6
CONTINUOUS
 62
256
 10
-376.474520999999980
 20
-36.272154000000000
 11
-443.474520999999980
 21
-37.441642999999999
  0
LINE
  8
0
  6
CONTINUOUS
 62
256
 10
-443.474520999999980
 20
-37.441642999999999
 11
-452.474520999999980
 21
-37.441642999999999
  0
LINE
  8
0
  6
CONTINUOUS
 62
256
 10
-406.474520999999980
 20
-189.270464000000000
 11
-406.474520999999980
 21
-189.780880999999990
  0
LINE
  8
0
  6
CONTINUOUS
 62
256
 10
-438.974520999999980
 20
-162.198667000000000
 11
-442.974520999999980
 21
-162.128847000000010
  0
LINE
  8
0
  6
DASHDOT
 62
256
 10
-352.178853000000000
 20
-102.280880999999990
 11
-468.316495999999970
 21
-102.280880999999990
  0
LINE
  8
0
  6
CONTINUOUS
 62
256
 10
-452.474520999999980
 20
-162.128847000000010
 11
-452.474520999999980
 21
-148.990253999999990
  0
LINE
  8
0
  6
CONTINUOUS
 62
256
 10
-442.974520999999980
 20
-162.128847000000010
 11
-452.474520999999980
 21
-162.128847000000010
  0
LINE
  8
0
  6
CONTINUOUS
 62
256
 10
-376.474520999999980
 20
-163.289609000000010
 11
-378.974520999999980
 21
-163.245971000000000
  0
LINE
  8
0
  6
CONTINUOUS
 62
256
 10
-376.474520999999980
 20
-163.280880999999990
 11
-365.474520999999980
 21
-163.088875000000000
  0
LINE
  8
0
  6
CONTINUOUS
 62
256
 10
-376.474520999999980
 20
-163.298336000000010
 11
-376.474520999999980
 21
-154.275779000000000
  0
LINE
  8
0
  6
CONTINUOUS
 62
256
 10
-376.474520999999980
 20
-163.289609000000010
 11
-376.474520999999980
 21
-158.789609000000010
  0
LINE
  8
0
  6
CONTINUOUS
 62
256
 10
-365.474520999999980
 20
-163.088875000000000
 11
-365.474520999999980
 21
-148.990253999999990
  0
ARC
  8
0
  6
CONTINUOUS
 62
256
 10
-436.474520999999980
 20
-129.780880999999990
 40
24.999999999999979
 50
185.730174999999970
 51
264.269825000000080
  0
ARC
  8
0
  6
CONTINUOUS
 62
256
 10
-461.974520999999980
 20
-82.780880999999994
 40
0.500000000000000
 50
90.000000000000000
 51
180.000000000000000
  0
ARC
  8
0
  6
CONTINUOUS
 62
256
 10
-428.474520999999980
 20
-155.280880999999990
 40
0.500000000000000
 50
180.000000000000000
 51
270.000000000000000
  0
ARC
  8
0
  6
CONTINUOUS
 62
256
 10
-429.474520999999980
 20
-155.280880999999990
 40
0.500000000000000
 50
0.000000000000000
 51
90.000000000000000
  0
ARC
  8
0
  6
CONTINUOUS
 62
256
 10
-388.474520999999980
 20
-155.280880999999990
 40
0.500000000000000
 50
90.000000000000000
 51
180.000000000000000
  0
ARC
  8
0
  6
CONTINUOUS
 62
256
 10
-389.474520999999980
 20
-155.280880999999990
 40
0.500000000000000
 50
270.000000000000000
 51
0.000000000000000
  0
ARC
  8
0
  6
CONTINUOUS
 62
256
 10
-355.974520999999980
 20
-121.780880999999990
 40
0.500000000000000
 50
270.000000000000000
 51
0.000000000000000
  0
ARC
  8
0
  6
CONTINUOUS
 62
256
 10
-355.974520999999980
 20
-82.780880999999994
 40
0.500000000000000
 50
0.000000000000000
 51
90.000000000000000
  0
ARC
  8
0
  6
CONTINUOUS
 62
256
 10
-355.974520999999980
 20
-81.780880999999994
 40
0.500000000000000
 50
180.000000000000000
 51
270.000000000000000
  0
ARC
  8
0
  6
CONTINUOUS
 62
256
 10
-355.974520999999980
 20
-122.780880999999990
 40
0.500000000000000
 50
90.000000000000000
 51
180.000000000000000
  0
ARC
  8
0
  6
CONTINUOUS
 62
256
 10
-461.974520999999980
 20
-121.780880999999990
 40
0.500000000000000
 50
180.000000000000000
 51
270.000000000000000
  0
ARC
  8
0
  6
CONTINUOUS
 62
256
 10
-461.974520999999980
 20
-122.780880999999990
 40
0.500000000000000
 50
0.000000000000000
 51
90.000000000000000
  0
ARC
  8
0
  6
CONTINUOUS
 62
256
 10
-461.974520999999980
 20
-81.780880999999994
 40
0.500000000000000
 50
270.000000000000000
 51
0.000000000000000
  0
ARC
  8
0
  6
CONTINUOUS
 62
256
 10
-388.974520999999980
 20
245.219119000000010
 40
400.000000000000000
 50
270.071530000000000
 51
271.431984000000000
  0
ARC
  8
0
  6
CONTINUOUS
 62
256
 10
-381.474520999999980
 20
-129.780880999999990
 40
25.000000000000011
 50
275.730175000000030
 51
354.269824999999970
  0
ARC
  8
0
  6
CONTINUOUS
 62
256
 10
-756.474520999999980
 20
-122.280880999999990
 40
400.000000000000000
 50
358.568016000000060
 51
359.928470000000000
  0
ARC
  8
0
  6
CONTINUOUS
 62
256
 10
-61.474521000000003
 20
-122.280880999999990
 40
400.000000000000000
 50
180.071529999999970
 51
181.431983999999970
  0
ARC
  8
0
  6
CONTINUOUS
 62
256
 10
-428.974520999999980
 20
245.219119000000010
 40
400.000000000000000
 50
268.568016000000060
 51
269.928470000000000
  0
LINE
  8
0
  6
CONTINUOUS
 62
256
 10
-428.474520999999980
 20
-155.780880999999990
 11
-389.474520999999980
 21
-155.780880999999990
  0
LINE
  8
0
  6
CONTINUOUS
 62
256
 10
-355.474520999999980
 20
-82.780880999999994
 11
-355.474520999999980
 21
-121.780880999999990
  0
LINE
  8
0
  6
CONTINUOUS
 62
256
 10
-462.474520999999980
 20
-121.780880999999990
 11
-462.474520999999980
 21
-82.780880999999994
  0
LINE
  8
0
  6
CONTINUOUS
 62
256
 10
-428.974520999999980
 20
-155.080881000000010
 11
-428.974520999999980
 21
-151.487079999999990
  0
ARC
  8
0
  6
CONTINUOUS
 62
256
 10
-428.274520999999990
 20
-155.080881000000010
 40
0.699999999999989
 50
180.000000000000000
 51
270.000000000000000
  0
LINE
  8
0
  6
CONTINUOUS
 62
256
 10
-428.274520999999990
 20
-155.780880999999990
 11
-408.974520999999980
 21
-155.780880999999990
  0
LINE
  8
0
  6
CONTINUOUS
 62
256
 10
-388.974520999999980
 20
-155.080881000000010
 11
-388.974520999999980
 21
-151.487079999999990
  0
ARC
  8
0
  6
CONTINUOUS
 62
256
 10
-389.674521000000030
 20
-155.080881000000010
 40
0.699999999999989
 50
270.000000000000000
 51
0.000000000000000
  0
LINE
  8
0
  6
CONTINUOUS
 62
256
 10
-389.674521000000030
 20
-155.780880999999990
 11
-408.974520999999980
 21
-155.780880999999990
  0
LINE
  8
0
  6
CONTINUOUS
 62
256
 10
-406.474520999999980
 20
-189.780880999999990
 11
-411.474520999999980
 21
-189.780880999999990
  0
LINE
  8
0
  6
CONTINUOUS
 62
256
 10
-411.474520999999980
 20
-189.270464000000000
 11
-411.474520999999980
 21
-189.780880999999990
  0
ARC
  8
0
  6
CONTINUOUS
 62
256
 10
-408.974520999999980
 20
110.719119000000010
 40
300.000000000000000
 50
265.138595000000010
 51
274.861404999999990
  0
LINE
  8
0
  6
CONTINUOUS
 62
256
 10
-377.474520999999980
 20
-154.780880999999990
 11
-377.474520999999980
 21
-159.780880999999990
  0
LINE
  8
0
  6
CONTINUOUS
 62
256
 10
-440.474520999999980
 20
-154.780880999999990
 11
-440.474520999999980
 21
-159.780880999999990
  0
LINE
  8
0
  6
CONTINUOUS
 62
256
 10
-388.474520999999980
 20
-154.780880999999990
 11
-377.474520999999980
 21
-154.780880999999990
  0
ARC
  8
0
  6
CONTINUOUS
 62
256
 10
-429.274520999999990
 20
-156.080881000000010
 40
0.199999999999989
 50
180.000000000000000
 51
270.000000000000000
  0
LINE
  8
0
  6
CONTINUOUS
 62
256
 10
-388.674521000000030
 20
-156.280880999999990
 11
-429.274520999999990
 21
-156.280880999999990
  0
LINE
  8
0
  6
CONTINUOUS
 62
256
 10
-429.474520999999980
 20
-154.780880999999990
 11
-429.474520999999980
 21
-156.080881000000010
  0
LINE
  8
0
  6
CONTINUOUS
 62
256
 10
-429.474520999999980
 20
-154.780880999999990
 11
-440.474520999999980
 21
-154.780880999999990
  0
ARC
  8
0
  6
CONTINUOUS
 62
256
 10
-388.674521000000030
 20
-156.080881000000010
 40
0.199999999999989
 50
270.000000000000000
 51
0.000000000000000
  0
LINE
  8
0
  6
CONTINUOUS
 62
256
 10
-388.474520999999980
 20
-154.780880999999990
 11
-388.474520999999980
 21
-156.080881000000010
  0
LINE
  8
0
  6
CONTINUOUS
 62
256
 10
-377.474520999999980
 20
-159.780880999999990
 11
-440.474520999999980
 21
-159.780880999999990
  0
LINE
  8
0
  6
CONTINUOUS
 62
256
 10
-455.772459000000030
 20
-75.450066000000007
 11
-459.026857000000010
 21
-75.279510999999999
  0
LINE
  8
0
  6
CONTINUOUS
 62
256
 10
-457.935834000000000
 20
-79.836689000000007
 11
-459.026857000000010
 21
-79.779510999999999
  0
ARC
  8
0
  6
CONTINUOUS
 62
256
 10
-458.974520999999980
 20
-83.280880999999994
 40
0.999999999999996
 50
92.999999999999091
 51
249.929667999999880
  0
LINE
  8
0
  6
CONTINUOUS
 62
256
 10
-458.108999999999980
 20
-82.234149000000002
 11
-459.026857000000010
 21
-82.282252000000000
  0
ARC
  8
0
  6
CONTINUOUS
 62
256
 10
-458.161336000000010
 20
-81.235518999999996
 40
0.999999999999996
 50
272.999999999999090
 51
336.835567999999680
  0
ARC
  8
0
  6
CONTINUOUS
 62
256
 10
-459.660867999999990
 20
-85.159424999999999
 40
0.999999999999979
 50
341.335428999999240
 51
69.929667999999921
  0
ARC
  8
0
  6
CONTINUOUS
 62
256
 10
-457.988170000000030
 20
-80.835318000000001
 40
0.999999999999982
 50
336.368569999999640
 51
87.000000000000909
  0
ARC
  8
0
  6
CONTINUOUS
 62
256
 10
-455.917711999999990
 20
-76.617936000000000
 40
0.999999999999996
 50
272.999999999999090
 51
331.335416000000010
  0
LINE
  8
0
  6
CONTINUOUS
 62
256
 10
-455.865377000000020
 20
-77.616564999999994
 11
-459.026857000000010
 21
-77.782252000000000
  0
ARC
  8
0
  6
CONTINUOUS
 62
256
 10
-455.824794999999990
 20
-76.448695999999998
 40
0.999999999999995
 50
331.128647999999880
 51
87.000000000000909
  0
ARC
  8
0
  6
CONTINUOUS
 62
256
 10
-458.974520999999980
 20
-78.780880999999994
 40
0.999999999999996
 50
92.999999999999091
 51
267.000000000000910
  0
ARC
  8
0
  6
CONTINUOUS
 62
256
 10
-408.974520999999980
 20
-102.280880999999990
 40
52.499999999999979
 50
151.026550999999980
 51
151.437166000000020
  0
ARC
  8
0
  6
CONTINUOUS
 62
256
 10
-408.974520999999980
 20
-102.280880999999990
 40
52.499999999999979
 50
161.335429000000000
 51
164.122298000000000
  0
ARC
  8
0
  6
CONTINUOUS
 62
256
 10
-460.054438000000000
 20
-88.780880999999994
 40
0.500000000000000
 50
90.000000000000000
 51
172.202150000000130
  0
LINE
  8
0
  6
CONTINUOUS
 62
256
 10
-460.054438000000000
 20
-88.280880999999994
 11
-459.952456999999980
 21
-88.280880999999994
  0
ARC
  8
0
  6
CONTINUOUS
 62
256
 10
-459.952456999999980
 20
-87.780880999999994
 40
0.500000000000000
 50
270.000000000000000
 51
344.122298000000230
  0
ARC
  8
0
  6
CONTINUOUS
 62
256
 10
-408.974520999999980
 20
-102.280880999999990
 40
52.500000000000007
 50
156.336295000000010
 51
156.863111000000000
  0
LINE
  8
0
  6
CONTINUOUS
 62
256
 10
-362.176582000000000
 20
-75.450066000000007
 11
-358.922185000000010
 21
-75.279510999999999
  0
LINE
  8
0
  6
CONTINUOUS
 62
256
 10
-360.013207000000020
 20
-79.836689000000007
 11
-358.922185000000010
 21
-79.779510999999999
  0
ARC
  8
0
  6
CONTINUOUS
 62
256
 10
-358.974520999999980
 20
-83.280880999999994
 40
1.000000000000005
 50
290.070332000000060
 51
87.000000000000909
  0
LINE
  8
0
  6
CONTINUOUS
 62
256
 10
-359.840041999999980
 20
-82.234149000000002
 11
-358.922185000000010
 21
-82.282252000000000
  0
ARC
  8
0
  6
CONTINUOUS
 62
256
 10
-359.787706000000010
 20
-81.235518999999996
 40
0.999999999999977
 50
203.164432000000290
 51
267.000000000000910
  0
ARC
  8
0
  6
CONTINUOUS
 62
256
 10
-358.288174000000030
 20
-85.159424999999999
 40
1.000000000000005
 50
110.070332000000090
 51
198.664571000000760
  0
ARC
  8
0
  6
CONTINUOUS
 62
256
 10
-359.960871000000000
 20
-80.835318000000001
 40
0.999999999999996
 50
92.999999999999091
 51
203.631430000000390
  0
ARC
  8
0
  6
CONTINUOUS
 62
256
 10
-362.031329000000030
 20
-76.617936000000000
 40
1.000000000000009
 50
208.664584000000020
 51
267.000000000000910
  0
LINE
  8
0
  6
CONTINUOUS
 62
256
 10
-362.083665000000000
 20
-77.616564999999994
 11
-358.922185000000010
 21
-77.782252000000000
  0
ARC
  8
0
  6
CONTINUOUS
 62
256
 10
-362.124246000000030
 20
-76.448695999999998
 40
0.999999999999996
 50
92.999999999999091
 51
208.871352000000170
  0
ARC
  8
0
  6
CONTINUOUS
 62
256
 10
-358.974520999999980
 20
-78.780880999999994
 40
0.999999999999996
 50
272.999999999999090
 51
87.000000000000909
  0
ARC
  8
0
  6
CONTINUOUS
 62
256
 10
-408.974520999999980
 20
-102.280880999999990
 40
52.500000000000014
 50
28.562833999999995
 51
28.973449000000016
  0
ARC
  8
0
  6
CONTINUOUS
 62
256
 10
-408.974520999999980
 20
-102.280880999999990
 40
52.500000000000021
 50
15.877701999999992
 51
18.664571000000006
  0
ARC
  8
0
  6
CONTINUOUS
 62
256
 10
-357.894604000000020
 20
-88.780880999999994
 40
0.499999999999976
 50
7.797849999999888
 51
90.000000000000000
  0
LINE
  8
0
  6
CONTINUOUS
 62
256
 10
-357.894604000000020
 20
-88.280880999999994
 11
-357.996583999999980
 21
-88.280880999999994
  0
ARC
  8
0
  6
CONTINUOUS
 62
256
 10
-357.996583999999980
 20
-87.780880999999994
 40
0.500000000000015
 50
195.877701999999800
 51
270.000000000000000
  0
ARC
  8
0
  6
CONTINUOUS
 62
256
 10
-408.974520999999980
 20
-102.280880999999990
 40
52.500000000000014
 50
23.136889000000000
 51
23.663704999999993
  0
ARC
  8
0
  6
CONTINUOUS
 62
256
 10
-361.474520999999980
 20
-102.280880999999990
 40
100.000000000000010
 50
172.202150000000020
 51
180.000000000000000
  0
ARC
  8
0
  6
CONTINUOUS
 62
256
 10
-456.474520999999980
 20
-102.280880999999990
 40
100.000000000000000
 50
0.000000000000000
 51
7.797850000000000
  0
ARC
  8
0
  6
CONTINUOUS
 62
256
 10
-374.152143000000020
 20
-145.681918000000000
 40
1.000000000000008
 50
48.000000000000071
 51
176.999999999999290
  0
LINE
  8
0
  6
CONTINUOUS
 62
256
 10
-375.150773000000020
 20
-145.629582000000000
 11
-375.475890999999990
 21
-151.833216999999990
  0
ARC
  8
0
  6
CONTINUOUS
 62
256
 10
-408.974520999999980
 20
-102.280880999999990
 40
61.500000000000007
 50
311.401106000000030
 51
318.598893999999970
  0
ARC
  8
0
  6
CONTINUOUS
 62
256
 10
-368.964276999999980
 20
-147.661828000000010
 40
1.000000000000008
 50
228.000000000000060
 51
311.401105999998780
  0
ARC
  8
0
  6
CONTINUOUS
 62
256
 10
-365.573484000000010
 20
-137.103259000000010
 40
0.999999999999996
 50
92.999999999999091
 51
222.000000000000990
  0
LINE
  8
0
  6
CONTINUOUS
 62
256
 10
-365.625819999999980
 20
-136.104628999999990
 11
-359.422185000000010
 21
-135.779511000000010
  0
ARC
  8
0
  6
CONTINUOUS
 62
256
 10
-363.593573999999990
 20
-142.291124999999990
 40
1.000000000000007
 50
318.598893999999970
 51
42.000000000001023
  0
ARC
  8
0
  6
CONTINUOUS
 62
256
 10
-378.661722999999990
 20
-146.364713999999990
 40
0.999999999999985
 50
124.513078999999190
 51
176.999999999999290
  0
ARC
  8
0
  6
CONTINUOUS
 62
256
 10
-378.757664999999970
 20
-146.430532000000000
 40
0.999999999999997
 50
3.000000000000716
 51
124.388475999999600
  0
LINE
  8
0
  6
CONTINUOUS
 62
256
 10
-386.530328000000000
 20
-151.242195000000010
 11
-386.473149999999980
 21
-152.333216999999990
  0
ARC
  8
0
  6
CONTINUOUS
 62
256
 10
-387.528957999999990
 20
-151.294531000000010
 40
0.999999999999997
 50
3.000000000000716
 51
113.631429999999000
  0
ARC
  8
0
  6
CONTINUOUS
 62
256
 10
-385.474520999999980
 20
-152.280880999999990
 40
0.999999999999997
 50
183.000000000000710
 51
356.999999999999260
  0
ARC
  8
0
  6
CONTINUOUS
 62
256
 10
-383.311576000000000
 20
-149.224073000000000
 40
0.999999999999996
 50
118.664583999998610
 51
176.999999999999290
  0
LINE
  8
0
  6
CONTINUOUS
 62
256
 10
-384.310205000000000
 20
-149.171737000000010
 11
-384.475890999999990
 21
-152.333216999999990
  0
ARC
  8
0
  6
CONTINUOUS
 62
256
 10
-383.142336000000000
 20
-149.131155000000010
 40
0.999999999999997
 50
3.000000000000716
 51
118.871351999999450
  0
LINE
  8
0
  6
CONTINUOUS
 62
256
 10
-382.143706000000010
 20
-149.078820000000010
 11
-381.973149999999980
 21
-152.333216999999990
  0
LINE
  8
0
  6
CONTINUOUS
 62
256
 10
-379.660351999999990
 20
-146.312378000000000
 11
-379.975890999999990
 21
-152.333216999999990
  0
LINE
  8
0
  6
CONTINUOUS
 62
256
 10
-377.759035999999980
 20
-146.378196000000000
 11
-377.473149999999980
 21
-151.833216999999990
  0
ARC
  8
0
  6
CONTINUOUS
 62
256
 10
-380.974520999999980
 20
-152.280880999999990
 40
0.999999999999997
 50
183.000000000000710
 51
356.999999999999260
  0
ARC
  8
0
  6
CONTINUOUS
 62
256
 10
-376.474520999999980
 20
-151.780880999999990
 40
0.999999999999997
 50
183.000000000000710
 51
356.999999999999260
  0
ARC
  8
0
  6
CONTINUOUS
 62
256
 10
-408.974520999999980
 20
-102.280880999999990
 40
52.499999999999979
 50
298.562833999999950
 51
298.973448999999960
  0
ARC
  8
0
  6
CONTINUOUS
 62
256
 10
-408.974520999999980
 20
-102.280880999999990
 40
52.499999999999979
 50
298.562833999999950
 51
298.973448999999960
  0
ARC
  8
0
  6
CONTINUOUS
 62
256
 10
-408.974520999999980
 20
-102.280880999999990
 40
52.499999999999993
 50
293.111602000000000
 51
293.663705000000050
  0
ARC
  8
0
  6
CONTINUOUS
 62
256
 10
-387.974520999999980
 20
-151.487079999999990
 40
1.000000000000001
 50
113.111601999998680
 51
180.000000000000000
  0
ARC
  8
0
  6
CONTINUOUS
 62
256
 10
-408.974520999999980
 20
-102.280880999999990
 40
52.499999999999993
 50
293.111602000000000
 51
293.695081000000020
  0
LINE
  8
0
  6
CONTINUOUS
 62
256
 10
-364.943023999999980
 20
-131.595048999999990
 11
-358.922185000000010
 21
-131.279511000000010
  0
LINE
  8
0
  6
CONTINUOUS
 62
256
 10
-364.877206000000000
 20
-133.496365999999990
 11
-359.422185000000010
 21
-133.782252000000000
  0
ARC
  8
0
  6
CONTINUOUS
 62
256
 10
-359.474520999999980
 20
-134.780880999999990
 40
0.999999999999996
 50
272.999999999999090
 51
87.000000000000909
  0
LINE
  8
0
  6
CONTINUOUS
 62
256
 10
-362.176582000000000
 20
-129.111695999999990
 11
-358.922185000000010
 21
-129.282252000000000
  0
ARC
  8
0
  6
CONTINUOUS
 62
256
 10
-358.974520999999980
 20
-130.280880999999990
 40
0.999999999999996
 50
272.999999999999090
 51
87.000000000000909
  0
LINE
  8
0
  6
CONTINUOUS
 62
256
 10
-360.013207000000020
 20
-124.725074000000010
 11
-358.922185000000010
 21
-124.782252000000000
  0
ARC
  8
0
  6
CONTINUOUS
 62
256
 10
-358.974520999999980
 20
-121.280880999999990
 40
0.999999999999996
 50
272.999999999999090
 51
69.929667999999921
  0
LINE
  8
0
  6
CONTINUOUS
 62
256
 10
-359.840041999999980
 20
-122.327613000000000
 11
-358.922185000000010
 21
-122.279511000000000
  0
ARC
  8
0
  6
CONTINUOUS
 62
256
 10
-359.787706000000010
 20
-123.326243000000010
 40
0.999999999999996
 50
92.999999999999091
 51
156.835567999999710
  0
ARC
  8
0
  6
CONTINUOUS
 62
256
 10
-358.288174000000030
 20
-119.402337000000000
 40
0.999999999999979
 50
161.335428999999240
 51
249.929667999999880
  0
ARC
  8
0
  6
CONTINUOUS
 62
256
 10
-359.960871000000000
 20
-123.726444000000000
 40
0.999999999999982
 50
156.368569999999610
 51
267.000000000000910
  0
ARC
  8
0
  6
CONTINUOUS
 62
256
 10
-362.031329000000030
 20
-127.943826000000000
 40
0.999999999999996
 50
92.999999999999091
 51
151.335415999999980
  0
LINE
  8
0
  6
CONTINUOUS
 62
256
 10
-362.083665000000000
 20
-126.945196999999990
 11
-358.922185000000010
 21
-126.779511000000000
  0
ARC
  8
0
  6
CONTINUOUS
 62
256
 10
-362.124246000000030
 20
-128.113066000000000
 40
0.999999999999995
 50
151.128647999999830
 51
267.000000000000910
  0
ARC
  8
0
  6
CONTINUOUS
 62
256
 10
-358.974520999999980
 20
-125.780880999999990
 40
0.999999999999996
 50
272.999999999999090
 51
87.000000000000909
  0
ARC
  8
0
  6
CONTINUOUS
 62
256
 10
-408.974520999999980
 20
-102.280880999999990
 40
52.499999999999986
 50
331.026550999999980
 51
331.437165999999990
  0
ARC
  8
0
  6
CONTINUOUS
 62
256
 10
-408.974520999999980
 20
-102.280880999999990
 40
52.499999999999979
 50
341.335429000000030
 51
344.122298000000000
  0
ARC
  8
0
  6
CONTINUOUS
 62
256
 10
-456.474520999999980
 20
-102.280880999999990
 40
100.000000000000010
 50
352.202150000000020
 51
0.000000000000000
  0
ARC
  8
0
  6
CONTINUOUS
 62
256
 10
-357.894604000000020
 20
-115.780880999999990
 40
0.500000000000000
 50
270.000000000000000
 51
352.202150000000130
  0
LINE
  8
0
  6
CONTINUOUS
 62
256
 10
-357.894604000000020
 20
-116.280880999999990
 11
-357.996583999999980
 21
-116.280880999999990
  0
ARC
  8
0
  6
CONTINUOUS
 62
256
 10
-357.996583999999980
 20
-116.780880999999990
 40
0.500000000000000
 50
90.000000000000000
 51
164.122298000000200
  0
ARC
  8
0
  6
CONTINUOUS
 62
256
 10
-364.824869999999980
 20
-132.497736000000000
 40
1.000000000000017
 50
148.884247000001180
 51
267.000000000000910
  0
ARC
  8
0
  6
CONTINUOUS
 62
256
 10
-364.890688000000010
 20
-132.593679000000010
 40
0.999999999999996
 50
92.999999999999091
 51
142.214197000000180
  0
ARC
  8
0
  6
CONTINUOUS
 62
256
 10
-408.974520999999980
 20
-102.280880999999990
 40
52.500000000000000
 50
336.336295000000010
 51
336.863111000000000
  0
LINE
  8
0
  6
CONTINUOUS
 62
256
 10
-372.883155999999990
 20
-130.479523000000000
 11
-362.850429000000020
 21
-141.621995000000000
  0
LINE
  8
0
  6
CONTINUOUS
 62
256
 10
-380.775878999999970
 20
-138.372245999999990
 11
-369.633406999999980
 21
-148.404973000000010
  0
ARC
  8
0
  6
CONTINUOUS
 62
256
 10
-443.796899000000000
 20
-145.681918000000000
 40
0.999999999999997
 50
3.000000000000716
 51
131.999999999999940
  0
LINE
  8
0
  6
CONTINUOUS
 62
256
 10
-442.798269000000000
 20
-145.629582000000000
 11
-442.473149999999980
 21
-151.833216999999990
  0
ARC
  8
0
  6
CONTINUOUS
 62
256
 10
-408.974520999999980
 20
-102.280880999999990
 40
61.500000000000007
 50
221.401105999999970
 51
228.598894000000000
  0
ARC
  8
0
  6
CONTINUOUS
 62
256
 10
-448.984764999999980
 20
-147.661828000000010
 40
0.999999999999988
 50
228.598894000001170
 51
311.999999999999940
  0
ARC
  8
0
  6
CONTINUOUS
 62
256
 10
-452.375557000000010
 20
-137.103259000000010
 40
0.999999999999987
 50
317.999999999998980
 51
87.000000000000909
  0
LINE
  8
0
  6
CONTINUOUS
 62
256
 10
-452.323220999999990
 20
-136.104628999999990
 11
-458.526857000000010
 21
-135.779511000000010
  0
ARC
  8
0
  6
CONTINUOUS
 62
256
 10
-454.355467999999970
 20
-142.291124999999990
 40
0.999999999999987
 50
137.999999999999010
 51
221.401106000000030
  0
ARC
  8
0
  6
CONTINUOUS
 62
256
 10
-439.287319000000020
 20
-146.364713999999990
 40
0.999999999999997
 50
3.000000000000716
 51
55.486921000000805
  0
ARC
  8
0
  6
CONTINUOUS
 62
256
 10
-439.191375999999990
 20
-146.430532000000000
 40
1.000000000000002
 50
55.611524000000401
 51
176.999999999999290
  0
LINE
  8
0
  6
CONTINUOUS
 62
256
 10
-431.418713000000030
 20
-151.242195000000010
 11
-431.475890999999990
 21
-152.333216999999990
  0
ARC
  8
0
  6
CONTINUOUS
 62
256
 10
-430.420083999999970
 20
-151.294531000000010
 40
1.000000000000003
 50
66.368570000001014
 51
176.999999999999290
  0
ARC
  8
0
  6
CONTINUOUS
 62
256
 10
-432.474520999999980
 20
-152.280880999999990
 40
0.999999999999997
 50
183.000000000000710
 51
356.999999999999260
  0
ARC
  8
0
  6
CONTINUOUS
 62
256
 10
-434.637466000000020
 20
-149.224073000000000
 40
0.999999999999997
 50
3.000000000000716
 51
61.335416000001402
  0
LINE
  8
0
  6
CONTINUOUS
 62
256
 10
-433.638837000000020
 20
-149.171737000000010
 11
-433.473149999999980
 21
-152.333216999999990
  0
ARC
  8
0
  6
CONTINUOUS
 62
256
 10
-434.806706000000020
 20
-149.131155000000010
 40
0.999999999999988
 50
61.128648000000545
 51
176.999999999999290
  0
LINE
  8
0
  6
CONTINUOUS
 62
256
 10
-435.805336000000010
 20
-149.078820000000010
 11
-435.975890999999990
 21
-152.333216999999990
  0
LINE
  8
0
  6
CONTINUOUS
 62
256
 10
-438.288688999999980
 20
-146.312378000000000
 11
-437.973149999999980
 21
-152.333216999999990
  0
LINE
  8
0
  6
CONTINUOUS
 62
256
 10
-440.190005999999980
 20
-146.378196000000000
 11
-440.475890999999990
 21
-151.833216999999990
  0
ARC
  8
0
  6
CONTINUOUS
 62
256
 10
-436.974520999999980
 20
-152.280880999999990
 40
0.999999999999997
 50
183.000000000000710
 51
356.999999999999260
  0
ARC
  8
0
  6
CONTINUOUS
 62
256
 10
-441.474520999999980
 20
-151.780880999999990
 40
0.999999999999997
 50
183.000000000000710
 51
356.999999999999260
  0
ARC
  8
0
  6
CONTINUOUS
 62
256
 10
-408.974520999999980
 20
-102.280880999999990
 40
52.500000000000028
 50
241.026550999999960
 51
241.437165999999990
  0
ARC
  8
0
  6
CONTINUOUS
 62
256
 10
-408.974520999999980
 20
-102.280880999999990
 40
52.500000000000028
 50
241.026550999999960
 51
241.437165999999990
  0
ARC
  8
0
  6
CONTINUOUS
 62
256
 10
-408.974520999999980
 20
-102.280880999999990
 40
52.500000000000000
 50
246.336295000000040
 51
246.888398000000000
  0
ARC
  8
0
  6
CONTINUOUS
 62
256
 10
-429.974520999999980
 20
-151.487079999999990
 40
1.000000000000000
 50
0.000000000000000
 51
66.888398000001317
  0
ARC
  8
0
  6
CONTINUOUS
 62
256
 10
-408.974520999999980
 20
-102.280880999999990
 40
52.499999999999986
 50
246.304919000000040
 51
246.888398000000000
  0
LINE
  8
0
  6
CONTINUOUS
 62
256
 10
-453.006016999999990
 20
-131.595048999999990
 11
-459.026857000000010
 21
-131.279511000000010
  0
LINE
  8
0
  6
CONTINUOUS
 62
256
 10
-453.071836000000020
 20
-133.496365999999990
 11
-458.526857000000010
 21
-133.782252000000000
  0
ARC
  8
0
  6
CONTINUOUS
 62
256
 10
-458.474520999999980
 20
-134.780880999999990
 40
0.999999999999996
 50
92.999999999999091
 51
267.000000000000910
  0
LINE
  8
0
  6
CONTINUOUS
 62
256
 10
-455.772459000000030
 20
-129.111695999999990
 11
-459.026857000000010
 21
-129.282252000000000
  0
ARC
  8
0
  6
CONTINUOUS
 62
256
 10
-458.974520999999980
 20
-130.280880999999990
 40
0.999999999999996
 50
92.999999999999091
 51
267.000000000000910
  0
LINE
  8
0
  6
CONTINUOUS
 62
256
 10
-457.935834000000000
 20
-124.725074000000010
 11
-459.026857000000010
 21
-124.782252000000000
  0
ARC
  8
0
  6
CONTINUOUS
 62
256
 10
-458.974520999999980
 20
-121.280880999999990
 40
1.000000000000005
 50
110.070332000000090
 51
267.000000000000910
  0
LINE
  8
0
  6
CONTINUOUS
 62
256
 10
-458.108999999999980
 20
-122.327613000000000
 11
-459.026857000000010
 21
-122.279511000000000
  0
ARC
  8
0
  6
CONTINUOUS
 62
256
 10
-458.161336000000010
 20
-123.326243000000010
 40
0.999999999999977
 50
23.164432000000296
 51
87.000000000000909
  0
ARC
  8
0
  6
CONTINUOUS
 62
256
 10
-459.660867999999990
 20
-119.402337000000000
 40
1.000000000000005
 50
290.070332000000060
 51
18.664571000000766
  0
ARC
  8
0
  6
CONTINUOUS
 62
256
 10
-457.988170000000030
 20
-123.726444000000000
 40
0.999999999999996
 50
272.999999999999090
 51
23.631430000000389
  0
ARC
  8
0
  6
CONTINUOUS
 62
256
 10
-455.917711999999990
 20
-127.943826000000000
 40
1.000000000000009
 50
28.664584000000026
 51
87.000000000000909
  0
LINE
  8
0
  6
CONTINUOUS
 62
256
 10
-455.865377000000020
 20
-126.945196999999990
 11
-459.026857000000010
 21
-126.779511000000000
  0
ARC
  8
0
  6
CONTINUOUS
 62
256
 10
-455.824794999999990
 20
-128.113066000000000
 40
0.999999999999996
 50
272.999999999999090
 51
28.871352000000165
  0
ARC
  8
0
  6
CONTINUOUS
 62
256
 10
-458.974520999999980
 20
-125.780880999999990
 40
0.999999999999996
 50
92.999999999999091
 51
267.000000000000910
  0
ARC
  8
0
  6
CONTINUOUS
 62
256
 10
-408.974520999999980
 20
-102.280880999999990
 40
52.500000000000014
 50
208.562833999999980
 51
208.973449000000020
  0
ARC
  8
0
  6
CONTINUOUS
 62
256
 10
-408.974520999999980
 20
-102.280880999999990
 40
52.500000000000021
 50
195.877701999999970
 51
198.664571000000000
  0
ARC
  8
0
  6
CONTINUOUS
 62
256
 10
-361.474520999999980
 20
-102.280880999999990
 40
100.000000000000000
 50
180.000000000000000
 51
187.797850000000010
  0
ARC
  8
0
  6
CONTINUOUS
 62
256
 10
-460.054438000000000
 20
-115.780880999999990
 40
0.499999999999976
 50
187.797849999999870
 51
270.000000000000000
  0
LINE
  8
0
  6
CONTINUOUS
 62
256
 10
-460.054438000000000
 20
-116.280880999999990
 11
-459.952456999999980
 21
-116.280880999999990
  0
ARC
  8
0
  6
CONTINUOUS
 62
256
 10
-459.952456999999980
 20
-116.780880999999990
 40
0.500000000000015
 50
15.877701999999818
 51
90.000000000000000
  0
ARC
  8
0
  6
CONTINUOUS
 62
256
 10
-453.124170999999990
 20
-132.497736000000000
 40
0.999999999999996
 50
272.999999999999090
 51
31.115752999998847
  0
ARC
  8
0
  6
CONTINUOUS
 62
256
 10
-453.058353000000010
 20
-132.593679000000010
 40
0.999999999999989
 50
37.785802999999802
 51
87.000000000000909
  0
ARC
  8
0
  6
CONTINUOUS
 62
256
 10
-408.974520999999980
 20
-102.280880999999990
 40
52.500000000000007
 50
203.136888999999970
 51
203.663704999999990
  0
LINE
  8
0
  6
CONTINUOUS
 62
256
 10
-445.065885999999980
 20
-130.479523000000000
 11
-455.098613000000000
 21
-141.621995000000000
  0
LINE
  8
0
  6
CONTINUOUS
 62
256
 10
-437.173161999999990
 20
-138.372245999999990
 11
-448.315633999999990
 21
-148.404973000000010
  0
LINE
  8
0
  6
CONTINUOUS
 62
256
 10
-427.724520999999980
 20
-156.280880999999990
 11
-427.724520999999980
 21
-155.780880999999990
  0
LINE
  8
0
  6
CONTINUOUS
 62
256
 10
-390.224520999999980
 20
-156.280880999999990
 11
-390.224520999999980
 21
-155.780880999999990
  0
LINE
  8
0
  6
CONTINUOUS
 62
256
 10
-438.974520999999980
 20
-159.780880999999990
 11
-438.974520999999980
 21
-183.219650000000000
  0
LINE
  8
0
  6
CONTINUOUS
 62
256
 10
-378.974520999999980
 20
-159.780880999999990
 11
-378.974520999999980
 21
-183.219650000000000
  0
ARC
  8
0
  6
CONTINUOUS
 62
256
 10
-433.974520999999980
 20
-183.219650000000000
 40
5.000000000000000
 50
180.000000000000000
 51
265.138594999999900
  0
ARC
  8
0
  6
CONTINUOUS
 62
256
 10
-383.974520999999980
 20
-183.219650000000000
 40
4.999999999999989
 50
274.861405000000100
 51
0.000000000000000
  0
INSERT
  8
0
  2
ZU_SYM_5
 10
-448.572500999999990
 20
-141.878861000000000
 41
-1.000000000000000
 50
90.000000000000000
  0
INSERT
  8
0
  2
ZU_SYM_6
 10
-369.376540999999970
 20
-141.878861000000000
 50
270.000000000000000
  0
LINE
  8
0
  6
CONTINUOUS
 62
256
 10
121.079537000000000
 20
-101.780880999999990
 11
137.079536999999990
 21
-101.780880999999990
  0
LINE
  8
0
  6
CONTINUOUS
 62
256
 10
121.079537000000000
 20
-76.780880999999994
 11
137.079536999999990
 21
-76.780880999999994
  0
LINE
  8
0
  6
CONTINUOUS
 62
256
 10
94.079537000000002
 20
-102.280880999999990
 11
121.079537000000000
 21
-102.280880999999990
  0
LINE
  8
0
  6
CONTINUOUS
 62
256
 10
94.079537000000002
 20
-76.280880999999994
 11
121.079537000000000
 21
-76.280880999999994
  0
LINE
  8
0
  6
CONTINUOUS
 62
256
 10
128.579562000000010
 20
-69.280880999999994
 11
128.579562000000010
 21
-67.930880999999999
  0
LINE
  8
0
  6
CONTINUOUS
 62
256
 10
128.579562000000010
 20
-109.280880999999990
 11
128.579562000000010
 21
-110.630881000000000
  0
LINE
  8
0
  6
CONTINUOUS
 62
256
 10
98.579537000000002
 20
-110.630881000000000
 11
98.579537000000002
 21
-109.330881000000010
  0
LINE
  8
0
  6
CONTINUOUS
 62
256
 10
98.579537000000002
 20
-110.630881000000000
 11
128.579562000000010
 21
-110.630881000000000
  0
LINE
  8
0
  6
CONTINUOUS
 62
256
 10
71.079537000000002
 20
-109.330881000000010
 11
98.579537000000002
 21
-109.330881000000010
  0
LINE
  8
0
  6
CONTINUOUS
 62
256
 10
71.079537000000002
 20
-69.230880999999997
 11
98.579537000000002
 21
-69.230880999999997
  0
LINE
  8
0
  6
CONTINUOUS
 62
256
 10
159.079536999999990
 20
-108.280880999999990
 11
144.079536999999990
 21
-108.280880999999990
  0
LINE
  8
0
  6
CONTINUOUS
 62
256
 10
56.079537000000002
 20
-73.480880999999997
 11
92.579537000000002
 21
-73.480880999999997
  0
LINE
  8
0
  6
CONTINUOUS
 62
256
 10
159.079536999999990
 20
-70.280880999999994
 11
144.079536999999990
 21
-70.280880999999994
  0
LINE
  8
0
  6
CONTINUOUS
 62
256
 10
159.079536999999990
 20
-108.280880999999990
 11
159.079536999999990
 21
-70.280880999999994
  0
LINE
  8
0
  6
CONTINUOUS
 62
256
 10
56.079537000000002
 20
-70.280880999999994
 11
71.079537000000002
 21
-70.280880999999994
  0
LINE
  8
0
  6
CONTINUOUS
 62
256
 10
56.079537000000002
 20
-108.280880999999990
 11
71.079537000000002
 21
-108.280880999999990
  0
LINE
  8
0
  6
CONTINUOUS
 62
256
 10
56.079537000000002
 20
-108.280880999999990
 11
56.079537000000002
 21
-70.280880999999994
  0
LINE
  8
0
  6
CONTINUOUS
 62
256
 10
144.079536999999990
 20
-108.280880999999990
 11
144.079536999999990
 21
-109.280880999999990
  0
LINE
  8
0
  6
CONTINUOUS
 62
256
 10
144.079536999999990
 20
-70.280880999999994
 11
144.079536999999990
 21
-69.280879999999996
  0
LINE
  8
0
  6
CONTINUOUS
 62
256
 10
144.079536999999990
 20
-109.280880999999990
 11
128.579562000000010
 21
-109.280880999999990
  0
LINE
  8
0
  6
CONTINUOUS
 62
256
 10
144.079536999999990
 20
-69.280880999999994
 11
128.579562000000010
 21
-69.280880999999994
  0
LINE
  8
0
  6
CONTINUOUS
 62
256
 10
71.079537000000002
 20
-70.280880999999994
 11
71.079537000000002
 21
-69.230880999999997
  0
LINE
  8
0
  6
CONTINUOUS
 62
256
 10
71.079537000000002
 20
-108.280880999999990
 11
71.079537000000002
 21
-109.330881000000010
  0
LINE
  8
0
  6
CONTINUOUS
 62
256
 10
98.579537000000002
 20
-67.930880999999999
 11
98.579537000000002
 21
-69.230880999999997
  0
LINE
  8
0
  6
DASHDOT
 62
256
 10
53.686739000000003
 20
-89.280880999999994
 11
162.020072000000000
 21
-89.280880999999994
  0
LINE
  8
0
  6
CONTINUOUS
 62
256
 10
92.579537000000002
 20
-73.480880999999997
 11
159.079536999999990
 21
-73.480880999999997
  0
LINE
  8
0
  6
CONTINUOUS
 62
256
 10
56.079537000000002
 20
-76.780880999999994
 11
76.079537000000002
 21
-76.780880999999994
  0
LINE
  8
0
  6
CONTINUOUS
 62
256
 10
56.079537000000002
 20
-101.780880999999990
 11
76.079537000000002
 21
-101.780880999999990
  0
LINE
  8
0
  6
CONTINUOUS
 62
256
 10
98.579537000000002
 20
-67.930880999999999
 11
128.579562000000010
 21
-67.930880999999999
  0
LINE
  8
0
  6
CONTINUOUS
 62
256
 10
121.079537000000000
 20
-102.280880999999990
 11
121.079537000000000
 21
-76.280880999999994
  0
LINE
  8
0
  6
CONTINUOUS
 62
256
 10
94.079537000000002
 20
-102.280880999999990
 11
94.079537000000002
 21
-76.280880999999994
  0
LINE
  8
0
  6
CONTINUOUS
 62
256
 10
137.079536999999990
 20
-102.780880999999990
 11
137.079536999999990
 21
-75.780880999999994
  0
LINE
  8
0
  6
CONTINUOUS
 62
256
 10
78.079537000000002
 20
-102.780880999999990
 11
78.079537000000002
 21
-75.780880999999994
  0
LINE
  8
0
  6
CONTINUOUS
 62
256
 10
139.079536999999990
 20
-102.780880999999990
 11
139.079536999999990
 21
-75.780880999999994
  0
LINE
  8
0
  6
CONTINUOUS
 62
256
 10
76.079537000000002
 20
-102.780880999999990
 11
76.079537000000002
 21
-75.780880999999994
  0
LINE
  8
0
  6
CONTINUOUS
 62
256
 10
76.079537000000002
 20
-102.780880999999990
 11
78.079537000000002
 21
-102.780880999999990
  0
LINE
  8
0
  6
CONTINUOUS
 62
256
 10
76.079537000000002
 20
-75.780880999999994
 11
78.079537000000002
 21
-75.780880999999994
  0
LINE
  8
0
  6
CONTINUOUS
 62
256
 10
137.079536999999990
 20
-102.780880999999990
 11
139.079536999999990
 21
-102.780880999999990
  0
LINE
  8
0
  6
CONTINUOUS
 62
256
 10
137.079536999999990
 20
-75.780880999999994
 11
139.079536999999990
 21
-75.780880999999994
  0
LINE
  8
0
  6
CONTINUOUS
 62
256
 10
139.079536999999990
 20
-76.780880999999994
 11
159.079536999999990
 21
-76.780880999999994
  0
LINE
  8
0
  6
CONTINUOUS
 62
256
 10
139.079536999999990
 20
-101.780880999999990
 11
159.079536999999990
 21
-101.780880999999990
  0
LINE
  8
0
  6
CONTINUOUS
 62
256
 10
78.079537000000002
 20
-76.780880999999994
 11
94.079537000000002
 21
-76.780880999999994
  0
LINE
  8
0
  6
CONTINUOUS
 62
256
 10
78.079537000000002
 20
-101.780880999999990
 11
94.079537000000002
 21
-101.780880999999990
  0
LINE
  8
0
  6
CONTINUOUS
 62
256
 10
-62.022472000000000
 20
-73.480880999999997
 11
-62.022472000000000
 21
-77.438162000000005
  0
ARC
  8
0
  6
CONTINUOUS
 62
256
 10
-66.022471999999993
 20
-89.280880999999994
 40
12.500000000000002
 50
108.662925000000020
 51
71.337074999999999
  0
LINE
  8
0
  6
CONTINUOUS
 62
256
 10
-70.022471999999993
 20
-73.480880999999997
 11
-70.022471999999993
 21
-77.438162000000005
  0
LINE
  8
0
  6
CONTINUOUS
 62
256
 10
-62.022472000000000
 20
-73.480880999999997
 11
-70.022471999999993
 21
-73.480880999999997
  0
POINT
  8
0
  6
DASHDOT
 62
256
 10
263.532745999999970
 20
-89.280880999999994
  0
LINE
  8
0
  6
DASHDOT
 62
256
 10
251.032746000000000
 20
-63.053334000000000
 11
251.032746000000000
 21
-112.512793000000000
  0
LINE
  8
0
  6
DASHDOT
 62
256
 10
272.010537000000000
 20
-89.280880999999994
 11
229.351882999999990
 21
-89.280880999999994
  0
ARC
  8
0
  6
CONTINUOUS
 62
256
 10
251.032746000000000
 20
-89.280880999999994
 40
12.500000000000002
 50
108.662925000000020
 51
71.337074999999999
  0
LINE
  8
0
  6
CONTINUOUS
 62
256
 10
255.032746000000000
 20
-73.480880999999997
 11
247.032746000000000
 21
-73.480880999999997
  0
LINE
  8
0
  6
CONTINUOUS
 62
256
 10
255.032746000000000
 20
-73.480880999999997
 11
255.032746000000000
 21
-77.438162000000005
  0
LINE
  8
0
  6
CONTINUOUS
 62
256
 10
247.032746000000000
 20
-73.480880999999997
 11
247.032746000000000
 21
-77.438162000000005
  0
CIRCLE
  8
0
  6
CONTINUOUS
 62
256
 10
251.032746000000000
 20
-89.280880999999994
 40
18.999999999999972
  0
LINE
  8
0
  6
CONTINUOUS
 62
256
 10
-215.022471999999990
 20
-189.780880999999990
 11
-215.022471999999990
 21
-189.280880999999990
  0
LINE
  8
0
  6
CONTINUOUS
 62
256
 10
-207.022471999999990
 20
-189.780880999999990
 11
-207.022471999999990
 21
-189.280880999999990
  0
ARC
  8
0
  6
CONTINUOUS
 62
256
 10
-201.022471999999990
 20
-188.280880999999990
 40
1.000000000000000
 50
270.000000000000000
 51
0.000000000000000
  0
ARC
  8
0
  6
CONTINUOUS
 62
256
 10
-272.022471999999990
 20
-188.280880999999990
 40
1.000000000000000
 50
180.000000000000000
 51
270.000000000000000
  0
LINE
  8
0
  6
CONTINUOUS
 62
256
 10
-201.022471999999990
 20
-189.280880999999990
 11
-272.022471999999990
 21
-189.280880999999990
  0
INSERT
  8
0
  2
ZU_SYM_7
 10
-128.022471999999990
 20
-40.780881000000001
  0
INSERT
  8
0
  2
ZU_SYM_8
 10
-128.022471999999990
 20
-158.780880999999990
  0
INSERT
  8
0
  2
ZU_SYM_9
 10
-38.022250000000000
 20
-158.780931000000010
  0
INSERT
  8
0
  2
ZU_SYM_10
 10
-38.022250000000000
 20
-40.780830999999999
  0
INSERT
  8
0
  2
ZU_SYM_11
 10
-286.022470000000000
 20
-62.682901000000001
  0
INSERT
  8
0
  2
ZU_SYM_12
 10
-286.022470000000000
 20
-141.878861000000000
 41
-1.000000000000000
 50
180.000000000000000
  0
ARC
  8
0
  6
CONTINUOUS
 62
256
 10
-115.950042000000000
 20
-51.280881000000001
 40
5.500000000000000
 50
90.000000000000000
 51
138.985263000000030
  0
LINE
  8
0
  6
CONTINUOUS
 62
256
 10
-115.950042000000000
 20
-45.780881000000001
 11
-72.636850999999993
 21
-45.780881000000001
  0
LINE
  8
0
  6
CONTINUOUS
 62
256
 10
-116.898435000000010
 20
-43.280881000000001
 11
-49.146509000000002
 21
-43.280881000000001
  0
ARC
  8
0
  6
CONTINUOUS
 62
256
 10
-128.022695000000000
 20
-40.780830999999999
 40
7.999999999999996
 50
275.267653000000000
 51
322.616544000000030
  0
ARC
  8
0
  6
CONTINUOUS
 62
256
 10
-128.022695000000000
 20
-40.780830999999999
 40
10.499999999999998
 50
275.267653000000000
 51
318.985262999999970
  0
ARC
  8
0
  6
CONTINUOUS
 62
256
 10
-126.737377000000000
 20
-54.721705000000000
 40
6.000000000000002
 50
95.267653000000010
 51
154.043062000000020
  0
ARC
  8
0
  6
CONTINUOUS
 62
256
 10
-141.022471999999990
 20
-64.251444000000006
 40
5.999999999999999
 50
93.372287000000000
 51
180.000000000000000
  0
LINE
  8
0
  6
CONTINUOUS
 62
256
 10
-147.022471999999990
 20
-135.310318000000000
 11
-147.022471999999990
 21
-64.251444000000006
  0
LINE
  8
0
  6
DASHDOT
 62
256
 10
-142.022471999999990
 20
-38.771000000000001
 11
-142.022471999999990
 21
-56.497090999999998
  0
ARC
  8
0
  6
CONTINUOUS
 62
256
 10
-141.022471999999990
 20
-64.251444000000006
 40
3.500000000000003
 50
93.372286999999972
 51
180.000000000000000
  0
ARC
  8
0
  6
CONTINUOUS
 62
256
 10
-126.737377000000000
 20
-54.721705000000000
 40
3.500000000000000
 50
95.267653000000053
 51
154.043062000000110
  0
LINE
  8
0
  6
CONTINUOUS
 62
256
 10
-144.522471999999990
 20
-135.310318000000000
 11
-144.522471999999990
 21
-64.251444000000006
  0
ARC
  8
0
  6
CONTINUOUS
 62
256
 10
-141.022471999999990
 20
-135.310318000000000
 40
3.500000000000000
 50
180.000000000000000
 51
266.627713000000030
  0
ARC
  8
0
  6
CONTINUOUS
 62
256
 10
-142.022471999999990
 20
-152.280880999999990
 40
13.500000000000005
 50
25.956937999999937
 51
86.627712999999972
  0
ARC
  8
0
  6
CONTINUOUS
 62
256
 10
-126.737377000000000
 20
-144.840058000000000
 40
3.500000000000006
 50
205.956937999999780
 51
264.732346999999950
  0
ARC
  8
0
  6
CONTINUOUS
 62
256
 10
-128.022695000000000
 20
-158.780931000000010
 40
10.500000000000004
 50
41.014737000000025
 51
84.732347000000033
  0
ARC
  8
0
  6
CONTINUOUS
 62
256
 10
-115.950042000000000
 20
-148.280880999999990
 40
5.500000000000001
 50
221.014736999999910
 51
270.000000000000000
  0
LINE
  8
0
  6
CONTINUOUS
 62
256
 10
-50.094903000000002
 20
-153.780880999999990
 11
-115.950042000000000
 21
-153.780880999999990
  0
ARC
  8
0
  6
CONTINUOUS
 62
256
 10
-38.022250000000000
 20
-158.780931000000010
 40
10.500000000000000
 50
95.267653000000010
 51
138.985262999999970
  0
ARC
  8
0
  6
CONTINUOUS
 62
256
 10
-24.022472000000000
 20
-152.280880999999990
 40
13.499999999999989
 50
93.372287000000000
 51
154.043062000000050
  0
ARC
  8
0
  6
CONTINUOUS
 62
256
 10
-25.022472000000000
 20
-135.310318000000000
 40
3.500000000000003
 50
273.372286999999970
 51
0.000000000000000
  0
ARC
  8
0
  6
CONTINUOUS
 62
256
 10
-49.146509000000002
 20
-49.280881000000001
 40
5.999999999999999
 50
37.383456000000024
 51
90.000000000000000
  0
ARC
  8
0
  6
CONTINUOUS
 62
256
 10
-39.307568000000003
 20
-54.721705000000000
 40
5.999999999999999
 50
25.956937999999973
 51
84.732346999999990
  0
ARC
  8
0
  6
CONTINUOUS
 62
256
 10
-25.022472000000000
 20
-64.251444000000006
 40
6.000000000000000
 50
0.000000000000000
 51
86.627713000000014
  0
ARC
  8
0
  6
CONTINUOUS
 62
256
 10
-24.022472000000000
 20
-47.280881000000001
 40
11.000000000000002
 50
205.956938000000010
 51
266.627713000000030
  0
ARC
  8
0
  6
CONTINUOUS
 62
256
 10
-38.022250000000000
 20
-40.780830999999999
 40
7.999999999999996
 50
217.383455999999970
 51
264.732347000000000
  0
ARC
  8
0
  6
CONTINUOUS
 62
256
 10
-38.022250000000000
 20
-40.780830999999999
 40
5.000000000000000
 50
180.000000000000000
 51
0.000000000000000
  0
LINE
  8
0
  6
DASHDOT
 62
256
 10
-32.279299999999999
 20
-47.280881000000001
 11
-10.070114999999999
 21
-47.280881000000001
  0
LINE
  8
0
  6
DASHDOT
 62
256
 10
-24.022472000000000
 20
-28.646083000000001
 11
-24.022472000000000
 21
-58.769027999999999
  0
ARC
  8
0
  6
CONTINUOUS
 62
256
 10
-50.094903000000002
 20
-51.280881000000001
 40
5.500000000000000
 50
41.014737000000025
 51
90.000000000000000
  0
ARC
  8
0
  6
CONTINUOUS
 62
256
 10
-50.094903000000002
 20
-148.280880999999990
 40
5.500000000000000
 50
270.000000000000000
 51
318.985263000000030
  0
ARC
  8
0
  6
CONTINUOUS
 62
256
 10
-38.022250000000000
 20
-40.780830999999999
 40
10.500000000000000
 50
221.014737000000000
 51
264.732347000000000
  0
ARC
  8
0
  6
CONTINUOUS
 62
256
 10
-39.307568000000003
 20
-54.721705000000000
 40
3.499999999999996
 50
25.956937999999994
 51
84.732346999999947
  0
ARC
  8
0
  6
CONTINUOUS
 62
256
 10
-24.022472000000000
 20
-47.280881000000001
 40
13.499999999999998
 50
205.956938000000010
 51
266.627713000000030
  0
ARC
  8
0
  6
CONTINUOUS
 62
256
 10
-25.022472000000000
 20
-64.251444000000006
 40
3.500000000000000
 50
0.000000000000000
 51
86.627712999999986
  0
LINE
  8
0
  6
CONTINUOUS
 62
256
 10
-21.522472000000000
 20
-64.251444000000006
 11
-21.522472000000000
 21
-135.310318000000000
  0
ARC
  8
0
  6
CONTINUOUS
 62
256
 10
-147.022471999999990
 20
-43.280881000000001
 40
7.000000000000000
 50
90.000000000000000
 51
180.000000000000000
  0
LINE
  8
0
  6
DASHDOT
 62
256
 10
-133.792340999999990
 20
-47.280881000000001
 11
-150.958661000000010
 21
-47.280881000000001
  0
LINE
  8
0
  6
CONTINUOUS
 62
256
 10
-20.022472000000000
 20
-36.280881000000001
 11
-147.022471999999990
 21
-36.280881000000001
  0
LINE
  8
0
  6
CONTINUOUS
 62
256
 10
-13.022472000000000
 20
-43.280881000000001
 11
-13.022472000000000
 21
-156.280880999999990
  0
ARC
  8
0
  6
CONTINUOUS
 62
256
 10
-20.022472000000000
 20
-43.280881000000001
 40
7.000000000000000
 50
0.000000000000000
 51
90.000000000000000
  0
LINE
  8
0
  6
CONTINUOUS
 62
256
 10
-147.022471999999990
 20
-163.280880999999990
 11
-20.022472000000000
 21
-163.280880999999990
  0
ARC
  8
0
  6
CONTINUOUS
 62
256
 10
-147.022471999999990
 20
-156.280880999999990
 40
7.000000000000000
 50
180.000000000000000
 51
270.000000000000000
  0
LINE
  8
0
  6
CONTINUOUS
 62
256
 10
-154.022471999999990
 20
-156.280880999999990
 11
-154.022471999999990
 21
-43.280881000000001
  0
LINE
  8
0
  6
DASHDOT
 62
256
 10
-30.922249999999998
 20
-40.780830999999999
 11
-45.122250000000001
 21
-40.780830999999999
  0
LINE
  8
0
  6
DASHDOT
 62
256
 10
-128.022471999999990
 20
-33.280881000000001
 11
-128.022471999999990
 21
-48.280881000000001
  0
LINE
  8
0
  6
DASHDOT
 62
256
 10
-120.522471999999990
 20
-40.780881000000001
 11
-135.522471999999990
 21
-40.780881000000001
  0
LINE
  8
0
  6
CONTINUOUS
 62
256
 10
-14.022472000000000
 20
-43.280881000000001
 11
-14.022472000000000
 21
-156.280880999999990
  0
ARC
  8
0
  6
CONTINUOUS
 62
256
 10
-20.022472000000000
 20
-156.280880999999990
 40
6.000000000000000
 50
270.000000000000000
 51
0.000000000000000
  0
LINE
  8
0
  6
CONTINUOUS
 62
256
 10
-20.022472000000000
 20
-162.280880999999990
 11
-33.022250000000000
 21
-162.280880999999990
  0
ARC
  8
0
  6
CONTINUOUS
 62
256
 10
-147.022471999999990
 20
-156.280880999999990
 40
6.000000000000000
 50
180.000000000000000
 51
270.000000000000000
  0
LINE
  8
0
  6
CONTINUOUS
 62
256
 10
-153.022471999999990
 20
-156.280880999999990
 11
-153.022471999999990
 21
-43.280881000000001
  0
ARC
  8
0
  6
CONTINUOUS
 62
256
 10
-147.022471999999990
 20
-43.280881000000001
 40
6.000000000000000
 50
90.000000000000000
 51
180.000000000000000
  0
LINE
  8
0
  6
CONTINUOUS
 62
256
 10
-147.022471999999990
 20
-37.280881000000001
 11
-133.022471999999990
 21
-37.280881000000001
  0
ARC
  8
0
  6
CONTINUOUS
 62
256
 10
-20.022472000000000
 20
-43.280881000000001
 40
6.000000000000000
 50
0.000000000000000
 51
90.000000000000000
  0
LINE
  8
0
  6
CONTINUOUS
 62
256
 10
-19.022472000000000
 20
-64.251444000000006
 11
-19.022472000000000
 21
-135.310318000000000
  0
LINE
  8
0
  6
CONTINUOUS
 62
256
 10
-49.146509000000002
 20
-156.280880999999990
 11
-116.898435000000010
 21
-156.280880999999990
  0
LINE
  8
0
  6
CONTINUOUS
 62
256
 10
-33.022250000000000
 20
-40.780830999999999
 11
-33.022250000000000
 21
-36.680880999999999
  0
LINE
  8
0
  6
CONTINUOUS
 62
256
 10
-43.022250000000000
 20
-40.780830999999999
 11
-43.022250000000000
 21
-36.680880999999999
  0
LINE
  8
0
  6
CONTINUOUS
 62
256
 10
-33.022250000000000
 20
-37.280881000000001
 11
-20.022472000000000
 21
-37.280881000000001
  0
ARC
  8
0
  6
CONTINUOUS
 62
256
 10
-128.022471999999990
 20
-40.780881000000001
 40
5.000000000000000
 50
180.000000000000000
 51
0.000000000000000
  0
LINE
  8
0
  6
CONTINUOUS
 62
256
 10
-133.022471999999990
 20
-40.780881000000001
 11
-133.022471999999990
 21
-36.680880999999999
  0
LINE
  8
0
  6
CONTINUOUS
 62
256
 10
-123.022471999999990
 20
-40.780881000000001
 11
-123.022471999999990
 21
-36.680880999999999
  0
LINE
  8
0
  6
CONTINUOUS
 62
256
 10
-123.022471999999990
 20
-37.280881000000001
 11
-43.022250000000000
 21
-37.280881000000001
  0
ARC
  8
0
  6
CONTINUOUS
 62
256
 10
-128.022471999999990
 20
-158.780880999999990
 40
5.000000000000000
 50
0.000000000000000
 51
180.000000000000000
  0
LINE
  8
0
  6
CONTINUOUS
 62
256
 10
-133.022471999999990
 20
-158.780880999999990
 11
-133.022471999999990
 21
-162.880880999999990
  0
LINE
  8
0
  6
CONTINUOUS
 62
256
 10
-123.022471999999990
 20
-158.780880999999990
 11
-123.022471999999990
 21
-162.880880999999990
  0
LINE
  8
0
  6
DASHDOT
 62
256
 10
-120.522471999999990
 20
-158.780880999999990
 11
-135.522471999999990
 21
-158.780880999999990
  0
LINE
  8
0
  6
DASHDOT
 62
256
 10
-128.022471999999990
 20
-166.280880999999990
 11
-128.022471999999990
 21
-151.280880999999990
  0
LINE
  8
0
  6
DASHDOT
 62
256
 10
-133.792340999999990
 20
-152.280880999999990
 11
-150.958661000000010
 21
-152.280880999999990
  0
LINE
  8
0
  6
DASHDOT
 62
256
 10
-142.022471999999990
 20
-160.790762000000000
 11
-142.022471999999990
 21
-143.064671000000000
  0
LINE
  8
0
  6
CONTINUOUS
 62
256
 10
-43.022250000000000
 20
-158.780931000000010
 11
-43.022250000000000
 21
-162.880931000000000
  0
LINE
  8
0
  6
CONTINUOUS
 62
256
 10
-33.022250000000000
 20
-158.780931000000010
 11
-33.022250000000000
 21
-162.880931000000000
  0
ARC
  8
0
  6
CONTINUOUS
 62
256
 10
-38.022250000000000
 20
-158.780931000000010
 40
5.000000000000000
 50
0.000000000000000
 51
180.000000000000000
  0
ARC
  8
0
  6
CONTINUOUS
 62
256
 10
-38.022250000000000
 20
-158.780931000000010
 40
8.000000000000011
 50
95.267652999999967
 51
142.616543999999980
  0
LINE
  8
0
  6
DASHDOT
 62
256
 10
-30.922249999999998
 20
-158.780931000000010
 11
-45.122250000000001
 21
-158.780931000000010
  0
LINE
  8
0
  6
DASHDOT
 62
256
 10
-38.022250000000000
 20
-165.880931000000000
 11
-38.022250000000000
 21
-151.061274000000000
  0
LINE
  8
0
  6
DASHDOT
 62
256
 10
-24.022472000000000
 20
-160.790762000000000
 11
-24.022472000000000
 21
-144.956749000000000
  0
LINE
  8
0
  6
DASHDOT
 62
256
 10
-32.279299999999999
 20
-152.280880999999990
 11
-10.070114999999999
 21
-152.280880999999990
  0
LINE
  8
0
  6
CONTINUOUS
 62
256
 10
-43.022250000000000
 20
-162.280880999999990
 11
-123.022471999999990
 21
-162.280880999999990
  0
LINE
  8
0
  6
CONTINUOUS
 62
256
 10
-133.022471999999990
 20
-162.280880999999990
 11
-147.022471999999990
 21
-162.280880999999990
  0
ARC
  8
0
  6
CONTINUOUS
 62
256
 10
-20.022472000000000
 20
-156.280880999999990
 40
7.000000000000000
 50
270.000000000000000
 51
0.000000000000000
  0
LINE
  8
0
  6
CONTINUOUS
 62
256
 10
-123.022471999999990
 20
-162.880880999999990
 11
-122.622472000000000
 21
-163.280880999999990
  0
LINE
  8
0
  6
CONTINUOUS
 62
256
 10
-133.022471999999990
 20
-162.880880999999990
 11
-133.422472000000000
 21
-163.280880999999990
  0
LINE
  8
0
  6
CONTINUOUS
 62
256
 10
-43.022250000000000
 20
-162.880931000000000
 11
-43.422249999999998
 21
-163.280931000000010
  0
LINE
  8
0
  6
CONTINUOUS
 62
256
 10
-33.022250000000000
 20
-162.880931000000000
 11
-32.622250000000001
 21
-163.280931000000010
  0
LINE
  8
0
  6
CONTINUOUS
 62
256
 10
-32.622250000000001
 20
-36.280881000000001
 11
-33.022250000000000
 21
-36.680880999999999
  0
LINE
  8
0
  6
CONTINUOUS
 62
256
 10
-43.022250000000000
 20
-36.680880999999999
 11
-43.422249999999998
 21
-36.280881000000001
  0
LINE
  8
0
  6
CONTINUOUS
 62
256
 10
-122.622472000000000
 20
-36.280881000000001
 11
-123.022471999999990
 21
-36.680880999999999
  0
LINE
  8
0
  6
CONTINUOUS
 62
256
 10
-133.022471999999990
 20
-36.680880999999999
 11
-133.422472000000000
 21
-36.280881000000001
  0
ARC
  8
0
  6
CONTINUOUS
 62
256
 10
-128.022695000000000
 20
-158.780931000000010
 40
8.000000000000005
 50
37.383455999999988
 51
84.732347000000047
  0
ARC
  8
0
  6
CONTINUOUS
 62
256
 10
-25.022472000000000
 20
-135.310318000000000
 40
5.999999999999992
 50
273.372286999999970
 51
0.000000000000000
  0
ARC
  8
0
  6
CONTINUOUS
 62
256
 10
-39.307568000000003
 20
-144.840058000000000
 40
5.999999999999987
 50
275.267652999999940
 51
334.043061999999960
  0
ARC
  8
0
  6
CONTINUOUS
 62
256
 10
-49.146509000000002
 20
-150.280880999999990
 40
6.000000000000000
 50
270.000000000000000
 51
322.616544000000030
  0
ARC
  8
0
  6
CONTINUOUS
 62
256
 10
-126.737377000000000
 20
-144.840058000000000
 40
6.000000000000003
 50
205.956938000000010
 51
264.732346999999950
  0
ARC
  8
0
  6
CONTINUOUS
 62
256
 10
-142.022471999999990
 20
-152.280880999999990
 40
10.999999999999996
 50
25.956938000000029
 51
86.627712999999986
  0
ARC
  8
0
  6
CONTINUOUS
 62
256
 10
-141.022471999999990
 20
-135.310318000000000
 40
6.000000000000000
 50
180.000000000000000
 51
266.627712999999970
  0
ARC
  8
0
  6
CONTINUOUS
 62
256
 10
-116.898435000000010
 20
-150.280880999999990
 40
5.999999999999990
 50
217.383455999999910
 51
270.000000000000000
  0
ARC
  8
0
  6
CONTINUOUS
 62
256
 10
-116.898435000000010
 20
-49.280881000000001
 40
6.000000000000000
 50
90.000000000000000
 51
142.616543999999980
  0
ARC
  8
0
  6
CONTINUOUS
 62
256
 10
-142.022471999999990
 20
-47.280881000000001
 40
11.000000000000000
 50
273.372286999999860
 51
334.043061999999960
  0
LINE
  8
0
  6
DASHDOT
 62
256
 10
-38.022250000000000
 20
-47.741480000000003
 11
-38.022250000000000
 21
-33.549199999999999
  0
ARC
  8
0
  6
CONTINUOUS
 62
256
 10
-157.022471999999990
 20
-45.396413000000003
 40
2.999999999999997
 50
271.000000000000110
 51
0.000000000000000
  0
LINE
  8
0
  6
CONTINUOUS
 62
256
 10
-156.542824000000000
 20
-156.173264999999990
 11
-182.022471999999990
 21
-155.728516000000010
  0
LINE
  8
0
  6
CONTINUOUS
 62
256
 10
-156.970114999999990
 20
-48.395955999999998
 11
-182.022471999999990
 21
-48.833246000000003
  0
LINE
  8
0
  6
DASHDOT
 62
256
 10
-113.980416000000010
 20
-89.280880999999994
 11
-10.447397000000000
 21
-89.280880999999994
  0
ARC
  8
0
  6
CONTINUOUS
 62
256
 10
-156.595181999999990
 20
-159.172808000000000
 40
2.999999999999990
 50
16.809629000000072
 51
88.999999999999858
  0
LINE
  8
0
  6
DASHDOT
 62
256
 10
-66.022471999999993
 20
-144.049646000000000
 11
-66.022471999999993
 21
-27.408598000000001
  0
CIRCLE
  8
0
  6
CONTINUOUS
 62
256
 10
-66.022471999999993
 20
-89.280880999999994
 40
42.000000000000000
  0
CIRCLE
  8
0
  6
CONTINUOUS
 62
256
 10
-66.022471999999993
 20
-89.280880999999994
 40
37.500000000000000
  0
LINE
  8
0
  6
CONTINUOUS
 62
256
 10
-177.022471999999990
 20
-54.780881000000001
 11
-177.022471999999990
 21
-51.746428000000002
  0
LINE
  8
0
  6
CONTINUOUS
 62
256
 10
-174.022471999999990
 20
-57.780881000000001
 11
-169.022471999999990
 21
-57.780881000000001
  0
LINE
  8
0
  6
CONTINUOUS
 62
256
 10
-175.022471999999990
 20
-60.851230000000001
 11
-169.022471999999990
 21
-60.851230000000001
  0
LINE
  8
0
  6
CONTINUOUS
 62
256
 10
-164.022471999999990
 20
-65.388715000000005
 11
-164.022471999999990
 21
-62.780881000000001
  0
LINE
  8
0
  6
CONTINUOUS
 62
256
 10
-167.022471999999990
 20
-68.388715000000005
 11
-174.022471999999990
 21
-68.388715000000005
  0
LINE
  8
0
  6
CONTINUOUS
 62
256
 10
-177.022471999999990
 20
-82.280880999999994
 11
-182.022471999999990
 21
-82.280880999999994
  0
LINE
  8
0
  6
CONTINUOUS
 62
256
 10
-177.022471999999990
 20
-102.280880999999990
 11
-177.022471999999990
 21
-62.851230000000001
  0
LINE
  8
0
  6
CONTINUOUS
 62
256
 10
-177.022471999999990
 20
-122.280880999999990
 11
-182.022471999999990
 21
-122.280880999999990
  0
LINE
  8
0
  6
CONTINUOUS
 62
256
 10
-164.022471999999990
 20
-139.173047000000000
 11
-164.022471999999990
 21
-141.780880999999990
  0
LINE
  8
0
  6
CONTINUOUS
 62
256
 10
-167.022471999999990
 20
-136.173047000000000
 11
-174.022471999999990
 21
-136.173047000000000
  0
LINE
  8
0
  6
CONTINUOUS
 62
256
 10
-177.022471999999990
 20
-102.280880999999990
 11
-177.022471999999990
 21
-141.710533000000000
  0
LINE
  8
0
  6
CONTINUOUS
 62
256
 10
-174.022471999999990
 20
-146.780880999999990
 11
-169.022471999999990
 21
-146.780880999999990
  0
LINE
  8
0
  6
CONTINUOUS
 62
256
 10
-175.022471999999990
 20
-143.710533000000000
 11
-169.022471999999990
 21
-143.710533000000000
  0
LINE
  8
0
  6
CONTINUOUS
 62
256
 10
-177.022471999999990
 20
-149.780880999999990
 11
-177.022471999999990
 21
-152.815334000000010
  0
ARC
  8
0
  6
CONTINUOUS
 62
256
 10
-180.022471999999990
 20
-51.746428000000002
 40
3.000000000000000
 50
0.000000000000000
 51
80.279896999999892
  0
ARC
  8
0
  6
CONTINUOUS
 62
256
 10
-180.022471999999990
 20
-152.815334000000010
 40
3.000000000000000
 50
279.720103000000110
 51
0.000000000000000
  0
ARC
  8
0
  6
CONTINUOUS
 62
256
 10
-174.022471999999990
 20
-71.388715000000005
 40
3.000000000000000
 50
90.000000000000000
 51
180.000000000000000
  0
ARC
  8
0
  6
CONTINUOUS
 62
256
 10
-174.022471999999990
 20
-54.780881000000001
 40
3.000000000000000
 50
180.000000000000000
 51
270.000000000000000
  0
ARC
  8
0
  6
CONTINUOUS
 62
256
 10
-175.022471999999990
 20
-62.851230000000001
 40
2.000000000000000
 50
90.000000000000000
 51
180.000000000000000
  0
ARC
  8
0
  6
CONTINUOUS
 62
256
 10
-169.022471999999990
 20
-65.851230000000001
 40
5.000000000000000
 50
0.000000000000000
 51
90.000000000000000
  0
ARC
  8
0
  6
CONTINUOUS
 62
256
 10
-169.022471999999990
 20
-62.780881000000001
 40
5.000000000000000
 50
0.000000000000000
 51
90.000000000000000
  0
ARC
  8
0
  6
CONTINUOUS
 62
256
 10
-174.022471999999990
 20
-133.173047000000000
 40
3.000000000000000
 50
180.000000000000000
 51
270.000000000000000
  0
ARC
  8
0
  6
CONTINUOUS
 62
256
 10
-169.022471999999990
 20
-138.710533000000000
 40
5.000000000000000
 50
270.000000000000000
 51
0.000000000000000
  0
ARC
  8
0
  6
CONTINUOUS
 62
256
 10
-169.022471999999990
 20
-141.780880999999990
 40
5.000000000000000
 50
270.000000000000000
 51
0.000000000000000
  0
ARC
  8
0
  6
CONTINUOUS
 62
256
 10
-174.022471999999990
 20
-149.780880999999990
 40
3.000000000000000
 50
90.000000000000000
 51
180.000000000000000
  0
ARC
  8
0
  6
CONTINUOUS
 62
256
 10
-175.022471999999990
 20
-141.710533000000000
 40
2.000000000000000
 50
180.000000000000000
 51
270.000000000000000
  0
LINE
  8
0
  6
CONTINUOUS
 62
256
 10
-164.022471999999990
 20
-51.519511999999999
 11
-164.022471999999990
 21
-102.280880999999990
  0
LINE
  8
0
  6
CONTINUOUS
 62
256
 10
-164.022471999999990
 20
-153.042250000000000
 11
-164.022471999999990
 21
-102.280880999999990
  0
ARC
  8
0
  6
CONTINUOUS
 62
256
 10
-167.022471999999990
 20
-153.042250000000000
 40
3.000000000000000
 50
279.720103000000110
 51
0.000000000000000
  0
ARC
  8
0
  6
CONTINUOUS
 62
256
 10
-167.022471999999990
 20
-51.519511999999999
 40
3.000000000000000
 50
0.000000000000000
 51
80.279896999999892
  0
ARC
  8
0
  6
CONTINUOUS
 62
256
 10
-167.022471999999990
 20
-133.173047000000000
 40
3.000000000000000
 50
270.000000000000000
 51
0.000000000000000
  0
ARC
  8
0
  6
CONTINUOUS
 62
256
 10
-167.022471999999990
 20
-71.388715000000005
 40
3.000000000000000
 50
0.000000000000000
 51
90.000000000000000
  0
ARC
  8
0
  6
CONTINUOUS
 62
256
 10
-142.022471999999990
 20
-47.280881000000001
 40
13.499999999999996
 50
273.372286999999910
 51
334.043062000000020
  0
ARC
  8
0
  6
CONTINUOUS
 62
256
 10
-24.022472000000000
 20
-152.280880999999990
 40
11.000000000000000
 50
93.372287000000000
 51
154.043061999999990
  0
ARC
  8
0
  6
CONTINUOUS
 62
256
 10
-39.307568000000003
 20
-144.840058000000000
 40
3.500000000000000
 50
275.267652999999940
 51
334.043062000000130
  0
LINE
  8
0
  6
CONTINUOUS
 62
256
 10
-72.636850999999993
 20
-45.780881000000001
 11
-50.094903000000002
 21
-45.780881000000001
  0
CIRCLE
  8
0
  6
CONTINUOUS
 62
256
 10
-66.022471999999993
 20
-89.280880999999994
 40
19.000000000000000
  0
LINE
  8
0
  6
CONTINUOUS
 62
256
 10
-182.022471999999990
 20
-48.780881000000001
 11
-281.022471999999990
 21
-48.780881000000001
  0
LINE
  8
0
  6
CONTINUOUS
 62
256
 10
-281.022471999999990
 20
-88.280880999999994
 11
-182.022471999999990
 21
-88.280880999999994
  0
LINE
  8
0
  6
CONTINUOUS
 62
256
 10
-281.022471999999990
 20
-82.652845999999997
 11
-182.022471999999990
 21
-82.652845999999997
  0
LINE
  8
0
  6
CONTINUOUS
 62
256
 10
-281.022471999999990
 20
-83.894766000000004
 11
-182.022471999999990
 21
-83.894766000000004
  0
LINE
  8
0
  6
CONTINUOUS
 62
256
 10
-281.022471999999990
 20
-79.442640999999995
 11
-182.022471999999990
 21
-79.442640999999995
  0
LINE
  8
0
  6
CONTINUOUS
 62
256
 10
-281.022471999999990
 20
-78.096239999999995
 11
-182.022471999999990
 21
-78.096239999999995
  0
LINE
  8
0
  6
CONTINUOUS
 62
256
 10
-281.022471999999990
 20
-75.003508999999994
 11
-182.022471999999990
 21
-75.003508999999994
  0
LINE
  8
0
  6
CONTINUOUS
 62
256
 10
-281.022471999999990
 20
-73.524485999999996
 11
-182.022471999999990
 21
-73.524485999999996
  0
LINE
  8
0
  6
CONTINUOUS
 62
256
 10
-281.022471999999990
 20
-70.566490000000002
 11
-182.022471999999990
 21
-70.566490000000002
  0
LINE
  8
0
  6
CONTINUOUS
 62
256
 10
-281.022471999999990
 20
-68.977279999999993
 11
-182.022471999999990
 21
-68.977279999999993
  0
LINE
  8
0
  6
CONTINUOUS
 62
256
 10
-281.022471999999990
 20
-61.238967000000002
 11
-182.022471999999990
 21
-61.238967000000002
  0
LINE
  8
0
  6
CONTINUOUS
 62
256
 10
-281.022471999999990
 20
-56.147798999999999
 11
-182.022471999999990
 21
-56.147798999999999
  0
LINE
  8
0
  6
CONTINUOUS
 62
256
 10
-281.022471999999990
 20
-51.780881000000001
 11
-182.022471999999990
 21
-51.780881000000001
  0
LINE
  8
0
  6
CONTINUOUS
 62
256
 10
-281.022471999999990
 20
-51.280881000000001
 11
-182.022471999999990
 21
-51.280881000000001
  0
LINE
  8
0
  6
CONTINUOUS
 62
256
 10
-281.522471999999990
 20
-57.182901000000001
 11
-281.522471999999990
 21
-66.032482000000002
  0
LINE
  8
0
  6
CONTINUOUS
 62
256
 10
-281.022471999999990
 20
-66.032482000000002
 11
-281.522471999999990
 21
-66.032482000000002
  0
LINE
  8
0
  6
CONTINUOUS
 62
256
 10
-281.522471999999990
 20
-58.941482000000001
 11
-281.022471999999990
 21
-58.941482000000001
  0
LINE
  8
0
  6
CONTINUOUS
 62
256
 10
-287.522471999999990
 20
-102.280880999999990
 11
-287.522471999999990
 21
-82.780880999999994
  0
ARC
  8
0
  6
CONTINUOUS
 62
256
 10
-287.022471999999990
 20
-82.780880999999994
 40
0.500000000000015
 50
135.115138000002050
 51
180.000000000000000
  0
ARC
  8
0
  6
CONTINUOUS
 62
256
 10
-287.730999000000000
 20
-82.075197000000003
 40
0.500000000000015
 50
315.115138000002050
 51
358.347093000000770
  0
LINE
  8
0
  6
CONTINUOUS
 62
256
 10
-281.522471999999990
 20
-57.182901000000001
 11
-285.522471999999990
 21
-57.182901000000001
  0
ARC
  8
0
  6
CONTINUOUS
 62
256
 10
-285.522471999999990
 20
-57.682901000000001
 40
0.500000000000000
 50
90.000000000000000
 51
180.000000000000000
  0
LINE
  8
0
  6
CONTINUOUS
 62
256
 10
-286.022471999999990
 20
-57.682901000000001
 11
-286.022471999999990
 21
-73.082239999999999
  0
ARC
  8
0
  6
CONTINUOUS
 62
256
 10
-285.981674000000000
 20
-74.790086000000002
 40
0.999999999999990
 50
121.359035999999310
 51
177.746046999999920
  0
ARC
  8
0
  6
CONTINUOUS
 62
256
 10
-296.022471999999990
 20
-56.153340999999998
 40
9.999999999999993
 50
356.274963000000010
 51
0.000000000000000
  0
ARC
  8
0
  6
CONTINUOUS
 62
256
 10
-287.022471999999990
 20
-73.082239999999999
 40
0.999999999999990
 50
301.359035999999260
 51
0.000000000000000
  0
LINE
  8
0
  6
DASHDOT
 62
256
 10
-277.965071000000020
 20
-62.682901000000001
 11
-292.596235999999980
 21
-62.682901000000001
  0
ARC
  8
0
  6
CONTINUOUS
 62
256
 10
412.477528000000010
 20
-102.280880999999990
 40
700.000000000000000
 50
177.134181000000010
 51
178.347093000000000
  0
ARC
  8
0
  6
CONTINUOUS
 62
256
 10
412.477528000000010
 20
-102.280880999999990
 40
700.000000000000000
 50
175.768744000000000
 51
176.379938000000010
  0
ARC
  8
0
  6
CONTINUOUS
 62
256
 10
-283.619986999999980
 20
-50.780881000000001
 40
2.000000000000000
 50
90.000000000000000
 51
175.768744000000050
  0
LINE
  8
0
  6
CONTINUOUS
 62
256
 10
-281.022471999999990
 20
-48.780881000000001
 11
-283.619986999999980
 21
-48.780881000000001
  0
LINE
  8
0
  6
CONTINUOUS
 62
256
 10
-281.022471999999990
 20
-102.280880999999990
 11
-281.022471999999990
 21
-48.780881000000001
  0
LINE
  8
0
  6
CONTINUOUS
 62
256
 10
-182.022471999999990
 20
-48.780881000000001
 11
-182.022471999999990
 21
-102.280880999999990
  0
LINE
  8
0
  6
CONTINUOUS
 62
256
 10
-281.522471999999990
 20
-147.378861000000000
 11
-281.522471999999990
 21
-138.529280000000000
  0
LINE
  8
0
  6
CONTINUOUS
 62
256
 10
-281.022471999999990
 20
-138.529280000000000
 11
-281.522471999999990
 21
-138.529280000000000
  0
LINE
  8
0
  6
CONTINUOUS
 62
256
 10
-281.522471999999990
 20
-145.620281000000010
 11
-281.022471999999990
 21
-145.620281000000010
  0
LINE
  8
0
  6
CONTINUOUS
 62
256
 10
-287.522471999999990
 20
-102.280880999999990
 11
-287.522471999999990
 21
-121.780880999999990
  0
ARC
  8
0
  6
CONTINUOUS
 62
256
 10
-287.022471999999990
 20
-121.780880999999990
 40
0.500000000000000
 50
180.000000000000000
 51
224.884861999997950
  0
ARC
  8
0
  6
CONTINUOUS
 62
256
 10
-287.730999000000000
 20
-122.486566000000000
 40
0.500000000000022
 50
1.652906999999268
 51
44.884861999997973
  0
LINE
  8
0
  6
CONTINUOUS
 62
256
 10
-281.522471999999990
 20
-147.378861000000000
 11
-285.522471999999990
 21
-147.378861000000000
  0
ARC
  8
0
  6
CONTINUOUS
 62
256
 10
-285.522471999999990
 20
-146.878861000000000
 40
0.500000000000000
 50
180.000000000000000
 51
270.000000000000000
  0
LINE
  8
0
  6
CONTINUOUS
 62
256
 10
-286.022471999999990
 20
-146.878861000000000
 11
-286.022471999999990
 21
-131.479523000000000
  0
ARC
  8
0
  6
CONTINUOUS
 62
256
 10
-285.981674000000000
 20
-129.771676000000010
 40
1.000000000000004
 50
182.253953000000080
 51
238.640964000000680
  0
ARC
  8
0
  6
CONTINUOUS
 62
256
 10
-296.022471999999990
 20
-148.408422000000000
 40
10.000000000000000
 50
0.000000000000000
 51
3.725037000000060
  0
ARC
  8
0
  6
CONTINUOUS
 62
256
 10
-287.022471999999990
 20
-131.479523000000000
 40
1.000000000000000
 50
0.000000000000000
 51
58.640964000000714
  0
LINE
  8
0
  6
DASHDOT
 62
256
 10
-277.965071000000020
 20
-141.878861000000000
 11
-292.596235999999980
 21
-141.878861000000000
  0
ARC
  8
0
  6
CONTINUOUS
 62
256
 10
412.477528000000010
 20
-102.280880999999990
 40
700.000000000000000
 50
181.652906999999970
 51
182.865818999999960
  0
ARC
  8
0
  6
CONTINUOUS
 62
256
 10
412.477528000000010
 20
-102.280880999999990
 40
700.000000000000000
 50
183.620061999999960
 51
184.231255999999970
  0
ARC
  8
0
  6
CONTINUOUS
 62
256
 10
-283.619986999999980
 20
-153.780880999999990
 40
1.999999999999991
 50
184.231256000000140
 51
270.000000000000000
  0
LINE
  8
0
  6
CONTINUOUS
 62
256
 10
-281.022471999999990
 20
-155.780880999999990
 11
-283.619986999999980
 21
-155.780880999999990
  0
LINE
  8
0
  6
CONTINUOUS
 62
256
 10
-281.022471999999990
 20
-153.280880999999990
 11
-182.022471999999990
 21
-153.280880999999990
  0
LINE
  8
0
  6
CONTINUOUS
 62
256
 10
-281.022471999999990
 20
-152.780880999999990
 11
-182.022471999999990
 21
-152.780880999999990
  0
LINE
  8
0
  6
CONTINUOUS
 62
256
 10
-281.022471999999990
 20
-148.413963999999990
 11
-182.022471999999990
 21
-148.413963999999990
  0
LINE
  8
0
  6
CONTINUOUS
 62
256
 10
-281.022471999999990
 20
-143.322795000000010
 11
-182.022471999999990
 21
-143.322795000000010
  0
LINE
  8
0
  6
CONTINUOUS
 62
256
 10
-281.022471999999990
 20
-135.584482000000010
 11
-182.022471999999990
 21
-135.584482000000010
  0
LINE
  8
0
  6
CONTINUOUS
 62
256
 10
-281.022471999999990
 20
-133.995272000000000
 11
-182.022471999999990
 21
-133.995272000000000
  0
LINE
  8
0
  6
CONTINUOUS
 62
256
 10
-281.022471999999990
 20
-131.037276999999990
 11
-182.022471999999990
 21
-131.037276999999990
  0
LINE
  8
0
  6
CONTINUOUS
 62
256
 10
-281.022471999999990
 20
-129.558254000000010
 11
-182.022471999999990
 21
-129.558254000000010
  0
LINE
  8
0
  6
CONTINUOUS
 62
256
 10
-281.022471999999990
 20
-126.465523000000000
 11
-182.022471999999990
 21
-126.465523000000000
  0
LINE
  8
0
  6
CONTINUOUS
 62
256
 10
-281.022471999999990
 20
-125.119121000000010
 11
-182.022471999999990
 21
-125.119121000000010
  0
LINE
  8
0
  6
CONTINUOUS
 62
256
 10
-281.022471999999990
 20
-121.908916000000000
 11
-182.022471999999990
 21
-121.908916000000000
  0
LINE
  8
0
  6
CONTINUOUS
 62
256
 10
-281.022471999999990
 20
-120.666996000000000
 11
-182.022471999999990
 21
-120.666996000000000
  0
LINE
  8
0
  6
CONTINUOUS
 62
256
 10
-281.022471999999990
 20
-116.280880999999990
 11
-182.022471999999990
 21
-116.280880999999990
  0
LINE
  8
0
  6
CONTINUOUS
 62
256
 10
-274.022471999999990
 20
-155.780880999999990
 11
-281.022471999999990
 21
-155.780880999999990
  0
LINE
  8
0
  6
CONTINUOUS
 62
256
 10
-182.022471999999990
 20
-155.780880999999990
 11
-199.022471999999990
 21
-155.780880999999990
  0
LINE
  8
0
  6
CONTINUOUS
 62
256
 10
-273.022471999999990
 20
-188.280880999999990
 11
-273.022471999999990
 21
-159.780880999999990
  0
LINE
  8
0
  6
CONTINUOUS
 62
256
 10
-200.022471999999990
 20
-188.280880999999990
 11
-200.022471999999990
 21
-159.780880999999990
  0
LINE
  8
0
  6
CONTINUOUS
 62
256
 10
-199.022471999999990
 20
-159.780880999999990
 11
-199.022471999999990
 21
-154.780880999999990
  0
LINE
  8
0
  6
CONTINUOUS
 62
256
 10
-274.022471999999990
 20
-159.780880999999990
 11
-274.022471999999990
 21
-154.780880999999990
  0
LINE
  8
0
  6
CONTINUOUS
 62
256
 10
-274.022471999999990
 20
-159.780880999999990
 11
-199.022471999999990
 21
-159.780880999999990
  0
LINE
  8
0
  6
CONTINUOUS
 62
256
 10
-199.022471999999990
 20
-154.780880999999990
 11
-274.022471999999990
 21
-154.780880999999990
  0
LINE
  8
0
  6
DASHDOT
 62
256
 10
-147.022471999999990
 20
-102.280880999999990
 11
-292.982930000000010
 21
-102.280880999999990
  0
LINE
  8
0
  6
CONTINUOUS
 62
256
 10
-182.022471999999990
 20
-155.780880999999990
 11
-182.022471999999990
 21
-102.280880999999990
  0
LINE
  8
0
  6
CONTINUOUS
 62
256
 10
-281.022471999999990
 20
-102.280880999999990
 11
-281.022471999999990
 21
-155.780880999999990
  0
LINE
  8
0
  6
DASHDOT
 62
256
 10
383.128402999999990
 20
-194.315666999999990
 11
383.128402999999990
 21
-33.283740000000002
  0
ARC
  8
0
  6
CONTINUOUS
 62
256
 10
436.128402999999990
 20
-82.780880999999994
 40
0.500000000000000
 50
0.000000000000000
 51
90.000000000000000
  0
ARC
  8
0
  6
CONTINUOUS
 62
256
 10
330.128402999999990
 20
-121.780880999999990
 40
0.500000000000000
 50
180.000000000000000
 51
270.000000000000000
  0
ARC
  8
0
  6
CONTINUOUS
 62
256
 10
330.128402999999990
 20
-82.780880999999994
 40
0.500000000000000
 50
90.000000000000000
 51
180.000000000000000
  0
ARC
  8
0
  6
CONTINUOUS
 62
256
 10
330.128402999999990
 20
-81.780880999999994
 40
0.500000000000000
 50
270.000000000000000
 51
0.000000000000000
  0
ARC
  8
0
  6
CONTINUOUS
 62
256
 10
330.128402999999990
 20
-122.780880999999990
 40
0.500000000000000
 50
0.000000000000000
 51
90.000000000000000
  0
ARC
  8
0
  6
CONTINUOUS
 62
256
 10
436.128402999999990
 20
-121.780880999999990
 40
0.500000000000000
 50
270.000000000000000
 51
0.000000000000000
  0
ARC
  8
0
  6
CONTINUOUS
 62
256
 10
436.128402999999990
 20
-122.780880999999990
 40
0.500000000000000
 50
90.000000000000000
 51
180.000000000000000
  0
ARC
  8
0
  6
CONTINUOUS
 62
256
 10
436.128402999999990
 20
-81.780880999999994
 40
0.500000000000000
 50
180.000000000000000
 51
270.000000000000000
  0
ARC
  8
0
  6
CONTINUOUS
 62
256
 10
338.096047000000000
 20
-143.070595999999990
 40
3.000000000000004
 50
135.000000000000370
 51
217.162520000000170
  0
ARC
  8
0
  6
CONTINUOUS
 62
256
 10
340.036682999999980
 20
-145.301780000000010
 40
3.000000000000027
 50
224.869578999999760
 51
262.178139999999590
  0
ARC
  8
0
  6
CONTINUOUS
 62
256
 10
426.220122000000000
 20
-145.301780000000010
 40
2.999999999999995
 50
277.821860000000410
 51
315.130421000000180
  0
ARC
  8
0
  6
CONTINUOUS
 62
256
 10
428.160757999999990
 20
-143.070595999999990
 40
2.999999999999989
 50
322.837479999999800
 51
44.999999999999616
  0
ARC
  8
0
  6
CONTINUOUS
 62
256
 10
428.160757999999990
 20
-61.491166000000000
 40
2.999999999999981
 50
325.340699999999740
 51
34.659300000000293
  0
ARC
  8
0
  6
CONTINUOUS
 62
256
 10
730.628403000000050
 20
-82.280880999999994
 40
400.000000000000000
 50
178.568016000000000
 51
179.928470000000000
  0
ARC
  8
0
  6
CONTINUOUS
 62
256
 10
355.628402999999990
 20
-74.780880999999994
 40
25.000000000000011
 50
143.130101999999990
 51
174.269825000000000
  0
ARC
  8
0
  6
CONTINUOUS
 62
256
 10
730.628403000000050
 20
-122.280880999999990
 40
400.000000000000000
 50
180.071529999999970
 51
180.859540999999980
  0
ARC
  8
0
  6
CONTINUOUS
 62
256
 10
355.628402999999990
 20
-129.780880999999990
 40
25.000000000000007
 50
176.561350000000030
 51
230.208181000000000
  0
ARC
  8
0
  6
CONTINUOUS
 62
256
 10
35.628402999999999
 20
-122.280880999999990
 40
400.000000000000000
 50
358.568016000000060
 51
359.928470000000000
  0
ARC
  8
0
  6
CONTINUOUS
 62
256
 10
410.628402999999990
 20
-129.780880999999990
 40
24.999999999999986
 50
309.791818999999920
 51
354.269824999999970
  0
ARC
  8
0
  6
CONTINUOUS
 62
256
 10
35.628402999999999
 20
-82.280880999999994
 40
399.999999999999940
 50
0.053000000000000
 51
1.431984000000000
  0
ARC
  8
0
  6
CONTINUOUS
 62
256
 10
410.628402999999990
 20
-74.780880999999994
 40
24.999999999999979
 50
5.730175000000014
 51
36.869897999999985
  0
LINE
  8
0
  6
CONTINUOUS
 62
256
 10
329.628402999999990
 20
-82.780880999999994
 11
329.628402999999990
 21
-121.780880999999990
  0
LINE
  8
0
  6
CONTINUOUS
 62
256
 10
436.628402999999990
 20
-121.780880999999990
 11
436.628402999999990
 21
-82.780880999999994
  0
LINE
  8
0
  6
CONTINUOUS
 62
256
 10
339.628402999999990
 20
-137.295600000000010
 11
335.974726999999970
 21
-140.949275000000000
  0
LINE
  8
0
  6
CONTINUOUS
 62
256
 10
426.628402999999990
 20
-137.295600000000010
 11
430.282078000000010
 21
-140.949275000000000
  0
ARC
  8
0
  6
CONTINUOUS
 62
256
 10
338.096047000000000
 20
-61.491166000000000
 40
2.999999999999981
 50
145.340699999999710
 51
214.659300000000290
  0
LINE
  8
0
  6
CONTINUOUS
 62
256
 10
335.628402999999990
 20
-51.780881000000001
 11
335.628402999999990
 21
-126.780880999999990
  0
LINE
  8
0
  6
CONTINUOUS
 62
256
 10
335.628402999999990
 20
-51.780881000000001
 11
339.628402999999990
 21
-51.780881000000001
  0
LINE
  8
0
  6
CONTINUOUS
 62
256
 10
339.628402999999990
 20
-36.472887000000000
 11
339.628402999999990
 21
-163.088875000000000
  0
LINE
  8
0
  6
CONTINUOUS
 62
256
 10
335.628402999999990
 20
-126.780880999999990
 11
339.628402999999990
 21
-126.780880999999990
  0
LINE
  8
0
  6
CONTINUOUS
 62
256
 10
426.628402999999990
 20
-51.789608999999999
 11
430.628402999999990
 21
-51.789608999999999
  0
LINE
  8
0
  6
CONTINUOUS
 62
256
 10
430.628402999999990
 20
-51.789608999999999
 11
430.628402999999990
 21
-126.772154000000000
  0
LINE
  8
0
  6
CONTINUOUS
 62
256
 10
417.128402999999990
 20
-37.450369999999999
 11
426.628402999999990
 21
-37.450369999999999
  0
LINE
  8
0
  6
CONTINUOUS
 62
256
 10
426.628402999999990
 20
-148.562521000000000
 11
426.628402999999990
 21
-37.450369999999999
  0
LINE
  8
0
  6
CONTINUOUS
 62
256
 10
350.128402999999990
 20
-36.272154000000000
 11
350.128402999999990
 21
-40.780881000000001
  0
LINE
  8
0
  6
CONTINUOUS
 62
256
 10
350.128402999999990
 20
-154.168377999999990
 11
350.128402999999990
 21
-39.772154000000000
  0
LINE
  8
0
  6
CONTINUOUS
 62
256
 10
350.128402999999990
 20
-36.280881000000001
 11
417.128402999999990
 21
-37.450369999999999
  0
LINE
  8
0
  6
CONTINUOUS
 62
256
 10
350.128402999999990
 20
-36.289608999999999
 11
339.628402999999990
 21
-36.472887000000000
  0
LINE
  8
0
  6
CONTINUOUS
 62
256
 10
426.628402999999990
 20
-126.772154000000000
 11
430.628402999999990
 21
-126.772154000000000
  0
LINE
  8
0
  6
CONTINUOUS
 62
256
 10
417.128402999999990
 20
-162.128847000000010
 11
426.628402999999990
 21
-162.128847000000010
  0
LINE
  8
0
  6
CONTINUOUS
 62
256
 10
426.628402999999990
 20
-162.128847000000010
 11
426.628402999999990
 21
-148.562521000000000
  0
LINE
  8
0
  6
CONTINUOUS
 62
256
 10
350.128402999999990
 20
-163.298336000000010
 11
417.128402999999990
 21
-162.128847000000010
  0
LINE
  8
0
  6
CONTINUOUS
 62
256
 10
350.128402999999990
 20
-163.298336000000010
 11
350.128402999999990
 21
-158.789609000000010
  0
LINE
  8
0
  6
CONTINUOUS
 62
256
 10
350.128402999999990
 20
-163.298336000000010
 11
350.128402999999990
 21
-154.168377999999990
  0
LINE
  8
0
  6
CONTINUOUS
 62
256
 10
350.878402999999990
 20
-163.285245000000000
 11
339.628402999999990
 21
-163.088875000000000
  0
LINE
  8
0
  6
CONTINUOUS
 62
256
 10
332.628402999999990
 20
-70.280880999999994
 11
335.628402999999990
 21
-70.280880999999994
  0
ARC
  8
0
  6
CONTINUOUS
 62
256
 10
332.628402999999990
 20
-71.280880999999994
 40
1.000000000000000
 50
90.000000000000000
 51
180.000000000000000
  0
LINE
  8
0
  6
CONTINUOUS
 62
256
 10
331.628402999999990
 20
-71.280880999999994
 11
331.628402999999990
 21
-89.280880999999994
  0
LINE
  8
0
  6
CONTINUOUS
 62
256
 10
332.628402999999990
 20
-108.280880999999990
 11
335.628402999999990
 21
-108.280880999999990
  0
ARC
  8
0
  6
CONTINUOUS
 62
256
 10
332.628402999999990
 20
-107.280880999999990
 40
1.000000000000000
 50
180.000000000000000
 51
270.000000000000000
  0
LINE
  8
0
  6
CONTINUOUS
 62
256
 10
331.628402999999990
 20
-107.280880999999990
 11
331.628402999999990
 21
-89.280880999999994
  0
ARC
  8
0
  6
CONTINUOUS
 62
256
 10
383.128402999999990
 20
-102.280880999999990
 40
53.500000000000028
 50
164.284144000000030
 51
215.601639000000010
  0
LINE
  8
0
  6
CONTINUOUS
 62
256
 10
433.628402999999990
 20
-108.280880999999990
 11
430.628402999999990
 21
-108.280880999999990
  0
ARC
  8
0
  6
CONTINUOUS
 62
256
 10
433.628402999999990
 20
-107.280880999999990
 40
1.000000000000000
 50
270.000000000000000
 51
0.000000000000000
  0
LINE
  8
0
  6
CONTINUOUS
 62
256
 10
434.628402999999990
 20
-107.280880999999990
 11
434.628402999999990
 21
-89.280880999999994
  0
LINE
  8
0
  6
CONTINUOUS
 62
256
 10
434.628402999999990
 20
-71.280880999999994
 11
434.628402999999990
 21
-89.280880999999994
  0
LINE
  8
0
  6
CONTINUOUS
 62
256
 10
433.628402999999990
 20
-70.280880999999994
 11
430.628402999999990
 21
-70.280880999999994
  0
ARC
  8
0
  6
CONTINUOUS
 62
256
 10
433.628402999999990
 20
-71.280880999999994
 40
1.000000000000000
 50
0.000000000000000
 51
90.000000000000000
  0
ARC
  8
0
  6
CONTINUOUS
 62
256
 10
383.128402999999990
 20
-102.280880999999990
 40
53.499999999999986
 50
324.398360999999970
 51
15.715855999999983
  0
ARC
  8
0
  6
CONTINUOUS
 62
256
 10
358.128402999999990
 20
-183.219650000000000
 40
5.000000000000000
 50
180.000000000000000
 51
265.138594999999900
  0
ARC
  8
0
  6
CONTINUOUS
 62
256
 10
408.128402999999990
 20
-183.219650000000000
 40
4.999999999999989
 50
274.861405000000100
 51
0.000000000000000
  0
ARC
  8
0
  6
CONTINUOUS
 62
256
 10
383.128402999999990
 20
110.719119000000010
 40
300.000000000000000
 50
265.138595000000010
 51
274.861404999999990
  0
LINE
  8
0
  6
CONTINUOUS
 62
256
 10
385.628402999999990
 20
-189.270464000000000
 11
385.628402999999990
 21
-189.780880999999990
  0
LINE
  8
0
  6
CONTINUOUS
 62
256
 10
380.628402999999990
 20
-189.270464000000000
 11
380.628402999999990
 21
-189.780880999999990
  0
LINE
  8
0
  6
CONTINUOUS
 62
256
 10
380.628402999999990
 20
-189.780880999999990
 11
385.628402999999990
 21
-189.780880999999990
  0
LINE
  8
0
  6
CONTINUOUS
 62
256
 10
413.128402999999990
 20
-162.198667000000000
 11
413.128402999999990
 21
-183.219650000000000
  0
LINE
  8
0
  6
CONTINUOUS
 62
256
 10
353.128402999999990
 20
-163.245971000000000
 11
353.128402999999990
 21
-183.219650000000000
  0
LINE
  8
0
  6
DASHDOT
 62
256
 10
441.631234000000010
 20
-89.280880999999994
 11
326.030773000000010
 21
-89.280880999999994
  0
LINE
  8
0
  6
DASHDOT
 62
256
 10
338.167594000000010
 20
-152.280880999999990
 11
383.128402999999990
 21
-152.280880999999990
  0
LINE
  8
0
  6
DASHDOT
 62
256
 10
338.090633000000030
 20
-47.280881000000001
 11
383.128402999999990
 21
-47.280881000000001
  0
LINE
  8
0
  6
DASHDOT
 62
256
 10
395.626525000000020
 20
-102.280880999999990
 11
369.341052999999990
 21
-102.280880999999990
  0
LINE
  8
0
  6
DASHDOT
 62
256
 10
383.128402999999990
 20
-47.280881000000001
 11
427.907586999999980
 21
-47.280881000000001
  0
LINE
  8
0
  6
DASHDOT
 62
256
 10
383.128402999999990
 20
-152.280880999999990
 11
429.251538999999980
 21
-152.280880999999990
  0
ARC
  8
0
  6
DASHED
 62
256
 10
-211.522471999999990
 20
-174.280880999999990
 40
7.000000000000000
 50
180.000000000000000
 51
0.000000000000000
  0
LINE
  8
0
  6
DASHED
 62
256
 10
-218.522471999999990
 20
-159.780880999999990
 11
-218.522471999999990
 21
-174.280880999999990
  0
LINE
  8
0
  6
DASHED
 62
256
 10
-204.522471999999990
 20
-159.780880999999990
 11
-204.522471999999990
 21
-174.280880999999990
  0
LINE
  8
0
  6
DASHDOT
 62
256
 10
-202.214137999999990
 20
-174.280880999999990
 11
-221.403178999999990
 21
-174.280880999999990
  0
LINE
  8
0
  6
DASHDOT
 62
256
 10
-211.522471999999990
 20
-156.997030000000000
 11
-211.522471999999990
 21
-184.976379000000010
  0
LINE
  8
0
  6
DASHDOT
 62
256
 10
-251.112174000000010
 20
-174.280880999999990
 11
-271.486355000000000
 21
-174.280880999999990
  0
CIRCLE
  8
0
  6
DASHED
 62
256
 10
-211.522471999999990
 20
-174.280880999999990
 40
6.000000000000000
  0
ARC
  8
0
  6
DASHED
 62
256
 10
-261.522471999999990
 20
-174.280880999999990
 40
7.000000000000000
 50
180.000000000000000
 51
0.000000000000000
  0
LINE
  8
0
  6
DASHED
 62
256
 10
-268.522471999999990
 20
-159.780880999999990
 11
-268.522471999999990
 21
-174.280880999999990
  0
LINE
  8
0
  6
DASHED
 62
256
 10
-254.522471999999990
 20
-159.780880999999990
 11
-254.522471999999990
 21
-174.280880999999990
  0
LINE
  8
0
  6
DASHDOT
 62
256
 10
-261.522471999999990
 20
-156.997030000000000
 11
-261.522471999999990
 21
-184.976379000000010
  0
LINE
  8
0
  6
CONTINUOUS
 62
256
 10
-207.022471999999990
 20
-189.780880999999990
 11
-215.022471999999990
 21
-189.780880999999990
  0
ENDSEC
  0
EOF
