  0
SECTION
  2
HEADER
  9
$TEXTSIZE
 40
2.5
  9
$ACADVER
  1
AC1009
  9
$DIMASZ
 40
3.863703297614046
  9
$DIMEXE
 40
2.000000000000000
  9
$DIMEXO
 40
1.000000000000000
  9
$DIMLFAC
 40
1.000000000000000
  9
$DIMSCALE
 40
1.000000000000000
  9
$DIMTAD
 70
1
  9
$DIMTFAC
 40
0.625000000000000
  9
$DIMTXT
 40
3.200000047683716
  9
$LUPREC
 70
3
  9
$REGENMODE
 70
1
  9
$TEXTSTYLE
  7
STANDARD1
  0
ENDSEC
  0
SECTION
  2
TABLES
  0
TABLE
  2
LTYPE
 70
4
  0
LTYPE
  2
CONTINUOUS
 70
64
  3
Solid line
 72
65
 73
0
 40
0.0
  0
LTYPE
  2
DASHED
 70
64
  3
-- -- -- -- -- -- -- -- -- -- -- -- -- -- --
 72
65
 73
2
 40
0.75
 49
0.5
 49
-0.25
  0
LTYPE
  2
DASHDOT
 70
64
  3
__ . __ . __ . __ . __ . __ . __ . __ . __ . __
 72
65
 73
4
 40
1.0
 49
0.5
 49
-0.25
 49
0.0
 49
-0.25
  0
LTYPE
  2
DIVIDE
 70
64
  3
__ . . __ . . __ . . __ . . __ . . __ . . __
 72
65
 73
6
 40
1.25
 49
0.5
 49
-0.25
 49
0.0
 49
-0.25
 49
0.0
 49
-0.25
  0
ENDTAB
  0
TABLE
  2
LAYER
 70
3
  0
LAYER
  2
0
 70
64
 62
53
  6
CONTINUOUS
  0
LAYER
  2
1
 70
64
 62
102
  6
CONTINUOUS
  0
LAYER
  2
2
 70
64
 62
102
  6
CONTINUOUS
  0
ENDTAB
  0
TABLE
  2
STYLE
 70
4
  0
STYLE
  2
STANDARD1
 70
64
 40
0.0
 41
1.0
 50
0.0
 71
0
 42
3.200000047683716
  3
MONOTXT
  4
BIGFONT
  0
STYLE
  2
STANDARD2
 70
68
 40
0.0
 41
1.0
 50
0.0
 71
0
 42
3.200000047683716
  3
MONOTXT
  4
BIGFONT
  0
STYLE
  2
STANDARD3
 70
64
 40
0.0
 41
1.0
 50
0.0
 71
0
 42
3.200000047683716
  3
MONOTXT
  4

  0
STYLE
  2
STANDARD4
 70
68
 40
0.0
 41
1.0
 50
0.0
 71
0
 42
3.200000047683716
  3
MONOTXT
  4

  0
ENDTAB
  0
TABLE
  2
VIEW
 70
0
  0
ENDTAB
  0
ENDSEC
  0
SECTION
  2
BLOCKS
  0
BLOCK
  8
0
  2
ZU_SYM_1
 70
64
 10
0.000000000000000
 20
0.000000000000000
  0
LINE
  8
0
  6
CONTINUOUS
 62
256
 10
1.999999000000000
 20
-1.154699000000000
 11
-0.000002000000000
 21
-2.309398000000000
  0
LINE
  8
0
  6
CONTINUOUS
 62
256
 10
-1.999999000000000
 20
1.154700000000000
 11
0.000002000000000
 21
2.309399000000000
  0
LINE
  8
0
  6
CONTINUOUS
 62
256
 10
-0.000002000000000
 20
-2.309397000000000
 11
-1.999997000000000
 21
-1.154696000000000
  0
LINE
  8
0
  6
CONTINUOUS
 62
256
 10
1.999998000000000
 20
1.154696000000000
 11
0.000002000000000
 21
2.309399000000000
  0
LINE
  8
0
  6
CONTINUOUS
 62
256
 10
1.999998000000000
 20
1.154695000000000
 11
1.999999000000000
 21
-1.154699000000000
  0
LINE
  8
0
  6
CONTINUOUS
 62
256
 10
-1.999998000000000
 20
-1.154696000000000
 11
-1.999999000000000
 21
1.154700000000000
  0
POINT
  8
0
  6
CONTINUOUS
 62
256
 10
0.000000000000000
 20
0.000000000000000
  0
CIRCLE
  8
0
  6
CONTINUOUS
 62
256
 10
0.000000000000000
 20
0.000000000000000
 40
4.249999000000000
  0
ENDBLK
  8
0
  0
BLOCK
  8
0
  2
ZU_SYM_2
 70
64
 10
0.000000000000000
 20
0.000000000000000
  0
LINE
  8
0
  6
CONTINUOUS
 62
256
 10
1.999999000000000
 20
-1.154699000000000
 11
-0.000002000000000
 21
-2.309398000000000
  0
LINE
  8
0
  6
CONTINUOUS
 62
256
 10
-1.999999000000000
 20
1.154700000000000
 11
0.000002000000000
 21
2.309399000000000
  0
LINE
  8
0
  6
CONTINUOUS
 62
256
 10
-0.000002000000000
 20
-2.309397000000000
 11
-1.999997000000000
 21
-1.154696000000000
  0
LINE
  8
0
  6
CONTINUOUS
 62
256
 10
1.999998000000000
 20
1.154696000000000
 11
0.000002000000000
 21
2.309399000000000
  0
LINE
  8
0
  6
CONTINUOUS
 62
256
 10
1.999998000000000
 20
1.154695000000000
 11
1.999999000000000
 21
-1.154699000000000
  0
LINE
  8
0
  6
CONTINUOUS
 62
256
 10
-1.999998000000000
 20
-1.154696000000000
 11
-1.999999000000000
 21
1.154700000000000
  0
POINT
  8
0
  6
CONTINUOUS
 62
256
 10
0.000000000000000
 20
0.000000000000000
  0
CIRCLE
  8
0
  6
CONTINUOUS
 62
256
 10
0.000000000000000
 20
0.000000000000000
 40
4.249999000000000
  0
ENDBLK
  8
0
  0
BLOCK
  8
0
  2
ZU_SYM_3
 70
64
 10
0.000000000000000
 20
0.000000000000000
  0
LINE
  8
0
  6
CONTINUOUS
 62
256
 10
1.999999000000000
 20
-1.154699000000000
 11
-0.000002000000000
 21
-2.309398000000000
  0
LINE
  8
0
  6
CONTINUOUS
 62
256
 10
-1.999999000000000
 20
1.154700000000000
 11
0.000002000000000
 21
2.309399000000000
  0
LINE
  8
0
  6
CONTINUOUS
 62
256
 10
-0.000002000000000
 20
-2.309397000000000
 11
-1.999997000000000
 21
-1.154696000000000
  0
LINE
  8
0
  6
CONTINUOUS
 62
256
 10
1.999998000000000
 20
1.154696000000000
 11
0.000002000000000
 21
2.309399000000000
  0
LINE
  8
0
  6
CONTINUOUS
 62
256
 10
1.999998000000000
 20
1.154695000000000
 11
1.999999000000000
 21
-1.154699000000000
  0
LINE
  8
0
  6
CONTINUOUS
 62
256
 10
-1.999998000000000
 20
-1.154696000000000
 11
-1.999999000000000
 21
1.154700000000000
  0
POINT
  8
0
  6
CONTINUOUS
 62
256
 10
0.000000000000000
 20
0.000000000000000
  0
CIRCLE
  8
0
  6
CONTINUOUS
 62
256
 10
0.000000000000000
 20
0.000000000000000
 40
4.249999000000000
  0
ENDBLK
  8
0
  0
BLOCK
  8
0
  2
ZU_SYM_4
 70
64
 10
0.000000000000000
 20
0.000000000000000
  0
LINE
  8
0
  6
CONTINUOUS
 62
256
 10
1.999999000000000
 20
-1.154699000000000
 11
-0.000002000000000
 21
-2.309398000000000
  0
LINE
  8
0
  6
CONTINUOUS
 62
256
 10
-1.999999000000000
 20
1.154700000000000
 11
0.000002000000000
 21
2.309399000000000
  0
LINE
  8
0
  6
CONTINUOUS
 62
256
 10
-0.000002000000000
 20
-2.309397000000000
 11
-1.999997000000000
 21
-1.154696000000000
  0
LINE
  8
0
  6
CONTINUOUS
 62
256
 10
1.999998000000000
 20
1.154696000000000
 11
0.000002000000000
 21
2.309399000000000
  0
LINE
  8
0
  6
CONTINUOUS
 62
256
 10
1.999998000000000
 20
1.154695000000000
 11
1.999999000000000
 21
-1.154699000000000
  0
LINE
  8
0
  6
CONTINUOUS
 62
256
 10
-1.999998000000000
 20
-1.154696000000000
 11
-1.999999000000000
 21
1.154700000000000
  0
POINT
  8
0
  6
CONTINUOUS
 62
256
 10
0.000000000000000
 20
0.000000000000000
  0
CIRCLE
  8
0
  6
CONTINUOUS
 62
256
 10
0.000000000000000
 20
0.000000000000000
 40
4.249999000000000
  0
ENDBLK
  8
0
  0
ENDSEC
  0
SECTION
  2
ENTITIES
  0
TEXT
  8
0
  6
CONTINUOUS
 62
256
 10
-70.375488281250000
 20
-13.156250000000000
 40
2.799999952316284
  1
ü@
 50
0.000002504478167
 41
0.996000017370497
  7
STANDARD1
  0
TEXT
  8
0
  6
CONTINUOUS
 62
256
 10
1.624511957168579
 20
-253.406250000000000
 40
2.799999952316284
  1
ü@
 50
0.000002504478167
 41
0.996000017370497
  7
STANDARD1
  0
CIRCLE
  8
0
  6
CONTINUOUS
 62
256
 10
-108.932275000000000
 20
-36.166736000000000
 40
7.000000000000000
  0
CIRCLE
  8
0
  6
CONTINUOUS
 62
256
 10
9.067724999999999
 20
-36.166736000000000
 40
7.000000000000000
  0
CIRCLE
  8
0
  6
CONTINUOUS
 62
256
 10
9.067724999999999
 20
-141.166735999999990
 40
7.000000000000000
  0
CIRCLE
  8
0
  6
CONTINUOUS
 62
256
 10
-108.932275000000000
 20
-141.166735999999990
 40
7.000000000000000
  0
LINE
  8
0
  6
DASHED
 62
256
 10
342.718599999999980
 20
-29.166736000000000
 11
353.718599999999980
 21
-29.166736000000000
  0
LINE
  8
0
  6
DASHED
 62
256
 10
353.718599999999980
 20
-43.166736000000000
 11
353.718599999999980
 21
-29.166736000000000
  0
LINE
  8
0
  6
DASHED
 62
256
 10
353.718599999999980
 20
-31.666736000000000
 11
418.718599999999980
 21
-31.666736000000000
  0
LINE
  8
0
  6
DASHED
 62
256
 10
353.718599999999980
 20
-40.666736000000000
 11
418.718599999999980
 21
-40.666736000000000
  0
LINE
  8
0
  6
DASHED
 62
256
 10
342.718599999999980
 20
-43.166736000000000
 11
353.718599999999980
 21
-43.166736000000000
  0
LINE
  8
0
  6
DASHED
 62
256
 10
418.718599999999980
 20
-43.166736000000000
 11
418.718599999999980
 21
-29.166736000000000
  0
LINE
  8
0
  6
DASHED
 62
256
 10
429.718599999999980
 20
-29.166736000000000
 11
418.718599999999980
 21
-29.166736000000000
  0
LINE
  8
0
  6
DASHED
 62
256
 10
429.718599999999980
 20
-43.166736000000000
 11
418.718599999999980
 21
-43.166736000000000
  0
LINE
  8
0
  6
DASHED
 62
256
 10
342.718599999999980
 20
-134.166735999999990
 11
353.718599999999980
 21
-134.166735999999990
  0
LINE
  8
0
  6
DASHED
 62
256
 10
353.718599999999980
 20
-136.666735999999990
 11
418.718599999999980
 21
-136.666735999999990
  0
LINE
  8
0
  6
DASHED
 62
256
 10
353.718599999999980
 20
-148.166735999999990
 11
353.718599999999980
 21
-134.166735999999990
  0
LINE
  8
0
  6
DASHED
 62
256
 10
353.718599999999980
 20
-145.666735999999990
 11
418.718599999999980
 21
-145.666735999999990
  0
LINE
  8
0
  6
DASHED
 62
256
 10
342.718599999999980
 20
-148.166735999999990
 11
353.718599999999980
 21
-148.166735999999990
  0
LINE
  8
0
  6
DASHED
 62
256
 10
429.718599999999980
 20
-134.166735999999990
 11
418.718599999999980
 21
-134.166735999999990
  0
LINE
  8
0
  6
DASHED
 62
256
 10
418.718599999999980
 20
-148.166735999999990
 11
418.718599999999980
 21
-134.166735999999990
  0
LINE
  8
0
  6
DASHED
 62
256
 10
429.718599999999980
 20
-148.166735999999990
 11
418.718599999999980
 21
-148.166735999999990
  0
LINE
  8
0
  6
CONTINUOUS
 62
256
 10
106.169734000000010
 20
-90.666736000000000
 11
122.169734000000010
 21
-90.666736000000000
  0
LINE
  8
0
  6
CONTINUOUS
 62
256
 10
106.169734000000010
 20
-65.666736000000000
 11
122.169734000000010
 21
-65.666736000000000
  0
LINE
  8
0
  6
CONTINUOUS
 62
256
 10
167.169734000000010
 20
-90.666736000000000
 11
187.169734000000010
 21
-90.666736000000000
  0
LINE
  8
0
  6
CONTINUOUS
 62
256
 10
167.169734000000010
 20
-65.666736000000000
 11
187.169734000000010
 21
-65.666736000000000
  0
LINE
  8
0
  6
CONTINUOUS
 62
256
 10
165.169734000000010
 20
-64.666736000000000
 11
167.169734000000010
 21
-64.666736000000000
  0
LINE
  8
0
  6
CONTINUOUS
 62
256
 10
165.169734000000010
 20
-91.666736000000000
 11
167.169734000000010
 21
-91.666736000000000
  0
LINE
  8
0
  6
CONTINUOUS
 62
256
 10
104.169734000000010
 20
-64.666736000000000
 11
106.169734000000010
 21
-64.666736000000000
  0
LINE
  8
0
  6
CONTINUOUS
 62
256
 10
104.169734000000010
 20
-91.666736000000000
 11
106.169734000000010
 21
-91.666736000000000
  0
LINE
  8
0
  6
CONTINUOUS
 62
256
 10
104.169734000000010
 20
-91.666736000000000
 11
104.169734000000010
 21
-64.666736000000000
  0
LINE
  8
0
  6
CONTINUOUS
 62
256
 10
167.169734000000010
 20
-91.666736000000000
 11
167.169734000000010
 21
-64.666736000000000
  0
LINE
  8
0
  6
CONTINUOUS
 62
256
 10
106.169734000000010
 20
-91.666736000000000
 11
106.169734000000010
 21
-64.666736000000000
  0
LINE
  8
0
  6
CONTINUOUS
 62
256
 10
165.169734000000010
 20
-91.666736000000000
 11
165.169734000000010
 21
-64.666736000000000
  0
LINE
  8
0
  6
CONTINUOUS
 62
256
 10
122.169734000000010
 20
-91.166736000000000
 11
122.169734000000010
 21
-65.166736000000000
  0
LINE
  8
0
  6
CONTINUOUS
 62
256
 10
149.169734000000010
 20
-91.166736000000000
 11
149.169734000000010
 21
-65.166736000000000
  0
LINE
  8
0
  6
CONTINUOUS
 62
256
 10
126.669734000000010
 20
-56.816735999999999
 11
156.669759000000000
 21
-56.816735999999999
  0
LINE
  8
0
  6
CONTINUOUS
 62
256
 10
84.169734000000005
 20
-90.666736000000000
 11
104.169734000000010
 21
-90.666736000000000
  0
LINE
  8
0
  6
CONTINUOUS
 62
256
 10
84.169734000000005
 20
-65.666736000000000
 11
104.169734000000010
 21
-65.666736000000000
  0
LINE
  8
0
  6
CONTINUOUS
 62
256
 10
120.669734000000010
 20
-62.366736000000003
 11
187.169734000000010
 21
-62.366736000000003
  0
LINE
  8
0
  6
DASHDOT
 62
256
 10
81.776936000000006
 20
-78.166736000000000
 11
190.110268999999990
 21
-78.166736000000000
  0
LINE
  8
0
  6
CONTINUOUS
 62
256
 10
126.669734000000010
 20
-56.816735999999999
 11
126.669734000000010
 21
-58.116736000000003
  0
LINE
  8
0
  6
CONTINUOUS
 62
256
 10
99.169734000000005
 20
-97.166736000000000
 11
99.169734000000005
 21
-98.216735999999997
  0
LINE
  8
0
  6
CONTINUOUS
 62
256
 10
99.169734000000005
 20
-59.166736000000000
 11
99.169734000000005
 21
-58.116736000000003
  0
LINE
  8
0
  6
CONTINUOUS
 62
256
 10
172.169734000000010
 20
-58.166736000000000
 11
156.669759000000000
 21
-58.166736000000000
  0
LINE
  8
0
  6
CONTINUOUS
 62
256
 10
172.169734000000010
 20
-98.166736000000000
 11
156.669759000000000
 21
-98.166736000000000
  0
LINE
  8
0
  6
CONTINUOUS
 62
256
 10
172.169734000000010
 20
-59.166736000000000
 11
172.169734000000010
 21
-58.166735000000003
  0
LINE
  8
0
  6
CONTINUOUS
 62
256
 10
172.169734000000010
 20
-97.166736000000000
 11
172.169734000000010
 21
-98.166736000000000
  0
LINE
  8
0
  6
CONTINUOUS
 62
256
 10
84.169734000000005
 20
-97.166736000000000
 11
84.169734000000005
 21
-59.166736000000000
  0
LINE
  8
0
  6
CONTINUOUS
 62
256
 10
84.169734000000005
 20
-97.166736000000000
 11
99.169734000000005
 21
-97.166736000000000
  0
LINE
  8
0
  6
CONTINUOUS
 62
256
 10
84.169734000000005
 20
-59.166736000000000
 11
99.169734000000005
 21
-59.166736000000000
  0
LINE
  8
0
  6
CONTINUOUS
 62
256
 10
187.169734000000010
 20
-97.166736000000000
 11
187.169734000000010
 21
-59.166736000000000
  0
LINE
  8
0
  6
CONTINUOUS
 62
256
 10
187.169734000000010
 20
-59.166736000000000
 11
172.169734000000010
 21
-59.166736000000000
  0
LINE
  8
0
  6
CONTINUOUS
 62
256
 10
84.169734000000005
 20
-62.366736000000003
 11
120.669734000000010
 21
-62.366736000000003
  0
LINE
  8
0
  6
CONTINUOUS
 62
256
 10
187.169734000000010
 20
-97.166736000000000
 11
172.169734000000010
 21
-97.166736000000000
  0
LINE
  8
0
  6
CONTINUOUS
 62
256
 10
99.169734000000005
 20
-58.116736000000003
 11
126.669734000000010
 21
-58.116736000000003
  0
LINE
  8
0
  6
CONTINUOUS
 62
256
 10
99.169734000000005
 20
-98.216735999999997
 11
126.669734000000010
 21
-98.216735999999997
  0
LINE
  8
0
  6
CONTINUOUS
 62
256
 10
126.669734000000010
 20
-99.516735999999995
 11
156.669759000000000
 21
-99.516735999999995
  0
LINE
  8
0
  6
CONTINUOUS
 62
256
 10
126.669734000000010
 20
-99.516735999999995
 11
126.669734000000010
 21
-98.216735999999997
  0
LINE
  8
0
  6
CONTINUOUS
 62
256
 10
156.669759000000000
 20
-98.166736000000000
 11
156.669759000000000
 21
-99.516735999999995
  0
LINE
  8
0
  6
CONTINUOUS
 62
256
 10
156.669759000000000
 20
-58.166736000000000
 11
156.669759000000000
 21
-56.816735999999999
  0
LINE
  8
0
  6
CONTINUOUS
 62
256
 10
122.169734000000010
 20
-65.166736000000000
 11
149.169734000000010
 21
-65.166736000000000
  0
LINE
  8
0
  6
CONTINUOUS
 62
256
 10
122.169734000000010
 20
-91.166736000000000
 11
149.169734000000010
 21
-91.166736000000000
  0
LINE
  8
0
  6
CONTINUOUS
 62
256
 10
149.169734000000010
 20
-65.666736000000000
 11
165.169734000000010
 21
-65.666736000000000
  0
LINE
  8
0
  6
CONTINUOUS
 62
256
 10
149.169734000000010
 20
-90.666736000000000
 11
165.169734000000010
 21
-90.666736000000000
  0
INSERT
  8
0
  2
ZU_SYM_1
 10
-94.932275000000004
 20
-29.666736000000000
  0
INSERT
  8
0
  2
ZU_SYM_2
 10
-94.932275000000004
 20
-147.666735999999990
  0
INSERT
  8
0
  2
ZU_SYM_3
 10
-4.932053000000000
 20
-147.666786000000000
  0
INSERT
  8
0
  2
ZU_SYM_4
 10
-4.932053000000000
 20
-29.666685999999999
  0
ARC
  8
0
  6
CONTINUOUS
 62
256
 10
-4.932053000000000
 20
-147.666786000000000
 40
10.500000000000000
 50
95.267652999999996
 51
142.616544000000000
  0
LINE
  8
0
  6
CONTINUOUS
 62
256
 10
-16.056311999999998
 20
-142.666735999999990
 11
-82.859845000000007
 21
-142.666735999999990
  0
ARC
  8
0
  6
CONTINUOUS
 62
256
 10
-16.056311999999998
 20
-139.166735999999990
 40
3.500000000000000
 50
270.000000000000000
 51
322.616544000000150
  0
LINE
  8
0
  6
DASHDOT
 62
256
 10
-80.890219000000002
 20
-78.166736000000000
 11
23.334845000000001
 21
-78.166736000000000
  0
LINE
  8
0
  6
CONTINUOUS
 62
256
 10
-28.932275000000001
 20
-62.366736000000003
 11
-36.932274999999997
 21
-62.366736000000003
  0
LINE
  8
0
  6
CONTINUOUS
 62
256
 10
-28.932275000000001
 20
-62.366736000000003
 11
-28.932275000000001
 21
-66.324016999999998
  0
LINE
  8
0
  6
CONTINUOUS
 62
256
 10
-36.932274999999997
 20
-62.366736000000003
 11
-36.932274999999997
 21
-66.324016999999998
  0
ARC
  8
0
  6
CONTINUOUS
 62
256
 10
-32.932274999999997
 20
-78.166736000000000
 40
12.500000000000002
 50
108.662925000000020
 51
71.337074999999999
  0
ARC
  8
0
  6
CONTINUOUS
 62
256
 10
-82.859845000000007
 20
-40.166736000000000
 40
5.500000000000000
 50
90.000000000000000
 51
138.985263000000030
  0
LINE
  8
0
  6
CONTINUOUS
 62
256
 10
-82.859845000000007
 20
-34.666736000000000
 11
-39.546653999999997
 21
-34.666736000000000
  0
LINE
  8
0
  6
CONTINUOUS
 62
256
 10
-83.808238000000003
 20
-32.166736000000000
 11
-16.056311999999998
 21
-32.166736000000000
  0
ARC
  8
0
  6
CONTINUOUS
 62
256
 10
-94.932497999999995
 20
-29.666685999999999
 40
7.999999999999996
 50
275.267653000000000
 51
322.616544000000030
  0
ARC
  8
0
  6
CONTINUOUS
 62
256
 10
-94.932497999999995
 20
-29.666685999999999
 40
10.499999999999998
 50
275.267653000000000
 51
318.985262999999970
  0
ARC
  8
0
  6
CONTINUOUS
 62
256
 10
-93.647180000000006
 20
-43.607559999999999
 40
6.000000000000002
 50
95.267653000000010
 51
154.043062000000020
  0
ARC
  8
0
  6
CONTINUOUS
 62
256
 10
-107.932275000000000
 20
-53.137298999999999
 40
5.999999999999999
 50
93.372287000000000
 51
180.000000000000000
  0
LINE
  8
0
  6
CONTINUOUS
 62
256
 10
-113.932275000000000
 20
-124.196173000000000
 11
-113.932275000000000
 21
-53.137298999999999
  0
LINE
  8
0
  6
DASHDOT
 62
256
 10
-108.932275000000000
 20
-27.656855000000000
 11
-108.932275000000000
 21
-45.382945999999997
  0
ARC
  8
0
  6
CONTINUOUS
 62
256
 10
-107.932275000000000
 20
-53.137298999999999
 40
3.500000000000003
 50
93.372286999999972
 51
180.000000000000000
  0
ARC
  8
0
  6
CONTINUOUS
 62
256
 10
-93.647180000000006
 20
-43.607559999999999
 40
3.500000000000000
 50
95.267653000000053
 51
154.043062000000020
  0
LINE
  8
0
  6
CONTINUOUS
 62
256
 10
-111.432275000000000
 20
-124.196173000000000
 11
-111.432275000000000
 21
-53.137298999999999
  0
ARC
  8
0
  6
CONTINUOUS
 62
256
 10
-107.932275000000000
 20
-124.196173000000000
 40
3.500000000000000
 50
180.000000000000000
 51
266.627713000000030
  0
ARC
  8
0
  6
CONTINUOUS
 62
256
 10
-108.932275000000000
 20
-141.166735999999990
 40
13.499999999999993
 50
25.956937999999962
 51
86.627712999999972
  0
ARC
  8
0
  6
CONTINUOUS
 62
256
 10
-93.647180000000006
 20
-133.725912999999990
 40
3.499999999999993
 50
205.956937999999890
 51
264.732346999999950
  0
ARC
  8
0
  6
CONTINUOUS
 62
256
 10
-94.932497999999995
 20
-147.666786000000000
 40
10.500000000000004
 50
41.014737000000025
 51
84.732347000000033
  0
ARC
  8
0
  6
CONTINUOUS
 62
256
 10
-82.859845000000007
 20
-137.166735999999990
 40
5.500000000000001
 50
221.014736999999910
 51
270.000000000000000
  0
ARC
  8
0
  6
CONTINUOUS
 62
256
 10
9.067724999999999
 20
-141.166735999999990
 40
13.500000000000004
 50
93.372287000000000
 51
154.043062000000050
  0
ARC
  8
0
  6
CONTINUOUS
 62
256
 10
8.067724999999999
 20
-124.196173000000000
 40
3.500000000000002
 50
273.372286999999970
 51
0.000000000000000
  0
ARC
  8
0
  6
CONTINUOUS
 62
256
 10
-16.056311999999998
 20
-38.166736000000000
 40
6.000000000000001
 50
37.383456000000002
 51
90.000000000000000
  0
ARC
  8
0
  6
CONTINUOUS
 62
256
 10
-6.217371000000000
 20
-43.607559999999999
 40
5.999999999999999
 50
25.956937999999980
 51
84.732347000000004
  0
ARC
  8
0
  6
CONTINUOUS
 62
256
 10
8.067724999999999
 20
-53.137298999999999
 40
6.000000000000000
 50
0.000000000000000
 51
86.627712999999986
  0
ARC
  8
0
  6
CONTINUOUS
 62
256
 10
9.067724999999999
 20
-36.166736000000000
 40
11.000000000000000
 50
205.956938000000010
 51
266.627713000000030
  0
ARC
  8
0
  6
CONTINUOUS
 62
256
 10
-4.932053000000000
 20
-29.666685999999999
 40
8.000000000000002
 50
217.383456000000000
 51
264.732347000000000
  0
ARC
  8
0
  6
CONTINUOUS
 62
256
 10
-4.932053000000000
 20
-29.666685999999999
 40
5.000000000000000
 50
180.000000000000000
 51
0.000000000000000
  0
LINE
  8
0
  6
DASHDOT
 62
256
 10
0.810897000000000
 20
-36.166736000000000
 11
23.020081999999999
 21
-36.166736000000000
  0
LINE
  8
0
  6
DASHDOT
 62
256
 10
9.067724999999999
 20
-27.656855000000000
 11
9.067724999999999
 21
-43.490867999999999
  0
ARC
  8
0
  6
CONTINUOUS
 62
256
 10
-17.004705999999999
 20
-40.166736000000000
 40
5.500000000000002
 50
41.014737000000018
 51
90.000000000000000
  0
ARC
  8
0
  6
CONTINUOUS
 62
256
 10
-4.932053000000000
 20
-29.666685999999999
 40
10.500000000000000
 50
221.014737000000000
 51
264.732347000000000
  0
ARC
  8
0
  6
CONTINUOUS
 62
256
 10
-6.217371000000000
 20
-43.607559999999999
 40
3.499999999999999
 50
25.956937999999969
 51
84.732347000000004
  0
ARC
  8
0
  6
CONTINUOUS
 62
256
 10
9.067724999999999
 20
-36.166736000000000
 40
13.500000000000002
 50
205.956937999999980
 51
266.627713000000030
  0
ARC
  8
0
  6
CONTINUOUS
 62
256
 10
8.067724999999999
 20
-53.137298999999999
 40
3.500000000000000
 50
0.000000000000000
 51
86.627712999999986
  0
LINE
  8
0
  6
CONTINUOUS
 62
256
 10
11.567724999999999
 20
-53.137298999999999
 11
11.567724999999999
 21
-124.196173000000000
  0
ARC
  8
0
  6
CONTINUOUS
 62
256
 10
-113.932275000000000
 20
-32.166736000000000
 40
7.000000000000000
 50
90.000000000000000
 51
180.000000000000000
  0
LINE
  8
0
  6
DASHDOT
 62
256
 10
-100.702144000000000
 20
-36.166736000000000
 11
-117.868464000000000
 21
-36.166736000000000
  0
LINE
  8
0
  6
CONTINUOUS
 62
256
 10
13.067724999999999
 20
-25.166736000000000
 11
-113.932275000000000
 21
-25.166736000000000
  0
LINE
  8
0
  6
CONTINUOUS
 62
256
 10
20.067724999999999
 20
-32.166736000000000
 11
20.067724999999999
 21
-145.166735999999990
  0
ARC
  8
0
  6
CONTINUOUS
 62
256
 10
13.067724999999999
 20
-32.166736000000000
 40
7.000000000000000
 50
0.000000000000000
 51
90.000000000000000
  0
LINE
  8
0
  6
CONTINUOUS
 62
256
 10
-113.932275000000000
 20
-152.166735999999990
 11
13.067724999999999
 21
-152.166735999999990
  0
ARC
  8
0
  6
CONTINUOUS
 62
256
 10
-113.932275000000000
 20
-145.166735999999990
 40
7.000000000000000
 50
180.000000000000000
 51
270.000000000000000
  0
LINE
  8
0
  6
CONTINUOUS
 62
256
 10
-120.932275000000000
 20
-145.166735999999990
 11
-120.932275000000000
 21
-32.166736000000000
  0
LINE
  8
0
  6
DASHDOT
 62
256
 10
2.167947000000000
 20
-29.666685999999999
 11
-12.032052999999999
 21
-29.666685999999999
  0
LINE
  8
0
  6
DASHDOT
 62
256
 10
-94.932275000000004
 20
-22.166736000000000
 11
-94.932275000000004
 21
-37.166736000000000
  0
LINE
  8
0
  6
DASHDOT
 62
256
 10
-87.432275000000004
 20
-29.666736000000000
 11
-102.432275000000000
 21
-29.666736000000000
  0
LINE
  8
0
  6
CONTINUOUS
 62
256
 10
19.067724999999999
 20
-32.166736000000000
 11
19.067724999999999
 21
-145.166735999999990
  0
ARC
  8
0
  6
CONTINUOUS
 62
256
 10
13.067724999999999
 20
-145.166735999999990
 40
6.000000000000000
 50
270.000000000000000
 51
0.000000000000000
  0
LINE
  8
0
  6
CONTINUOUS
 62
256
 10
13.067724999999999
 20
-151.166735999999990
 11
0.067947000000000
 21
-151.166735999999990
  0
ARC
  8
0
  6
CONTINUOUS
 62
256
 10
-113.932275000000000
 20
-145.166735999999990
 40
6.000000000000000
 50
180.000000000000000
 51
270.000000000000000
  0
LINE
  8
0
  6
CONTINUOUS
 62
256
 10
-119.932275000000000
 20
-145.166735999999990
 11
-119.932275000000000
 21
-32.166736000000000
  0
ARC
  8
0
  6
CONTINUOUS
 62
256
 10
-113.932275000000000
 20
-32.166736000000000
 40
6.000000000000000
 50
90.000000000000000
 51
180.000000000000000
  0
LINE
  8
0
  6
CONTINUOUS
 62
256
 10
-113.932275000000000
 20
-26.166736000000000
 11
-99.932275000000004
 21
-26.166736000000000
  0
ARC
  8
0
  6
CONTINUOUS
 62
256
 10
13.067724999999999
 20
-32.166736000000000
 40
6.000000000000000
 50
0.000000000000000
 51
90.000000000000000
  0
LINE
  8
0
  6
CONTINUOUS
 62
256
 10
14.067724999999999
 20
-53.137298999999999
 11
14.067724999999999
 21
-124.196173000000000
  0
LINE
  8
0
  6
CONTINUOUS
 62
256
 10
-16.056311999999998
 20
-145.166735999999990
 11
-83.808238000000003
 21
-145.166735999999990
  0
LINE
  8
0
  6
CONTINUOUS
 62
256
 10
0.067947000000000
 20
-29.666685999999999
 11
0.067947000000000
 21
-25.566735999999999
  0
LINE
  8
0
  6
CONTINUOUS
 62
256
 10
-9.932053000000000
 20
-29.666685999999999
 11
-9.932053000000000
 21
-25.566735999999999
  0
LINE
  8
0
  6
CONTINUOUS
 62
256
 10
0.067947000000000
 20
-26.166736000000000
 11
13.067724999999999
 21
-26.166736000000000
  0
ARC
  8
0
  6
CONTINUOUS
 62
256
 10
-94.932275000000004
 20
-29.666736000000000
 40
5.000000000000000
 50
180.000000000000000
 51
0.000000000000000
  0
LINE
  8
0
  6
CONTINUOUS
 62
256
 10
-99.932275000000004
 20
-29.666736000000000
 11
-99.932275000000004
 21
-25.566735999999999
  0
LINE
  8
0
  6
CONTINUOUS
 62
256
 10
-89.932275000000004
 20
-29.666736000000000
 11
-89.932275000000004
 21
-25.566735999999999
  0
LINE
  8
0
  6
CONTINUOUS
 62
256
 10
-89.932275000000004
 20
-26.166736000000000
 11
-9.932053000000000
 21
-26.166736000000000
  0
ARC
  8
0
  6
CONTINUOUS
 62
256
 10
-94.932275000000004
 20
-147.666735999999990
 40
5.000000000000000
 50
0.000000000000000
 51
180.000000000000000
  0
LINE
  8
0
  6
CONTINUOUS
 62
256
 10
-99.932275000000004
 20
-147.666735999999990
 11
-99.932275000000004
 21
-151.766736000000010
  0
LINE
  8
0
  6
CONTINUOUS
 62
256
 10
-89.932275000000004
 20
-147.666735999999990
 11
-89.932275000000004
 21
-151.766736000000010
  0
LINE
  8
0
  6
DASHDOT
 62
256
 10
-87.432275000000004
 20
-147.666735999999990
 11
-102.432275000000000
 21
-147.666735999999990
  0
LINE
  8
0
  6
DASHDOT
 62
256
 10
-94.932275000000004
 20
-155.166735999999990
 11
-94.932275000000004
 21
-140.166735999999990
  0
LINE
  8
0
  6
DASHDOT
 62
256
 10
-100.702144000000000
 20
-141.166735999999990
 11
-117.868464000000000
 21
-141.166735999999990
  0
LINE
  8
0
  6
DASHDOT
 62
256
 10
-108.932275000000000
 20
-149.676617999999990
 11
-108.932275000000000
 21
-131.950526000000000
  0
LINE
  8
0
  6
CONTINUOUS
 62
256
 10
-9.932053000000000
 20
-147.666786000000000
 11
-9.932053000000000
 21
-151.766786000000000
  0
LINE
  8
0
  6
CONTINUOUS
 62
256
 10
0.067947000000000
 20
-147.666786000000000
 11
0.067947000000000
 21
-151.766786000000000
  0
ARC
  8
0
  6
CONTINUOUS
 62
256
 10
-4.932053000000000
 20
-147.666786000000000
 40
5.000000000000000
 50
0.000000000000000
 51
180.000000000000000
  0
ARC
  8
0
  6
CONTINUOUS
 62
256
 10
-4.932053000000000
 20
-147.666786000000000
 40
8.000000000000011
 50
95.267652999999981
 51
142.616543999999980
  0
LINE
  8
0
  6
DASHDOT
 62
256
 10
2.167947000000000
 20
-147.666786000000000
 11
-12.032052999999999
 21
-147.666786000000000
  0
LINE
  8
0
  6
DASHDOT
 62
256
 10
-4.932053000000000
 20
-154.766786000000000
 11
-4.932053000000000
 21
-139.947128999999990
  0
LINE
  8
0
  6
DASHDOT
 62
256
 10
9.067724999999999
 20
-149.676617999999990
 11
9.067724999999999
 21
-133.842603999999990
  0
LINE
  8
0
  6
DASHDOT
 62
256
 10
0.810897000000000
 20
-141.166735999999990
 11
23.020081999999999
 21
-141.166735999999990
  0
LINE
  8
0
  6
CONTINUOUS
 62
256
 10
-9.932053000000000
 20
-151.166735999999990
 11
-89.932275000000004
 21
-151.166735999999990
  0
LINE
  8
0
  6
CONTINUOUS
 62
256
 10
-99.932275000000004
 20
-151.166735999999990
 11
-113.932275000000000
 21
-151.166735999999990
  0
ARC
  8
0
  6
CONTINUOUS
 62
256
 10
13.067724999999999
 20
-145.166735999999990
 40
7.000000000000000
 50
270.000000000000000
 51
0.000000000000000
  0
LINE
  8
0
  6
CONTINUOUS
 62
256
 10
-89.932275000000004
 20
-151.766736000000010
 11
-89.532274999999998
 21
-152.166735999999990
  0
LINE
  8
0
  6
CONTINUOUS
 62
256
 10
-99.932275000000004
 20
-151.766736000000010
 11
-100.332275000000000
 21
-152.166735999999990
  0
LINE
  8
0
  6
CONTINUOUS
 62
256
 10
-9.932053000000000
 20
-151.766786000000000
 11
-10.332053000000000
 21
-152.166786000000000
  0
LINE
  8
0
  6
CONTINUOUS
 62
256
 10
0.067947000000000
 20
-151.766786000000000
 11
0.467947000000000
 21
-152.166786000000000
  0
LINE
  8
0
  6
CONTINUOUS
 62
256
 10
0.467947000000000
 20
-25.166736000000000
 11
0.067947000000000
 21
-25.566735999999999
  0
LINE
  8
0
  6
CONTINUOUS
 62
256
 10
-9.932053000000000
 20
-25.566735999999999
 11
-10.332053000000000
 21
-25.166736000000000
  0
LINE
  8
0
  6
CONTINUOUS
 62
256
 10
-89.532274999999998
 20
-25.166736000000000
 11
-89.932275000000004
 21
-25.566735999999999
  0
LINE
  8
0
  6
CONTINUOUS
 62
256
 10
-99.932275000000004
 20
-25.566735999999999
 11
-100.332275000000000
 21
-25.166736000000000
  0
ARC
  8
0
  6
CONTINUOUS
 62
256
 10
-94.932497999999995
 20
-147.666786000000000
 40
8.000000000000005
 50
37.383455999999988
 51
84.732347000000047
  0
ARC
  8
0
  6
CONTINUOUS
 62
256
 10
8.067724999999999
 20
-124.196173000000000
 40
6.000000000000006
 50
273.372286999999970
 51
0.000000000000000
  0
ARC
  8
0
  6
CONTINUOUS
 62
256
 10
-6.217371000000000
 20
-133.725912999999990
 40
5.999999999999987
 50
275.267653000000000
 51
334.043061999999960
  0
ARC
  8
0
  6
CONTINUOUS
 62
256
 10
-16.056311999999998
 20
-139.166735999999990
 40
6.000000000000000
 50
270.000000000000000
 51
322.616544000000090
  0
ARC
  8
0
  6
CONTINUOUS
 62
256
 10
-93.647180000000006
 20
-133.725912999999990
 40
6.000000000000003
 50
205.956938000000010
 51
264.732346999999950
  0
ARC
  8
0
  6
CONTINUOUS
 62
256
 10
-108.932275000000000
 20
-141.166735999999990
 40
10.999999999999996
 50
25.956938000000029
 51
86.627712999999986
  0
ARC
  8
0
  6
CONTINUOUS
 62
256
 10
-107.932275000000000
 20
-124.196173000000000
 40
6.000000000000000
 50
180.000000000000000
 51
266.627712999999970
  0
ARC
  8
0
  6
CONTINUOUS
 62
256
 10
-83.808238000000003
 20
-139.166735999999990
 40
5.999999999999990
 50
217.383455999999910
 51
270.000000000000000
  0
ARC
  8
0
  6
CONTINUOUS
 62
256
 10
-83.808238000000003
 20
-38.166736000000000
 40
6.000000000000000
 50
90.000000000000000
 51
142.616543999999980
  0
ARC
  8
0
  6
CONTINUOUS
 62
256
 10
-108.932275000000000
 20
-36.166736000000000
 40
11.000000000000000
 50
273.372286999999970
 51
334.043061999999960
  0
LINE
  8
0
  6
DASHDOT
 62
256
 10
-4.932053000000000
 20
-36.627335000000002
 11
-4.932053000000000
 21
-22.435054999999998
  0
ARC
  8
0
  6
CONTINUOUS
 62
256
 10
-123.932275000000000
 20
-34.282268000000002
 40
2.999999999999997
 50
270.999999999999890
 51
0.000000000000000
  0
LINE
  8
0
  6
CONTINUOUS
 62
256
 10
-123.452627000000010
 20
-145.059120000000010
 11
-148.932275000000000
 21
-144.614371000000010
  0
LINE
  8
0
  6
CONTINUOUS
 62
256
 10
-123.879918000000000
 20
-37.281810999999998
 11
-148.932275000000000
 21
-37.719101000000002
  0
ARC
  8
0
  6
CONTINUOUS
 62
256
 10
-123.504983999999990
 20
-148.058663000000000
 40
3.000000000000003
 50
16.809628999999994
 51
89.000000000000128
  0
LINE
  8
0
  6
DASHDOT
 62
256
 10
-32.932274999999997
 20
-132.935500999999990
 11
-32.932274999999997
 21
-16.294453000000001
  0
CIRCLE
  8
0
  6
CONTINUOUS
 62
256
 10
-32.932274999999997
 20
-78.166736000000000
 40
42.000000000000000
  0
CIRCLE
  8
0
  6
CONTINUOUS
 62
256
 10
-32.932274999999997
 20
-78.166736000000000
 40
37.500000000000000
  0
LINE
  8
0
  6
CONTINUOUS
 62
256
 10
-143.932275000000000
 20
-43.666736000000000
 11
-143.932275000000000
 21
-40.632283000000001
  0
LINE
  8
0
  6
CONTINUOUS
 62
256
 10
-140.932275000000000
 20
-46.666736000000000
 11
-135.932275000000000
 21
-46.666736000000000
  0
LINE
  8
0
  6
CONTINUOUS
 62
256
 10
-141.932275000000000
 20
-49.737085000000000
 11
-135.932275000000000
 21
-49.737085000000000
  0
LINE
  8
0
  6
CONTINUOUS
 62
256
 10
-130.932275000000000
 20
-54.274569999999997
 11
-130.932275000000000
 21
-51.666736000000000
  0
LINE
  8
0
  6
CONTINUOUS
 62
256
 10
-133.932275000000000
 20
-57.274569999999997
 11
-140.932275000000000
 21
-57.274569999999997
  0
LINE
  8
0
  6
CONTINUOUS
 62
256
 10
-143.932275000000000
 20
-71.166736000000000
 11
-148.932275000000000
 21
-71.166736000000000
  0
LINE
  8
0
  6
CONTINUOUS
 62
256
 10
-143.932275000000000
 20
-91.166736000000000
 11
-143.932275000000000
 21
-51.737085000000000
  0
LINE
  8
0
  6
CONTINUOUS
 62
256
 10
-143.932275000000000
 20
-111.166736000000000
 11
-148.932275000000000
 21
-111.166736000000000
  0
LINE
  8
0
  6
CONTINUOUS
 62
256
 10
-130.932275000000000
 20
-128.058901999999990
 11
-130.932275000000000
 21
-130.666735999999990
  0
LINE
  8
0
  6
CONTINUOUS
 62
256
 10
-133.932275000000000
 20
-125.058902000000000
 11
-140.932275000000000
 21
-125.058902000000000
  0
LINE
  8
0
  6
CONTINUOUS
 62
256
 10
-143.932275000000000
 20
-91.166736000000000
 11
-143.932275000000000
 21
-130.596387999999990
  0
LINE
  8
0
  6
CONTINUOUS
 62
256
 10
-140.932275000000000
 20
-135.666735999999990
 11
-135.932275000000000
 21
-135.666735999999990
  0
LINE
  8
0
  6
CONTINUOUS
 62
256
 10
-141.932275000000000
 20
-132.596387999999990
 11
-135.932275000000000
 21
-132.596387999999990
  0
LINE
  8
0
  6
CONTINUOUS
 62
256
 10
-143.932275000000000
 20
-138.666735999999990
 11
-143.932275000000000
 21
-141.701189000000000
  0
ARC
  8
0
  6
CONTINUOUS
 62
256
 10
-146.932275000000000
 20
-40.632283000000001
 40
3.000000000000000
 50
0.000000000000000
 51
91.000000000000156
  0
ARC
  8
0
  6
CONTINUOUS
 62
256
 10
-146.932275000000000
 20
-141.701189000000000
 40
3.000000000000011
 50
268.999999999999830
 51
0.000000000000000
  0
ARC
  8
0
  6
CONTINUOUS
 62
256
 10
-140.932275000000000
 20
-60.274569999999997
 40
3.000000000000000
 50
90.000000000000000
 51
180.000000000000000
  0
ARC
  8
0
  6
CONTINUOUS
 62
256
 10
-140.932275000000000
 20
-43.666736000000000
 40
3.000000000000000
 50
180.000000000000000
 51
270.000000000000000
  0
ARC
  8
0
  6
CONTINUOUS
 62
256
 10
-141.932275000000000
 20
-51.737085000000000
 40
2.000000000000000
 50
90.000000000000000
 51
180.000000000000000
  0
ARC
  8
0
  6
CONTINUOUS
 62
256
 10
-135.932275000000000
 20
-54.737085000000000
 40
5.000000000000000
 50
0.000000000000000
 51
90.000000000000000
  0
ARC
  8
0
  6
CONTINUOUS
 62
256
 10
-135.932275000000000
 20
-51.666736000000000
 40
5.000000000000000
 50
0.000000000000000
 51
90.000000000000000
  0
ARC
  8
0
  6
CONTINUOUS
 62
256
 10
-140.932275000000000
 20
-122.058902000000000
 40
3.000000000000000
 50
180.000000000000000
 51
270.000000000000000
  0
ARC
  8
0
  6
CONTINUOUS
 62
256
 10
-135.932275000000000
 20
-127.596388000000000
 40
4.999999999999986
 50
270.000000000000000
 51
0.000000000000000
  0
ARC
  8
0
  6
CONTINUOUS
 62
256
 10
-135.932275000000000
 20
-130.666735999999990
 40
5.000000000000000
 50
270.000000000000000
 51
0.000000000000000
  0
ARC
  8
0
  6
CONTINUOUS
 62
256
 10
-140.932275000000000
 20
-138.666735999999990
 40
3.000000000000000
 50
90.000000000000000
 51
180.000000000000000
  0
ARC
  8
0
  6
CONTINUOUS
 62
256
 10
-141.932275000000000
 20
-130.596387999999990
 40
2.000000000000000
 50
180.000000000000000
 51
270.000000000000000
  0
LINE
  8
0
  6
CONTINUOUS
 62
256
 10
-130.932275000000000
 20
-40.405366999999998
 11
-130.932275000000000
 21
-91.166736000000000
  0
LINE
  8
0
  6
CONTINUOUS
 62
256
 10
-130.932275000000000
 20
-141.928104999999990
 11
-130.932275000000000
 21
-91.166736000000000
  0
ARC
  8
0
  6
CONTINUOUS
 62
256
 10
-133.932275000000000
 20
-141.928104999999990
 40
3.000000000000011
 50
268.999999999999830
 51
0.000000000000000
  0
ARC
  8
0
  6
CONTINUOUS
 62
256
 10
-133.932275000000000
 20
-40.405366999999998
 40
3.000000000000000
 50
0.000000000000000
 51
91.000000000000156
  0
ARC
  8
0
  6
CONTINUOUS
 62
256
 10
-133.932275000000000
 20
-122.058902000000000
 40
3.000000000000000
 50
270.000000000000000
 51
0.000000000000000
  0
ARC
  8
0
  6
CONTINUOUS
 62
256
 10
-133.932275000000000
 20
-60.274569999999997
 40
3.000000000000000
 50
0.000000000000000
 51
90.000000000000000
  0
LINE
  8
0
  6
CONTINUOUS
 62
256
 10
-148.932275000000000
 20
-91.166736000000000
 11
-148.932275000000000
 21
-144.666735999999990
  0
LINE
  8
0
  6
CONTINUOUS
 62
256
 10
-148.932275000000000
 20
-91.166736000000000
 11
-148.932275000000000
 21
-37.666736000000000
  0
ARC
  8
0
  6
CONTINUOUS
 62
256
 10
-108.932275000000000
 20
-36.166736000000000
 40
13.500000000000004
 50
273.372286999999970
 51
334.043062000000020
  0
ARC
  8
0
  6
CONTINUOUS
 62
256
 10
9.067724999999999
 20
-141.166735999999990
 40
11.000000000000000
 50
93.372287000000000
 51
154.043061999999990
  0
ARC
  8
0
  6
CONTINUOUS
 62
256
 10
-6.217371000000000
 20
-133.725912999999990
 40
3.500000000000000
 50
275.267653000000000
 51
334.043062000000130
  0
LINE
  8
0
  6
CONTINUOUS
 62
256
 10
-39.546653999999997
 20
-34.666736000000000
 11
-17.004705999999999
 21
-34.666736000000000
  0
CIRCLE
  8
0
  6
CONTINUOUS
 62
256
 10
-32.932274999999997
 20
-78.166736000000000
 40
19.000000000000000
  0
LINE
  8
0
  6
CONTINUOUS
 62
256
 10
-282.932275000000000
 20
-43.323115999999999
 11
-282.932275000000000
 21
-91.166736000000000
  0
LINE
  8
0
  6
CONTINUOUS
 62
256
 10
-274.252794999999990
 20
-35.892204000000000
 11
-281.823574000000010
 21
-41.193320999999997
  0
ARC
  8
0
  6
CONTINUOUS
 62
256
 10
-280.332274999999980
 20
-43.323115999999999
 40
2.600000000000001
 50
125.000000000000110
 51
180.000000000000000
  0
ARC
  8
0
  6
CONTINUOUS
 62
256
 10
-262.437119999999990
 20
-52.766736000000002
 40
20.600000000000001
 50
90.000000000000000
 51
124.999999999999990
  0
LINE
  8
0
  6
CONTINUOUS
 62
256
 10
-282.932275000000000
 20
-139.010356000000000
 11
-282.932275000000000
 21
-91.166736000000000
  0
LINE
  8
0
  6
CONTINUOUS
 62
256
 10
-274.252794999999990
 20
-146.441268000000010
 11
-281.823574000000010
 21
-141.140152000000000
  0
ARC
  8
0
  6
CONTINUOUS
 62
256
 10
-280.332274999999980
 20
-139.010356000000000
 40
2.600000000000023
 50
180.000000000000000
 51
234.999999999999770
  0
ARC
  8
0
  6
CONTINUOUS
 62
256
 10
-262.437119999999990
 20
-129.566735999999990
 40
20.599999999999991
 50
235.000000000000000
 51
270.000000000000000
  0
LINE
  8
0
  6
DASHDOT
 62
256
 10
-110.214941999999990
 20
-91.166736000000000
 11
-289.905552000000000
 21
-91.166736000000000
  0
LINE
  8
0
  6
CONTINUOUS
 62
256
 10
-232.932275000000000
 20
-32.166736000000000
 11
-262.437119999999990
 21
-32.166736000000000
  0
LINE
  8
0
  6
CONTINUOUS
 62
256
 10
-242.932275000000000
 20
-150.166735999999990
 11
-262.437119999999990
 21
-150.166735999999990
  0
LINE
  8
0
  6
CONTINUOUS
 62
256
 10
-240.932275000000000
 20
-148.666735999999990
 11
-240.932275000000000
 21
-145.678005000000010
  0
LINE
  8
0
  6
CONTINUOUS
 62
256
 10
-165.932275000000000
 20
-143.666735999999990
 11
-233.165743999999990
 21
-143.666735999999990
  0
LINE
  8
0
  6
CONTINUOUS
 62
256
 10
-232.932275000000000
 20
-142.166735999999990
 11
-148.932275000000000
 21
-142.166735999999990
  0
LINE
  8
0
  6
CONTINUOUS
 62
256
 10
-232.932275000000000
 20
-141.666735999999990
 11
-148.932275000000000
 21
-141.666735999999990
  0
LINE
  8
0
  6
CONTINUOUS
 62
256
 10
-232.932275000000000
 20
-137.299819000000010
 11
-148.932275000000000
 21
-137.299819000000010
  0
LINE
  8
0
  6
CONTINUOUS
 62
256
 10
-232.932275000000000
 20
-132.208650000000010
 11
-148.932275000000000
 21
-132.208650000000010
  0
LINE
  8
0
  6
CONTINUOUS
 62
256
 10
-232.932275000000000
 20
-122.881127000000010
 11
-148.932275000000000
 21
-122.881127000000010
  0
LINE
  8
0
  6
CONTINUOUS
 62
256
 10
-232.932275000000000
 20
-124.470337000000000
 11
-148.932275000000000
 21
-124.470337000000000
  0
LINE
  8
0
  6
CONTINUOUS
 62
256
 10
-232.932275000000000
 20
-119.923132000000000
 11
-148.932275000000000
 21
-119.923132000000000
  0
LINE
  8
0
  6
CONTINUOUS
 62
256
 10
-232.932275000000000
 20
-118.444109000000000
 11
-148.932275000000000
 21
-118.444109000000000
  0
LINE
  8
0
  6
CONTINUOUS
 62
256
 10
-232.932275000000000
 20
-115.351378000000000
 11
-148.932275000000000
 21
-115.351378000000000
  0
LINE
  8
0
  6
CONTINUOUS
 62
256
 10
-232.932275000000000
 20
-114.004976000000000
 11
-148.932275000000000
 21
-114.004976000000000
  0
LINE
  8
0
  6
CONTINUOUS
 62
256
 10
-232.932275000000000
 20
-110.794771000000000
 11
-148.932275000000000
 21
-110.794771000000000
  0
LINE
  8
0
  6
CONTINUOUS
 62
256
 10
-232.932275000000000
 20
-109.552851000000000
 11
-148.932275000000000
 21
-109.552851000000000
  0
LINE
  8
0
  6
CONTINUOUS
 62
256
 10
-232.932275000000000
 20
-105.166736000000000
 11
-148.932275000000000
 21
-105.166736000000000
  0
LINE
  8
0
  6
CONTINUOUS
 62
256
 10
-232.932275000000000
 20
-77.166736000000000
 11
-148.932275000000000
 21
-77.166736000000000
  0
LINE
  8
0
  6
CONTINUOUS
 62
256
 10
-232.932275000000000
 20
-72.780620999999996
 11
-148.932275000000000
 21
-72.780620999999996
  0
LINE
  8
0
  6
CONTINUOUS
 62
256
 10
-232.932275000000000
 20
-71.538702000000001
 11
-148.932275000000000
 21
-71.538702000000001
  0
LINE
  8
0
  6
CONTINUOUS
 62
256
 10
-232.932275000000000
 20
-68.328496999999999
 11
-148.932275000000000
 21
-68.328496999999999
  0
LINE
  8
0
  6
CONTINUOUS
 62
256
 10
-232.932275000000000
 20
-66.982095000000001
 11
-148.932275000000000
 21
-66.982095000000001
  0
LINE
  8
0
  6
CONTINUOUS
 62
256
 10
-232.932275000000000
 20
-63.889364000000000
 11
-148.932275000000000
 21
-63.889364000000000
  0
LINE
  8
0
  6
CONTINUOUS
 62
256
 10
-232.932275000000000
 20
-62.410341000000003
 11
-148.932275000000000
 21
-62.410341000000003
  0
LINE
  8
0
  6
CONTINUOUS
 62
256
 10
-232.932275000000000
 20
-59.452345000000001
 11
-148.932275000000000
 21
-59.452345000000001
  0
LINE
  8
0
  6
CONTINUOUS
 62
256
 10
-232.932275000000000
 20
-57.863135000000000
 11
-148.932275000000000
 21
-57.863135000000000
  0
LINE
  8
0
  6
CONTINUOUS
 62
256
 10
-232.932275000000000
 20
-50.124822000000002
 11
-148.932275000000000
 21
-50.124822000000002
  0
LINE
  8
0
  6
CONTINUOUS
 62
256
 10
-232.932275000000000
 20
-45.033653999999999
 11
-148.932275000000000
 21
-45.033653999999999
  0
LINE
  8
0
  6
CONTINUOUS
 62
256
 10
-232.932275000000000
 20
-40.666736000000000
 11
-148.932275000000000
 21
-40.666736000000000
  0
LINE
  8
0
  6
CONTINUOUS
 62
256
 10
-232.932275000000000
 20
-40.166736000000000
 11
-148.932275000000000
 21
-40.166736000000000
  0
LINE
  8
0
  6
CONTINUOUS
 62
256
 10
-148.932275000000000
 20
-37.666736000000000
 11
-232.932275000000000
 21
-37.666736000000000
  0
LINE
  8
0
  6
CONTINUOUS
 62
256
 10
-243.932275000000000
 20
-42.022815000000001
 11
-245.932275000000000
 21
-43.675457000000002
  0
LINE
  8
0
  6
CONTINUOUS
 62
256
 10
-241.932275000000000
 20
-40.847029999999997
 11
-243.932275000000000
 21
-42.022815000000001
  0
LINE
  8
0
  6
CONTINUOUS
 62
256
 10
-243.932275000000000
 20
-42.022815000000001
 11
-241.932275000000000
 21
-43.675457000000002
  0
LINE
  8
0
  6
CONTINUOUS
 62
256
 10
-245.932275000000000
 20
-40.847029999999997
 11
-243.932275000000000
 21
-42.022815000000001
  0
POLYLINE
  8
0
  6
CONTINUOUS
 62
256
 66
1
 70
1
  0
VERTEX
  8
0
  6
CONTINUOUS
 62
256
 10
-239.232275000000020
 20
-43.839404999999999
  0
VERTEX
  8
0
  6
CONTINUOUS
 62
256
 10
-239.322584182104830
 20
-43.136448489441833
  0
VERTEX
  8
0
  6
CONTINUOUS
 62
256
 10
-239.590041197196970
 20
-42.460506203361859
  0
VERTEX
  8
0
  6
CONTINUOUS
 62
256
 10
-240.024367822178050
 20
-41.837554224741339
  0
VERTEX
  8
0
  6
CONTINUOUS
 62
256
 10
-240.608873128423230
 20
-41.291532248763161
  0
VERTEX
  8
0
  6
CONTINUOUS
 62
256
 10
-241.321094904807890
 20
-40.843423593751510
  0
VERTEX
  8
0
  6
CONTINUOUS
 62
256
 10
-242.133662867884080
 20
-40.510448824016265
  0
VERTEX
  8
0
  6
CONTINUOUS
 62
256
 10
-243.015350486524200
 20
-40.305403973223939
  0
VERTEX
  8
0
  6
CONTINUOUS
 62
256
 10
-243.932275000000000
 20
-40.236168800000009
  0
VERTEX
  8
0
  6
CONTINUOUS
 62
256
 10
-244.849199513475810
 20
-40.305403973223939
  0
VERTEX
  8
0
  6
CONTINUOUS
 62
256
 10
-245.730887132115920
 20
-40.510448824016265
  0
VERTEX
  8
0
  6
CONTINUOUS
 62
256
 10
-246.543455095192120
 20
-40.843423593751510
  0
VERTEX
  8
0
  6
CONTINUOUS
 62
256
 10
-247.255676871576780
 20
-41.291532248763161
  0
VERTEX
  8
0
  6
CONTINUOUS
 62
256
 10
-247.840182177821960
 20
-41.837554224741339
  0
VERTEX
  8
0
  6
CONTINUOUS
 62
256
 10
-248.274508802803040
 20
-42.460506203361859
  0
VERTEX
  8
0
  6
CONTINUOUS
 62
256
 10
-248.541965817895170
 20
-43.136448489441833
  0
VERTEX
  8
0
  6
CONTINUOUS
 62
256
 10
-248.632274999999990
 20
-43.839404999999999
  0
VERTEX
  8
0
  6
CONTINUOUS
 62
256
 10
-248.541965817895170
 20
-44.542361510558166
  0
VERTEX
  8
0
  6
CONTINUOUS
 62
256
 10
-248.274508802803040
 20
-45.218303796638139
  0
VERTEX
  8
0
  6
CONTINUOUS
 62
256
 10
-247.840182177821960
 20
-45.841255775258659
  0
VERTEX
  8
0
  6
CONTINUOUS
 62
256
 10
-247.255676871576780
 20
-46.387277751236837
  0
VERTEX
  8
0
  6
CONTINUOUS
 62
256
 10
-246.543455095192120
 20
-46.835386406248489
  0
VERTEX
  8
0
  6
CONTINUOUS
 62
256
 10
-245.730887132115920
 20
-47.168361175983733
  0
VERTEX
  8
0
  6
CONTINUOUS
 62
256
 10
-244.849199513475810
 20
-47.373406026776060
  0
VERTEX
  8
0
  6
CONTINUOUS
 62
256
 10
-243.932275000000000
 20
-47.442641199999990
  0
VERTEX
  8
0
  6
CONTINUOUS
 62
256
 10
-243.015350486524200
 20
-47.373406026776060
  0
VERTEX
  8
0
  6
CONTINUOUS
 62
256
 10
-242.133662867884080
 20
-47.168361175983733
  0
VERTEX
  8
0
  6
CONTINUOUS
 62
256
 10
-241.321094904807890
 20
-46.835386406248489
  0
VERTEX
  8
0
  6
CONTINUOUS
 62
256
 10
-240.608873128423260
 20
-46.387277751236837
  0
VERTEX
  8
0
  6
CONTINUOUS
 62
256
 10
-240.024367822178050
 20
-45.841255775258659
  0
VERTEX
  8
0
  6
CONTINUOUS
 62
256
 10
-239.590041197196970
 20
-45.218303796638139
  0
VERTEX
  8
0
  6
CONTINUOUS
 62
256
 10
-239.322584182104830
 20
-44.542361510558166
  0
SEQEND
  8
0
  6
CONTINUOUS
 62
256
  0
LINE
  8
0
  6
CONTINUOUS
 62
256
 10
-232.932275000000000
 20
-32.166736000000000
 11
-232.932275000000000
 21
-91.166736000000000
  0
LINE
  8
0
  6
CONTINUOUS
 62
256
 10
-242.932275000000000
 20
-150.166735999999990
 11
-242.932275000000000
 21
-148.506432999999990
  0
ARC
  8
0
  6
CONTINUOUS
 62
256
 10
-239.932275000000000
 20
-148.506432999999990
 40
3.000000000000000
 50
90.000000000000000
 51
180.000000000000000
  0
LINE
  8
0
  6
CONTINUOUS
 62
256
 10
-243.932275000000000
 20
-140.310656999999990
 11
-245.932275000000000
 21
-138.658016000000000
  0
LINE
  8
0
  6
CONTINUOUS
 62
256
 10
-241.932275000000000
 20
-141.486443000000010
 11
-243.932275000000000
 21
-140.310656999999990
  0
LINE
  8
0
  6
CONTINUOUS
 62
256
 10
-243.932275000000000
 20
-140.310656999999990
 11
-241.932275000000000
 21
-138.658016000000000
  0
LINE
  8
0
  6
CONTINUOUS
 62
256
 10
-245.932275000000000
 20
-141.486443000000010
 11
-243.932275000000000
 21
-140.310656999999990
  0
POLYLINE
  8
0
  6
CONTINUOUS
 62
256
 66
1
 70
1
  0
VERTEX
  8
0
  6
CONTINUOUS
 62
256
 10
-239.232275000000020
 20
-138.494067000000000
  0
VERTEX
  8
0
  6
CONTINUOUS
 62
256
 10
-239.322584182104830
 20
-137.791110489441820
  0
VERTEX
  8
0
  6
CONTINUOUS
 62
256
 10
-239.590041197196970
 20
-137.115168203361860
  0
VERTEX
  8
0
  6
CONTINUOUS
 62
256
 10
-240.024367822178050
 20
-136.492216224741330
  0
VERTEX
  8
0
  6
CONTINUOUS
 62
256
 10
-240.608873128423230
 20
-135.946194248763160
  0
VERTEX
  8
0
  6
CONTINUOUS
 62
256
 10
-241.321094904807890
 20
-135.498085593751510
  0
VERTEX
  8
0
  6
CONTINUOUS
 62
256
 10
-242.133662867884080
 20
-135.165110824016270
  0
VERTEX
  8
0
  6
CONTINUOUS
 62
256
 10
-243.015350486524200
 20
-134.960065973223920
  0
VERTEX
  8
0
  6
CONTINUOUS
 62
256
 10
-243.932275000000000
 20
-134.890830800000000
  0
VERTEX
  8
0
  6
CONTINUOUS
 62
256
 10
-244.849199513475810
 20
-134.960065973223920
  0
VERTEX
  8
0
  6
CONTINUOUS
 62
256
 10
-245.730887132115920
 20
-135.165110824016270
  0
VERTEX
  8
0
  6
CONTINUOUS
 62
256
 10
-246.543455095192120
 20
-135.498085593751510
  0
VERTEX
  8
0
  6
CONTINUOUS
 62
256
 10
-247.255676871576780
 20
-135.946194248763160
  0
VERTEX
  8
0
  6
CONTINUOUS
 62
256
 10
-247.840182177821960
 20
-136.492216224741330
  0
VERTEX
  8
0
  6
CONTINUOUS
 62
256
 10
-248.274508802803040
 20
-137.115168203361860
  0
VERTEX
  8
0
  6
CONTINUOUS
 62
256
 10
-248.541965817895170
 20
-137.791110489441820
  0
VERTEX
  8
0
  6
CONTINUOUS
 62
256
 10
-248.632274999999990
 20
-138.494067000000000
  0
VERTEX
  8
0
  6
CONTINUOUS
 62
256
 10
-248.541965817895170
 20
-139.197023510558180
  0
VERTEX
  8
0
  6
CONTINUOUS
 62
256
 10
-248.274508802803040
 20
-139.872965796638140
  0
VERTEX
  8
0
  6
CONTINUOUS
 62
256
 10
-247.840182177821960
 20
-140.495917775258680
  0
VERTEX
  8
0
  6
CONTINUOUS
 62
256
 10
-247.255676871576780
 20
-141.041939751236840
  0
VERTEX
  8
0
  6
CONTINUOUS
 62
256
 10
-246.543455095192120
 20
-141.490048406248490
  0
VERTEX
  8
0
  6
CONTINUOUS
 62
256
 10
-245.730887132115920
 20
-141.823023175983740
  0
VERTEX
  8
0
  6
CONTINUOUS
 62
256
 10
-244.849199513475810
 20
-142.028068026776050
  0
VERTEX
  8
0
  6
CONTINUOUS
 62
256
 10
-243.932275000000000
 20
-142.097303200000000
  0
VERTEX
  8
0
  6
CONTINUOUS
 62
256
 10
-243.015350486524200
 20
-142.028068026776050
  0
VERTEX
  8
0
  6
CONTINUOUS
 62
256
 10
-242.133662867884080
 20
-141.823023175983740
  0
VERTEX
  8
0
  6
CONTINUOUS
 62
256
 10
-241.321094904807890
 20
-141.490048406248490
  0
VERTEX
  8
0
  6
CONTINUOUS
 62
256
 10
-240.608873128423260
 20
-141.041939751236840
  0
VERTEX
  8
0
  6
CONTINUOUS
 62
256
 10
-240.024367822178050
 20
-140.495917775258680
  0
VERTEX
  8
0
  6
CONTINUOUS
 62
256
 10
-239.590041197196970
 20
-139.872965796638140
  0
VERTEX
  8
0
  6
CONTINUOUS
 62
256
 10
-239.322584182104830
 20
-139.197023510558180
  0
SEQEND
  8
0
  6
CONTINUOUS
 62
256
  0
LINE
  8
0
  6
CONTINUOUS
 62
256
 10
-239.932275000000000
 20
-145.506432999999990
 11
-235.932275000000000
 21
-145.506432999999990
  0
ARC
  8
0
  6
CONTINUOUS
 62
256
 10
-235.932275000000000
 20
-142.506432999999990
 40
3.000000000000000
 50
270.000000000000000
 51
0.000000000000000
  0
LINE
  8
0
  6
CONTINUOUS
 62
256
 10
-232.932275000000000
 20
-142.506432999999990
 11
-232.932275000000000
 21
-91.166736000000000
  0
LINE
  8
0
  6
CONTINUOUS
 62
256
 10
-148.932275000000000
 20
-37.666736000000000
 11
-148.932275000000000
 21
-91.166736000000000
  0
LINE
  8
0
  6
CONTINUOUS
 62
256
 10
-148.932275000000000
 20
-144.666735999999990
 11
-165.932275000000000
 21
-144.666735999999990
  0
LINE
  8
0
  6
CONTINUOUS
 62
256
 10
-239.932275000000000
 20
-177.166735999999990
 11
-239.932275000000000
 21
-148.666735999999990
  0
LINE
  8
0
  6
CONTINUOUS
 62
256
 10
-166.932275000000000
 20
-177.166735999999990
 11
-166.932275000000000
 21
-148.666735999999990
  0
LINE
  8
0
  6
CONTINUOUS
 62
256
 10
-165.932275000000000
 20
-148.666735999999990
 11
-165.932275000000000
 21
-143.666735999999990
  0
LINE
  8
0
  6
CONTINUOUS
 62
256
 10
-240.932275000000000
 20
-148.666735999999990
 11
-165.932275000000000
 21
-148.666735999999990
  0
LINE
  8
0
  6
CONTINUOUS
 62
256
 10
-148.932275000000000
 20
-144.666735999999990
 11
-148.932275000000000
 21
-91.166736000000000
  0
LINE
  8
0
  6
DASHDOT
 62
256
 10
-461.195957000000020
 20
-91.166736000000000
 11
-335.977999000000010
 21
-91.166736000000000
  0
ARC
  8
0
  6
CONTINUOUS
 62
256
 10
-373.204377000000020
 20
-94.666736000000000
 40
1.000000000000000
 50
90.000000000000000
 51
172.410458000000010
  0
LINE
  8
0
  6
CONTINUOUS
 62
256
 10
-370.180590999999990
 20
-93.666736000000000
 11
-373.204377000000020
 21
-93.666736000000000
  0
ARC
  8
0
  6
CONTINUOUS
 62
256
 10
-370.180590999999990
 20
-94.666736000000000
 40
1.000000000000019
 50
353.186146000000240
 51
90.000000000000000
  0
ARC
  8
0
  6
CONTINUOUS
 62
256
 10
-364.647667000000010
 20
-94.666736000000000
 40
1.000000000000000
 50
90.000000000000000
 51
174.260829999999570
  0
LINE
  8
0
  6
CONTINUOUS
 62
256
 10
-361.633755000000010
 20
-93.666736000000000
 11
-364.647667000000010
 21
-93.666736000000000
  0
ARC
  8
0
  6
CONTINUOUS
 62
256
 10
-361.633755000000010
 20
-94.666736000000000
 40
1.000000000000027
 50
354.715267000000210
 51
90.000000000000000
  0
ARC
  8
0
  6
CONTINUOUS
 62
256
 10
-399.472227999999970
 20
-91.166736000000000
 40
30.500000000000014
 50
306.813854000000050
 51
353.186146000000010
  0
ARC
  8
0
  6
CONTINUOUS
 62
256
 10
-399.472227999999970
 20
-91.166736000000000
 40
25.499999999999996
 50
307.589541999999990
 51
352.410458000000010
  0
ARC
  8
0
  6
CONTINUOUS
 62
256
 10
-399.472227999999970
 20
-91.166736000000000
 40
33.999999999999986
 50
305.739169999999940
 51
354.260830000000000
  0
ARC
  8
0
  6
CONTINUOUS
 62
256
 10
-399.472227999999970
 20
-91.166736000000000
 40
39.000000000000014
 50
305.284733000000020
 51
354.715266999999980
  0
ARC
  8
0
  6
CONTINUOUS
 62
256
 10
-399.472227999999970
 20
-91.166736000000000
 40
38.999999999999986
 50
5.284733000000007
 51
54.715266999999990
  0
ARC
  8
0
  6
CONTINUOUS
 62
256
 10
-399.472227999999970
 20
-91.166736000000000
 40
34.000000000000028
 50
5.739170000000004
 51
54.260829999999970
  0
ARC
  8
0
  6
CONTINUOUS
 62
256
 10
-399.472227999999970
 20
-91.166736000000000
 40
25.500000000000011
 50
7.589541999999985
 51
52.410458000000027
  0
ARC
  8
0
  6
CONTINUOUS
 62
256
 10
-399.472227999999970
 20
-91.166736000000000
 40
30.499999999999986
 50
6.813854000000005
 51
53.186146000000029
  0
ARC
  8
0
  6
CONTINUOUS
 62
256
 10
-361.633755000000010
 20
-87.666736000000000
 40
1.000000000000000
 50
270.000000000000000
 51
5.284732999999778
  0
LINE
  8
0
  6
CONTINUOUS
 62
256
 10
-361.633755000000010
 20
-88.666736000000000
 11
-364.647667000000010
 21
-88.666736000000000
  0
ARC
  8
0
  6
CONTINUOUS
 62
256
 10
-364.647667000000010
 20
-87.666736000000000
 40
0.999999999999978
 50
185.739170000000430
 51
270.000000000000000
  0
ARC
  8
0
  6
CONTINUOUS
 62
256
 10
-370.180590999999990
 20
-87.666736000000000
 40
1.000000000000000
 50
270.000000000000000
 51
6.813853999999752
  0
LINE
  8
0
  6
CONTINUOUS
 62
256
 10
-370.180590999999990
 20
-88.666736000000000
 11
-373.204377000000020
 21
-88.666736000000000
  0
ARC
  8
0
  6
CONTINUOUS
 62
256
 10
-373.204377000000020
 20
-87.666736000000000
 40
0.999999999999990
 50
187.589541999999990
 51
270.000000000000000
  0
ARC
  8
0
  6
CONTINUOUS
 62
256
 10
-746.072228000000000
 20
-91.166736000000000
 40
400.600000000000020
 50
354.256318000000020
 51
0.000000000000000
  0
ARC
  8
0
  6
CONTINUOUS
 62
256
 10
-354.050280999999980
 20
-130.597602999999990
 40
6.600000000000017
 50
315.000000000000170
 51
354.256318000000020
  0
ARC
  8
0
  6
CONTINUOUS
 62
256
 10
-746.072228000000000
 20
-91.166736000000000
 40
390.797000000000030
 50
354.582036000000020
 51
0.000000000000000
  0
ARC
  8
0
  6
CONTINUOUS
 62
256
 10
-360.007746000000000
 20
-127.782701000000000
 40
3.000000000000004
 50
315.000000000000340
 51
354.582035999999790
  0
ARC
  8
0
  6
CONTINUOUS
 62
256
 10
-360.007746000000000
 20
-54.550770999999997
 40
2.999999999999997
 50
5.417964000000066
 51
44.999999999999808
  0
ARC
  8
0
  6
CONTINUOUS
 62
256
 10
-746.072228000000000
 20
-91.166736000000000
 40
390.797000000000030
 50
0.000000000000000
 51
5.417964000000000
  0
ARC
  8
0
  6
CONTINUOUS
 62
256
 10
-375.932430000000010
 20
-63.794846000000000
 40
20.797000000000011
 50
44.999999999999986
 51
84.998349999999959
  0
LINE
  8
0
  6
CONTINUOUS
 62
256
 10
-361.226729999999980
 20
-49.089146000000000
 11
-357.886424999999970
 21
-52.429451000000000
  0
ARC
  8
0
  6
CONTINUOUS
 62
256
 10
-399.472227999999970
 20
-332.766735999999980
 40
290.797000000000030
 50
84.998350000000002
 51
90.000000000000000
  0
LINE
  8
0
  6
CONTINUOUS
 62
256
 10
-369.472227999999970
 20
-148.666735999999990
 11
-369.472227999999970
 21
-172.105504999999990
  0
ARC
  8
0
  6
CONTINUOUS
 62
256
 10
-371.408471000000020
 20
-128.156803000000000
 40
20.599999999999991
 50
275.752282999999860
 51
315.000000000000000
  0
LINE
  8
0
  6
CONTINUOUS
 62
256
 10
-356.842070999999980
 20
-142.723203000000010
 11
-349.383376000000000
 21
-135.264508000000010
  0
ARC
  8
0
  6
CONTINUOUS
 62
256
 10
-399.472227999999970
 20
150.433264000000010
 40
300.600000000000020
 50
270.000000000000000
 51
275.752282999999980
  0
LINE
  8
0
  6
CONTINUOUS
 62
256
 10
-367.972227999999970
 20
-148.468185000000010
 11
-367.972227999999970
 21
-148.666735999999990
  0
LINE
  8
0
  6
CONTINUOUS
 62
256
 10
-369.479729000000020
 20
-148.666735999999990
 11
-367.972227999999970
 21
-148.666735999999990
  0
ARC
  8
0
  6
CONTINUOUS
 62
256
 10
-371.408471000000020
 20
-128.156803000000000
 40
10.796999999999988
 50
275.752283000000030
 51
315.000000000000000
  0
LINE
  8
0
  6
CONTINUOUS
 62
256
 10
-363.773839000000010
 20
-135.791435000000010
 11
-357.886424999999970
 21
-129.904021000000000
  0
ARC
  8
0
  6
CONTINUOUS
 62
256
 10
-399.472227999999970
 20
150.433264000000010
 40
290.797000000000030
 50
270.000000000000000
 51
275.752282999999980
  0
ARC
  8
0
  6
CONTINUOUS
 62
256
 10
-399.472227999999970
 20
-332.766735999999980
 40
300.600000000000020
 50
84.247716999999994
 51
90.000000000000000
  0
LINE
  8
0
  6
CONTINUOUS
 62
256
 10
-356.842070999999980
 20
-39.610269000000002
 11
-349.383376000000000
 21
-47.068964000000001
  0
ARC
  8
0
  6
CONTINUOUS
 62
256
 10
-371.408471000000020
 20
-54.176668999999997
 40
20.599999999999994
 50
45.000000000000014
 51
84.247716999999938
  0
ARC
  8
0
  6
CONTINUOUS
 62
256
 10
-746.072228000000000
 20
-91.166736000000000
 40
400.600000000000020
 50
0.000000000000000
 51
5.743682000000000
  0
ARC
  8
0
  6
CONTINUOUS
 62
256
 10
-354.050280999999980
 20
-51.735869000000001
 40
6.599999999999972
 50
5.743682000000001
 51
44.999999999999829
  0
LINE
  8
0
  6
CONTINUOUS
 62
256
 10
-366.972227999999970
 20
-152.166735999999990
 11
-355.972227999999970
 21
-151.974729999999990
  0
LINE
  8
0
  6
CONTINUOUS
 62
256
 10
-366.972227999999970
 20
-25.158009000000000
 11
-366.972227999999970
 21
-29.666736000000000
  0
LINE
  8
0
  6
CONTINUOUS
 62
256
 10
-366.972227999999970
 20
-25.175464000000002
 11
-433.472227999999970
 21
-26.336226000000000
  0
LINE
  8
0
  6
CONTINUOUS
 62
256
 10
-366.972227999999970
 20
-25.166736000000000
 11
-355.972227999999970
 21
-25.358741999999999
  0
LINE
  8
0
  6
CONTINUOUS
 62
256
 10
-366.972227999999970
 20
-34.060015999999997
 11
-366.972227999999970
 21
-28.658009000000000
  0
LINE
  8
0
  6
CONTINUOUS
 62
256
 10
-355.972227999999970
 20
-25.358741999999999
 11
-355.972227999999970
 21
-40.480113000000003
  0
LINE
  8
0
  6
CONTINUOUS
 62
256
 10
-355.972227999999970
 20
-151.974729999999990
 11
-355.972227999999970
 21
-141.798004999999990
  0
LINE
  8
0
  6
CONTINUOUS
 62
256
 10
-366.972227999999970
 20
-152.175464000000010
 11
-366.972227999999970
 21
-148.273457000000010
  0
LINE
  8
0
  6
CONTINUOUS
 62
256
 10
-351.972227999999970
 20
-40.666736000000000
 11
-351.972227999999970
 21
-44.480113000000003
  0
LINE
  8
0
  6
CONTINUOUS
 62
256
 10
-351.972227999999970
 20
-40.666736000000000
 11
-355.785603999999980
 21
-40.666736000000000
  0
LINE
  8
0
  6
CONTINUOUS
 62
256
 10
-366.972227999999970
 20
-152.175464000000010
 11
-369.472227999999970
 21
-152.131825999999990
  0
LINE
  8
0
  6
DASHDOT
 62
256
 10
-178.432275000000000
 20
-145.882884999999990
 11
-178.432275000000000
 21
-173.862235000000000
  0
LINE
  8
0
  6
DASHED
 62
256
 10
-185.432275000000000
 20
-148.666735999999990
 11
-185.432275000000000
 21
-163.166735999999990
  0
LINE
  8
0
  6
DASHED
 62
256
 10
-171.432275000000000
 20
-148.666735999999990
 11
-171.432275000000000
 21
-163.166735999999990
  0
LINE
  8
0
  6
DASHDOT
 62
256
 10
-228.432275000000000
 20
-145.882884999999990
 11
-228.432275000000000
 21
-173.862235000000000
  0
LINE
  8
0
  6
DASHED
 62
256
 10
-221.432275000000000
 20
-148.666735999999990
 11
-221.432275000000000
 21
-163.166735999999990
  0
LINE
  8
0
  6
DASHED
 62
256
 10
-235.432275000000000
 20
-148.666735999999990
 11
-235.432275000000000
 21
-163.166735999999990
  0
LINE
  8
0
  6
CONTINUOUS
 62
256
 10
-32.932274999999997
 20
144.356804000000010
 11
19.090240999999999
 21
144.356804000000010
  0
LINE
  8
0
  6
CONTINUOUS
 62
256
 10
19.090240999999999
 20
134.856804000000010
 11
19.090240999999999
 21
144.356804000000010
  0
LINE
  8
0
  6
CONTINUOUS
 62
256
 10
20.251003000000001
 20
68.356803999999997
 11
19.090240999999999
 21
134.856804000000010
  0
LINE
  8
0
  6
CONTINUOUS
 62
256
 10
-120.923852000000000
 20
68.356803999999997
 11
20.259730000000001
 21
68.356803999999997
  0
LINE
  8
0
  6
CONTINUOUS
 62
256
 10
-120.923548000000000
 20
68.356803999999997
 11
-119.762786000000010
 21
134.856804000000010
  0
LINE
  8
0
  6
CONTINUOUS
 62
256
 10
-119.762786000000010
 20
144.356804000000010
 11
-32.932274999999997
 21
144.356804000000010
  0
LINE
  8
0
  6
CONTINUOUS
 62
256
 10
-119.762786000000010
 20
134.856804000000010
 11
-119.762786000000010
 21
144.356804000000010
  0
LINE
  8
0
  6
CONTINUOUS
 62
256
 10
-133.425770000000000
 20
47.138502000000003
 11
-148.932275000000000
 21
47.409168999999999
  0
LINE
  8
0
  6
CONTINUOUS
 62
256
 10
-133.425770000000000
 20
154.575106000000010
 11
-148.932275000000000
 21
154.304439000000000
  0
ARC
  8
0
  6
CONTINUOUS
 62
256
 10
-122.923852000000000
 20
68.356803999999997
 40
2.000000000000000
 50
0.000000000000000
 51
90.000000000000000
  0
ARC
  8
0
  6
CONTINUOUS
 62
256
 10
-121.762786000000010
 20
144.356804000000010
 40
2.000000000000000
 50
270.000000000000000
 51
0.000000000000000
  0
LINE
  8
0
  6
CONTINUOUS
 62
256
 10
4.567725000000000
 20
53.356803999999997
 11
-70.432275000000004
 21
53.356803999999997
  0
LINE
  8
0
  6
CONTINUOUS
 62
256
 10
-106.057068000000000
 20
57.356803999999997
 11
-92.021910000000005
 21
57.356803999999997
  0
LINE
  8
0
  6
CONTINUOUS
 62
256
 10
4.567725000000000
 20
53.356803999999997
 11
4.567725000000000
 21
57.356803999999997
  0
LINE
  8
0
  6
CONTINUOUS
 62
256
 10
-70.432275000000004
 20
53.356803999999997
 11
-70.432275000000004
 21
57.356803999999997
  0
LINE
  8
0
  6
CONTINUOUS
 62
256
 10
4.567725000000000
 20
144.356804000000010
 11
4.567725000000000
 21
148.356804000000010
  0
LINE
  8
0
  6
CONTINUOUS
 62
256
 10
4.567725000000000
 20
148.356804000000010
 11
-70.432275000000004
 21
148.356804000000010
  0
LINE
  8
0
  6
CONTINUOUS
 62
256
 10
-70.432275000000004
 20
144.356804000000010
 11
-70.432275000000004
 21
148.356804000000010
  0
LINE
  8
0
  6
CONTINUOUS
 62
256
 10
20.259730000000001
 20
68.356803999999997
 11
20.067724999999999
 21
57.356803999999997
  0
LINE
  8
0
  6
CONTINUOUS
 62
256
 10
20.067724999999999
 20
57.356803999999997
 11
-120.722815000000000
 21
57.356803999999997
  0
LINE
  8
0
  6
CONTINUOUS
 62
256
 10
-120.914820000000010
 20
68.356803999999997
 11
-120.722815000000000
 21
57.356803999999997
  0
LINE
  8
0
  6
CONTINUOUS
 62
256
 10
-121.762786000000010
 20
142.356804000000010
 11
-127.932275000000000
 21
142.356804000000010
  0
ARC
  8
0
  6
CONTINUOUS
 62
256
 10
-127.932275000000000
 20
145.356804000000010
 40
3.000000000000000
 50
180.000000000000000
 51
270.000000000000000
  0
ARC
  8
0
  6
CONTINUOUS
 62
256
 10
-133.932275000000000
 20
50.095435000000002
 40
2.999999999999997
 50
268.999999999999830
 51
0.000000000000000
  0
LINE
  8
0
  6
CONTINUOUS
 62
256
 10
-122.923852000000000
 20
70.356803999999997
 11
-127.932275000000000
 21
70.356803999999997
  0
ARC
  8
0
  6
CONTINUOUS
 62
256
 10
-127.932275000000000
 20
67.356803999999997
 40
3.000000000000000
 50
90.000000000000000
 51
180.000000000000000
  0
ARC
  8
0
  6
CONTINUOUS
 62
256
 10
-133.932275000000000
 20
151.618173000000010
 40
3.000000000000000
 50
0.000000000000000
 51
91.000000000000142
  0
LINE
  8
0
  6
CONTINUOUS
 62
256
 10
-130.932275000000000
 20
151.618173000000010
 11
-130.932275000000000
 21
134.356804000000010
  0
LINE
  8
0
  6
CONTINUOUS
 62
256
 10
-130.932275000000000
 20
50.095435000000002
 11
-130.932275000000000
 21
56.356803999999997
  0
LINE
  8
0
  6
CONTINUOUS
 62
256
 10
-148.932275000000000
 20
100.856804000000000
 11
-148.932275000000000
 21
154.356804000000010
  0
LINE
  8
0
  6
CONTINUOUS
 62
256
 10
-148.932275000000000
 20
100.856804000000000
 11
-148.932275000000000
 21
47.356803999999997
  0
ARC
  8
0
  6
CONTINUOUS
 62
256
 10
-133.932275000000000
 20
131.748970000000010
 40
3.000000000000000
 50
0.000000000000000
 51
90.000000000000000
  0
ARC
  8
0
  6
CONTINUOUS
 62
256
 10
-133.932275000000000
 20
69.964637999999994
 40
3.000000000000000
 50
270.000000000000000
 51
0.000000000000000
  0
ARC
  8
0
  6
CONTINUOUS
 62
256
 10
-133.932275000000000
 20
151.618173000000010
 40
3.000000000000000
 50
0.000000000000000
 51
91.000000000000142
  0
ARC
  8
0
  6
CONTINUOUS
 62
256
 10
-133.932275000000000
 20
50.095435000000002
 40
2.999999999999997
 50
268.999999999999830
 51
0.000000000000000
  0
LINE
  8
0
  6
CONTINUOUS
 62
256
 10
-130.932275000000000
 20
50.095435000000002
 11
-130.932275000000000
 21
100.856804000000000
  0
LINE
  8
0
  6
CONTINUOUS
 62
256
 10
-130.932275000000000
 20
151.618173000000010
 11
-130.932275000000000
 21
100.856804000000000
  0
ARC
  8
0
  6
CONTINUOUS
 62
256
 10
-141.932275000000000
 20
61.427152999999997
 40
2.000000000000000
 50
180.000000000000000
 51
270.000000000000000
  0
ARC
  8
0
  6
CONTINUOUS
 62
256
 10
-140.932275000000000
 20
53.356803999999997
 40
3.000000000000000
 50
90.000000000000000
 51
180.000000000000000
  0
ARC
  8
0
  6
CONTINUOUS
 62
256
 10
-135.932275000000000
 20
61.356803999999997
 40
5.000000000000000
 50
270.000000000000000
 51
0.000000000000000
  0
ARC
  8
0
  6
CONTINUOUS
 62
256
 10
-135.932275000000000
 20
64.427153000000004
 40
5.000000000000000
 50
270.000000000000000
 51
0.000000000000000
  0
ARC
  8
0
  6
CONTINUOUS
 62
256
 10
-140.932275000000000
 20
69.964637999999994
 40
3.000000000000000
 50
180.000000000000000
 51
270.000000000000000
  0
ARC
  8
0
  6
CONTINUOUS
 62
256
 10
-135.932275000000000
 20
140.356804000000010
 40
5.000000000000000
 50
0.000000000000000
 51
90.000000000000000
  0
ARC
  8
0
  6
CONTINUOUS
 62
256
 10
-135.932275000000000
 20
137.286455999999990
 40
5.000000000000000
 50
0.000000000000000
 51
90.000000000000000
  0
ARC
  8
0
  6
CONTINUOUS
 62
256
 10
-141.932275000000000
 20
140.286455999999990
 40
2.000000000000000
 50
90.000000000000000
 51
180.000000000000000
  0
ARC
  8
0
  6
CONTINUOUS
 62
256
 10
-140.932275000000000
 20
148.356804000000010
 40
3.000000000000000
 50
180.000000000000000
 51
270.000000000000000
  0
ARC
  8
0
  6
CONTINUOUS
 62
256
 10
-140.932275000000000
 20
131.748970000000010
 40
3.000000000000000
 50
90.000000000000000
 51
180.000000000000000
  0
ARC
  8
0
  6
CONTINUOUS
 62
256
 10
-146.932275000000000
 20
50.322350999999998
 40
2.999999999999997
 50
268.999999999999830
 51
0.000000000000000
  0
ARC
  8
0
  6
CONTINUOUS
 62
256
 10
-146.932275000000000
 20
151.391257000000000
 40
3.000000000000000
 50
0.000000000000000
 51
91.000000000000142
  0
LINE
  8
0
  6
CONTINUOUS
 62
256
 10
-143.932275000000000
 20
53.356803999999997
 11
-143.932275000000000
 21
50.322350999999998
  0
LINE
  8
0
  6
CONTINUOUS
 62
256
 10
-141.932275000000000
 20
59.427152999999997
 11
-135.932275000000000
 21
59.427152999999997
  0
LINE
  8
0
  6
CONTINUOUS
 62
256
 10
-140.932275000000000
 20
56.356803999999997
 11
-135.932275000000000
 21
56.356803999999997
  0
LINE
  8
0
  6
CONTINUOUS
 62
256
 10
-143.932275000000000
 20
100.856804000000000
 11
-143.932275000000000
 21
61.427152999999997
  0
LINE
  8
0
  6
CONTINUOUS
 62
256
 10
-133.932275000000000
 20
66.964637999999994
 11
-140.932275000000000
 21
66.964637999999994
  0
LINE
  8
0
  6
CONTINUOUS
 62
256
 10
-130.932275000000000
 20
63.964638000000001
 11
-130.932275000000000
 21
61.356803999999997
  0
LINE
  8
0
  6
CONTINUOUS
 62
256
 10
-143.932275000000000
 20
80.856803999999997
 11
-148.932275000000000
 21
80.856803999999997
  0
LINE
  8
0
  6
CONTINUOUS
 62
256
 10
-143.932275000000000
 20
100.856804000000000
 11
-143.932275000000000
 21
140.286455999999990
  0
LINE
  8
0
  6
CONTINUOUS
 62
256
 10
-143.932275000000000
 20
120.856804000000000
 11
-148.932275000000000
 21
120.856804000000000
  0
LINE
  8
0
  6
CONTINUOUS
 62
256
 10
-133.932275000000000
 20
134.748970000000010
 11
-140.932275000000000
 21
134.748970000000010
  0
LINE
  8
0
  6
CONTINUOUS
 62
256
 10
-130.932275000000000
 20
137.748970000000010
 11
-130.932275000000000
 21
140.356804000000010
  0
LINE
  8
0
  6
CONTINUOUS
 62
256
 10
-141.932275000000000
 20
142.286455999999990
 11
-135.932275000000000
 21
142.286455999999990
  0
LINE
  8
0
  6
CONTINUOUS
 62
256
 10
-140.932275000000000
 20
145.356804000000010
 11
-135.932275000000000
 21
145.356804000000010
  0
LINE
  8
0
  6
CONTINUOUS
 62
256
 10
-143.932275000000000
 20
148.356804000000010
 11
-143.932275000000000
 21
151.391257000000000
  0
LINE
  8
0
  6
CONTINUOUS
 62
256
 10
-14.932275000000001
 20
152.356804000000010
 11
-32.932274999999997
 21
152.356804000000010
  0
LINE
  8
0
  6
CONTINUOUS
 62
256
 10
-13.932275000000001
 20
151.356804000000010
 11
-13.932275000000001
 21
148.356804000000010
  0
ARC
  8
0
  6
CONTINUOUS
 62
256
 10
-14.932275000000001
 20
151.356804000000010
 40
1.000000000000000
 50
0.000000000000000
 51
90.000000000000000
  0
LINE
  8
0
  6
CONTINUOUS
 62
256
 10
-51.932274999999997
 20
151.356804000000010
 11
-51.932274999999997
 21
148.356804000000010
  0
ARC
  8
0
  6
CONTINUOUS
 62
256
 10
-50.932274999999997
 20
151.356804000000010
 40
1.000000000000000
 50
90.000000000000000
 51
180.000000000000000
  0
LINE
  8
0
  6
CONTINUOUS
 62
256
 10
-50.932274999999997
 20
152.356804000000010
 11
-32.932274999999997
 21
152.356804000000010
  0
ARC
  8
0
  6
CONTINUOUS
 62
256
 10
-14.932275000000001
 20
50.356803999999997
 40
1.000000000000000
 50
270.000000000000000
 51
0.000000000000000
  0
LINE
  8
0
  6
CONTINUOUS
 62
256
 10
-13.932275000000001
 20
50.356803999999997
 11
-13.932275000000001
 21
53.356803999999997
  0
LINE
  8
0
  6
CONTINUOUS
 62
256
 10
-14.932275000000001
 20
49.356803999999997
 11
-32.932274999999997
 21
49.356803999999997
  0
LINE
  8
0
  6
CONTINUOUS
 62
256
 10
-51.932274999999997
 20
50.356803999999997
 11
-51.932274999999997
 21
53.356803999999997
  0
ARC
  8
0
  6
CONTINUOUS
 62
256
 10
-50.932274999999997
 20
50.356803999999997
 40
1.000000000000000
 50
180.000000000000000
 51
270.000000000000000
  0
LINE
  8
0
  6
CONTINUOUS
 62
256
 10
-50.932274999999997
 20
49.356803999999997
 11
-32.932274999999997
 21
49.356803999999997
  0
LINE
  8
0
  6
CONTINUOUS
 62
256
 10
-232.932275000000000
 20
67.553202999999996
 11
-148.932275000000000
 21
67.553202999999996
  0
LINE
  8
0
  6
CONTINUOUS
 62
256
 10
-232.932275000000000
 20
80.856803999999997
 11
-148.932275000000000
 21
80.856803999999997
  0
LINE
  8
0
  6
CONTINUOUS
 62
256
 10
-232.932275000000000
 20
78.018564999999995
 11
-148.932275000000000
 21
78.018564999999995
  0
LINE
  8
0
  6
CONTINUOUS
 62
256
 10
-232.932275000000000
 20
76.672162999999998
 11
-148.932275000000000
 21
76.672162999999998
  0
LINE
  8
0
  6
CONTINUOUS
 62
256
 10
-232.932275000000000
 20
73.579431999999997
 11
-148.932275000000000
 21
73.579431999999997
  0
LINE
  8
0
  6
CONTINUOUS
 62
256
 10
-232.932275000000000
 20
72.100408999999999
 11
-148.932275000000000
 21
72.100408999999999
  0
LINE
  8
0
  6
CONTINUOUS
 62
256
 10
-232.932275000000000
 20
120.856804000000000
 11
-148.932275000000000
 21
120.856804000000000
  0
LINE
  8
0
  6
CONTINUOUS
 62
256
 10
-232.932275000000000
 20
123.695044000000000
 11
-148.932275000000000
 21
123.695044000000000
  0
LINE
  8
0
  6
CONTINUOUS
 62
256
 10
-232.932275000000000
 20
125.041445999999990
 11
-148.932275000000000
 21
125.041445999999990
  0
LINE
  8
0
  6
CONTINUOUS
 62
256
 10
-232.932275000000000
 20
128.134176999999990
 11
-148.932275000000000
 21
128.134176999999990
  0
LINE
  8
0
  6
CONTINUOUS
 62
256
 10
-232.932275000000000
 20
129.613200000000010
 11
-148.932275000000000
 21
129.613200000000010
  0
LINE
  8
0
  6
CONTINUOUS
 62
256
 10
-232.932275000000000
 20
134.160405000000000
 11
-148.932275000000000
 21
134.160405000000000
  0
LINE
  8
0
  6
CONTINUOUS
 62
256
 10
-232.932275000000000
 20
46.856803999999997
 11
-232.932275000000000
 21
100.856804000000000
  0
LINE
  8
0
  6
CONTINUOUS
 62
256
 10
-232.932275000000000
 20
154.856804000000010
 11
-232.932275000000000
 21
100.856804000000000
  0
LINE
  8
0
  6
CONTINUOUS
 62
256
 10
-233.089876000000000
 20
140.897240000000010
 11
-148.932275000000000
 21
140.897240000000010
  0
LINE
  8
0
  6
CONTINUOUS
 62
256
 10
-232.932275000000000
 20
145.361459999999990
 11
-148.932275000000000
 21
145.361459999999990
  0
LINE
  8
0
  6
CONTINUOUS
 62
256
 10
-232.932275000000000
 20
141.898718000000000
 11
-148.932275000000000
 21
141.898718000000000
  0
LINE
  8
0
  6
CONTINUOUS
 62
256
 10
-232.932275000000000
 20
146.989887000000010
 11
-148.932275000000000
 21
146.989887000000010
  0
LINE
  8
0
  6
CONTINUOUS
 62
256
 10
-232.932275000000000
 20
151.856804000000010
 11
-148.932275000000000
 21
151.856804000000010
  0
LINE
  8
0
  6
CONTINUOUS
 62
256
 10
-232.932275000000000
 20
151.356804000000010
 11
-148.932275000000000
 21
151.356804000000010
  0
LINE
  8
0
  6
CONTINUOUS
 62
256
 10
-148.932275000000000
 20
153.356804000000010
 11
-232.932275000000000
 21
153.356804000000010
  0
LINE
  8
0
  6
CONTINUOUS
 62
256
 10
-232.932275000000000
 20
154.856804000000010
 11
-262.437119999999990
 21
154.856804000000010
  0
LINE
  8
0
  6
CONTINUOUS
 62
256
 10
-274.252794999999990
 20
151.131336000000000
 11
-281.823574000000010
 21
145.830220000000000
  0
LINE
  8
0
  6
CONTINUOUS
 62
256
 10
-282.932275000000000
 20
143.700424000000000
 11
-282.932275000000000
 21
100.856804000000000
  0
ARC
  8
0
  6
CONTINUOUS
 62
256
 10
-280.332274999999980
 20
143.700424000000000
 40
2.599999999999996
 50
125.000000000000210
 51
180.000000000000000
  0
ARC
  8
0
  6
CONTINUOUS
 62
256
 10
-262.437119999999990
 20
134.256803999999990
 40
20.599999999999994
 50
90.000000000000000
 51
125.000000000000010
  0
LINE
  8
0
  6
CONTINUOUS
 62
256
 10
-243.932275000000000
 20
150.000724999999990
 11
-245.932275000000000
 21
148.348084000000000
  0
LINE
  8
0
  6
CONTINUOUS
 62
256
 10
-241.932275000000000
 20
151.176511000000000
 11
-243.932275000000000
 21
150.000724999999990
  0
LINE
  8
0
  6
CONTINUOUS
 62
256
 10
-243.932275000000000
 20
150.000724999999990
 11
-241.932275000000000
 21
148.348084000000000
  0
LINE
  8
0
  6
CONTINUOUS
 62
256
 10
-245.932275000000000
 20
151.176511000000000
 11
-243.932275000000000
 21
150.000724999999990
  0
POLYLINE
  8
0
  6
CONTINUOUS
 62
256
 66
1
 70
1
  0
VERTEX
  8
0
  6
CONTINUOUS
 62
256
 10
-239.232275000000020
 20
148.184135000000000
  0
VERTEX
  8
0
  6
CONTINUOUS
 62
256
 10
-239.322584182104830
 20
148.887091510558180
  0
VERTEX
  8
0
  6
CONTINUOUS
 62
256
 10
-239.590041197196970
 20
149.563033796638140
  0
VERTEX
  8
0
  6
CONTINUOUS
 62
256
 10
-240.024367822178050
 20
150.185985775258670
  0
VERTEX
  8
0
  6
CONTINUOUS
 62
256
 10
-240.608873128423230
 20
150.732007751236840
  0
VERTEX
  8
0
  6
CONTINUOUS
 62
256
 10
-241.321094904807890
 20
151.180116406248490
  0
VERTEX
  8
0
  6
CONTINUOUS
 62
256
 10
-242.133662867884080
 20
151.513091175983730
  0
VERTEX
  8
0
  6
CONTINUOUS
 62
256
 10
-243.015350486524200
 20
151.718136026776080
  0
VERTEX
  8
0
  6
CONTINUOUS
 62
256
 10
-243.932275000000000
 20
151.787371200000000
  0
VERTEX
  8
0
  6
CONTINUOUS
 62
256
 10
-244.849199513475810
 20
151.718136026776080
  0
VERTEX
  8
0
  6
CONTINUOUS
 62
256
 10
-245.730887132115920
 20
151.513091175983730
  0
VERTEX
  8
0
  6
CONTINUOUS
 62
256
 10
-246.543455095192120
 20
151.180116406248490
  0
VERTEX
  8
0
  6
CONTINUOUS
 62
256
 10
-247.255676871576780
 20
150.732007751236840
  0
VERTEX
  8
0
  6
CONTINUOUS
 62
256
 10
-247.840182177821960
 20
150.185985775258670
  0
VERTEX
  8
0
  6
CONTINUOUS
 62
256
 10
-248.274508802803040
 20
149.563033796638140
  0
VERTEX
  8
0
  6
CONTINUOUS
 62
256
 10
-248.541965817895170
 20
148.887091510558180
  0
VERTEX
  8
0
  6
CONTINUOUS
 62
256
 10
-248.632274999999990
 20
148.184135000000000
  0
VERTEX
  8
0
  6
CONTINUOUS
 62
256
 10
-248.541965817895170
 20
147.481178489441820
  0
VERTEX
  8
0
  6
CONTINUOUS
 62
256
 10
-248.274508802803040
 20
146.805236203361860
  0
VERTEX
  8
0
  6
CONTINUOUS
 62
256
 10
-247.840182177821960
 20
146.182284224741320
  0
VERTEX
  8
0
  6
CONTINUOUS
 62
256
 10
-247.255676871576780
 20
145.636262248763160
  0
VERTEX
  8
0
  6
CONTINUOUS
 62
256
 10
-246.543455095192120
 20
145.188153593751510
  0
VERTEX
  8
0
  6
CONTINUOUS
 62
256
 10
-245.730887132115920
 20
144.855178824016260
  0
VERTEX
  8
0
  6
CONTINUOUS
 62
256
 10
-244.849199513475810
 20
144.650133973223940
  0
VERTEX
  8
0
  6
CONTINUOUS
 62
256
 10
-243.932275000000000
 20
144.580898800000000
  0
VERTEX
  8
0
  6
CONTINUOUS
 62
256
 10
-243.015350486524200
 20
144.650133973223940
  0
VERTEX
  8
0
  6
CONTINUOUS
 62
256
 10
-242.133662867884080
 20
144.855178824016260
  0
VERTEX
  8
0
  6
CONTINUOUS
 62
256
 10
-241.321094904807890
 20
145.188153593751510
  0
VERTEX
  8
0
  6
CONTINUOUS
 62
256
 10
-240.608873128423260
 20
145.636262248763160
  0
VERTEX
  8
0
  6
CONTINUOUS
 62
256
 10
-240.024367822178050
 20
146.182284224741320
  0
VERTEX
  8
0
  6
CONTINUOUS
 62
256
 10
-239.590041197196970
 20
146.805236203361860
  0
VERTEX
  8
0
  6
CONTINUOUS
 62
256
 10
-239.322584182104830
 20
147.481178489441820
  0
SEQEND
  8
0
  6
CONTINUOUS
 62
256
  0
LINE
  8
0
  6
CONTINUOUS
 62
256
 10
-274.252794999999990
 20
50.582272000000003
 11
-281.823574000000010
 21
55.883389000000001
  0
LINE
  8
0
  6
CONTINUOUS
 62
256
 10
-282.932275000000000
 20
58.013184000000003
 11
-282.932275000000000
 21
100.856804000000000
  0
ARC
  8
0
  6
CONTINUOUS
 62
256
 10
-280.332274999999980
 20
58.013184000000003
 40
2.600000000000023
 50
180.000000000000000
 51
234.999999999999890
  0
ARC
  8
0
  6
CONTINUOUS
 62
256
 10
-262.437119999999990
 20
67.456804000000005
 40
20.599999999999994
 50
235.000000000000030
 51
270.000000000000000
  0
LINE
  8
0
  6
CONTINUOUS
 62
256
 10
-232.932275000000000
 20
46.856803999999997
 11
-262.437119999999990
 21
46.856803999999997
  0
LINE
  8
0
  6
CONTINUOUS
 62
256
 10
-233.089876000000000
 20
60.816369000000002
 11
-148.932275000000000
 21
60.816369000000002
  0
LINE
  8
0
  6
CONTINUOUS
 62
256
 10
-232.932275000000000
 20
59.814889999999998
 11
-148.932275000000000
 21
59.814889999999998
  0
LINE
  8
0
  6
CONTINUOUS
 62
256
 10
-232.932275000000000
 20
56.352148999999997
 11
-148.932275000000000
 21
56.352148999999997
  0
LINE
  8
0
  6
CONTINUOUS
 62
256
 10
-232.932275000000000
 20
54.723722000000002
 11
-148.932275000000000
 21
54.723722000000002
  0
LINE
  8
0
  6
CONTINUOUS
 62
256
 10
-232.932275000000000
 20
49.856803999999997
 11
-148.932275000000000
 21
49.856803999999997
  0
LINE
  8
0
  6
CONTINUOUS
 62
256
 10
-232.932275000000000
 20
50.356803999999997
 11
-148.932275000000000
 21
50.356803999999997
  0
LINE
  8
0
  6
CONTINUOUS
 62
256
 10
-148.932275000000000
 20
48.356803999999997
 11
-232.932275000000000
 21
48.356803999999997
  0
LINE
  8
0
  6
CONTINUOUS
 62
256
 10
-243.932275000000000
 20
51.712882999999998
 11
-245.932275000000000
 21
53.365524999999998
  0
LINE
  8
0
  6
CONTINUOUS
 62
256
 10
-241.932275000000000
 20
50.537098000000000
 11
-243.932275000000000
 21
51.712882999999998
  0
LINE
  8
0
  6
CONTINUOUS
 62
256
 10
-243.932275000000000
 20
51.712882999999998
 11
-241.932275000000000
 21
53.365524999999998
  0
LINE
  8
0
  6
CONTINUOUS
 62
256
 10
-245.932275000000000
 20
50.537098000000000
 11
-243.932275000000000
 21
51.712882999999998
  0
POLYLINE
  8
0
  6
CONTINUOUS
 62
256
 66
1
 70
1
  0
VERTEX
  8
0
  6
CONTINUOUS
 62
256
 10
-239.232275000000020
 20
53.529473000000003
  0
VERTEX
  8
0
  6
CONTINUOUS
 62
256
 10
-239.322584182104830
 20
54.232429510558170
  0
VERTEX
  8
0
  6
CONTINUOUS
 62
256
 10
-239.590041197196970
 20
54.908371796638143
  0
VERTEX
  8
0
  6
CONTINUOUS
 62
256
 10
-240.024367822178050
 20
55.531323775258663
  0
VERTEX
  8
0
  6
CONTINUOUS
 62
256
 10
-240.608873128423230
 20
56.077345751236841
  0
VERTEX
  8
0
  6
CONTINUOUS
 62
256
 10
-241.321094904807890
 20
56.525454406248492
  0
VERTEX
  8
0
  6
CONTINUOUS
 62
256
 10
-242.133662867884080
 20
56.858429175983737
  0
VERTEX
  8
0
  6
CONTINUOUS
 62
256
 10
-243.015350486524200
 20
57.063474026776063
  0
VERTEX
  8
0
  6
CONTINUOUS
 62
256
 10
-243.932275000000000
 20
57.132709199999994
  0
VERTEX
  8
0
  6
CONTINUOUS
 62
256
 10
-244.849199513475810
 20
57.063474026776063
  0
VERTEX
  8
0
  6
CONTINUOUS
 62
256
 10
-245.730887132115920
 20
56.858429175983737
  0
VERTEX
  8
0
  6
CONTINUOUS
 62
256
 10
-246.543455095192120
 20
56.525454406248492
  0
VERTEX
  8
0
  6
CONTINUOUS
 62
256
 10
-247.255676871576780
 20
56.077345751236841
  0
VERTEX
  8
0
  6
CONTINUOUS
 62
256
 10
-247.840182177821960
 20
55.531323775258663
  0
VERTEX
  8
0
  6
CONTINUOUS
 62
256
 10
-248.274508802803040
 20
54.908371796638143
  0
VERTEX
  8
0
  6
CONTINUOUS
 62
256
 10
-248.541965817895170
 20
54.232429510558170
  0
VERTEX
  8
0
  6
CONTINUOUS
 62
256
 10
-248.632274999999990
 20
53.529473000000003
  0
VERTEX
  8
0
  6
CONTINUOUS
 62
256
 10
-248.541965817895170
 20
52.826516489441836
  0
VERTEX
  8
0
  6
CONTINUOUS
 62
256
 10
-248.274508802803040
 20
52.150574203361863
  0
VERTEX
  8
0
  6
CONTINUOUS
 62
256
 10
-247.840182177821960
 20
51.527622224741343
  0
VERTEX
  8
0
  6
CONTINUOUS
 62
256
 10
-247.255676871576780
 20
50.981600248763165
  0
VERTEX
  8
0
  6
CONTINUOUS
 62
256
 10
-246.543455095192120
 20
50.533491593751513
  0
VERTEX
  8
0
  6
CONTINUOUS
 62
256
 10
-245.730887132115920
 20
50.200516824016269
  0
VERTEX
  8
0
  6
CONTINUOUS
 62
256
 10
-244.849199513475810
 20
49.995471973223943
  0
VERTEX
  8
0
  6
CONTINUOUS
 62
256
 10
-243.932275000000000
 20
49.926236800000012
  0
VERTEX
  8
0
  6
CONTINUOUS
 62
256
 10
-243.015350486524200
 20
49.995471973223943
  0
VERTEX
  8
0
  6
CONTINUOUS
 62
256
 10
-242.133662867884080
 20
50.200516824016269
  0
VERTEX
  8
0
  6
CONTINUOUS
 62
256
 10
-241.321094904807890
 20
50.533491593751513
  0
VERTEX
  8
0
  6
CONTINUOUS
 62
256
 10
-240.608873128423260
 20
50.981600248763165
  0
VERTEX
  8
0
  6
CONTINUOUS
 62
256
 10
-240.024367822178050
 20
51.527622224741343
  0
VERTEX
  8
0
  6
CONTINUOUS
 62
256
 10
-239.590041197196970
 20
52.150574203361863
  0
VERTEX
  8
0
  6
CONTINUOUS
 62
256
 10
-239.322584182104830
 20
52.826516489441836
  0
SEQEND
  8
0
  6
CONTINUOUS
 62
256
  0
LINE
  8
0
  6
DASHDOT
 62
256
 10
-293.318639000000020
 20
100.856804000000000
 11
24.033501000000001
 21
100.856804000000000
  0
LINE
  8
0
  6
DASHDOT
 62
256
 10
-32.932274999999997
 20
45.837147999999999
 11
-32.932274999999997
 21
161.650754000000010
  0
LINE
  8
0
  6
DASHDOT
 62
256
 10
-188.842574000000010
 20
-163.166735999999990
 11
-168.468391999999990
 21
-163.166735999999990
  0
CIRCLE
  8
0
  6
DASHED
 62
256
 10
-178.432275000000000
 20
-163.166735999999990
 40
6.000000000000000
  0
ARC
  8
0
  6
DASHED
 62
256
 10
-178.432275000000000
 20
-163.166735999999990
 40
7.000000000000000
 50
180.000000000000000
 51
0.000000000000000
  0
LINE
  8
0
  6
DASHDOT
 62
256
 10
-237.740609000000010
 20
-163.166735999999990
 11
-218.551569000000000
 21
-163.166735999999990
  0
ARC
  8
0
  6
DASHED
 62
256
 10
-228.432275000000000
 20
-163.166735999999990
 40
7.000000000000000
 50
180.000000000000000
 51
0.000000000000000
  0
LINE
  8
0
  6
DASHDOT
 62
256
 10
-399.472227999999970
 20
-22.817129000000001
 11
-399.472227999999970
 21
-185.851976000000010
  0
ARC
  8
0
  6
CONTINUOUS
 62
256
 10
-381.815784000000010
 20
-94.666736000000000
 40
1.000000000000000
 50
90.000000000000000
 51
168.787729000000270
  0
LINE
  8
0
  6
CONTINUOUS
 62
256
 10
-378.765947999999980
 20
-93.666736000000000
 11
-381.815784000000010
 21
-93.666736000000000
  0
ARC
  8
0
  6
CONTINUOUS
 62
256
 10
-378.765947999999980
 20
-94.666736000000000
 40
0.999999999999978
 50
350.405932000000010
 51
90.000000000000000
  0
ARC
  8
0
  6
CONTINUOUS
 62
256
 10
-381.795320000000000
 20
-114.784038000000000
 40
0.999999999999984
 50
210.000000000000510
 51
306.813854000000730
  0
LINE
  8
0
  6
CONTINUOUS
 62
256
 10
-382.661345999999980
 20
-115.284038000000000
 11
-384.173239000000020
 21
-112.665363000000000
  0
ARC
  8
0
  6
CONTINUOUS
 62
256
 10
-383.307212999999990
 20
-112.165363000000000
 40
0.999999999999993
 50
127.589541999998830
 51
210.000000000000510
  0
ARC
  8
0
  6
CONTINUOUS
 62
256
 10
-377.521903000000010
 20
-122.185815000000010
 40
0.999999999999984
 50
210.000000000000510
 51
305.284733000000980
  0
LINE
  8
0
  6
CONTINUOUS
 62
256
 10
-378.387927999999990
 20
-122.685815000000010
 11
-379.894883999999990
 21
-120.075689999999990
  0
ARC
  8
0
  6
CONTINUOUS
 62
256
 10
-379.028859000000010
 20
-119.575689999999990
 40
0.999999999999998
 50
125.739170000000210
 51
210.000000000000510
  0
ARC
  8
0
  6
CONTINUOUS
 62
256
 10
-392.025258000000010
 20
-97.065264999999997
 40
0.999999999999985
 50
141.618271999999000
 51
210.000000000000510
  0
LINE
  8
0
  6
CONTINUOUS
 62
256
 10
-391.307164000000000
 20
-100.309040999999990
 11
-392.891283999999980
 21
-97.565264999999997
  0
ARC
  8
0
  6
CONTINUOUS
 62
256
 10
-387.612916999999980
 20
-104.707665000000010
 40
1.000000000000006
 50
131.212270999999760
 51
210.000000000000510
  0
LINE
  8
0
  6
CONTINUOUS
 62
256
 10
-386.954025000000000
 20
-107.848900000000000
 11
-388.478942000000020
 21
-105.207665000000010
  0
ARC
  8
0
  6
CONTINUOUS
 62
256
 10
-386.087999000000020
 20
-107.348900000000000
 40
0.999999999999984
 50
210.000000000000510
 51
309.594067999999310
  0
ARC
  8
0
  6
CONTINUOUS
 62
256
 10
-390.640467000000000
 20
-94.666736000000000
 40
1.000000000000000
 50
90.000000000000000
 51
158.381728000000550
  0
ARC
  8
0
  6
CONTINUOUS
 62
256
 10
-399.472227999999970
 20
-91.166736000000000
 40
8.500000000000005
 50
321.618272000000050
 51
338.381728000000010
  0
ARC
  8
0
  6
CONTINUOUS
 62
256
 10
-390.441139000000020
 20
-99.809040999999993
 40
0.999999999999984
 50
210.000000000000510
 51
316.260205000000270
  0
LINE
  8
0
  6
CONTINUOUS
 62
256
 10
-387.472227999999970
 20
-93.666736000000000
 11
-390.640467000000000
 21
-93.666736000000000
  0
ARC
  8
0
  6
CONTINUOUS
 62
256
 10
-387.472227999999970
 20
-94.666736000000000
 40
0.999999999999976
 50
343.739794999999330
 51
90.000000000000000
  0
ARC
  8
0
  6
CONTINUOUS
 62
256
 10
-399.472227999999970
 20
-91.166736000000000
 40
13.500000000000004
 50
316.260204999999980
 51
343.739794999999960
  0
ARC
  8
0
  6
CONTINUOUS
 62
256
 10
-399.472227999999970
 20
-91.166736000000000
 40
17.000000000000014
 50
311.212270999999990
 51
348.787729000000010
  0
ARC
  8
0
  6
CONTINUOUS
 62
256
 10
-399.472227999999970
 20
-91.166736000000000
 40
21.999999999999986
 50
309.594067999999940
 51
350.405932000000010
  0
ARC
  8
0
  6
CONTINUOUS
 62
256
 10
-387.857498000000020
 20
-118.284038000000000
 40
1.000000000000000
 50
293.186146000000120
 51
30.000000000000544
  0
LINE
  8
0
  6
CONTINUOUS
 62
256
 10
-386.991472999999980
 20
-117.784038000000000
 11
-388.503366000000030
 21
-115.165363000000000
  0
ARC
  8
0
  6
CONTINUOUS
 62
256
 10
-389.369391000000010
 20
-115.665363000000000
 40
0.999999999999984
 50
30.000000000000544
 51
112.410458000000460
  0
ARC
  8
0
  6
CONTINUOUS
 62
256
 10
-383.584079999999970
 20
-125.685815000000010
 40
1.000000000000004
 50
294.715267000000150
 51
30.000000000000544
  0
LINE
  8
0
  6
CONTINUOUS
 62
256
 10
-382.718054999999990
 20
-125.185815000000010
 11
-384.225010999999990
 21
-122.575689999999990
  0
ARC
  8
0
  6
CONTINUOUS
 62
256
 10
-385.091035999999970
 20
-123.075689999999990
 40
0.999999999999984
 50
30.000000000000544
 51
114.260829999998650
  0
ARC
  8
0
  6
CONTINUOUS
 62
256
 10
-398.087436000000030
 20
-100.565265000000000
 40
0.999999999999984
 50
30.000000000000544
 51
98.381727999998901
  0
LINE
  8
0
  6
CONTINUOUS
 62
256
 10
-395.637291000000000
 20
-102.809040999999990
 11
-397.221410999999990
 21
-100.065265000000000
  0
ARC
  8
0
  6
CONTINUOUS
 62
256
 10
-393.675095000000000
 20
-108.207665000000010
 40
0.999999999999984
 50
30.000000000000544
 51
108.787729000000750
  0
LINE
  8
0
  6
CONTINUOUS
 62
256
 10
-391.284152000000010
 20
-110.348900000000000
 11
-392.809069000000020
 21
-107.707665000000010
  0
ARC
  8
0
  6
CONTINUOUS
 62
256
 10
-392.150176999999990
 20
-110.848900000000000
 40
0.999999999999993
 50
290.405931999999840
 51
30.000000000000544
  0
ARC
  8
0
  6
CONTINUOUS
 62
256
 10
-400.857018999999980
 20
-100.565265000000000
 40
0.999999999999998
 50
81.618272000001099
 51
149.999999999999460
  0
ARC
  8
0
  6
CONTINUOUS
 62
256
 10
-399.472227999999970
 20
-91.166736000000000
 40
8.500000000000002
 50
261.618271999999930
 51
278.381728000000070
  0
ARC
  8
0
  6
CONTINUOUS
 62
256
 10
-396.503316999999980
 20
-103.309040999999990
 40
1.000000000000011
 50
283.739795000001270
 51
30.000000000000544
  0
LINE
  8
0
  6
CONTINUOUS
 62
256
 10
-403.307164000000000
 20
-102.809040999999990
 11
-401.723045000000010
 21
-100.065265000000000
  0
ARC
  8
0
  6
CONTINUOUS
 62
256
 10
-402.441139000000020
 20
-103.309040999999990
 40
0.999999999999984
 50
149.999999999999460
 51
256.260204999998730
  0
ARC
  8
0
  6
CONTINUOUS
 62
256
 10
-399.472227999999970
 20
-91.166736000000000
 40
13.499999999999989
 50
256.260205000000040
 51
283.739794999999960
  0
ARC
  8
0
  6
CONTINUOUS
 62
256
 10
-405.269361000000000
 20
-108.207665000000010
 40
1.000000000000010
 50
71.212270999999262
 51
149.999999999999460
  0
LINE
  8
0
  6
CONTINUOUS
 62
256
 10
-407.660304000000000
 20
-110.348900000000000
 11
-406.135385999999980
 21
-107.707665000000010
  0
ARC
  8
0
  6
CONTINUOUS
 62
256
 10
-399.472227999999970
 20
-91.166736000000000
 40
16.999999999999993
 50
251.212271000000040
 51
288.787728999999960
  0
ARC
  8
0
  6
CONTINUOUS
 62
256
 10
-406.794278000000020
 20
-110.848900000000000
 40
0.999999999999984
 50
149.999999999999460
 51
249.594068000000160
  0
ARC
  8
0
  6
CONTINUOUS
 62
256
 10
-409.575064000000000
 20
-115.665363000000000
 40
1.000000000000009
 50
67.589541999999554
 51
149.999999999999460
  0
ARC
  8
0
  6
CONTINUOUS
 62
256
 10
-413.853418999999970
 20
-123.075689999999990
 40
0.999999999999992
 50
65.739170000001337
 51
149.999999999999460
  0
ARC
  8
0
  6
CONTINUOUS
 62
256
 10
-399.472227999999970
 20
-91.166736000000000
 40
21.999999999999996
 50
249.594067999999990
 51
290.405932000000010
  0
LINE
  8
0
  6
CONTINUOUS
 62
256
 10
-411.952983000000020
 20
-117.784038000000000
 11
-410.441089999999970
 21
-115.165363000000000
  0
ARC
  8
0
  6
CONTINUOUS
 62
256
 10
-411.086956999999980
 20
-118.284038000000000
 40
0.999999999999984
 50
149.999999999999460
 51
246.813853999999880
  0
ARC
  8
0
  6
CONTINUOUS
 62
256
 10
-399.472227999999970
 20
-91.166736000000000
 40
30.499999999999996
 50
246.813853999999990
 51
293.186146000000010
  0
ARC
  8
0
  6
CONTINUOUS
 62
256
 10
-399.472227999999970
 20
-91.166736000000000
 40
25.500000000000007
 50
247.589541999999940
 51
292.410458000000010
  0
ARC
  8
0
  6
CONTINUOUS
 62
256
 10
-399.472227999999970
 20
-91.166736000000000
 40
34.000000000000000
 50
245.739170000000000
 51
294.260830000000000
  0
ARC
  8
0
  6
CONTINUOUS
 62
256
 10
-399.472227999999970
 20
-91.166736000000000
 40
39.000000000000000
 50
245.284732999999960
 51
294.715266999999980
  0
LINE
  8
0
  6
CONTINUOUS
 62
256
 10
-416.226400000000010
 20
-125.185815000000010
 11
-414.719444000000010
 21
-122.575689999999990
  0
ARC
  8
0
  6
CONTINUOUS
 62
256
 10
-415.360374999999980
 20
-125.685815000000010
 40
0.999999999999984
 50
149.999999999999460
 51
245.284732999999870
  0
CIRCLE
  8
0
  6
CONTINUOUS
 62
256
 10
-399.472227999999970
 20
-91.166736000000000
 40
5.000000000000000
  0
ARC
  8
0
  6
CONTINUOUS
 62
256
 10
-421.422552999999990
 20
-122.185815000000010
 40
1.000000000000016
 50
234.715266999999020
 51
329.999999999999490
  0
ARC
  8
0
  6
CONTINUOUS
 62
256
 10
-419.915596999999990
 20
-119.575689999999990
 40
0.999999999999984
 50
329.999999999999490
 51
54.260829999999778
  0
ARC
  8
0
  6
CONTINUOUS
 62
256
 10
-434.296787999999990
 20
-94.666736000000000
 40
0.999999999999978
 50
5.739170000000447
 51
90.000000000000000
  0
ARC
  8
0
  6
CONTINUOUS
 62
256
 10
-437.310700000000000
 20
-94.666736000000000
 40
1.000000000000000
 50
90.000000000000000
 51
185.284732999999760
  0
ARC
  8
0
  6
CONTINUOUS
 62
256
 10
-425.740078999999980
 20
-94.666736000000000
 40
0.999999999999990
 50
7.589541999999997
 51
90.000000000000000
  0
ARC
  8
0
  6
CONTINUOUS
 62
256
 10
-417.149135000000000
 20
-114.784038000000000
 40
1.000000000000011
 50
233.186145999999270
 51
329.999999999999490
  0
ARC
  8
0
  6
CONTINUOUS
 62
256
 10
-415.637242000000010
 20
-112.165363000000000
 40
0.999999999999984
 50
329.999999999999490
 51
52.410458000001171
  0
ARC
  8
0
  6
CONTINUOUS
 62
256
 10
-428.763865000000010
 20
-94.666736000000000
 40
1.000000000000000
 50
90.000000000000000
 51
186.813853999999760
  0
ARC
  8
0
  6
CONTINUOUS
 62
256
 10
-420.178507000000020
 20
-94.666736000000000
 40
1.000000000000000
 50
90.000000000000000
 51
189.594067999999960
  0
ARC
  8
0
  6
CONTINUOUS
 62
256
 10
-417.128671000000000
 20
-94.666736000000000
 40
1.000000000000016
 50
11.212270999999729
 51
90.000000000000000
  0
ARC
  8
0
  6
CONTINUOUS
 62
256
 10
-412.856455999999980
 20
-107.348900000000000
 40
0.999999999999988
 50
230.405932000000690
 51
329.999999999999490
  0
ARC
  8
0
  6
CONTINUOUS
 62
256
 10
-411.331538000000020
 20
-104.707665000000010
 40
0.999999999999984
 50
329.999999999999490
 51
48.787728999999715
  0
ARC
  8
0
  6
CONTINUOUS
 62
256
 10
-408.503316999999980
 20
-99.809040999999993
 40
1.000000000000005
 50
223.739794999999760
 51
329.999999999999490
  0
ARC
  8
0
  6
CONTINUOUS
 62
256
 10
-411.472227999999970
 20
-94.666736000000000
 40
1.000000000000000
 50
90.000000000000000
 51
196.260205000000670
  0
ARC
  8
0
  6
CONTINUOUS
 62
256
 10
-408.303989000000000
 20
-94.666736000000000
 40
1.000000000000013
 50
21.618271999999475
 51
90.000000000000000
  0
ARC
  8
0
  6
CONTINUOUS
 62
256
 10
-406.919197000000000
 20
-97.065264999999997
 40
0.999999999999984
 50
329.999999999999490
 51
38.381728000001026
  0
ARC
  8
0
  6
CONTINUOUS
 62
256
 10
-399.472227999999970
 20
-91.166736000000000
 40
38.999999999999986
 50
185.284732999999990
 51
234.715266999999980
  0
ARC
  8
0
  6
CONTINUOUS
 62
256
 10
-399.472227999999970
 20
-91.166736000000000
 40
30.499999999999986
 50
186.813853999999990
 51
233.186146000000040
  0
ARC
  8
0
  6
CONTINUOUS
 62
256
 10
-399.472227999999970
 20
-91.166736000000000
 40
34.000000000000028
 50
185.739169999999970
 51
234.260829999999970
  0
ARC
  8
0
  6
CONTINUOUS
 62
256
 10
-399.472227999999970
 20
-91.166736000000000
 40
25.500000000000011
 50
187.589541999999990
 51
232.410458000000030
  0
ARC
  8
0
  6
CONTINUOUS
 62
256
 10
-399.472227999999970
 20
-91.166736000000000
 40
21.999999999999975
 50
189.594067999999960
 51
230.405932000000060
  0
ARC
  8
0
  6
CONTINUOUS
 62
256
 10
-399.472227999999970
 20
-91.166736000000000
 40
16.999999999999989
 50
191.212270999999960
 51
228.787728999999960
  0
ARC
  8
0
  6
CONTINUOUS
 62
256
 10
-399.472227999999970
 20
-91.166736000000000
 40
13.499999999999989
 50
196.260205000000010
 51
223.739794999999990
  0
ARC
  8
0
  6
CONTINUOUS
 62
256
 10
-399.472227999999970
 20
-91.166736000000000
 40
8.500000000000016
 50
201.618271999999960
 51
218.381727999999950
  0
LINE
  8
0
  6
CONTINUOUS
 62
256
 10
-416.283110000000020
 20
-115.284038000000000
 11
-414.771216999999980
 21
-112.665363000000000
  0
LINE
  8
0
  6
CONTINUOUS
 62
256
 10
-437.310700000000000
 20
-93.666736000000000
 11
-434.296787999999990
 21
-93.666736000000000
  0
LINE
  8
0
  6
CONTINUOUS
 62
256
 10
-420.556527000000020
 20
-122.685815000000010
 11
-419.049571000000010
 21
-120.075689999999990
  0
LINE
  8
0
  6
CONTINUOUS
 62
256
 10
-411.990431000000000
 20
-107.848900000000000
 11
-410.465512999999990
 21
-105.207665000000010
  0
LINE
  8
0
  6
CONTINUOUS
 62
256
 10
-407.637291000000000
 20
-100.309040999999990
 11
-406.053172000000020
 21
-97.565264999999997
  0
LINE
  8
0
  6
CONTINUOUS
 62
256
 10
-411.472227999999970
 20
-93.666736000000000
 11
-408.303989000000000
 21
-93.666736000000000
  0
LINE
  8
0
  6
CONTINUOUS
 62
256
 10
-420.178507000000020
 20
-93.666736000000000
 11
-417.128671000000000
 21
-93.666736000000000
  0
LINE
  8
0
  6
CONTINUOUS
 62
256
 10
-428.763865000000010
 20
-93.666736000000000
 11
-425.740078999999980
 21
-93.666736000000000
  0
ARC
  8
0
  6
CONTINUOUS
 62
256
 10
-399.472227999999970
 20
-91.166736000000000
 40
38.999999999999993
 50
65.284733000000031
 51
114.715266999999980
  0
ARC
  8
0
  6
CONTINUOUS
 62
256
 10
-399.472227999999970
 20
-91.166736000000000
 40
34.000000000000000
 50
65.739169999999987
 51
114.260830000000010
  0
ARC
  8
0
  6
CONTINUOUS
 62
256
 10
-399.472227999999970
 20
-91.166736000000000
 40
25.500000000000007
 50
67.589541999999966
 51
112.410458000000050
  0
ARC
  8
0
  6
CONTINUOUS
 62
256
 10
-399.472227999999970
 20
-91.166736000000000
 40
30.500000000000004
 50
66.813853999999992
 51
113.186146000000010
  0
ARC
  8
0
  6
CONTINUOUS
 62
256
 10
-399.472227999999970
 20
-91.166736000000000
 40
21.999999999999996
 50
69.594067999999993
 51
110.405932000000020
  0
ARC
  8
0
  6
CONTINUOUS
 62
256
 10
-399.472227999999970
 20
-91.166736000000000
 40
16.999999999999993
 50
71.212271000000044
 51
108.787728999999960
  0
ARC
  8
0
  6
CONTINUOUS
 62
256
 10
-399.472227999999970
 20
-91.166736000000000
 40
13.499999999999989
 50
76.260205000000056
 51
103.739794999999940
  0
ARC
  8
0
  6
CONTINUOUS
 62
256
 10
-396.503316999999980
 20
-79.024431000000007
 40
0.999999999999984
 50
329.999999999999490
 51
76.260204999998734
  0
ARC
  8
0
  6
CONTINUOUS
 62
256
 10
-392.150176999999990
 20
-71.484572000000000
 40
0.999999999999984
 50
329.999999999999490
 51
69.594068000000149
  0
LINE
  8
0
  6
CONTINUOUS
 62
256
 10
-391.284152000000010
 20
-71.984572000000000
 11
-392.809069000000020
 21
-74.625808000000006
  0
ARC
  8
0
  6
CONTINUOUS
 62
256
 10
-393.675095000000000
 20
-74.125808000000006
 40
1.000000000000010
 50
251.212270999999220
 51
329.999999999999490
  0
LINE
  8
0
  6
CONTINUOUS
 62
256
 10
-395.637291000000000
 20
-79.524431000000007
 11
-397.221410999999990
 21
-82.268207000000004
  0
ARC
  8
0
  6
CONTINUOUS
 62
256
 10
-398.087436000000030
 20
-81.768207000000004
 40
0.999999999999998
 50
261.618272000001130
 51
329.999999999999490
  0
ARC
  8
0
  6
CONTINUOUS
 62
256
 10
-385.091035999999970
 20
-59.257781999999999
 40
0.999999999999992
 50
245.739170000001340
 51
329.999999999999490
  0
LINE
  8
0
  6
CONTINUOUS
 62
256
 10
-382.718054999999990
 20
-57.147658000000000
 11
-384.225010999999990
 21
-59.757781999999999
  0
ARC
  8
0
  6
CONTINUOUS
 62
256
 10
-383.584079999999970
 20
-56.647658000000000
 40
0.999999999999984
 50
329.999999999999490
 51
65.284732999999861
  0
ARC
  8
0
  6
CONTINUOUS
 62
256
 10
-389.369391000000010
 20
-66.668109999999999
 40
1.000000000000009
 50
247.589541999999540
 51
329.999999999999490
  0
LINE
  8
0
  6
CONTINUOUS
 62
256
 10
-386.991472999999980
 20
-64.549434000000005
 11
-388.503366000000030
 21
-67.168109999999999
  0
ARC
  8
0
  6
CONTINUOUS
 62
256
 10
-387.857498000000020
 20
-64.049434000000005
 40
0.999999999999984
 50
329.999999999999490
 51
66.813853999999878
  0
ARC
  8
0
  6
CONTINUOUS
 62
256
 10
-399.472227999999970
 20
-91.166736000000000
 40
21.999999999999979
 50
9.594068000000020
 51
50.405932000000064
  0
ARC
  8
0
  6
CONTINUOUS
 62
256
 10
-399.472227999999970
 20
-91.166736000000000
 40
16.999999999999993
 50
11.212271000000010
 51
48.787728999999970
  0
ARC
  8
0
  6
CONTINUOUS
 62
256
 10
-399.472227999999970
 20
-91.166736000000000
 40
13.499999999999989
 50
16.260205000000035
 51
43.739795000000001
  0
ARC
  8
0
  6
CONTINUOUS
 62
256
 10
-387.472227999999970
 20
-87.666736000000000
 40
1.000000000000000
 50
270.000000000000000
 51
16.260205000000671
  0
LINE
  8
0
  6
CONTINUOUS
 62
256
 10
-387.472227999999970
 20
-88.666736000000000
 11
-390.640467000000000
 21
-88.666736000000000
  0
ARC
  8
0
  6
CONTINUOUS
 62
256
 10
-390.441139000000020
 20
-82.524431000000007
 40
1.000000000000005
 50
43.739794999999773
 51
149.999999999999460
  0
ARC
  8
0
  6
CONTINUOUS
 62
256
 10
-399.472227999999970
 20
-91.166736000000000
 40
8.500000000000016
 50
21.618271999999980
 51
38.381727999999960
  0
ARC
  8
0
  6
CONTINUOUS
 62
256
 10
-390.640467000000000
 20
-87.666736000000000
 40
1.000000000000013
 50
201.618271999999450
 51
270.000000000000000
  0
ARC
  8
0
  6
CONTINUOUS
 62
256
 10
-386.087999000000020
 20
-74.984572000000000
 40
0.999999999999988
 50
50.405932000000682
 51
149.999999999999460
  0
LINE
  8
0
  6
CONTINUOUS
 62
256
 10
-386.954025000000000
 20
-74.484572000000000
 11
-388.478942000000020
 21
-77.125808000000006
  0
ARC
  8
0
  6
CONTINUOUS
 62
256
 10
-387.612916999999980
 20
-77.625808000000006
 40
0.999999999999984
 50
149.999999999999460
 51
228.787729000000240
  0
LINE
  8
0
  6
CONTINUOUS
 62
256
 10
-391.307164000000000
 20
-82.024431000000007
 11
-392.891283999999980
 21
-84.768207000000004
  0
ARC
  8
0
  6
CONTINUOUS
 62
256
 10
-392.025258000000010
 20
-85.268207000000004
 40
0.999999999999984
 50
149.999999999999460
 51
218.381728000001000
  0
ARC
  8
0
  6
CONTINUOUS
 62
256
 10
-379.028859000000010
 20
-62.757781999999999
 40
0.999999999999984
 50
149.999999999999460
 51
234.260830000000000
  0
LINE
  8
0
  6
CONTINUOUS
 62
256
 10
-378.387927999999990
 20
-59.647658000000000
 11
-379.894883999999990
 21
-62.257781999999999
  0
ARC
  8
0
  6
CONTINUOUS
 62
256
 10
-377.521903000000010
 20
-60.147658000000000
 40
1.000000000000011
 50
54.715266999998782
 51
149.999999999999460
  0
ARC
  8
0
  6
CONTINUOUS
 62
256
 10
-383.307212999999990
 20
-70.168109999999999
 40
0.999999999999984
 50
149.999999999999460
 51
232.410458000001200
  0
LINE
  8
0
  6
CONTINUOUS
 62
256
 10
-382.661345999999980
 20
-67.049434000000005
 11
-384.173239000000020
 21
-69.668109999999999
  0
ARC
  8
0
  6
CONTINUOUS
 62
256
 10
-381.795320000000000
 20
-67.549434000000005
 40
1.000000000000011
 50
53.186145999999269
 51
149.999999999999460
  0
ARC
  8
0
  6
CONTINUOUS
 62
256
 10
-378.765947999999980
 20
-87.666736000000000
 40
1.000000000000000
 50
270.000000000000000
 51
9.594067999999961
  0
LINE
  8
0
  6
CONTINUOUS
 62
256
 10
-378.765947999999980
 20
-88.666736000000000
 11
-381.815784000000010
 21
-88.666736000000000
  0
ARC
  8
0
  6
CONTINUOUS
 62
256
 10
-381.815784000000010
 20
-87.666736000000000
 40
1.000000000000016
 50
191.212270999999730
 51
270.000000000000000
  0
ARC
  8
0
  6
CONTINUOUS
 62
256
 10
-402.441139000000020
 20
-79.024431000000007
 40
1.000000000000011
 50
103.739795000001280
 51
210.000000000000510
  0
LINE
  8
0
  6
CONTINUOUS
 62
256
 10
-403.307164000000000
 20
-79.524431000000007
 11
-401.723045000000010
 21
-82.268207000000004
  0
ARC
  8
0
  6
CONTINUOUS
 62
256
 10
-399.472227999999970
 20
-91.166736000000000
 40
8.500000000000002
 50
81.618271999999948
 51
98.381728000000052
  0
ARC
  8
0
  6
CONTINUOUS
 62
256
 10
-400.857018999999980
 20
-81.768207000000004
 40
0.999999999999984
 50
210.000000000000510
 51
278.381727999998870
  0
LINE
  8
0
  6
CONTINUOUS
 62
256
 10
-428.763865000000010
 20
-88.666736000000000
 11
-425.740078999999980
 21
-88.666736000000000
  0
LINE
  8
0
  6
CONTINUOUS
 62
256
 10
-420.178507000000020
 20
-88.666736000000000
 11
-417.128671000000000
 21
-88.666736000000000
  0
LINE
  8
0
  6
CONTINUOUS
 62
256
 10
-411.472227999999970
 20
-88.666736000000000
 11
-408.303989000000000
 21
-88.666736000000000
  0
LINE
  8
0
  6
CONTINUOUS
 62
256
 10
-407.637291000000000
 20
-82.024431000000007
 11
-406.053172000000020
 21
-84.768207000000004
  0
LINE
  8
0
  6
CONTINUOUS
 62
256
 10
-411.990431000000000
 20
-74.484572000000000
 11
-410.465512999999990
 21
-77.125808000000006
  0
LINE
  8
0
  6
CONTINUOUS
 62
256
 10
-420.556527000000020
 20
-59.647658000000000
 11
-419.049571000000010
 21
-62.257781999999999
  0
LINE
  8
0
  6
CONTINUOUS
 62
256
 10
-416.283110000000020
 20
-67.049434000000005
 11
-414.771216999999980
 21
-69.668109999999999
  0
ARC
  8
0
  6
CONTINUOUS
 62
256
 10
-399.472227999999970
 20
-91.166736000000000
 40
8.500000000000005
 50
141.618272000000020
 51
158.381728000000040
  0
ARC
  8
0
  6
CONTINUOUS
 62
256
 10
-399.472227999999970
 20
-91.166736000000000
 40
13.500000000000004
 50
136.260205000000010
 51
163.739794999999960
  0
ARC
  8
0
  6
CONTINUOUS
 62
256
 10
-399.472227999999970
 20
-91.166736000000000
 40
17.000000000000014
 50
131.212271000000020
 51
168.787728999999980
  0
ARC
  8
0
  6
CONTINUOUS
 62
256
 10
-399.472227999999970
 20
-91.166736000000000
 40
21.999999999999986
 50
129.594067999999940
 51
170.405931999999980
  0
ARC
  8
0
  6
CONTINUOUS
 62
256
 10
-399.472227999999970
 20
-91.166736000000000
 40
25.499999999999996
 50
127.589541999999970
 51
172.410458000000010
  0
ARC
  8
0
  6
CONTINUOUS
 62
256
 10
-399.472227999999970
 20
-91.166736000000000
 40
34.000000000000007
 50
125.739170000000040
 51
174.260830000000000
  0
ARC
  8
0
  6
CONTINUOUS
 62
256
 10
-399.472227999999970
 20
-91.166736000000000
 40
30.499999999999982
 50
126.813853999999980
 51
173.186145999999980
  0
ARC
  8
0
  6
CONTINUOUS
 62
256
 10
-399.472227999999970
 20
-91.166736000000000
 40
39.000000000000000
 50
125.284733000000000
 51
174.715267000000010
  0
ARC
  8
0
  6
CONTINUOUS
 62
256
 10
-406.919197000000000
 20
-85.268207000000004
 40
0.999999999999985
 50
321.618271999998970
 51
30.000000000000544
  0
ARC
  8
0
  6
CONTINUOUS
 62
256
 10
-408.303989000000000
 20
-87.666736000000000
 40
1.000000000000000
 50
270.000000000000000
 51
338.381728000000520
  0
ARC
  8
0
  6
CONTINUOUS
 62
256
 10
-411.472227999999970
 20
-87.666736000000000
 40
0.999999999999976
 50
163.739794999999330
 51
270.000000000000000
  0
ARC
  8
0
  6
CONTINUOUS
 62
256
 10
-408.503316999999980
 20
-82.524431000000007
 40
0.999999999999984
 50
30.000000000000544
 51
136.260205000000240
  0
ARC
  8
0
  6
CONTINUOUS
 62
256
 10
-411.331538000000020
 20
-77.625808000000006
 40
1.000000000000006
 50
311.212270999999760
 51
30.000000000000544
  0
ARC
  8
0
  6
CONTINUOUS
 62
256
 10
-412.856455999999980
 20
-74.984572000000000
 40
0.999999999999984
 50
30.000000000000544
 51
129.594067999999310
  0
ARC
  8
0
  6
CONTINUOUS
 62
256
 10
-417.128671000000000
 20
-87.666736000000000
 40
1.000000000000000
 50
270.000000000000000
 51
348.787729000000300
  0
ARC
  8
0
  6
CONTINUOUS
 62
256
 10
-420.178507000000020
 20
-87.666736000000000
 40
0.999999999999978
 50
170.405932000000040
 51
270.000000000000000
  0
ARC
  8
0
  6
CONTINUOUS
 62
256
 10
-415.637242000000010
 20
-70.168109999999999
 40
0.999999999999993
 50
307.589541999998800
 51
30.000000000000544
  0
ARC
  8
0
  6
CONTINUOUS
 62
256
 10
-417.149135000000000
 20
-67.549434000000005
 40
0.999999999999984
 50
30.000000000000544
 51
126.813854000000730
  0
ARC
  8
0
  6
CONTINUOUS
 62
256
 10
-425.740078999999980
 20
-87.666736000000000
 40
1.000000000000000
 50
270.000000000000000
 51
352.410458000000010
  0
ARC
  8
0
  6
CONTINUOUS
 62
256
 10
-419.915596999999990
 20
-62.757781999999999
 40
1.000000000000004
 50
305.739170000000000
 51
30.000000000000544
  0
ARC
  8
0
  6
CONTINUOUS
 62
256
 10
-421.422552999999990
 20
-60.147658000000000
 40
0.999999999999984
 50
30.000000000000544
 51
125.284733000001220
  0
ARC
  8
0
  6
CONTINUOUS
 62
256
 10
-415.360374999999980
 20
-56.647658000000000
 40
1.000000000000004
 50
114.715267000000150
 51
210.000000000000510
  0
LINE
  8
0
  6
CONTINUOUS
 62
256
 10
-416.226400000000010
 20
-57.147658000000000
 11
-414.719444000000010
 21
-59.757781999999999
  0
ARC
  8
0
  6
CONTINUOUS
 62
256
 10
-411.086956999999980
 20
-64.049434000000005
 40
1.000000000000000
 50
113.186146000000120
 51
210.000000000000510
  0
LINE
  8
0
  6
CONTINUOUS
 62
256
 10
-411.952983000000020
 20
-64.549434000000005
 11
-410.441089999999970
 21
-67.168109999999999
  0
ARC
  8
0
  6
CONTINUOUS
 62
256
 10
-413.853418999999970
 20
-59.257781999999999
 40
0.999999999999984
 50
210.000000000000510
 51
294.260829999998690
  0
ARC
  8
0
  6
CONTINUOUS
 62
256
 10
-409.575064000000000
 20
-66.668109999999999
 40
0.999999999999984
 50
210.000000000000510
 51
292.410458000000400
  0
ARC
  8
0
  6
CONTINUOUS
 62
256
 10
-406.794278000000020
 20
-71.484572000000000
 40
0.999999999999993
 50
110.405931999999860
 51
210.000000000000510
  0
LINE
  8
0
  6
CONTINUOUS
 62
256
 10
-407.660304000000000
 20
-71.984572000000000
 11
-406.135385999999980
 21
-74.625808000000006
  0
ARC
  8
0
  6
CONTINUOUS
 62
256
 10
-405.269361000000000
 20
-74.125808000000006
 40
0.999999999999984
 50
210.000000000000510
 51
288.787729000000750
  0
LINE
  8
0
  6
CONTINUOUS
 62
256
 10
-437.310700000000000
 20
-88.666736000000000
 11
-434.296787999999990
 21
-88.666736000000000
  0
ARC
  8
0
  6
CONTINUOUS
 62
256
 10
-428.763865000000010
 20
-87.666736000000000
 40
1.000000000000019
 50
173.186146000000240
 51
270.000000000000000
  0
ARC
  8
0
  6
CONTINUOUS
 62
256
 10
-437.310700000000000
 20
-87.666736000000000
 40
1.000000000000027
 50
174.715267000000240
 51
270.000000000000000
  0
ARC
  8
0
  6
CONTINUOUS
 62
256
 10
-434.296787999999990
 20
-87.666736000000000
 40
1.000000000000000
 50
270.000000000000000
 51
354.260829999999540
  0
ARC
  8
0
  6
CONTINUOUS
 62
256
 10
-438.936710000000010
 20
-127.782701000000000
 40
2.999999999999998
 50
185.417964000000180
 51
224.999999999999630
  0
ARC
  8
0
  6
CONTINUOUS
 62
256
 10
-52.872228000000000
 20
-91.166736000000000
 40
390.797000000000030
 50
180.000000000000000
 51
185.417964000000010
  0
ARC
  8
0
  6
CONTINUOUS
 62
256
 10
-423.012024999999990
 20
-118.538627000000010
 40
20.797000000000008
 50
224.999999999999970
 51
264.998350000000070
  0
LINE
  8
0
  6
CONTINUOUS
 62
256
 10
-437.717724999999970
 20
-133.244327000000000
 11
-441.058029999999970
 21
-129.904021000000000
  0
ARC
  8
0
  6
CONTINUOUS
 62
256
 10
-399.472227999999970
 20
150.433264000000010
 40
290.797000000000030
 50
264.998350000000070
 51
270.000000000000000
  0
ARC
  8
0
  6
CONTINUOUS
 62
256
 10
-438.936710000000010
 20
-54.550770999999997
 40
3.000000000000014
 50
135.000000000000200
 51
174.582035999999930
  0
ARC
  8
0
  6
CONTINUOUS
 62
256
 10
-52.872228000000000
 20
-91.166736000000000
 40
390.797000000000030
 50
174.582035999999990
 51
180.000000000000000
  0
ARC
  8
0
  6
CONTINUOUS
 62
256
 10
-423.012024999999990
 20
-63.794846000000000
 40
20.797000000000001
 50
95.001650000000041
 51
135.000000000000030
  0
LINE
  8
0
  6
CONTINUOUS
 62
256
 10
-437.717724999999970
 20
-49.089146000000000
 11
-441.058029999999970
 21
-52.429451000000000
  0
ARC
  8
0
  6
CONTINUOUS
 62
256
 10
-399.472227999999970
 20
-332.766735999999980
 40
290.797000000000030
 50
90.000000000000000
 51
95.001649999999998
  0
ARC
  8
0
  6
CONTINUOUS
 62
256
 10
-424.472227999999970
 20
-172.105504999999990
 40
5.000000000000000
 50
180.000000000000000
 51
265.138594999999900
  0
ARC
  8
0
  6
CONTINUOUS
 62
256
 10
-374.472227999999970
 20
-172.105504999999990
 40
4.999999999999989
 50
274.861405000000100
 51
0.000000000000000
  0
LINE
  8
0
  6
CONTINUOUS
 62
256
 10
-429.472227999999970
 20
-148.666735999999990
 11
-429.472227999999970
 21
-172.105504999999990
  0
ARC
  8
0
  6
CONTINUOUS
 62
256
 10
-399.472227999999970
 20
121.833264000000000
 40
300.000000000000000
 50
265.138595000000010
 51
274.861404999999990
  0
LINE
  8
0
  6
CONTINUOUS
 62
256
 10
-396.972227999999970
 20
-178.156319000000000
 11
-396.972227999999970
 21
-178.666735999999990
  0
LINE
  8
0
  6
CONTINUOUS
 62
256
 10
-401.972227999999970
 20
-178.156319000000000
 11
-401.972227999999970
 21
-178.666735999999990
  0
LINE
  8
0
  6
CONTINUOUS
 62
256
 10
-401.972227999999970
 20
-178.666735999999990
 11
-396.972227999999970
 21
-178.666735999999990
  0
ARC
  8
0
  6
CONTINUOUS
 62
256
 10
-399.472227999999970
 20
150.433264000000010
 40
300.600000000000020
 50
264.247717000000020
 51
270.000000000000000
  0
ARC
  8
0
  6
CONTINUOUS
 62
256
 10
-427.535983999999980
 20
-128.156803000000000
 40
20.599999999999991
 50
225.000000000000000
 51
264.247716999999910
  0
ARC
  8
0
  6
CONTINUOUS
 62
256
 10
-52.872228000000000
 20
-91.166736000000000
 40
400.600000000000020
 50
180.000000000000000
 51
185.743681999999980
  0
ARC
  8
0
  6
CONTINUOUS
 62
256
 10
-444.894174000000020
 20
-130.597602999999990
 40
6.599999999999971
 50
185.743681999999920
 51
224.999999999999830
  0
ARC
  8
0
  6
CONTINUOUS
 62
256
 10
-399.472227999999970
 20
-332.766735999999980
 40
300.600000000000020
 50
90.000000000000000
 51
95.752283000000006
  0
LINE
  8
0
  6
CONTINUOUS
 62
256
 10
-442.102383999999970
 20
-39.610269000000002
 11
-449.561079000000010
 21
-47.068964000000001
  0
ARC
  8
0
  6
CONTINUOUS
 62
256
 10
-427.535983999999980
 20
-54.176668999999997
 40
20.600000000000001
 50
95.752283000000077
 51
135.000000000000000
  0
ARC
  8
0
  6
CONTINUOUS
 62
256
 10
-52.872228000000000
 20
-91.166736000000000
 40
400.600000000000080
 50
174.256317999999990
 51
180.000000000000000
  0
ARC
  8
0
  6
CONTINUOUS
 62
256
 10
-444.894174000000020
 20
-51.735869000000001
 40
6.600000000000017
 50
135.000000000000170
 51
174.256317999999940
  0
LINE
  8
0
  6
CONTINUOUS
 62
256
 10
-430.972227999999970
 20
-148.666735999999990
 11
-429.460214000000010
 21
-148.666735999999990
  0
LINE
  8
0
  6
CONTINUOUS
 62
256
 10
-430.972227999999970
 20
-148.468185000000010
 11
-430.972227999999970
 21
-148.666735999999990
  0
LINE
  8
0
  6
CONTINUOUS
 62
256
 10
-433.472227999999970
 20
-151.014702000000000
 11
-442.972227999999970
 21
-151.014702000000000
  0
LINE
  8
0
  6
CONTINUOUS
 62
256
 10
-433.472227999999970
 20
-26.336226000000000
 11
-442.972227999999970
 21
-26.336226000000000
  0
LINE
  8
0
  6
CONTINUOUS
 62
256
 10
-446.972227999999970
 20
-40.675463999999998
 11
-446.972227999999970
 21
-44.480113000000003
  0
LINE
  8
0
  6
CONTINUOUS
 62
256
 10
-442.972227999999970
 20
-40.480113000000003
 11
-442.972227999999970
 21
-26.336226000000000
  0
LINE
  8
0
  6
CONTINUOUS
 62
256
 10
-443.167577999999990
 20
-40.675463999999998
 11
-446.972227999999970
 21
-40.675463999999998
  0
LINE
  8
0
  6
CONTINUOUS
 62
256
 10
-442.102383999999970
 20
-142.723203000000010
 11
-449.561079000000010
 21
-135.264508000000010
  0
LINE
  8
0
  6
CONTINUOUS
 62
256
 10
-442.972227999999970
 20
-151.014702000000000
 11
-442.972227999999970
 21
-141.853359000000010
  0
LINE
  8
0
  6
CONTINUOUS
 62
256
 10
-429.472227999999970
 20
-151.084521999999990
 11
-433.472227999999970
 21
-151.014702000000000
  0
TEXT
  8
0
  6
CONTINUOUS
 62
256
 10
478.881500244140620
 20
-203.471801757812500
 40
3.299999952316284
  1
1/1
 50
0.000002504478167
 41
0.850909097352304
  7
STANDARD1
  0
TEXT
  8
0
  6
CONTINUOUS
 62
256
 10
476.463500976562500
 20
-203.471801757812500
 40
3.299999952316284
  1
 
 50
0.000002504478167
 41
1.733333298293026
  7
STANDARD1
  0
TEXT
  8
0
  6
CONTINUOUS
 62
256
 10
463.412872314453120
 20
-203.471801757812500
 40
3.299999952316284
  1
SCALE
 50
0.000002504478167
 41
0.821052645401140
  7
STANDARD1
  0
TEXT
  8
0
  6
CONTINUOUS
 62
256
 10
460.161499023437500
 20
-203.471801757812500
 40
3.299999952316284
  1
 
 50
0.000002504478167
 41
1.733333298293026
  7
STANDARD1
  0
TEXT
  8
0
  6
CONTINUOUS
 62
256
 10
475.024688720703120
 20
-198.171798706054690
 40
3.299999952316284
  1
1/60
 50
0.000002504478167
 41
0.832000075658163
  7
STANDARD1
  0
TEXT
  8
0
  6
CONTINUOUS
 62
256
 10
471.233673095703120
 20
-198.171798706054690
 40
3.299999952316284
  1
ü`
 50
0.000002504478167
 41
1.176000019651471
  7
STANDARD1
  0
TEXT
  8
0
  6
CONTINUOUS
 62
256
 10
463.437500000000000
 20
-198.171798706054690
 40
3.299999952316284
  1
1/5
 50
0.000002504478167
 41
0.850909097352304
  7
STANDARD1
  0
TEXT
  8
0
  6
CONTINUOUS
 62
256
 10
460.161499023437500
 20
-198.171798706054690
 40
3.299999952316284
  1
 
 50
0.000002504478167
 41
1.733333298293026
  7
STANDARD1
  0
TEXT
  8
0
  6
CONTINUOUS
 62
256
 10
460.161499023437500
 20
-192.871795654296870
 40
3.299999952316284
  1
GM-SHYF-RH
 50
0.000002504478167
 41
0.799999980493025
  7
STANDARD1
  0
TEXT
  8
0
  6
CONTINUOUS
 62
256
 10
465.986877441406250
 20
-187.571807861328120
 40
3.299999952316284
  1
0.2kW
 50
0.000002504478167
 41
0.821052645401140
  7
STANDARD1
  0
TEXT
  8
0
  6
CONTINUOUS
 62
256
 10
460.161499023437500
 20
-187.571807861328120
 40
3.299999952316284
  1
  
 50
0.000002504478167
 41
1.485714400175845
  7
STANDARD1
  0
TEXT
  8
0
  6
CONTINUOUS
 62
256
 10
465.980987548828120
 20
-182.271804809570310
 40
3.299999952316284
  1
SHY012
 50
0.000002504478167
 41
0.813913121261144
  7
STANDARD1
  0
TEXT
  8
0
  6
CONTINUOUS
 62
256
 10
460.161499023437500
 20
-182.271804809570310
 40
3.299999952316284
  1
  
 50
0.000002504478167
 41
1.485714400175845
  7
STANDARD1
  0
ARC
  8
0
  6
CONTINUOUS
 62
256
 10
732.818599999999950
 20
-91.166736000000000
 40
400.600000000000080
 50
174.256317999999990
 51
180.000000000000000
  0
ARC
  8
0
  6
CONTINUOUS
 62
256
 10
340.796652999999990
 20
-51.735869000000001
 40
6.600000000000017
 50
135.000000000000170
 51
174.256317999999940
  0
LINE
  8
0
  6
CONTINUOUS
 62
256
 10
338.718599999999980
 20
-44.480113000000003
 11
336.129748000000010
 21
-47.068964000000001
  0
ARC
  8
0
  6
CONTINUOUS
 62
256
 10
39.618600000000001
 20
-91.166736000000000
 40
400.600000000000020
 50
0.000000000000000
 51
5.743682000000000
  0
ARC
  8
0
  6
CONTINUOUS
 62
256
 10
431.640545999999970
 20
-51.735869000000001
 40
6.599999999999972
 50
5.743682000000001
 51
44.999999999999829
  0
LINE
  8
0
  6
CONTINUOUS
 62
256
 10
433.718599999999980
 20
-44.480113000000003
 11
436.307451000000010
 21
-47.068964000000001
  0
LINE
  8
0
  6
DASHDOT
 62
256
 10
386.218599999999980
 20
-36.166736000000000
 11
430.997784000000020
 21
-36.166736000000000
  0
LINE
  8
0
  6
DASHDOT
 62
256
 10
386.218599999999980
 20
-141.166735999999990
 11
431.481765999999990
 21
-141.166735999999990
  0
LINE
  8
0
  6
CONTINUOUS
 62
256
 10
-167.932275000000000
 20
-178.166735999999990
 11
-238.932275000000000
 21
-178.166735999999990
  0
LINE
  8
0
  6
CONTINUOUS
 62
256
 10
-181.932275000000000
 20
-178.666735999999990
 11
-181.932275000000000
 21
-178.166735999999990
  0
LINE
  8
0
  6
CONTINUOUS
 62
256
 10
-181.932275000000000
 20
-178.666735999999990
 11
-173.932275000000000
 21
-178.666735999999990
  0
LINE
  8
0
  6
CONTINUOUS
 62
256
 10
-173.932275000000000
 20
-178.666735999999990
 11
-173.932275000000000
 21
-178.166735999999990
  0
ARC
  8
0
  6
CONTINUOUS
 62
256
 10
-167.932275000000000
 20
-177.166735999999990
 40
1.000000000000000
 50
270.000000000000000
 51
0.000000000000000
  0
ARC
  8
0
  6
CONTINUOUS
 62
256
 10
-238.932275000000000
 20
-177.166735999999990
 40
1.000000000000000
 50
180.000000000000000
 51
270.000000000000000
  0
LINE
  8
0
  6
DASHDOT
 62
256
 10
394.126668999999990
 20
-91.166736000000000
 11
378.626106999999990
 21
-91.166736000000000
  0
LINE
  8
0
  6
DASHDOT
 62
256
 10
325.597868000000010
 20
-78.166736000000000
 11
443.891632000000020
 21
-78.166736000000000
  0
LINE
  8
0
  6
DASHDOT
 62
256
 10
386.218599999999980
 20
-182.049070000000000
 11
386.218599999999980
 21
-15.786899000000000
  0
ARC
  8
0
  6
CONTINUOUS
 62
256
 10
439.218599999999980
 20
-71.666736000000000
 40
0.500000000000000
 50
0.000000000000000
 51
90.000000000000000
  0
ARC
  8
0
  6
CONTINUOUS
 62
256
 10
333.218599999999980
 20
-110.666736000000000
 40
0.500000000000000
 50
180.000000000000000
 51
270.000000000000000
  0
ARC
  8
0
  6
CONTINUOUS
 62
256
 10
333.218599999999980
 20
-71.666736000000000
 40
0.500000000000000
 50
90.000000000000000
 51
180.000000000000000
  0
ARC
  8
0
  6
CONTINUOUS
 62
256
 10
333.218599999999980
 20
-70.666736000000000
 40
0.500000000000000
 50
270.000000000000000
 51
0.000000000000000
  0
ARC
  8
0
  6
CONTINUOUS
 62
256
 10
333.218599999999980
 20
-111.666736000000000
 40
0.500000000000000
 50
0.000000000000000
 51
90.000000000000000
  0
ARC
  8
0
  6
CONTINUOUS
 62
256
 10
439.218599999999980
 20
-110.666736000000000
 40
0.500000000000000
 50
270.000000000000000
 51
0.000000000000000
  0
ARC
  8
0
  6
CONTINUOUS
 62
256
 10
439.218599999999980
 20
-111.666736000000000
 40
0.500000000000000
 50
90.000000000000000
 51
180.000000000000000
  0
ARC
  8
0
  6
CONTINUOUS
 62
256
 10
439.218599999999980
 20
-70.666736000000000
 40
0.500000000000000
 50
180.000000000000000
 51
270.000000000000000
  0
ARC
  8
0
  6
CONTINUOUS
 62
256
 10
341.186243999999990
 20
-131.956450999999990
 40
3.000000000000004
 50
135.000000000000370
 51
217.162520000000170
  0
ARC
  8
0
  6
CONTINUOUS
 62
256
 10
343.126880000000030
 20
-134.187635000000000
 40
3.000000000000027
 50
224.869578999999760
 51
262.178139999999590
  0
ARC
  8
0
  6
CONTINUOUS
 62
256
 10
429.310318999999990
 20
-134.187635000000000
 40
2.999999999999995
 50
277.821860000000410
 51
315.130421000000180
  0
ARC
  8
0
  6
CONTINUOUS
 62
256
 10
431.250954999999980
 20
-131.956450999999990
 40
2.999999999999989
 50
322.837479999999800
 51
44.999999999999616
  0
ARC
  8
0
  6
CONTINUOUS
 62
256
 10
431.250954999999980
 20
-50.377021999999997
 40
2.999999999999981
 50
325.340699999999740
 51
34.659300000000293
  0
ARC
  8
0
  6
CONTINUOUS
 62
256
 10
733.718600000000040
 20
-71.166736000000000
 40
400.000000000000000
 50
178.568016000000000
 51
179.928470000000000
  0
ARC
  8
0
  6
CONTINUOUS
 62
256
 10
358.718599999999980
 20
-63.666736000000000
 40
25.000000000000011
 50
143.130101999999990
 51
174.269825000000000
  0
ARC
  8
0
  6
CONTINUOUS
 62
256
 10
733.718600000000040
 20
-111.166736000000000
 40
400.000000000000000
 50
180.071529999999970
 51
180.859540999999980
  0
ARC
  8
0
  6
CONTINUOUS
 62
256
 10
358.718599999999980
 20
-118.666736000000000
 40
25.000000000000007
 50
176.561350000000000
 51
230.208180999999940
  0
ARC
  8
0
  6
CONTINUOUS
 62
256
 10
38.718600000000002
 20
-111.166736000000000
 40
400.000000000000000
 50
358.568016000000060
 51
359.928470000000000
  0
ARC
  8
0
  6
CONTINUOUS
 62
256
 10
413.718599999999980
 20
-118.666736000000000
 40
24.999999999999996
 50
309.791818999999920
 51
354.269824999999970
  0
ARC
  8
0
  6
CONTINUOUS
 62
256
 10
38.718600000000002
 20
-71.166736000000000
 40
399.999999999999940
 50
0.053000000000000
 51
1.431984000000000
  0
ARC
  8
0
  6
CONTINUOUS
 62
256
 10
413.718599999999980
 20
-63.666736000000000
 40
24.999999999999979
 50
5.730174999999997
 51
36.869897999999985
  0
LINE
  8
0
  6
CONTINUOUS
 62
256
 10
332.718599999999980
 20
-71.666736000000000
 11
332.718599999999980
 21
-110.666736000000000
  0
LINE
  8
0
  6
CONTINUOUS
 62
256
 10
439.718599999999980
 20
-110.666736000000000
 11
439.718599999999980
 21
-71.157988000000003
  0
LINE
  8
0
  6
CONTINUOUS
 62
256
 10
342.718599999999980
 20
-126.181455000000000
 11
339.064924000000020
 21
-129.835130999999990
  0
LINE
  8
0
  6
CONTINUOUS
 62
256
 10
429.718599999999980
 20
-126.181455000000000
 11
433.372275000000000
 21
-129.835130999999990
  0
ARC
  8
0
  6
CONTINUOUS
 62
256
 10
341.186243999999990
 20
-50.377021999999997
 40
2.999999999999981
 50
145.340699999999710
 51
214.659300000000290
  0
LINE
  8
0
  6
CONTINUOUS
 62
256
 10
338.718599999999980
 20
-40.666736000000000
 11
338.718599999999980
 21
-115.666736000000000
  0
LINE
  8
0
  6
CONTINUOUS
 62
256
 10
338.718599999999980
 20
-40.666736000000000
 11
342.718599999999980
 21
-40.666736000000000
  0
LINE
  8
0
  6
CONTINUOUS
 62
256
 10
342.718599999999980
 20
-25.358741999999999
 11
342.718599999999980
 21
-151.974729999999990
  0
LINE
  8
0
  6
CONTINUOUS
 62
256
 10
338.718599999999980
 20
-115.666736000000000
 11
342.718599999999980
 21
-115.666736000000000
  0
LINE
  8
0
  6
CONTINUOUS
 62
256
 10
429.718599999999980
 20
-40.675463999999998
 11
433.718599999999980
 21
-40.675463999999998
  0
LINE
  8
0
  6
CONTINUOUS
 62
256
 10
433.718599999999980
 20
-40.675463999999998
 11
433.718599999999980
 21
-115.658009000000010
  0
LINE
  8
0
  6
CONTINUOUS
 62
256
 10
420.218599999999980
 20
-26.336226000000000
 11
429.718599999999980
 21
-26.336226000000000
  0
LINE
  8
0
  6
CONTINUOUS
 62
256
 10
429.718599999999980
 20
-137.448376000000000
 11
429.718599999999980
 21
-26.336226000000000
  0
LINE
  8
0
  6
CONTINUOUS
 62
256
 10
353.218599999999980
 20
-25.158009000000000
 11
353.218599999999980
 21
-29.666736000000000
  0
LINE
  8
0
  6
CONTINUOUS
 62
256
 10
353.218599999999980
 20
-143.054233000000010
 11
353.218599999999980
 21
-28.658009000000000
  0
LINE
  8
0
  6
CONTINUOUS
 62
256
 10
353.218599999999980
 20
-25.166736000000000
 11
420.218599999999980
 21
-26.336226000000000
  0
LINE
  8
0
  6
CONTINUOUS
 62
256
 10
353.218599999999980
 20
-25.175464000000002
 11
342.718599999999980
 21
-25.358741999999999
  0
LINE
  8
0
  6
CONTINUOUS
 62
256
 10
429.718599999999980
 20
-115.658009000000010
 11
433.718599999999980
 21
-115.658009000000010
  0
LINE
  8
0
  6
CONTINUOUS
 62
256
 10
420.218599999999980
 20
-151.014702000000000
 11
429.718599999999980
 21
-151.014702000000000
  0
LINE
  8
0
  6
CONTINUOUS
 62
256
 10
429.718599999999980
 20
-151.014702000000000
 11
429.718599999999980
 21
-137.448376000000000
  0
LINE
  8
0
  6
CONTINUOUS
 62
256
 10
353.218599999999980
 20
-152.184191000000000
 11
420.218599999999980
 21
-151.014702000000000
  0
LINE
  8
0
  6
CONTINUOUS
 62
256
 10
353.218599999999980
 20
-152.184191000000000
 11
353.218599999999980
 21
-147.675464000000010
  0
LINE
  8
0
  6
CONTINUOUS
 62
256
 10
353.218599999999980
 20
-152.184191000000000
 11
353.218599999999980
 21
-143.054233000000010
  0
LINE
  8
0
  6
CONTINUOUS
 62
256
 10
353.968599999999980
 20
-152.171100000000000
 11
342.718599999999980
 21
-151.974729999999990
  0
LINE
  8
0
  6
CONTINUOUS
 62
256
 10
335.718599999999980
 20
-59.166736000000000
 11
338.718599999999980
 21
-59.166736000000000
  0
ARC
  8
0
  6
CONTINUOUS
 62
256
 10
335.718599999999980
 20
-60.166736000000000
 40
1.000000000000000
 50
90.000000000000000
 51
180.000000000000000
  0
LINE
  8
0
  6
CONTINUOUS
 62
256
 10
334.718599999999980
 20
-60.166736000000000
 11
334.718599999999980
 21
-78.166736000000000
  0
LINE
  8
0
  6
CONTINUOUS
 62
256
 10
335.718599999999980
 20
-97.166736000000000
 11
338.718599999999980
 21
-97.166736000000000
  0
ARC
  8
0
  6
CONTINUOUS
 62
256
 10
335.718599999999980
 20
-96.166736000000000
 40
1.000000000000000
 50
180.000000000000000
 51
270.000000000000000
  0
LINE
  8
0
  6
CONTINUOUS
 62
256
 10
334.718599999999980
 20
-96.166736000000000
 11
334.718599999999980
 21
-78.166736000000000
  0
ARC
  8
0
  6
CONTINUOUS
 62
256
 10
386.218599999999980
 20
-91.166736000000000
 40
53.500000000000028
 50
164.284144000000030
 51
215.601638999999980
  0
LINE
  8
0
  6
CONTINUOUS
 62
256
 10
436.718599999999980
 20
-97.166736000000000
 11
433.718599999999980
 21
-97.166736000000000
  0
ARC
  8
0
  6
CONTINUOUS
 62
256
 10
436.718599999999980
 20
-96.166736000000000
 40
1.000000000000000
 50
270.000000000000000
 51
0.000000000000000
  0
LINE
  8
0
  6
CONTINUOUS
 62
256
 10
437.718599999999980
 20
-96.166736000000000
 11
437.718599999999980
 21
-78.166736000000000
  0
LINE
  8
0
  6
CONTINUOUS
 62
256
 10
437.718599999999980
 20
-60.166736000000000
 11
437.718599999999980
 21
-78.166736000000000
  0
LINE
  8
0
  6
CONTINUOUS
 62
256
 10
436.718599999999980
 20
-59.166736000000000
 11
433.718599999999980
 21
-59.166736000000000
  0
ARC
  8
0
  6
CONTINUOUS
 62
256
 10
436.718599999999980
 20
-60.166736000000000
 40
1.000000000000000
 50
0.000000000000000
 51
90.000000000000000
  0
ARC
  8
0
  6
CONTINUOUS
 62
256
 10
386.218599999999980
 20
-91.166736000000000
 40
53.499999999999979
 50
324.398361000000020
 51
15.715855999999999
  0
ARC
  8
0
  6
CONTINUOUS
 62
256
 10
732.818599999999950
 20
-78.166736000000000
 40
400.600000000000080
 50
180.929702999999960
 51
182.862940999999980
  0
ARC
  8
0
  6
CONTINUOUS
 62
256
 10
39.618600000000001
 20
-78.166736000000000
 40
400.599999999999970
 50
357.137059000000020
 51
359.070296999999980
  0
POINT
  8
0
  6
DASHDOT
 62
256
 10
281.622943000000020
 20
-78.166736000000000
  0
LINE
  8
0
  6
DASHDOT
 62
256
 10
269.122943000000020
 20
-51.939188999999999
 11
269.122943000000020
 21
-101.398647999999990
  0
LINE
  8
0
  6
DASHDOT
 62
256
 10
290.100733999999990
 20
-78.166736000000000
 11
247.442080000000000
 21
-78.166736000000000
  0
ARC
  8
0
  6
CONTINUOUS
 62
256
 10
269.122943000000020
 20
-78.166736000000000
 40
12.500000000000002
 50
108.662925000000020
 51
71.337074999999999
  0
LINE
  8
0
  6
CONTINUOUS
 62
256
 10
273.122943000000020
 20
-62.366736000000003
 11
265.122943000000020
 21
-62.366736000000003
  0
LINE
  8
0
  6
CONTINUOUS
 62
256
 10
273.122943000000020
 20
-62.366736000000003
 11
273.122943000000020
 21
-66.324016999999998
  0
LINE
  8
0
  6
CONTINUOUS
 62
256
 10
265.122943000000020
 20
-62.366736000000003
 11
265.122943000000020
 21
-66.324016999999998
  0
CIRCLE
  8
0
  6
CONTINUOUS
 62
256
 10
269.122943000000020
 20
-78.166736000000000
 40
19.000000000000000
  0
LINE
  8
0
  6
DASHDOT
 62
256
 10
341.180830000000010
 20
-36.166736000000000
 11
386.218599999999980
 21
-36.166736000000000
  0
LINE
  8
0
  6
DASHDOT
 62
256
 10
341.257791000000000
 20
-141.166735999999990
 11
386.218599999999980
 21
-141.166735999999990
  0
ARC
  8
0
  6
CONTINUOUS
 62
256
 10
39.618600000000001
 20
-91.166736000000000
 40
400.600000000000020
 50
354.256318000000020
 51
357.137059000000020
  0
ARC
  8
0
  6
CONTINUOUS
 62
256
 10
431.640545999999970
 20
-130.597602999999990
 40
6.600000000000017
 50
315.000000000000170
 51
354.256318000000020
  0
ARC
  8
0
  6
CONTINUOUS
 62
256
 10
361.218599999999980
 20
-172.105504999999990
 40
5.000000000000000
 50
180.000000000000000
 51
265.138594999999900
  0
ARC
  8
0
  6
CONTINUOUS
 62
256
 10
411.218599999999980
 20
-172.105504999999990
 40
4.999999999999989
 50
274.861405000000100
 51
0.000000000000000
  0
LINE
  8
0
  6
CONTINUOUS
 62
256
 10
356.218599999999980
 20
-152.131825999999990
 11
356.218599999999980
 21
-172.105504999999990
  0
LINE
  8
0
  6
CONTINUOUS
 62
256
 10
416.218599999999980
 20
-151.084521999999990
 11
416.218599999999980
 21
-172.105504999999990
  0
ARC
  8
0
  6
CONTINUOUS
 62
256
 10
386.218599999999980
 20
121.833264000000000
 40
300.000000000000000
 50
265.138595000000010
 51
274.861404999999990
  0
LINE
  8
0
  6
CONTINUOUS
 62
256
 10
388.718599999999980
 20
-178.156319000000000
 11
388.718599999999980
 21
-178.666735999999990
  0
LINE
  8
0
  6
CONTINUOUS
 62
256
 10
383.718599999999980
 20
-178.156319000000000
 11
383.718599999999980
 21
-178.666735999999990
  0
LINE
  8
0
  6
CONTINUOUS
 62
256
 10
383.718599999999980
 20
-178.666735999999990
 11
388.718599999999980
 21
-178.666735999999990
  0
LINE
  8
0
  6
CONTINUOUS
 62
256
 10
429.718599999999980
 20
-141.853359000000010
 11
436.307451000000010
 21
-135.264508000000010
  0
LINE
  8
0
  6
CONTINUOUS
 62
256
 10
342.718599999999980
 20
-141.853359000000010
 11
336.129748000000010
 21
-135.264508000000010
  0
ARC
  8
0
  6
CONTINUOUS
 62
256
 10
732.818599999999950
 20
-91.166736000000000
 40
400.600000000000020
 50
180.000000000000000
 51
185.743681999999980
  0
ARC
  8
0
  6
CONTINUOUS
 62
256
 10
340.796652999999990
 20
-130.597602999999990
 40
6.599999999999971
 50
185.743681999999920
 51
224.999999999999830
  0
ARC
  8
0
  6
CONTINUOUS
 62
256
 10
732.818599999999950
 20
-91.166736000000000
 40
400.600000000000080
 50
179.070297000000010
 51
180.000000000000000
  0
ENDSEC
  0
EOF
