  0
SECTION
  2
HEADER
  9
$TEXTSIZE
 40
2.5
  9
$ACADVER
  1
AC1009
  9
$DIMASZ
 40
3.863703297614046
  9
$DIMEXE
 40
2.000000000000000
  9
$DIMEXO
 40
1.000000000000000
  9
$DIMLFAC
 40
1.000000000000000
  9
$DIMSCALE
 40
1.000000000000000
  9
$DIMTAD
 70
1
  9
$DIMTFAC
 40
0.625000000000000
  9
$DIMTXT
 40
3.200000047683716
  9
$LUPREC
 70
3
  9
$REGENMODE
 70
1
  9
$TEXTSTYLE
  7
STANDARD1
  0
ENDSEC
  0
SECTION
  2
TABLES
  0
TABLE
  2
LTYPE
 70
4
  0
LTYPE
  2
CONTINUOUS
 70
64
  3
Solid line
 72
65
 73
0
 40
0.0
  0
LTYPE
  2
DASHED
 70
64
  3
-- -- -- -- -- -- -- -- -- -- -- -- -- -- --
 72
65
 73
2
 40
0.75
 49
0.5
 49
-0.25
  0
LTYPE
  2
DASHDOT
 70
64
  3
__ . __ . __ . __ . __ . __ . __ . __ . __ . __
 72
65
 73
4
 40
1.0
 49
0.5
 49
-0.25
 49
0.0
 49
-0.25
  0
LTYPE
  2
DIVIDE
 70
64
  3
__ . . __ . . __ . . __ . . __ . . __ . . __
 72
65
 73
6
 40
1.25
 49
0.5
 49
-0.25
 49
0.0
 49
-0.25
 49
0.0
 49
-0.25
  0
ENDTAB
  0
TABLE
  2
LAYER
 70
5
  0
LAYER
  2
0
 70
64
 62
53
  6
CONTINUOUS
  0
LAYER
  2
1
 70
64
 62
102
  6
CONTINUOUS
  0
LAYER
  2
2
 70
64
 62
102
  6
CONTINUOUS
  0
LAYER
  2
3
 70
64
 62
53
  6
CONTINUOUS
  0
LAYER
  2
4
 70
64
 62
191
  6
CONTINUOUS
  0
ENDTAB
  0
TABLE
  2
STYLE
 70
4
  0
STYLE
  2
STANDARD1
 70
64
 40
0.0
 41
1.0
 50
0.0
 71
0
 42
3.200000047683716
  3
MONOTXT
  4
BIGFONT
  0
STYLE
  2
STANDARD2
 70
68
 40
0.0
 41
1.0
 50
0.0
 71
0
 42
3.200000047683716
  3
MONOTXT
  4
BIGFONT
  0
STYLE
  2
STANDARD3
 70
64
 40
0.0
 41
1.0
 50
0.0
 71
0
 42
3.200000047683716
  3
MONOTXT
  4

  0
STYLE
  2
STANDARD4
 70
68
 40
0.0
 41
1.0
 50
0.0
 71
0
 42
3.200000047683716
  3
MONOTXT
  4

  0
ENDTAB
  0
TABLE
  2
VIEW
 70
0
  0
ENDTAB
  0
ENDSEC
  0
SECTION
  2
BLOCKS
  0
BLOCK
  8
0
  2
ZU_SYM_1
 70
64
 10
0.000000000000000
 20
0.000000000000000
  0
LINE
  8
0
  6
CONTINUOUS
 62
256
 10
2.499999000000000
 20
-1.443374000000000
 11
-0.000005000000000
 21
-2.886748000000000
  0
LINE
  8
0
  6
CONTINUOUS
 62
256
 10
0.000005000000000
 20
2.886748000000000
 11
-2.500000000000000
 21
1.443377000000000
  0
LINE
  8
0
  6
CONTINUOUS
 62
256
 10
-0.000006000000000
 20
-2.886747000000000
 11
-2.499998000000000
 21
-1.443372000000000
  0
LINE
  8
0
  6
CONTINUOUS
 62
256
 10
0.000005000000000
 20
2.886749000000000
 11
2.499999000000000
 21
1.443372000000000
  0
LINE
  8
0
  6
CONTINUOUS
 62
256
 10
2.499998000000000
 20
1.443372000000000
 11
2.499999000000000
 21
-1.443374000000000
  0
LINE
  8
0
  6
CONTINUOUS
 62
256
 10
-2.499998000000000
 20
-1.443372000000000
 11
-2.499999000000000
 21
1.443378000000000
  0
POINT
  8
0
  6
CONTINUOUS
 62
256
 10
0.000000000000000
 20
0.000000000000000
  0
CIRCLE
  8
0
  6
CONTINUOUS
 62
256
 10
0.000000000000000
 20
0.000000000000000
 40
5.000000000000000
  0
ENDBLK
  8
0
  0
BLOCK
  8
0
  2
ZU_SYM_2
 70
64
 10
0.000000000000000
 20
0.000000000000000
  0
LINE
  8
0
  6
CONTINUOUS
 62
256
 10
2.499999000000000
 20
-1.443374000000000
 11
-0.000005000000000
 21
-2.886748000000000
  0
LINE
  8
0
  6
CONTINUOUS
 62
256
 10
0.000005000000000
 20
2.886748000000000
 11
-2.500000000000000
 21
1.443377000000000
  0
LINE
  8
0
  6
CONTINUOUS
 62
256
 10
-0.000006000000000
 20
-2.886747000000000
 11
-2.499998000000000
 21
-1.443372000000000
  0
LINE
  8
0
  6
CONTINUOUS
 62
256
 10
0.000005000000000
 20
2.886749000000000
 11
2.499999000000000
 21
1.443372000000000
  0
LINE
  8
0
  6
CONTINUOUS
 62
256
 10
2.499998000000000
 20
1.443372000000000
 11
2.499999000000000
 21
-1.443374000000000
  0
LINE
  8
0
  6
CONTINUOUS
 62
256
 10
-2.499998000000000
 20
-1.443372000000000
 11
-2.499999000000000
 21
1.443378000000000
  0
POINT
  8
0
  6
CONTINUOUS
 62
256
 10
0.000000000000000
 20
0.000000000000000
  0
CIRCLE
  8
0
  6
CONTINUOUS
 62
256
 10
0.000000000000000
 20
0.000000000000000
 40
5.000000000000000
  0
ENDBLK
  8
0
  0
BLOCK
  8
0
  2
ZU_SYM_3
 70
64
 10
0.000000000000000
 20
0.000000000000000
  0
LINE
  8
0
  6
CONTINUOUS
 62
256
 10
2.499999000000000
 20
-1.443374000000000
 11
-0.000005000000000
 21
-2.886748000000000
  0
LINE
  8
0
  6
CONTINUOUS
 62
256
 10
0.000005000000000
 20
2.886748000000000
 11
-2.500000000000000
 21
1.443377000000000
  0
LINE
  8
0
  6
CONTINUOUS
 62
256
 10
-0.000006000000000
 20
-2.886747000000000
 11
-2.499998000000000
 21
-1.443372000000000
  0
LINE
  8
0
  6
CONTINUOUS
 62
256
 10
0.000005000000000
 20
2.886749000000000
 11
2.499999000000000
 21
1.443372000000000
  0
LINE
  8
0
  6
CONTINUOUS
 62
256
 10
2.499998000000000
 20
1.443372000000000
 11
2.499999000000000
 21
-1.443374000000000
  0
LINE
  8
0
  6
CONTINUOUS
 62
256
 10
-2.499998000000000
 20
-1.443372000000000
 11
-2.499999000000000
 21
1.443378000000000
  0
POINT
  8
0
  6
CONTINUOUS
 62
256
 10
0.000000000000000
 20
0.000000000000000
  0
CIRCLE
  8
0
  6
CONTINUOUS
 62
256
 10
0.000000000000000
 20
0.000000000000000
 40
5.000000000000000
  0
ENDBLK
  8
0
  0
BLOCK
  8
0
  2
ZU_SYM_4
 70
64
 10
0.000000000000000
 20
0.000000000000000
  0
LINE
  8
0
  6
CONTINUOUS
 62
256
 10
2.499999000000000
 20
-1.443374000000000
 11
-0.000005000000000
 21
-2.886748000000000
  0
LINE
  8
0
  6
CONTINUOUS
 62
256
 10
0.000005000000000
 20
2.886748000000000
 11
-2.500000000000000
 21
1.443377000000000
  0
LINE
  8
0
  6
CONTINUOUS
 62
256
 10
-0.000006000000000
 20
-2.886747000000000
 11
-2.499998000000000
 21
-1.443372000000000
  0
LINE
  8
0
  6
CONTINUOUS
 62
256
 10
0.000005000000000
 20
2.886749000000000
 11
2.499999000000000
 21
1.443372000000000
  0
LINE
  8
0
  6
CONTINUOUS
 62
256
 10
2.499998000000000
 20
1.443372000000000
 11
2.499999000000000
 21
-1.443374000000000
  0
LINE
  8
0
  6
CONTINUOUS
 62
256
 10
-2.499998000000000
 20
-1.443372000000000
 11
-2.499999000000000
 21
1.443378000000000
  0
POINT
  8
0
  6
CONTINUOUS
 62
256
 10
0.000000000000000
 20
0.000000000000000
  0
CIRCLE
  8
0
  6
CONTINUOUS
 62
256
 10
0.000000000000000
 20
0.000000000000000
 40
5.000000000000000
  0
ENDBLK
  8
0
  0
ENDSEC
  0
SECTION
  2
ENTITIES
  0
TEXT
  8
0
  6
CONTINUOUS
 62
256
 10
-70.375488281250000
 20
-13.156250000000000
 40
2.799999952316284
  1
ü@
 50
0.000002504478167
 41
0.996000017370497
  7
STANDARD1
  0
TEXT
  8
0
  6
CONTINUOUS
 62
256
 10
1.624511957168579
 20
-253.406250000000000
 40
2.799999952316284
  1
ü@
 50
0.000002504478167
 41
0.996000017370497
  7
STANDARD1
  0
LINE
  8
0
  6
DASHED
 62
256
 10
390.474516999999990
 20
-42.297333000000002
 11
390.474516999999990
 21
-59.297333000000002
  0
LINE
  8
0
  6
DASHED
 62
256
 10
462.474516999999990
 20
-45.297333000000002
 11
390.474516999999990
 21
-45.297333000000002
  0
LINE
  8
0
  6
DASHED
 62
256
 10
390.474516999999990
 20
-42.297333000000002
 11
377.474516999999990
 21
-42.297333000000002
  0
LINE
  8
0
  6
DASHED
 62
256
 10
390.474516999999990
 20
-59.297333000000002
 11
377.474516999999990
 21
-59.297333000000002
  0
LINE
  8
0
  6
DASHED
 62
256
 10
462.474516999999990
 20
-56.297333000000002
 11
390.474516999999990
 21
-56.297333000000002
  0
LINE
  8
0
  6
DASHED
 62
256
 10
462.474516999999990
 20
-42.297333000000002
 11
462.474516999999990
 21
-59.297333000000002
  0
LINE
  8
0
  6
DASHED
 62
256
 10
475.474516999999990
 20
-42.297333000000002
 11
462.474516999999990
 21
-42.297333000000002
  0
LINE
  8
0
  6
DASHED
 62
256
 10
475.474516999999990
 20
-59.297333000000002
 11
462.474516999999990
 21
-59.297333000000002
  0
LINE
  8
0
  6
DASHED
 62
256
 10
390.474516999999990
 20
-164.297333000000010
 11
377.474516999999990
 21
-164.297333000000010
  0
LINE
  8
0
  6
DASHED
 62
256
 10
390.474516999999990
 20
-164.297333000000010
 11
390.474516999999990
 21
-181.297333000000010
  0
LINE
  8
0
  6
DASHED
 62
256
 10
390.474516999999990
 20
-181.297333000000010
 11
377.474516999999990
 21
-181.297333000000010
  0
LINE
  8
0
  6
DASHED
 62
256
 10
462.474516999999990
 20
-178.297333000000010
 11
390.474516999999990
 21
-178.297333000000010
  0
LINE
  8
0
  6
DASHED
 62
256
 10
462.474516999999990
 20
-167.297333000000010
 11
390.474516999999990
 21
-167.297333000000010
  0
LINE
  8
0
  6
DASHED
 62
256
 10
406.974516999999990
 20
-167.279878000000000
 11
445.974516999999990
 21
-167.279878000000000
  0
LINE
  8
0
  6
DASHED
 62
256
 10
475.474516999999990
 20
-164.297333000000010
 11
462.474516999999990
 21
-164.297333000000010
  0
LINE
  8
0
  6
DASHED
 62
256
 10
462.474516999999990
 20
-164.297333000000010
 11
462.474516999999990
 21
-181.297333000000010
  0
LINE
  8
0
  6
DASHED
 62
256
 10
475.474516999999990
 20
-181.297333000000010
 11
462.474516999999990
 21
-181.297333000000010
  0
CIRCLE
  8
0
  6
CONTINUOUS
 62
256
 10
-138.676357999999990
 20
-50.797333000000002
 40
8.500000000000000
  0
CIRCLE
  8
0
  6
CONTINUOUS
 62
256
 10
-138.676357999999990
 20
-172.797333000000010
 40
8.500000000000000
  0
CIRCLE
  8
0
  6
CONTINUOUS
 62
256
 10
-4.676358000000000
 20
-172.797333000000010
 40
8.500000000000000
  0
CIRCLE
  8
0
  6
CONTINUOUS
 62
256
 10
-4.676358000000000
 20
-50.797333000000002
 40
8.500000000000000
  0
LINE
  8
0
  6
CONTINUOUS
 62
256
 10
-180.176357999999990
 20
172.108219999999990
 11
-165.228714999999990
 21
172.369132000000010
  0
LINE
  8
0
  6
CONTINUOUS
 62
256
 10
-180.176357999999990
 20
65.073305000000005
 11
-165.228714999999990
 21
64.812393000000000
  0
LINE
  8
0
  6
CONTINUOUS
 62
256
 10
-152.533051000000000
 20
158.108217000000000
 11
-159.176357999999990
 21
158.108217000000000
  0
ARC
  8
0
  6
CONTINUOUS
 62
256
 10
-165.176357999999990
 20
67.811936000000003
 40
2.999999999999997
 50
268.999999999999830
 51
0.000000000000000
  0
ARC
  8
0
  6
CONTINUOUS
 62
256
 10
-165.176357999999990
 20
169.369588999999990
 40
3.000000000000000
 50
0.000000000000000
 51
91.000000000000142
  0
ARC
  8
0
  6
CONTINUOUS
 62
256
 10
-152.533051000000000
 20
160.108217000000000
 40
2.000000000000000
 50
270.000000000000000
 51
0.000000000000000
  0
ARC
  8
0
  6
CONTINUOUS
 62
256
 10
-153.868668000000010
 20
81.608216999999996
 40
1.999999999999998
 50
358.999999999999830
 51
90.000000000000000
  0
LINE
  8
0
  6
CONTINUOUS
 62
256
 10
-95.176357999999993
 20
171.608217000000000
 11
-10.176358000000000
 21
171.608217000000000
  0
LINE
  8
0
  6
CONTINUOUS
 62
256
 10
-95.176357999999993
 20
167.608217000000000
 11
-95.176357999999993
 21
171.608217000000000
  0
LINE
  8
0
  6
CONTINUOUS
 62
256
 10
-10.176358000000000
 20
65.608216999999996
 11
-10.176358000000000
 21
69.608216999999996
  0
LINE
  8
0
  6
CONTINUOUS
 62
256
 10
-10.176358000000000
 20
167.608217000000000
 11
-10.176358000000000
 21
171.608217000000000
  0
LINE
  8
0
  6
CONTINUOUS
 62
256
 10
8.114181000000000
 20
81.608216999999996
 11
-151.877091000000010
 21
81.608216999999996
  0
LINE
  8
0
  6
CONTINUOUS
 62
256
 10
-95.176357999999993
 20
65.608216999999996
 11
-95.176357999999993
 21
69.608216999999996
  0
LINE
  8
0
  6
CONTINUOUS
 62
256
 10
-107.268888000000000
 20
69.608216999999996
 11
7.878538000000000
 21
69.608216999999996
  0
LINE
  8
0
  6
CONTINUOUS
 62
256
 10
-107.268888000000000
 20
167.608217000000000
 11
6.770141000000000
 21
167.608217000000000
  0
LINE
  8
0
  6
CONTINUOUS
 62
256
 10
-151.676357999999990
 20
69.608216999999996
 11
-107.268888000000000
 21
69.608216999999996
  0
LINE
  8
0
  6
CONTINUOUS
 62
256
 10
-10.176358000000000
 20
65.608216999999996
 11
-95.176357999999993
 21
65.608216999999996
  0
LINE
  8
0
  6
CONTINUOUS
 62
256
 10
-150.533051000000000
 20
167.608217000000000
 11
-107.268888000000000
 21
167.608217000000000
  0
LINE
  8
0
  6
CONTINUOUS
 62
256
 10
-151.877091000000010
 20
81.608216999999996
 11
-150.533051000000000
 21
157.608217000000000
  0
LINE
  8
0
  6
CONTINUOUS
 62
256
 10
-150.533051000000000
 20
157.608217000000000
 11
-150.533051000000000
 21
167.608217000000000
  0
LINE
  8
0
  6
CONTINUOUS
 62
256
 10
6.770141000000000
 20
157.608217000000000
 11
6.770141000000000
 21
167.608217000000000
  0
LINE
  8
0
  6
CONTINUOUS
 62
256
 10
7.878538000000000
 20
69.608216999999996
 11
8.087999000000000
 21
81.608216999999996
  0
LINE
  8
0
  6
CONTINUOUS
 62
256
 10
8.114181000000000
 20
81.608216999999996
 11
6.770141000000000
 21
157.608217000000000
  0
LINE
  8
0
  6
CONTINUOUS
 62
256
 10
-151.885819000000000
 20
81.608216999999996
 11
-151.676357999999990
 21
69.608216999999996
  0
LINE
  8
0
  6
CONTINUOUS
 62
256
 10
-175.176357999999990
 20
166.090762000000010
 11
-175.176357999999990
 21
170.142822999999990
  0
ARC
  8
0
  6
CONTINUOUS
 62
256
 10
-177.176357999999990
 20
170.142822999999990
 40
2.000000000000000
 50
0.000000000000000
 51
91.000000000000156
  0
ARC
  8
0
  6
CONTINUOUS
 62
256
 10
-172.176357999999990
 20
166.090762000000010
 40
3.000000000000000
 50
180.000000000000000
 51
270.000000000000000
  0
LINE
  8
0
  6
CONTINUOUS
 62
256
 10
-175.176357999999990
 20
118.590762000000000
 11
-175.176357999999990
 21
158.020413999999990
  0
ARC
  8
0
  6
CONTINUOUS
 62
256
 10
-173.176357999999990
 20
158.020413999999990
 40
2.000000000000000
 50
90.000000000000000
 51
180.000000000000000
  0
ARC
  8
0
  6
CONTINUOUS
 62
256
 10
-172.176357999999990
 20
149.482927999999990
 40
3.000000000000000
 50
90.000000000000000
 51
180.000000000000000
  0
LINE
  8
0
  6
CONTINUOUS
 62
256
 10
-167.111346999999990
 20
152.482927999999990
 11
-172.176357999999990
 21
152.482927999999990
  0
LINE
  8
0
  6
CONTINUOUS
 62
256
 10
-172.176357999999990
 20
163.090762000000010
 11
-165.176357999999990
 21
163.090762000000010
  0
LINE
  8
0
  6
CONTINUOUS
 62
256
 10
-173.176357999999990
 20
160.020413999999990
 11
-165.176357999999990
 21
160.020413999999990
  0
ARC
  8
0
  6
CONTINUOUS
 62
256
 10
-165.176357999999990
 20
160.090762000000010
 40
3.000000000000000
 50
0.000000000000000
 51
90.000000000000000
  0
ARC
  8
0
  6
CONTINUOUS
 62
256
 10
-165.176357999999990
 20
157.020413999999990
 40
3.000000000000000
 50
0.000000000000000
 51
90.000000000000000
  0
LINE
  8
0
  6
CONTINUOUS
 62
256
 10
-162.176357999999990
 20
169.369588999999990
 11
-162.176357999999990
 21
67.811936000000003
  0
LINE
  8
0
  6
CONTINUOUS
 62
256
 10
-175.176357999999990
 20
118.590762000000000
 11
-175.176357999999990
 21
79.161111000000005
  0
LINE
  8
0
  6
CONTINUOUS
 62
256
 10
-175.176357999999990
 20
98.590761999999998
 11
-180.176357999999990
 21
98.590761999999998
  0
ARC
  8
0
  6
CONTINUOUS
 62
256
 10
-172.176357999999990
 20
71.090761999999998
 40
3.000000000000000
 50
90.000000000000000
 51
180.000000000000000
  0
LINE
  8
0
  6
CONTINUOUS
 62
256
 10
-166.871676000000010
 20
84.698595999999995
 11
-172.176357999999990
 21
84.698595999999995
  0
ARC
  8
0
  6
CONTINUOUS
 62
256
 10
-173.176357999999990
 20
79.161111000000005
 40
2.000000000000000
 50
180.000000000000000
 51
270.000000000000000
  0
ARC
  8
0
  6
CONTINUOUS
 62
256
 10
-172.176357999999990
 20
87.698595999999995
 40
3.000000000000000
 50
180.000000000000000
 51
270.000000000000000
  0
LINE
  8
0
  6
CONTINUOUS
 62
256
 10
-175.176357999999990
 20
71.090761999999998
 11
-175.176357999999990
 21
67.038702000000001
  0
ARC
  8
0
  6
CONTINUOUS
 62
256
 10
-177.176357999999990
 20
67.038702000000001
 40
1.999999999999998
 50
268.999999999999830
 51
0.000000000000000
  0
LINE
  8
0
  6
CONTINUOUS
 62
256
 10
-173.176357999999990
 20
77.161111000000005
 11
-165.176357999999990
 21
77.161111000000005
  0
LINE
  8
0
  6
CONTINUOUS
 62
256
 10
-172.176357999999990
 20
74.090761999999998
 11
-165.176357999999990
 21
74.090761999999998
  0
ARC
  8
0
  6
CONTINUOUS
 62
256
 10
-165.176357999999990
 20
77.090761999999998
 40
3.000000000000000
 50
270.000000000000000
 51
0.000000000000000
  0
ARC
  8
0
  6
CONTINUOUS
 62
256
 10
-165.176357999999990
 20
80.161111000000005
 40
3.000000000000000
 50
270.000000000000000
 51
0.000000000000000
  0
ARC
  8
0
  6
CONTINUOUS
 62
256
 10
-159.176357999999990
 20
80.608216999999996
 40
3.000000000000000
 50
90.000000000000000
 51
180.000000000000000
  0
LINE
  8
0
  6
CONTINUOUS
 62
256
 10
-159.176357999999990
 20
83.608216999999996
 11
-153.868668000000010
 21
83.608216999999996
  0
ARC
  8
0
  6
CONTINUOUS
 62
256
 10
-159.176357999999990
 20
161.108217000000000
 40
3.000000000000000
 50
180.000000000000000
 51
270.000000000000000
  0
LINE
  8
0
  6
CONTINUOUS
 62
256
 10
-180.176357999999990
 20
118.590762000000000
 11
-180.176357999999990
 21
172.090762000000010
  0
LINE
  8
0
  6
CONTINUOUS
 62
256
 10
-180.176357999999990
 20
118.590762000000000
 11
-180.176357999999990
 21
65.090761999999998
  0
LINE
  8
0
  6
CONTINUOUS
 62
256
 10
-30.676358000000000
 20
65.608216999999996
 11
-30.676358000000000
 21
62.608217000000003
  0
ARC
  8
0
  6
CONTINUOUS
 62
256
 10
-31.676358000000000
 20
62.608217000000003
 40
1.000000000000000
 50
270.000000000000000
 51
0.000000000000000
  0
LINE
  8
0
  6
CONTINUOUS
 62
256
 10
-31.676358000000000
 20
61.608217000000003
 11
-52.676358000000000
 21
61.608217000000003
  0
LINE
  8
0
  6
CONTINUOUS
 62
256
 10
-74.676357999999993
 20
65.608216999999996
 11
-74.676357999999993
 21
62.608217000000003
  0
ARC
  8
0
  6
CONTINUOUS
 62
256
 10
-73.676357999999993
 20
62.608217000000003
 40
1.000000000000000
 50
180.000000000000000
 51
270.000000000000000
  0
LINE
  8
0
  6
CONTINUOUS
 62
256
 10
-73.676357999999993
 20
61.608217000000003
 11
-52.676358000000000
 21
61.608217000000003
  0
LINE
  8
0
  6
CONTINUOUS
 62
256
 10
-30.676358000000000
 20
171.608217000000000
 11
-30.676358000000000
 21
174.608217000000000
  0
ARC
  8
0
  6
CONTINUOUS
 62
256
 10
-31.676358000000000
 20
174.608217000000000
 40
1.000000000000000
 50
0.000000000000000
 51
90.000000000000000
  0
LINE
  8
0
  6
CONTINUOUS
 62
256
 10
-31.676358000000000
 20
175.608217000000000
 11
-52.676358000000000
 21
175.608217000000000
  0
LINE
  8
0
  6
CONTINUOUS
 62
256
 10
-74.676357999999993
 20
171.608217000000000
 11
-74.676357999999993
 21
174.608217000000000
  0
ARC
  8
0
  6
CONTINUOUS
 62
256
 10
-73.676357999999993
 20
174.608217000000000
 40
1.000000000000000
 50
90.000000000000000
 51
180.000000000000000
  0
LINE
  8
0
  6
CONTINUOUS
 62
256
 10
-73.676357999999993
 20
175.608217000000000
 11
-52.676358000000000
 21
175.608217000000000
  0
LINE
  8
0
  6
CONTINUOUS
 62
256
 10
-264.176357999999990
 20
86.893826000000004
 11
-180.176357999999990
 21
86.893826000000004
  0
LINE
  8
0
  6
CONTINUOUS
 62
256
 10
-264.176357999999990
 20
85.304615999999996
 11
-180.176357999999990
 21
85.304615999999996
  0
LINE
  8
0
  6
CONTINUOUS
 62
256
 10
-264.176357999999990
 20
150.322609000000000
 11
-180.176357999999990
 21
150.322609000000000
  0
LINE
  8
0
  6
CONTINUOUS
 62
256
 10
-264.176357999999990
 20
151.911818000000010
 11
-180.176357999999990
 21
151.911818000000010
  0
LINE
  8
0
  6
CONTINUOUS
 62
256
 10
-264.176357999999990
 20
98.608216999999996
 11
-180.176357999999990
 21
98.608216999999996
  0
LINE
  8
0
  6
CONTINUOUS
 62
256
 10
-264.176357999999990
 20
95.769977999999995
 11
-180.176357999999990
 21
95.769977999999995
  0
LINE
  8
0
  6
CONTINUOUS
 62
256
 10
-264.176357999999990
 20
94.423575999999997
 11
-180.176357999999990
 21
94.423575999999997
  0
LINE
  8
0
  6
CONTINUOUS
 62
256
 10
-264.176357999999990
 20
91.330844999999997
 11
-180.176357999999990
 21
91.330844999999997
  0
LINE
  8
0
  6
CONTINUOUS
 62
256
 10
-264.176357999999990
 20
89.851821999999999
 11
-180.176357999999990
 21
89.851821999999999
  0
LINE
  8
0
  6
CONTINUOUS
 62
256
 10
-264.176357999999990
 20
138.608217000000000
 11
-180.176357999999990
 21
138.608217000000000
  0
LINE
  8
0
  6
CONTINUOUS
 62
256
 10
-264.176357999999990
 20
141.446457000000010
 11
-180.176357999999990
 21
141.446457000000010
  0
LINE
  8
0
  6
CONTINUOUS
 62
256
 10
-264.176357999999990
 20
142.792858999999990
 11
-180.176357999999990
 21
142.792858999999990
  0
LINE
  8
0
  6
CONTINUOUS
 62
256
 10
-264.176357999999990
 20
145.885590000000010
 11
-180.176357999999990
 21
145.885590000000010
  0
LINE
  8
0
  6
CONTINUOUS
 62
256
 10
-264.176357999999990
 20
147.364612999999990
 11
-180.176357999999990
 21
147.364612999999990
  0
LINE
  8
0
  6
CONTINUOUS
 62
256
 10
-264.176357999999990
 20
64.608216999999996
 11
-264.176357999999990
 21
118.608217000000000
  0
LINE
  8
0
  6
CONTINUOUS
 62
256
 10
-264.176357999999990
 20
172.608217000000000
 11
-264.176357999999990
 21
118.608217000000000
  0
LINE
  8
0
  6
CONTINUOUS
 62
256
 10
-264.333958000000000
 20
158.648653000000000
 11
-180.176357999999990
 21
158.648653000000000
  0
LINE
  8
0
  6
CONTINUOUS
 62
256
 10
-264.176357999999990
 20
163.112873000000010
 11
-180.176357999999990
 21
163.112873000000010
  0
LINE
  8
0
  6
CONTINUOUS
 62
256
 10
-264.176357999999990
 20
159.650130999999990
 11
-180.176357999999990
 21
159.650130999999990
  0
LINE
  8
0
  6
CONTINUOUS
 62
256
 10
-264.176357999999990
 20
164.741300000000000
 11
-180.176357999999990
 21
164.741300000000000
  0
LINE
  8
0
  6
CONTINUOUS
 62
256
 10
-264.176357999999990
 20
169.608217000000000
 11
-180.176357999999990
 21
169.608217000000000
  0
LINE
  8
0
  6
CONTINUOUS
 62
256
 10
-264.176357999999990
 20
169.108217000000000
 11
-180.176357999999990
 21
169.108217000000000
  0
LINE
  8
0
  6
CONTINUOUS
 62
256
 10
-180.176357999999990
 20
171.108217000000000
 11
-264.176357999999990
 21
171.108217000000000
  0
LINE
  8
0
  6
CONTINUOUS
 62
256
 10
-264.176357999999990
 20
172.608217000000000
 11
-293.681202999999980
 21
172.608217000000000
  0
LINE
  8
0
  6
CONTINUOUS
 62
256
 10
-305.496876999999980
 20
168.882749999999990
 11
-313.067656000000000
 21
163.581633000000010
  0
LINE
  8
0
  6
CONTINUOUS
 62
256
 10
-314.176357999999990
 20
161.451838000000010
 11
-314.176357999999990
 21
118.608217000000000
  0
ARC
  8
0
  6
CONTINUOUS
 62
256
 10
-311.576358000000030
 20
161.451838000000010
 40
2.599999999999996
 50
125.000000000000210
 51
180.000000000000000
  0
ARC
  8
0
  6
CONTINUOUS
 62
256
 10
-293.681202999999980
 20
152.008217000000000
 40
20.599999999999994
 50
90.000000000000000
 51
125.000000000000010
  0
LINE
  8
0
  6
CONTINUOUS
 62
256
 10
-275.176357999999990
 20
167.752138000000000
 11
-277.176357999999990
 21
166.099497000000010
  0
LINE
  8
0
  6
CONTINUOUS
 62
256
 10
-273.176357999999990
 20
168.927923999999990
 11
-275.176357999999990
 21
167.752138000000000
  0
LINE
  8
0
  6
CONTINUOUS
 62
256
 10
-275.176357999999990
 20
167.752138000000000
 11
-273.176357999999990
 21
166.099497000000010
  0
LINE
  8
0
  6
CONTINUOUS
 62
256
 10
-277.176357999999990
 20
168.927923999999990
 11
-275.176357999999990
 21
167.752138000000000
  0
POLYLINE
  8
0
  6
CONTINUOUS
 62
256
 66
1
 70
1
  0
VERTEX
  8
0
  6
CONTINUOUS
 62
256
 10
-270.476358000000000
 20
165.935548000000010
  0
VERTEX
  8
0
  6
CONTINUOUS
 62
256
 10
-270.566667182104820
 20
166.638504510558190
  0
VERTEX
  8
0
  6
CONTINUOUS
 62
256
 10
-270.834124197196960
 20
167.314446796638150
  0
VERTEX
  8
0
  6
CONTINUOUS
 62
256
 10
-271.268450822178070
 20
167.937398775258690
  0
VERTEX
  8
0
  6
CONTINUOUS
 62
256
 10
-271.852956128423220
 20
168.483420751236850
  0
VERTEX
  8
0
  6
CONTINUOUS
 62
256
 10
-272.565177904807850
 20
168.931529406248500
  0
VERTEX
  8
0
  6
CONTINUOUS
 62
256
 10
-273.377745867884070
 20
169.264504175983750
  0
VERTEX
  8
0
  6
CONTINUOUS
 62
256
 10
-274.259433486524190
 20
169.469549026776090
  0
VERTEX
  8
0
  6
CONTINUOUS
 62
256
 10
-275.176357999999990
 20
169.538784200000010
  0
VERTEX
  8
0
  6
CONTINUOUS
 62
256
 10
-276.093282513475800
 20
169.469549026776090
  0
VERTEX
  8
0
  6
CONTINUOUS
 62
256
 10
-276.974970132115910
 20
169.264504175983750
  0
VERTEX
  8
0
  6
CONTINUOUS
 62
256
 10
-277.787538095192130
 20
168.931529406248500
  0
VERTEX
  8
0
  6
CONTINUOUS
 62
256
 10
-278.499759871576770
 20
168.483420751236850
  0
VERTEX
  8
0
  6
CONTINUOUS
 62
256
 10
-279.084265177821920
 20
167.937398775258690
  0
VERTEX
  8
0
  6
CONTINUOUS
 62
256
 10
-279.518591802803030
 20
167.314446796638150
  0
VERTEX
  8
0
  6
CONTINUOUS
 62
256
 10
-279.786048817895160
 20
166.638504510558190
  0
VERTEX
  8
0
  6
CONTINUOUS
 62
256
 10
-279.876357999999980
 20
165.935548000000010
  0
VERTEX
  8
0
  6
CONTINUOUS
 62
256
 10
-279.786048817895160
 20
165.232591489441830
  0
VERTEX
  8
0
  6
CONTINUOUS
 62
256
 10
-279.518591802803030
 20
164.556649203361870
  0
VERTEX
  8
0
  6
CONTINUOUS
 62
256
 10
-279.084265177821920
 20
163.933697224741340
  0
VERTEX
  8
0
  6
CONTINUOUS
 62
256
 10
-278.499759871576770
 20
163.387675248763170
  0
VERTEX
  8
0
  6
CONTINUOUS
 62
256
 10
-277.787538095192130
 20
162.939566593751520
  0
VERTEX
  8
0
  6
CONTINUOUS
 62
256
 10
-276.974970132115910
 20
162.606591824016280
  0
VERTEX
  8
0
  6
CONTINUOUS
 62
256
 10
-276.093282513475800
 20
162.401546973223960
  0
VERTEX
  8
0
  6
CONTINUOUS
 62
256
 10
-275.176357999999990
 20
162.332311800000010
  0
VERTEX
  8
0
  6
CONTINUOUS
 62
256
 10
-274.259433486524190
 20
162.401546973223960
  0
VERTEX
  8
0
  6
CONTINUOUS
 62
256
 10
-273.377745867884070
 20
162.606591824016280
  0
VERTEX
  8
0
  6
CONTINUOUS
 62
256
 10
-272.565177904807850
 20
162.939566593751520
  0
VERTEX
  8
0
  6
CONTINUOUS
 62
256
 10
-271.852956128423220
 20
163.387675248763170
  0
VERTEX
  8
0
  6
CONTINUOUS
 62
256
 10
-271.268450822178070
 20
163.933697224741340
  0
VERTEX
  8
0
  6
CONTINUOUS
 62
256
 10
-270.834124197196960
 20
164.556649203361870
  0
VERTEX
  8
0
  6
CONTINUOUS
 62
256
 10
-270.566667182104820
 20
165.232591489441830
  0
SEQEND
  8
0
  6
CONTINUOUS
 62
256
  0
LINE
  8
0
  6
CONTINUOUS
 62
256
 10
-305.496876999999980
 20
68.333685000000003
 11
-313.067656000000000
 21
73.634801999999993
  0
LINE
  8
0
  6
CONTINUOUS
 62
256
 10
-314.176357999999990
 20
75.764596999999995
 11
-314.176357999999990
 21
118.608217000000000
  0
ARC
  8
0
  6
CONTINUOUS
 62
256
 10
-311.576358000000030
 20
75.764596999999995
 40
2.600000000000023
 50
180.000000000000000
 51
234.999999999999940
  0
ARC
  8
0
  6
CONTINUOUS
 62
256
 10
-293.681202999999980
 20
85.208217000000005
 40
20.600000000000001
 50
235.000000000000030
 51
270.000000000000000
  0
LINE
  8
0
  6
CONTINUOUS
 62
256
 10
-264.176357999999990
 20
64.608216999999996
 11
-293.681202999999980
 21
64.608216999999996
  0
LINE
  8
0
  6
CONTINUOUS
 62
256
 10
-264.333958000000000
 20
78.567781999999994
 11
-180.176357999999990
 21
78.567781999999994
  0
LINE
  8
0
  6
CONTINUOUS
 62
256
 10
-264.176357999999990
 20
77.566304000000002
 11
-180.176357999999990
 21
77.566304000000002
  0
LINE
  8
0
  6
CONTINUOUS
 62
256
 10
-264.176357999999990
 20
74.103561999999997
 11
-180.176357999999990
 21
74.103561999999997
  0
LINE
  8
0
  6
CONTINUOUS
 62
256
 10
-264.176357999999990
 20
72.475134999999995
 11
-180.176357999999990
 21
72.475134999999995
  0
LINE
  8
0
  6
CONTINUOUS
 62
256
 10
-264.176357999999990
 20
67.608216999999996
 11
-180.176357999999990
 21
67.608216999999996
  0
LINE
  8
0
  6
CONTINUOUS
 62
256
 10
-264.176357999999990
 20
68.108216999999996
 11
-180.176357999999990
 21
68.108216999999996
  0
LINE
  8
0
  6
CONTINUOUS
 62
256
 10
-180.176357999999990
 20
66.108216999999996
 11
-264.176357999999990
 21
66.108216999999996
  0
LINE
  8
0
  6
CONTINUOUS
 62
256
 10
-275.176357999999990
 20
69.464296000000004
 11
-277.176357999999990
 21
71.116938000000005
  0
LINE
  8
0
  6
CONTINUOUS
 62
256
 10
-273.176357999999990
 20
68.288511000000000
 11
-275.176357999999990
 21
69.464296000000004
  0
LINE
  8
0
  6
CONTINUOUS
 62
256
 10
-275.176357999999990
 20
69.464296000000004
 11
-273.176357999999990
 21
71.116938000000005
  0
LINE
  8
0
  6
CONTINUOUS
 62
256
 10
-277.176357999999990
 20
68.288511000000000
 11
-275.176357999999990
 21
69.464296000000004
  0
POLYLINE
  8
0
  6
CONTINUOUS
 62
256
 66
1
 70
1
  0
VERTEX
  8
0
  6
CONTINUOUS
 62
256
 10
-270.476358000000000
 20
71.280885999999995
  0
VERTEX
  8
0
  6
CONTINUOUS
 62
256
 10
-270.566667182104820
 20
71.983842510558162
  0
VERTEX
  8
0
  6
CONTINUOUS
 62
256
 10
-270.834124197196960
 20
72.659784796638135
  0
VERTEX
  8
0
  6
CONTINUOUS
 62
256
 10
-271.268450822178070
 20
73.282736775258655
  0
VERTEX
  8
0
  6
CONTINUOUS
 62
256
 10
-271.852956128423220
 20
73.828758751236848
  0
VERTEX
  8
0
  6
CONTINUOUS
 62
256
 10
-272.565177904807850
 20
74.276867406248485
  0
VERTEX
  8
0
  6
CONTINUOUS
 62
256
 10
-273.377745867884070
 20
74.609842175983744
  0
VERTEX
  8
0
  6
CONTINUOUS
 62
256
 10
-274.259433486524190
 20
74.814887026776063
  0
VERTEX
  8
0
  6
CONTINUOUS
 62
256
 10
-275.176357999999990
 20
74.884122199999993
  0
VERTEX
  8
0
  6
CONTINUOUS
 62
256
 10
-276.093282513475800
 20
74.814887026776063
  0
VERTEX
  8
0
  6
CONTINUOUS
 62
256
 10
-276.974970132115910
 20
74.609842175983744
  0
VERTEX
  8
0
  6
CONTINUOUS
 62
256
 10
-277.787538095192130
 20
74.276867406248485
  0
VERTEX
  8
0
  6
CONTINUOUS
 62
256
 10
-278.499759871576770
 20
73.828758751236848
  0
VERTEX
  8
0
  6
CONTINUOUS
 62
256
 10
-279.084265177821920
 20
73.282736775258655
  0
VERTEX
  8
0
  6
CONTINUOUS
 62
256
 10
-279.518591802803030
 20
72.659784796638135
  0
VERTEX
  8
0
  6
CONTINUOUS
 62
256
 10
-279.786048817895160
 20
71.983842510558162
  0
VERTEX
  8
0
  6
CONTINUOUS
 62
256
 10
-279.876357999999980
 20
71.280885999999995
  0
VERTEX
  8
0
  6
CONTINUOUS
 62
256
 10
-279.786048817895160
 20
70.577929489441829
  0
VERTEX
  8
0
  6
CONTINUOUS
 62
256
 10
-279.518591802803030
 20
69.901987203361855
  0
VERTEX
  8
0
  6
CONTINUOUS
 62
256
 10
-279.084265177821920
 20
69.279035224741335
  0
VERTEX
  8
0
  6
CONTINUOUS
 62
256
 10
-278.499759871576770
 20
68.733013248763157
  0
VERTEX
  8
0
  6
CONTINUOUS
 62
256
 10
-277.787538095192130
 20
68.284904593751506
  0
VERTEX
  8
0
  6
CONTINUOUS
 62
256
 10
-276.974970132115910
 20
67.951929824016247
  0
VERTEX
  8
0
  6
CONTINUOUS
 62
256
 10
-276.093282513475800
 20
67.746884973223928
  0
VERTEX
  8
0
  6
CONTINUOUS
 62
256
 10
-275.176357999999990
 20
67.677649799999998
  0
VERTEX
  8
0
  6
CONTINUOUS
 62
256
 10
-274.259433486524190
 20
67.746884973223928
  0
VERTEX
  8
0
  6
CONTINUOUS
 62
256
 10
-273.377745867884070
 20
67.951929824016247
  0
VERTEX
  8
0
  6
CONTINUOUS
 62
256
 10
-272.565177904807850
 20
68.284904593751506
  0
VERTEX
  8
0
  6
CONTINUOUS
 62
256
 10
-271.852956128423220
 20
68.733013248763143
  0
VERTEX
  8
0
  6
CONTINUOUS
 62
256
 10
-271.268450822178070
 20
69.279035224741335
  0
VERTEX
  8
0
  6
CONTINUOUS
 62
256
 10
-270.834124197196960
 20
69.901987203361855
  0
VERTEX
  8
0
  6
CONTINUOUS
 62
256
 10
-270.566667182104820
 20
70.577929489441829
  0
SEQEND
  8
0
  6
CONTINUOUS
 62
256
  0
LINE
  8
0
  6
DASHDOT
 62
256
 10
-52.676358000000000
 20
182.068578000000000
 11
-52.676358000000000
 21
54.116115999999998
  0
LINE
  8
0
  6
DASHDOT
 62
256
 10
-326.411432999999990
 20
118.608217000000000
 11
13.867846999999999
 21
118.608217000000000
  0
TEXT
  8
0
  6
CONTINUOUS
 62
256
 10
511.309967041015620
 20
-244.074188232421870
 40
3.299999952316284
  1
1/1
 50
0.000002504478167
 41
0.850909097352304
  7
STANDARD1
  0
TEXT
  8
0
  6
CONTINUOUS
 62
256
 10
508.891967773437500
 20
-244.074188232421870
 40
3.299999952316284
  1
 
 50
0.000002504478167
 41
1.733333298293026
  7
STANDARD1
  0
TEXT
  8
0
  6
CONTINUOUS
 62
256
 10
495.841339111328120
 20
-244.074188232421870
 40
3.299999952316284
  1
SCALE
 50
0.000002504478167
 41
0.821052645401140
  7
STANDARD1
  0
TEXT
  8
0
  6
CONTINUOUS
 62
256
 10
492.589965820312500
 20
-244.074188232421870
 40
3.299999952316284
  1
 
 50
0.000002504478167
 41
1.733333298293026
  7
STANDARD1
  0
TEXT
  8
0
  6
CONTINUOUS
 62
256
 10
507.444122314453120
 20
-238.774185180664060
 40
3.299999952316284
  1
1/240
 50
0.000002504478167
 41
0.821052645401140
  7
STANDARD1
  0
TEXT
  8
0
  6
CONTINUOUS
 62
256
 10
503.662139892578120
 20
-238.774185180664060
 40
3.299999952316284
  1
ü`
 50
0.000002504478167
 41
1.176000019651471
  7
STANDARD1
  0
TEXT
  8
0
  6
CONTINUOUS
 62
256
 10
492.589965820312500
 20
-238.774185180664060
 40
3.299999952316284
  1
1/80
 50
0.000002504478167
 41
0.832000075658163
  7
STANDARD1
  0
TEXT
  8
0
  6
CONTINUOUS
 62
256
 10
492.589965820312500
 20
-233.474182128906250
 40
3.299999952316284
  1
GM-SHYF-RH
 50
0.000002504478167
 41
0.799999980493025
  7
STANDARD1
  0
TEXT
  8
0
  6
CONTINUOUS
 62
256
 10
498.415344238281250
 20
-228.174194335937500
 40
3.299999952316284
  1
0.2kW
 50
0.000002504478167
 41
0.821052645401140
  7
STANDARD1
  0
TEXT
  8
0
  6
CONTINUOUS
 62
256
 10
492.589965820312500
 20
-228.174194335937500
 40
3.299999952316284
  1
  
 50
0.000002504478167
 41
1.485714400175845
  7
STANDARD1
  0
TEXT
  8
0
  6
CONTINUOUS
 62
256
 10
498.409454345703120
 20
-222.874191284179690
 40
3.299999952316284
  1
SHY013
 50
0.000002504478167
 41
0.813913121261144
  7
STANDARD1
  0
TEXT
  8
0
  6
CONTINUOUS
 62
256
 10
492.589965820312500
 20
-222.874191284179690
 40
3.299999952316284
  1
  
 50
0.000002504478167
 41
1.485714400175845
  7
STANDARD1
  0
ARC
  8
0
  6
CONTINUOUS
 62
256
 10
-413.938804000000000
 20
-76.789811000000000
 40
20.599999999999994
 50
45.000000000000014
 51
84.247716999999938
  0
ARC
  8
0
  6
CONTINUOUS
 62
256
 10
-442.002561000000010
 20
-355.379878000000020
 40
300.600000000000020
 50
84.247716999999994
 51
90.000000000000000
  0
ARC
  8
0
  6
CONTINUOUS
 62
256
 10
-442.002561000000010
 20
-355.379878000000020
 40
300.600000000000020
 50
90.000000000000000
 51
95.752283000000006
  0
ARC
  8
0
  6
CONTINUOUS
 62
256
 10
-470.066318000000020
 20
-76.789811000000000
 40
20.600000000000009
 50
95.752283000000077
 51
135.000000000000000
  0
ARC
  8
0
  6
CONTINUOUS
 62
256
 10
-442.002561000000010
 20
-355.379878000000020
 40
290.797000000000030
 50
84.998350000000002
 51
90.000000000000000
  0
ARC
  8
0
  6
CONTINUOUS
 62
256
 10
-442.002561000000010
 20
-355.379878000000020
 40
290.797000000000030
 50
90.000000000000000
 51
95.001649999999998
  0
LINE
  8
0
  6
CONTINUOUS
 62
256
 10
-473.502561000000010
 20
-171.081326999999990
 11
-473.502561000000010
 21
-171.279878000000000
  0
LINE
  8
0
  6
CONTINUOUS
 62
256
 10
-473.502561000000010
 20
-171.279878000000000
 11
-471.990546999999990
 21
-171.279878000000000
  0
ARC
  8
0
  6
CONTINUOUS
 62
256
 10
-396.580614000000030
 20
-74.349011000000004
 40
6.599999999999973
 50
5.743682000000063
 51
44.999999999999829
  0
LINE
  8
0
  6
CONTINUOUS
 62
256
 10
-399.372405000000010
 20
-62.223410999999999
 11
-391.913709999999980
 21
-69.682106000000005
  0
ARC
  8
0
  6
CONTINUOUS
 62
256
 10
-487.424508000000000
 20
-74.349011000000004
 40
6.600000000000017
 50
135.000000000000170
 51
174.256317999999940
  0
ARC
  8
0
  6
CONTINUOUS
 62
256
 10
-95.402561000000006
 20
-113.779878000000000
 40
400.600000000000080
 50
174.256317999999990
 51
180.000000000000000
  0
LINE
  8
0
  6
CONTINUOUS
 62
256
 10
-484.632717000000010
 20
-62.223410999999999
 11
-492.091412999999990
 21
-69.682106000000005
  0
ARC
  8
0
  6
CONTINUOUS
 62
256
 10
-487.424508000000000
 20
-153.210745000000000
 40
6.599999999999971
 50
185.743681999999920
 51
224.999999999999830
  0
ARC
  8
0
  6
CONTINUOUS
 62
256
 10
-95.402561000000006
 20
-113.779878000000000
 40
400.600000000000020
 50
180.000000000000000
 51
185.743681999999980
  0
ARC
  8
0
  6
CONTINUOUS
 62
256
 10
-470.066318000000020
 20
-150.769945000000010
 40
20.599999999999991
 50
225.000000000000000
 51
264.247716999999910
  0
LINE
  8
0
  6
CONTINUOUS
 62
256
 10
-484.632717000000010
 20
-165.336344999999990
 11
-492.091412999999990
 21
-157.877649999999990
  0
ARC
  8
0
  6
CONTINUOUS
 62
256
 10
-442.002561000000010
 20
127.820122000000000
 40
300.600000000000020
 50
264.247717000000020
 51
270.000000000000000
  0
ARC
  8
0
  6
CONTINUOUS
 62
256
 10
-442.002561000000010
 20
127.820122000000000
 40
290.797000000000030
 50
270.000000000000000
 51
275.752282999999980
  0
LINE
  8
0
  6
CONTINUOUS
 62
256
 10
-406.304171999999990
 20
-158.404576999999990
 11
-400.416759000000010
 21
-152.517163000000010
  0
ARC
  8
0
  6
CONTINUOUS
 62
256
 10
-413.938804000000000
 20
-150.769945000000010
 40
10.796999999999988
 50
275.752283000000030
 51
315.000000000000000
  0
LINE
  8
0
  6
CONTINUOUS
 62
256
 10
-412.010062000000000
 20
-171.279878000000000
 11
-410.502561000000010
 21
-171.279878000000000
  0
LINE
  8
0
  6
CONTINUOUS
 62
256
 10
-410.502561000000010
 20
-171.081326999999990
 11
-410.502561000000010
 21
-171.279878000000000
  0
ARC
  8
0
  6
CONTINUOUS
 62
256
 10
-442.002561000000010
 20
127.820122000000000
 40
300.600000000000020
 50
270.000000000000000
 51
275.752282999999980
  0
LINE
  8
0
  6
CONTINUOUS
 62
256
 10
-399.372405000000010
 20
-165.336344999999990
 11
-391.913709999999980
 21
-157.877649999999990
  0
ARC
  8
0
  6
CONTINUOUS
 62
256
 10
-413.938804000000000
 20
-150.769945000000010
 40
20.599999999999991
 50
275.752282999999860
 51
315.000000000000000
  0
LINE
  8
0
  6
CONTINUOUS
 62
256
 10
-444.502561000000010
 20
-201.279878000000000
 11
-439.502561000000010
 21
-201.279878000000000
  0
LINE
  8
0
  6
CONTINUOUS
 62
256
 10
-444.502561000000010
 20
-200.769461000000010
 11
-444.502561000000010
 21
-201.279878000000000
  0
LINE
  8
0
  6
CONTINUOUS
 62
256
 10
-439.502561000000010
 20
-200.769461000000010
 11
-439.502561000000010
 21
-201.279878000000000
  0
ARC
  8
0
  6
CONTINUOUS
 62
256
 10
-442.002561000000010
 20
99.220122000000003
 40
300.000000000000000
 50
265.138595000000010
 51
274.861404999999990
  0
LINE
  8
0
  6
CONTINUOUS
 62
256
 10
-412.002561000000010
 20
-171.279878000000000
 11
-412.002561000000010
 21
-194.718647000000000
  0
LINE
  8
0
  6
CONTINUOUS
 62
256
 10
-472.002561000000010
 20
-171.279878000000000
 11
-472.002561000000010
 21
-194.718647000000000
  0
ARC
  8
0
  6
CONTINUOUS
 62
256
 10
-417.002561000000010
 20
-194.718647000000000
 40
4.999999999999989
 50
274.861405000000100
 51
0.000000000000000
  0
ARC
  8
0
  6
CONTINUOUS
 62
256
 10
-467.002561000000010
 20
-194.718647000000000
 40
5.000000000000000
 50
180.000000000000000
 51
265.138594999999900
  0
LINE
  8
0
  6
CONTINUOUS
 62
256
 10
-403.757064000000010
 20
-71.702287999999996
 11
-400.416759000000010
 21
-75.042592999999997
  0
ARC
  8
0
  6
CONTINUOUS
 62
256
 10
-418.462763000000000
 20
-86.407987000000006
 40
20.797000000000008
 50
44.999999999999972
 51
84.998349999999959
  0
ARC
  8
0
  6
CONTINUOUS
 62
256
 10
-788.602561000000040
 20
-113.779878000000000
 40
390.797000000000030
 50
0.000000000000000
 51
5.417963999999998
  0
ARC
  8
0
  6
CONTINUOUS
 62
256
 10
-402.538078999999980
 20
-77.163912999999994
 40
2.999999999999996
 50
5.417963999999932
 51
44.999999999999808
  0
LINE
  8
0
  6
CONTINUOUS
 62
256
 10
-480.248058000000010
 20
-71.702287999999996
 11
-483.588363000000020
 21
-75.042592999999997
  0
ARC
  8
0
  6
CONTINUOUS
 62
256
 10
-465.542358999999980
 20
-86.407987000000006
 40
20.797000000000001
 50
95.001650000000041
 51
135.000000000000030
  0
ARC
  8
0
  6
CONTINUOUS
 62
256
 10
-95.402561000000006
 20
-113.779878000000000
 40
390.797000000000030
 50
174.582035999999990
 51
180.000000000000000
  0
ARC
  8
0
  6
CONTINUOUS
 62
256
 10
-481.467042999999990
 20
-77.163912999999994
 40
3.000000000000014
 50
135.000000000000200
 51
174.582036000000070
  0
ARC
  8
0
  6
CONTINUOUS
 62
256
 10
-442.002561000000010
 20
127.820122000000000
 40
290.797000000000030
 50
264.998350000000070
 51
270.000000000000000
  0
LINE
  8
0
  6
CONTINUOUS
 62
256
 10
-480.248058000000010
 20
-155.857468000000010
 11
-483.588363000000020
 21
-152.517163000000010
  0
ARC
  8
0
  6
CONTINUOUS
 62
256
 10
-465.542358999999980
 20
-141.151769000000000
 40
20.797000000000015
 50
225.000000000000000
 51
264.998350000000070
  0
ARC
  8
0
  6
CONTINUOUS
 62
256
 10
-95.402561000000006
 20
-113.779878000000000
 40
390.797000000000030
 50
180.000000000000000
 51
185.417963999999980
  0
ARC
  8
0
  6
CONTINUOUS
 62
256
 10
-481.467042999999990
 20
-150.395843000000010
 40
2.999999999999998
 50
185.417964000000180
 51
224.999999999999630
  0
ARC
  8
0
  6
CONTINUOUS
 62
256
 10
-402.538078999999980
 20
-150.395843000000010
 40
3.000000000000004
 50
315.000000000000340
 51
354.582035999999790
  0
ARC
  8
0
  6
CONTINUOUS
 62
256
 10
-788.602561000000040
 20
-113.779878000000000
 40
390.797000000000030
 50
354.582036000000020
 51
0.000000000000000
  0
ARC
  8
0
  6
CONTINUOUS
 62
256
 10
-396.580614000000030
 20
-153.210745000000000
 40
6.600000000000017
 50
315.000000000000170
 51
354.256318000000020
  0
ARC
  8
0
  6
CONTINUOUS
 62
256
 10
-788.602561000000040
 20
-113.779878000000000
 40
400.600000000000020
 50
354.256318000000020
 51
0.000000000000000
  0
ARC
  8
0
  6
CONTINUOUS
 62
256
 10
-476.827120999999980
 20
-110.279878000000000
 40
1.000000000000000
 50
270.000000000000000
 51
354.260829999999540
  0
ARC
  8
0
  6
CONTINUOUS
 62
256
 10
-479.841032999999980
 20
-110.279878000000000
 40
1.000000000000027
 50
174.715267000000240
 51
270.000000000000000
  0
ARC
  8
0
  6
CONTINUOUS
 62
256
 10
-471.294197999999990
 20
-110.279878000000000
 40
1.000000000000019
 50
173.186146000000240
 51
270.000000000000000
  0
LINE
  8
0
  6
CONTINUOUS
 62
256
 10
-479.841032999999980
 20
-111.279878000000000
 11
-476.827120999999980
 21
-111.279878000000000
  0
ARC
  8
0
  6
CONTINUOUS
 62
256
 10
-447.799693999999990
 20
-96.738949000000005
 40
0.999999999999984
 50
210.000000000000510
 51
288.787729000000750
  0
LINE
  8
0
  6
CONTINUOUS
 62
256
 10
-450.190636999999980
 20
-94.597713999999996
 11
-448.665719000000020
 21
-97.238949000000005
  0
ARC
  8
0
  6
CONTINUOUS
 62
256
 10
-449.324612000000000
 20
-94.097713999999996
 40
0.999999999999993
 50
110.405931999999860
 51
210.000000000000510
  0
ARC
  8
0
  6
CONTINUOUS
 62
256
 10
-452.105397999999980
 20
-89.281251999999995
 40
0.999999999999984
 50
210.000000000000510
 51
292.410458000000400
  0
ARC
  8
0
  6
CONTINUOUS
 62
256
 10
-456.383752000000020
 20
-81.870924000000002
 40
0.999999999999984
 50
210.000000000000510
 51
294.260829999998690
  0
LINE
  8
0
  6
CONTINUOUS
 62
256
 10
-454.483316000000000
 20
-87.162576000000001
 11
-452.971423000000020
 21
-89.781251999999995
  0
ARC
  8
0
  6
CONTINUOUS
 62
256
 10
-453.617291000000020
 20
-86.662576000000001
 40
1.000000000000000
 50
113.186146000000120
 51
210.000000000000510
  0
LINE
  8
0
  6
CONTINUOUS
 62
256
 10
-458.756733999999990
 20
-79.760800000000003
 11
-457.249777999999990
 21
-82.370924000000002
  0
ARC
  8
0
  6
CONTINUOUS
 62
256
 10
-457.890708000000020
 20
-79.260800000000003
 40
1.000000000000004
 50
114.715267000000150
 51
210.000000000000510
  0
ARC
  8
0
  6
CONTINUOUS
 62
256
 10
-463.952885999999980
 20
-82.760800000000003
 40
0.999999999999984
 50
30.000000000000544
 51
125.284733000000970
  0
ARC
  8
0
  6
CONTINUOUS
 62
256
 10
-462.445929999999980
 20
-85.370924000000002
 40
0.999999999999998
 50
305.739170000000230
 51
30.000000000000544
  0
ARC
  8
0
  6
CONTINUOUS
 62
256
 10
-468.270412000000020
 20
-110.279878000000000
 40
1.000000000000000
 50
270.000000000000000
 51
352.410458000000010
  0
ARC
  8
0
  6
CONTINUOUS
 62
256
 10
-459.679467999999990
 20
-90.162576000000001
 40
0.999999999999984
 50
30.000000000000544
 51
126.813854000000730
  0
ARC
  8
0
  6
CONTINUOUS
 62
256
 10
-458.167575000000000
 20
-92.781251999999995
 40
0.999999999999993
 50
307.589541999998800
 51
30.000000000000544
  0
ARC
  8
0
  6
CONTINUOUS
 62
256
 10
-462.708840000000010
 20
-110.279878000000000
 40
0.999999999999978
 50
170.405932000000040
 51
270.000000000000000
  0
ARC
  8
0
  6
CONTINUOUS
 62
256
 10
-459.659004999999980
 20
-110.279878000000000
 40
1.000000000000000
 50
270.000000000000000
 51
348.787729000000300
  0
ARC
  8
0
  6
CONTINUOUS
 62
256
 10
-455.386790000000020
 20
-97.597713999999996
 40
0.999999999999984
 50
30.000000000000544
 51
129.594067999999310
  0
ARC
  8
0
  6
CONTINUOUS
 62
256
 10
-453.861872000000010
 20
-100.238949000000010
 40
1.000000000000006
 50
311.212270999999760
 51
30.000000000000544
  0
ARC
  8
0
  6
CONTINUOUS
 62
256
 10
-451.033650000000020
 20
-105.137573000000000
 40
0.999999999999984
 50
30.000000000000544
 51
136.260205000000240
  0
ARC
  8
0
  6
CONTINUOUS
 62
256
 10
-454.002561000000010
 20
-110.279878000000000
 40
0.999999999999976
 50
163.739794999999330
 51
270.000000000000000
  0
ARC
  8
0
  6
CONTINUOUS
 62
256
 10
-450.834321999999990
 20
-110.279878000000000
 40
1.000000000000000
 50
270.000000000000000
 51
338.381728000000520
  0
ARC
  8
0
  6
CONTINUOUS
 62
256
 10
-449.449529999999980
 20
-107.881349000000000
 40
0.999999999999985
 50
321.618271999998970
 51
30.000000000000544
  0
ARC
  8
0
  6
CONTINUOUS
 62
256
 10
-442.002561000000010
 20
-113.779878000000000
 40
39.000000000000000
 50
125.284733000000000
 51
174.715267000000010
  0
ARC
  8
0
  6
CONTINUOUS
 62
256
 10
-442.002561000000010
 20
-113.779878000000000
 40
30.499999999999993
 50
126.813853999999980
 51
173.186145999999980
  0
ARC
  8
0
  6
CONTINUOUS
 62
256
 10
-442.002561000000010
 20
-113.779878000000000
 40
34.000000000000007
 50
125.739170000000040
 51
174.260830000000000
  0
ARC
  8
0
  6
CONTINUOUS
 62
256
 10
-442.002561000000010
 20
-113.779878000000000
 40
25.499999999999996
 50
127.589541999999970
 51
172.410458000000010
  0
ARC
  8
0
  6
CONTINUOUS
 62
256
 10
-442.002561000000010
 20
-113.779878000000000
 40
21.999999999999986
 50
129.594067999999940
 51
170.405931999999980
  0
ARC
  8
0
  6
CONTINUOUS
 62
256
 10
-442.002561000000010
 20
-113.779878000000000
 40
17.000000000000014
 50
131.212271000000020
 51
168.787728999999980
  0
ARC
  8
0
  6
CONTINUOUS
 62
256
 10
-442.002561000000010
 20
-113.779878000000000
 40
13.500000000000004
 50
136.260205000000010
 51
163.739794999999960
  0
ARC
  8
0
  6
CONTINUOUS
 62
256
 10
-442.002561000000010
 20
-113.779878000000000
 40
8.500000000000005
 50
141.618272000000020
 51
158.381728000000040
  0
LINE
  8
0
  6
CONTINUOUS
 62
256
 10
-458.813443000000010
 20
-89.662576000000001
 11
-457.301550000000020
 21
-92.281251999999995
  0
LINE
  8
0
  6
CONTINUOUS
 62
256
 10
-463.086861000000000
 20
-82.260800000000003
 11
-461.579905000000000
 21
-84.870924000000002
  0
LINE
  8
0
  6
CONTINUOUS
 62
256
 10
-454.520763999999990
 20
-97.097713999999996
 11
-452.995845999999970
 21
-99.738949000000005
  0
LINE
  8
0
  6
CONTINUOUS
 62
256
 10
-450.167624999999990
 20
-104.637573000000000
 11
-448.583505000000000
 21
-107.381349000000000
  0
LINE
  8
0
  6
CONTINUOUS
 62
256
 10
-454.002561000000010
 20
-111.279878000000000
 11
-450.834321999999990
 21
-111.279878000000000
  0
LINE
  8
0
  6
CONTINUOUS
 62
256
 10
-462.708840000000010
 20
-111.279878000000000
 11
-459.659004999999980
 21
-111.279878000000000
  0
LINE
  8
0
  6
CONTINUOUS
 62
256
 10
-471.294197999999990
 20
-111.279878000000000
 11
-468.270412000000020
 21
-111.279878000000000
  0
ARC
  8
0
  6
CONTINUOUS
 62
256
 10
-443.387353000000020
 20
-104.381349000000000
 40
0.999999999999984
 50
210.000000000000510
 51
278.381727999998870
  0
ARC
  8
0
  6
CONTINUOUS
 62
256
 10
-442.002561000000010
 20
-113.779878000000000
 40
8.500000000000002
 50
81.618271999999948
 51
98.381728000000052
  0
LINE
  8
0
  6
CONTINUOUS
 62
256
 10
-445.837496999999980
 20
-102.137573000000000
 11
-444.253378000000000
 21
-104.881349000000000
  0
ARC
  8
0
  6
CONTINUOUS
 62
256
 10
-444.971472000000010
 20
-101.637573000000000
 40
1.000000000000011
 50
103.739795000001280
 51
210.000000000000510
  0
ARC
  8
0
  6
CONTINUOUS
 62
256
 10
-424.346116999999990
 20
-110.279878000000000
 40
1.000000000000016
 50
191.212270999999730
 51
270.000000000000000
  0
LINE
  8
0
  6
CONTINUOUS
 62
256
 10
-421.296282000000020
 20
-111.279878000000000
 11
-424.346116999999990
 21
-111.279878000000000
  0
ARC
  8
0
  6
CONTINUOUS
 62
256
 10
-421.296282000000020
 20
-110.279878000000000
 40
1.000000000000000
 50
270.000000000000000
 51
9.594067999999961
  0
ARC
  8
0
  6
CONTINUOUS
 62
256
 10
-415.734710000000010
 20
-110.279878000000000
 40
0.999999999999990
 50
187.589541999999990
 51
270.000000000000000
  0
LINE
  8
0
  6
CONTINUOUS
 62
256
 10
-412.710923999999980
 20
-111.279878000000000
 11
-415.734710000000010
 21
-111.279878000000000
  0
ARC
  8
0
  6
CONTINUOUS
 62
256
 10
-412.710923999999980
 20
-110.279878000000000
 40
1.000000000000000
 50
270.000000000000000
 51
6.813853999999752
  0
ARC
  8
0
  6
CONTINUOUS
 62
256
 10
-407.178000999999990
 20
-110.279878000000000
 40
0.999999999999978
 50
185.739170000000430
 51
270.000000000000000
  0
LINE
  8
0
  6
CONTINUOUS
 62
256
 10
-404.164088999999990
 20
-111.279878000000000
 11
-407.178000999999990
 21
-111.279878000000000
  0
ARC
  8
0
  6
CONTINUOUS
 62
256
 10
-404.164088999999990
 20
-110.279878000000000
 40
1.000000000000000
 50
270.000000000000000
 51
5.284732999999778
  0
ARC
  8
0
  6
CONTINUOUS
 62
256
 10
-424.325653999999990
 20
-90.162576000000001
 40
1.000000000000011
 50
53.186145999999269
 51
149.999999999999460
  0
LINE
  8
0
  6
CONTINUOUS
 62
256
 10
-425.191679000000020
 20
-89.662576000000001
 11
-426.703572000000010
 21
-92.281251999999995
  0
ARC
  8
0
  6
CONTINUOUS
 62
256
 10
-425.837546999999970
 20
-92.781251999999995
 40
0.999999999999984
 50
149.999999999999460
 51
232.410458000001200
  0
ARC
  8
0
  6
CONTINUOUS
 62
256
 10
-420.052235999999990
 20
-82.760800000000003
 40
1.000000000000016
 50
54.715266999999017
 51
149.999999999999460
  0
LINE
  8
0
  6
CONTINUOUS
 62
256
 10
-420.918260999999970
 20
-82.260800000000003
 11
-422.425216999999980
 21
-84.870924000000002
  0
ARC
  8
0
  6
CONTINUOUS
 62
256
 10
-421.559192000000000
 20
-85.370924000000002
 40
0.999999999999984
 50
149.999999999999460
 51
234.260829999999740
  0
ARC
  8
0
  6
CONTINUOUS
 62
256
 10
-434.555591999999990
 20
-107.881349000000000
 40
0.999999999999984
 50
149.999999999999460
 51
218.381728000001000
  0
LINE
  8
0
  6
CONTINUOUS
 62
256
 10
-433.837496999999980
 20
-104.637573000000000
 11
-435.421617000000030
 21
-107.381349000000000
  0
ARC
  8
0
  6
CONTINUOUS
 62
256
 10
-430.143250000000020
 20
-100.238949000000010
 40
0.999999999999984
 50
149.999999999999460
 51
228.787728999999730
  0
LINE
  8
0
  6
CONTINUOUS
 62
256
 10
-429.484357999999990
 20
-97.097713999999996
 11
-431.009276000000000
 21
-99.738949000000005
  0
ARC
  8
0
  6
CONTINUOUS
 62
256
 10
-428.618332000000010
 20
-97.597713999999996
 40
0.999999999999988
 50
50.405932000000682
 51
149.999999999999460
  0
ARC
  8
0
  6
CONTINUOUS
 62
256
 10
-433.170799999999990
 20
-110.279878000000000
 40
1.000000000000013
 50
201.618271999999450
 51
270.000000000000000
  0
ARC
  8
0
  6
CONTINUOUS
 62
256
 10
-442.002561000000010
 20
-113.779878000000000
 40
8.500000000000016
 50
21.618271999999980
 51
38.381727999999960
  0
ARC
  8
0
  6
CONTINUOUS
 62
256
 10
-432.971472000000010
 20
-105.137573000000000
 40
1.000000000000005
 50
43.739794999999773
 51
149.999999999999460
  0
LINE
  8
0
  6
CONTINUOUS
 62
256
 10
-430.002561000000010
 20
-111.279878000000000
 11
-433.170799999999990
 21
-111.279878000000000
  0
ARC
  8
0
  6
CONTINUOUS
 62
256
 10
-430.002561000000010
 20
-110.279878000000000
 40
1.000000000000000
 50
270.000000000000000
 51
16.260205000000671
  0
ARC
  8
0
  6
CONTINUOUS
 62
256
 10
-442.002561000000010
 20
-113.779878000000000
 40
13.499999999999989
 50
16.260205000000035
 51
43.739795000000001
  0
ARC
  8
0
  6
CONTINUOUS
 62
256
 10
-442.002561000000010
 20
-113.779878000000000
 40
16.999999999999993
 50
11.212271000000010
 51
48.787728999999970
  0
ARC
  8
0
  6
CONTINUOUS
 62
256
 10
-442.002561000000010
 20
-113.779878000000000
 40
21.999999999999979
 50
9.594068000000020
 51
50.405932000000043
  0
ARC
  8
0
  6
CONTINUOUS
 62
256
 10
-442.002561000000010
 20
-113.779878000000000
 40
30.499999999999986
 50
6.813854000000005
 51
53.186146000000043
  0
ARC
  8
0
  6
CONTINUOUS
 62
256
 10
-442.002561000000010
 20
-113.779878000000000
 40
25.500000000000011
 50
7.589541999999985
 51
52.410458000000027
  0
ARC
  8
0
  6
CONTINUOUS
 62
256
 10
-442.002561000000010
 20
-113.779878000000000
 40
34.000000000000028
 50
5.739170000000004
 51
54.260829999999963
  0
ARC
  8
0
  6
CONTINUOUS
 62
256
 10
-442.002561000000010
 20
-113.779878000000000
 40
38.999999999999986
 50
5.284733000000007
 51
54.715266999999990
  0
ARC
  8
0
  6
CONTINUOUS
 62
256
 10
-430.387831000000010
 20
-86.662576000000001
 40
0.999999999999984
 50
329.999999999999490
 51
66.813853999999878
  0
LINE
  8
0
  6
CONTINUOUS
 62
256
 10
-429.521806000000030
 20
-87.162576000000001
 11
-431.033699000000010
 21
-89.781251999999995
  0
ARC
  8
0
  6
CONTINUOUS
 62
256
 10
-431.899723999999990
 20
-89.281251999999995
 40
1.000000000000009
 50
247.589541999999540
 51
329.999999999999490
  0
ARC
  8
0
  6
CONTINUOUS
 62
256
 10
-426.114414000000010
 20
-79.260800000000003
 40
0.999999999999984
 50
329.999999999999490
 51
65.284732999999861
  0
LINE
  8
0
  6
CONTINUOUS
 62
256
 10
-425.248387999999980
 20
-79.760800000000003
 11
-426.755343999999980
 21
-82.370924000000002
  0
ARC
  8
0
  6
CONTINUOUS
 62
256
 10
-427.621370000000010
 20
-81.870924000000002
 40
0.999999999999992
 50
245.739170000001340
 51
329.999999999999490
  0
ARC
  8
0
  6
CONTINUOUS
 62
256
 10
-440.617769000000010
 20
-104.381349000000000
 40
0.999999999999998
 50
261.618272000001130
 51
329.999999999999490
  0
LINE
  8
0
  6
CONTINUOUS
 62
256
 10
-438.167624999999990
 20
-102.137573000000000
 11
-439.751743999999970
 21
-104.881349000000000
  0
ARC
  8
0
  6
CONTINUOUS
 62
256
 10
-436.205427999999980
 20
-96.738949000000005
 40
1.000000000000010
 50
251.212270999999220
 51
329.999999999999490
  0
LINE
  8
0
  6
CONTINUOUS
 62
256
 10
-433.814484999999990
 20
-94.597713999999996
 11
-435.339403000000000
 21
-97.238949000000005
  0
ARC
  8
0
  6
CONTINUOUS
 62
256
 10
-434.680510000000030
 20
-94.097713999999996
 40
0.999999999999984
 50
329.999999999999490
 51
69.594068000000149
  0
ARC
  8
0
  6
CONTINUOUS
 62
256
 10
-439.033650000000020
 20
-101.637573000000000
 40
0.999999999999984
 50
329.999999999999490
 51
76.260204999998734
  0
ARC
  8
0
  6
CONTINUOUS
 62
256
 10
-442.002561000000010
 20
-113.779878000000000
 40
13.500000000000004
 50
76.260205000000070
 51
103.739794999999930
  0
ARC
  8
0
  6
CONTINUOUS
 62
256
 10
-442.002561000000010
 20
-113.779878000000000
 40
16.999999999999993
 50
71.212271000000044
 51
108.787728999999960
  0
ARC
  8
0
  6
CONTINUOUS
 62
256
 10
-442.002561000000010
 20
-113.779878000000000
 40
21.999999999999996
 50
69.594067999999993
 51
110.405932000000020
  0
ARC
  8
0
  6
CONTINUOUS
 62
256
 10
-442.002561000000010
 20
-113.779878000000000
 40
30.500000000000011
 50
66.813853999999992
 51
113.186146000000010
  0
ARC
  8
0
  6
CONTINUOUS
 62
256
 10
-442.002561000000010
 20
-113.779878000000000
 40
25.500000000000007
 50
67.589541999999966
 51
112.410458000000050
  0
ARC
  8
0
  6
CONTINUOUS
 62
256
 10
-442.002561000000010
 20
-113.779878000000000
 40
34.000000000000000
 50
65.739169999999987
 51
114.260830000000010
  0
ARC
  8
0
  6
CONTINUOUS
 62
256
 10
-442.002561000000010
 20
-113.779878000000000
 40
38.999999999999993
 50
65.284733000000031
 51
114.715266999999980
  0
LINE
  8
0
  6
CONTINUOUS
 62
256
 10
-471.294197999999990
 20
-116.279878000000000
 11
-468.270412000000020
 21
-116.279878000000000
  0
LINE
  8
0
  6
CONTINUOUS
 62
256
 10
-462.708840000000010
 20
-116.279878000000000
 11
-459.659004999999980
 21
-116.279878000000000
  0
LINE
  8
0
  6
CONTINUOUS
 62
256
 10
-454.002561000000010
 20
-116.279878000000000
 11
-450.834321999999990
 21
-116.279878000000000
  0
LINE
  8
0
  6
CONTINUOUS
 62
256
 10
-450.167624999999990
 20
-122.922183000000000
 11
-448.583505000000000
 21
-120.178407000000010
  0
LINE
  8
0
  6
CONTINUOUS
 62
256
 10
-454.520763999999990
 20
-130.462042000000000
 11
-452.995845999999970
 21
-127.820807000000000
  0
LINE
  8
0
  6
CONTINUOUS
 62
256
 10
-463.086861000000000
 20
-145.298956000000000
 11
-461.579905000000000
 21
-142.688831999999990
  0
LINE
  8
0
  6
CONTINUOUS
 62
256
 10
-479.841032999999980
 20
-116.279878000000000
 11
-476.827120999999980
 21
-116.279878000000000
  0
LINE
  8
0
  6
CONTINUOUS
 62
256
 10
-458.813443000000010
 20
-137.897179999999990
 11
-457.301550000000020
 21
-135.278504000000000
  0
ARC
  8
0
  6
CONTINUOUS
 62
256
 10
-442.002561000000010
 20
-113.779878000000000
 40
8.500000000000016
 50
201.618271999999960
 51
218.381727999999950
  0
ARC
  8
0
  6
CONTINUOUS
 62
256
 10
-442.002561000000010
 20
-113.779878000000000
 40
13.499999999999989
 50
196.260205000000010
 51
223.739794999999960
  0
ARC
  8
0
  6
CONTINUOUS
 62
256
 10
-442.002561000000010
 20
-113.779878000000000
 40
16.999999999999993
 50
191.212271000000020
 51
228.787728999999980
  0
ARC
  8
0
  6
CONTINUOUS
 62
256
 10
-442.002561000000010
 20
-113.779878000000000
 40
21.999999999999975
 50
189.594067999999960
 51
230.405932000000060
  0
ARC
  8
0
  6
CONTINUOUS
 62
256
 10
-442.002561000000010
 20
-113.779878000000000
 40
25.500000000000011
 50
187.589541999999990
 51
232.410457999999980
  0
ARC
  8
0
  6
CONTINUOUS
 62
256
 10
-442.002561000000010
 20
-113.779878000000000
 40
34.000000000000028
 50
185.739169999999970
 51
234.260829999999970
  0
ARC
  8
0
  6
CONTINUOUS
 62
256
 10
-442.002561000000010
 20
-113.779878000000000
 40
30.499999999999986
 50
186.813853999999990
 51
233.186146000000040
  0
ARC
  8
0
  6
CONTINUOUS
 62
256
 10
-442.002561000000010
 20
-113.779878000000000
 40
38.999999999999986
 50
185.284732999999990
 51
234.715266999999980
  0
ARC
  8
0
  6
CONTINUOUS
 62
256
 10
-449.449529999999980
 20
-119.678407000000010
 40
0.999999999999984
 50
329.999999999999490
 51
38.381728000001026
  0
ARC
  8
0
  6
CONTINUOUS
 62
256
 10
-450.834321999999990
 20
-117.279878000000000
 40
1.000000000000013
 50
21.618271999999475
 51
90.000000000000000
  0
ARC
  8
0
  6
CONTINUOUS
 62
256
 10
-454.002561000000010
 20
-117.279878000000000
 40
1.000000000000000
 50
90.000000000000000
 51
196.260205000000670
  0
ARC
  8
0
  6
CONTINUOUS
 62
256
 10
-451.033650000000020
 20
-122.422183000000000
 40
1.000000000000005
 50
223.739794999999760
 51
329.999999999999490
  0
ARC
  8
0
  6
CONTINUOUS
 62
256
 10
-453.861872000000010
 20
-127.320807000000000
 40
0.999999999999984
 50
329.999999999999490
 51
48.787728999999715
  0
ARC
  8
0
  6
CONTINUOUS
 62
256
 10
-455.386790000000020
 20
-129.962042000000000
 40
0.999999999999999
 50
230.405932000001170
 51
329.999999999999490
  0
ARC
  8
0
  6
CONTINUOUS
 62
256
 10
-459.659004999999980
 20
-117.279878000000000
 40
1.000000000000016
 50
11.212270999999729
 51
90.000000000000000
  0
ARC
  8
0
  6
CONTINUOUS
 62
256
 10
-462.708840000000010
 20
-117.279878000000000
 40
1.000000000000000
 50
90.000000000000000
 51
189.594067999999960
  0
ARC
  8
0
  6
CONTINUOUS
 62
256
 10
-471.294197999999990
 20
-117.279878000000000
 40
1.000000000000000
 50
90.000000000000000
 51
186.813853999999760
  0
ARC
  8
0
  6
CONTINUOUS
 62
256
 10
-458.167575000000000
 20
-134.778504000000000
 40
0.999999999999984
 50
329.999999999999490
 51
52.410458000001171
  0
ARC
  8
0
  6
CONTINUOUS
 62
256
 10
-459.679467999999990
 20
-137.397179999999990
 40
1.000000000000000
 50
233.186145999998760
 51
329.999999999999490
  0
ARC
  8
0
  6
CONTINUOUS
 62
256
 10
-468.270412000000020
 20
-117.279878000000000
 40
0.999999999999990
 50
7.589541999999997
 51
90.000000000000000
  0
ARC
  8
0
  6
CONTINUOUS
 62
256
 10
-479.841032999999980
 20
-117.279878000000000
 40
1.000000000000000
 50
90.000000000000000
 51
185.284732999999760
  0
ARC
  8
0
  6
CONTINUOUS
 62
256
 10
-476.827120999999980
 20
-117.279878000000000
 40
0.999999999999978
 50
5.739170000000447
 51
90.000000000000000
  0
ARC
  8
0
  6
CONTINUOUS
 62
256
 10
-462.445929999999980
 20
-142.188831999999990
 40
0.999999999999984
 50
329.999999999999490
 51
54.260829999999778
  0
ARC
  8
0
  6
CONTINUOUS
 62
256
 10
-463.952885999999980
 20
-144.798956000000000
 40
1.000000000000016
 50
234.715266999999020
 51
329.999999999999490
  0
CIRCLE
  8
0
  6
CONTINUOUS
 62
256
 10
-442.002561000000010
 20
-113.779878000000000
 40
5.000000000000000
  0
ARC
  8
0
  6
CONTINUOUS
 62
256
 10
-457.890708000000020
 20
-148.298956000000000
 40
0.999999999999984
 50
149.999999999999460
 51
245.284732999999870
  0
LINE
  8
0
  6
CONTINUOUS
 62
256
 10
-458.756733999999990
 20
-147.798956000000000
 11
-457.249777999999990
 21
-145.188831999999990
  0
ARC
  8
0
  6
CONTINUOUS
 62
256
 10
-442.002561000000010
 20
-113.779878000000000
 40
39.000000000000014
 50
245.284732999999960
 51
294.715266999999980
  0
ARC
  8
0
  6
CONTINUOUS
 62
256
 10
-442.002561000000010
 20
-113.779878000000000
 40
34.000000000000014
 50
245.739170000000000
 51
294.260830000000000
  0
ARC
  8
0
  6
CONTINUOUS
 62
256
 10
-442.002561000000010
 20
-113.779878000000000
 40
25.500000000000007
 50
247.589541999999940
 51
292.410458000000010
  0
ARC
  8
0
  6
CONTINUOUS
 62
256
 10
-442.002561000000010
 20
-113.779878000000000
 40
30.500000000000011
 50
246.813853999999990
 51
293.186146000000010
  0
ARC
  8
0
  6
CONTINUOUS
 62
256
 10
-453.617291000000020
 20
-140.897179999999990
 40
0.999999999999984
 50
149.999999999999460
 51
246.813853999999880
  0
LINE
  8
0
  6
CONTINUOUS
 62
256
 10
-454.483316000000000
 20
-140.397179999999990
 11
-452.971423000000020
 21
-137.778504000000000
  0
ARC
  8
0
  6
CONTINUOUS
 62
256
 10
-442.002561000000010
 20
-113.779878000000000
 40
22.000000000000011
 50
249.594067999999990
 51
290.405932000000010
  0
ARC
  8
0
  6
CONTINUOUS
 62
256
 10
-456.383752000000020
 20
-145.688831999999990
 40
0.999999999999992
 50
65.739170000001337
 51
149.999999999999460
  0
ARC
  8
0
  6
CONTINUOUS
 62
256
 10
-452.105397999999980
 20
-138.278504000000000
 40
1.000000000000009
 50
67.589541999999554
 51
149.999999999999460
  0
ARC
  8
0
  6
CONTINUOUS
 62
256
 10
-449.324612000000000
 20
-133.462042000000000
 40
0.999999999999984
 50
149.999999999999460
 51
249.594068000000160
  0
ARC
  8
0
  6
CONTINUOUS
 62
256
 10
-442.002561000000010
 20
-113.779878000000000
 40
17.000000000000004
 50
251.212271000000040
 51
288.787728999999960
  0
LINE
  8
0
  6
CONTINUOUS
 62
256
 10
-450.190636999999980
 20
-132.962042000000000
 11
-448.665719000000020
 21
-130.320807000000000
  0
ARC
  8
0
  6
CONTINUOUS
 62
256
 10
-447.799693999999990
 20
-130.820807000000000
 40
1.000000000000010
 50
71.212270999999262
 51
149.999999999999460
  0
ARC
  8
0
  6
CONTINUOUS
 62
256
 10
-442.002561000000010
 20
-113.779878000000000
 40
13.500000000000004
 50
256.260205000000040
 51
283.739794999999960
  0
ARC
  8
0
  6
CONTINUOUS
 62
256
 10
-444.971472000000010
 20
-125.922183000000000
 40
0.999999999999984
 50
149.999999999999460
 51
256.260204999998730
  0
LINE
  8
0
  6
CONTINUOUS
 62
256
 10
-445.837496999999980
 20
-125.422183000000000
 11
-444.253378000000000
 21
-122.678407000000010
  0
ARC
  8
0
  6
CONTINUOUS
 62
256
 10
-439.033650000000020
 20
-125.922183000000000
 40
1.000000000000011
 50
283.739795000001270
 51
30.000000000000544
  0
ARC
  8
0
  6
CONTINUOUS
 62
256
 10
-442.002561000000010
 20
-113.779878000000000
 40
8.500000000000002
 50
261.618271999999930
 51
278.381728000000070
  0
ARC
  8
0
  6
CONTINUOUS
 62
256
 10
-443.387353000000020
 20
-123.178407000000010
 40
0.999999999999998
 50
81.618272000001099
 51
149.999999999999460
  0
ARC
  8
0
  6
CONTINUOUS
 62
256
 10
-434.680510000000030
 20
-133.462042000000000
 40
0.999999999999993
 50
290.405931999999840
 51
30.000000000000544
  0
LINE
  8
0
  6
CONTINUOUS
 62
256
 10
-433.814484999999990
 20
-132.962042000000000
 11
-435.339403000000000
 21
-130.320807000000000
  0
ARC
  8
0
  6
CONTINUOUS
 62
256
 10
-436.205427999999980
 20
-130.820807000000000
 40
0.999999999999984
 50
30.000000000000544
 51
108.787729000000750
  0
LINE
  8
0
  6
CONTINUOUS
 62
256
 10
-438.167624999999990
 20
-125.422183000000000
 11
-439.751743999999970
 21
-122.678407000000010
  0
ARC
  8
0
  6
CONTINUOUS
 62
256
 10
-440.617769000000010
 20
-123.178407000000010
 40
0.999999999999984
 50
30.000000000000544
 51
98.381727999998901
  0
ARC
  8
0
  6
CONTINUOUS
 62
256
 10
-427.621370000000010
 20
-145.688831999999990
 40
0.999999999999984
 50
30.000000000000544
 51
114.260829999998650
  0
LINE
  8
0
  6
CONTINUOUS
 62
256
 10
-425.248387999999980
 20
-147.798956000000000
 11
-426.755343999999980
 21
-145.188831999999990
  0
ARC
  8
0
  6
CONTINUOUS
 62
256
 10
-426.114414000000010
 20
-148.298956000000000
 40
1.000000000000004
 50
294.715267000000150
 51
30.000000000000544
  0
ARC
  8
0
  6
CONTINUOUS
 62
256
 10
-431.899723999999990
 20
-138.278504000000000
 40
0.999999999999984
 50
30.000000000000544
 51
112.410458000000460
  0
LINE
  8
0
  6
CONTINUOUS
 62
256
 10
-429.521806000000030
 20
-140.397179999999990
 11
-431.033699000000010
 21
-137.778504000000000
  0
ARC
  8
0
  6
CONTINUOUS
 62
256
 10
-430.387831000000010
 20
-140.897179999999990
 40
1.000000000000000
 50
293.186146000000120
 51
30.000000000000544
  0
ARC
  8
0
  6
CONTINUOUS
 62
256
 10
-442.002561000000010
 20
-113.779878000000000
 40
39.000000000000000
 50
305.284733000000020
 51
354.715266999999980
  0
ARC
  8
0
  6
CONTINUOUS
 62
256
 10
-442.002561000000010
 20
-113.779878000000000
 40
33.999999999999972
 50
305.739169999999940
 51
354.260830000000000
  0
ARC
  8
0
  6
CONTINUOUS
 62
256
 10
-442.002561000000010
 20
-113.779878000000000
 40
25.499999999999986
 50
307.589541999999990
 51
352.410458000000010
  0
ARC
  8
0
  6
CONTINUOUS
 62
256
 10
-442.002561000000010
 20
-113.779878000000000
 40
30.500000000000025
 50
306.813854000000050
 51
353.186146000000010
  0
ARC
  8
0
  6
CONTINUOUS
 62
256
 10
-442.002561000000010
 20
-113.779878000000000
 40
21.999999999999975
 50
309.594067999999940
 51
350.405932000000010
  0
ARC
  8
0
  6
CONTINUOUS
 62
256
 10
-442.002561000000010
 20
-113.779878000000000
 40
17.000000000000014
 50
311.212270999999990
 51
348.787729000000010
  0
ARC
  8
0
  6
CONTINUOUS
 62
256
 10
-442.002561000000010
 20
-113.779878000000000
 40
13.500000000000004
 50
316.260204999999980
 51
343.739794999999960
  0
ARC
  8
0
  6
CONTINUOUS
 62
256
 10
-430.002561000000010
 20
-117.279878000000000
 40
0.999999999999976
 50
343.739794999999330
 51
90.000000000000000
  0
LINE
  8
0
  6
CONTINUOUS
 62
256
 10
-430.002561000000010
 20
-116.279878000000000
 11
-433.170799999999990
 21
-116.279878000000000
  0
ARC
  8
0
  6
CONTINUOUS
 62
256
 10
-432.971472000000010
 20
-122.422183000000000
 40
0.999999999999984
 50
210.000000000000510
 51
316.260205000000270
  0
ARC
  8
0
  6
CONTINUOUS
 62
256
 10
-442.002561000000010
 20
-113.779878000000000
 40
8.500000000000005
 50
321.618272000000050
 51
338.381728000000010
  0
ARC
  8
0
  6
CONTINUOUS
 62
256
 10
-433.170799999999990
 20
-117.279878000000000
 40
1.000000000000000
 50
90.000000000000000
 51
158.381728000000550
  0
ARC
  8
0
  6
CONTINUOUS
 62
256
 10
-428.618332000000010
 20
-129.962042000000000
 40
0.999999999999984
 50
210.000000000000510
 51
309.594067999998800
  0
LINE
  8
0
  6
CONTINUOUS
 62
256
 10
-429.484357999999990
 20
-130.462042000000000
 11
-431.009276000000000
 21
-127.820807000000000
  0
ARC
  8
0
  6
CONTINUOUS
 62
256
 10
-430.143250000000020
 20
-127.320807000000000
 40
1.000000000000006
 50
131.212270999999760
 51
210.000000000000510
  0
LINE
  8
0
  6
CONTINUOUS
 62
256
 10
-433.837496999999980
 20
-122.922183000000000
 11
-435.421617000000030
 21
-120.178407000000010
  0
ARC
  8
0
  6
CONTINUOUS
 62
256
 10
-434.555591999999990
 20
-119.678407000000010
 40
0.999999999999985
 50
141.618271999999000
 51
210.000000000000510
  0
ARC
  8
0
  6
CONTINUOUS
 62
256
 10
-421.559192000000000
 20
-142.188831999999990
 40
0.999999999999998
 50
125.739170000000210
 51
210.000000000000510
  0
LINE
  8
0
  6
CONTINUOUS
 62
256
 10
-420.918260999999970
 20
-145.298956000000000
 11
-422.425216999999980
 21
-142.688831999999990
  0
ARC
  8
0
  6
CONTINUOUS
 62
256
 10
-420.052235999999990
 20
-144.798956000000000
 40
0.999999999999984
 50
210.000000000000510
 51
305.284733000000980
  0
ARC
  8
0
  6
CONTINUOUS
 62
256
 10
-425.837546999999970
 20
-134.778504000000000
 40
0.999999999999993
 50
127.589541999998830
 51
210.000000000000510
  0
LINE
  8
0
  6
CONTINUOUS
 62
256
 10
-425.191679000000020
 20
-137.897179999999990
 11
-426.703572000000010
 21
-135.278504000000000
  0
ARC
  8
0
  6
CONTINUOUS
 62
256
 10
-424.325653999999990
 20
-137.397179999999990
 40
0.999999999999984
 50
210.000000000000510
 51
306.813854000001190
  0
ARC
  8
0
  6
CONTINUOUS
 62
256
 10
-404.164088999999990
 20
-117.279878000000000
 40
1.000000000000027
 50
354.715267000000210
 51
90.000000000000000
  0
LINE
  8
0
  6
CONTINUOUS
 62
256
 10
-404.164088999999990
 20
-116.279878000000000
 11
-407.178000999999990
 21
-116.279878000000000
  0
ARC
  8
0
  6
CONTINUOUS
 62
256
 10
-407.178000999999990
 20
-117.279878000000000
 40
1.000000000000000
 50
90.000000000000000
 51
174.260829999999570
  0
ARC
  8
0
  6
CONTINUOUS
 62
256
 10
-412.710923999999980
 20
-117.279878000000000
 40
1.000000000000019
 50
353.186146000000240
 51
90.000000000000000
  0
LINE
  8
0
  6
CONTINUOUS
 62
256
 10
-412.710923999999980
 20
-116.279878000000000
 11
-415.734710000000010
 21
-116.279878000000000
  0
ARC
  8
0
  6
CONTINUOUS
 62
256
 10
-415.734710000000010
 20
-117.279878000000000
 40
1.000000000000000
 50
90.000000000000000
 51
172.410458000000010
  0
ARC
  8
0
  6
CONTINUOUS
 62
256
 10
-421.296282000000020
 20
-117.279878000000000
 40
0.999999999999978
 50
350.405932000000010
 51
90.000000000000000
  0
LINE
  8
0
  6
CONTINUOUS
 62
256
 10
-421.296282000000020
 20
-116.279878000000000
 11
-424.346116999999990
 21
-116.279878000000000
  0
ARC
  8
0
  6
CONTINUOUS
 62
256
 10
-424.346116999999990
 20
-117.279878000000000
 40
1.000000000000000
 50
90.000000000000000
 51
168.787729000000270
  0
LINE
  8
0
  6
DASHDOT
 62
256
 10
-503.726291000000000
 20
-113.779878000000000
 11
-378.508332000000000
 21
-113.779878000000000
  0
LINE
  8
0
  6
DASHDOT
 62
256
 10
-442.002561000000010
 20
-50.539391000000002
 11
-442.002561000000010
 21
-208.465117999999990
  0
LINE
  8
0
  6
CONTINUOUS
 62
256
 10
-385.002561000000010
 20
-77.797332999999995
 11
-385.002561000000010
 21
-98.797332999999995
  0
ARC
  8
0
  6
CONTINUOUS
 62
256
 10
-386.002561000000010
 20
-119.797332999999990
 40
1.000000000000000
 50
270.000000000000000
 51
0.000000000000000
  0
LINE
  8
0
  6
CONTINUOUS
 62
256
 10
-385.002561000000010
 20
-119.797332999999990
 11
-385.002561000000010
 21
-98.797332999999995
  0
LINE
  8
0
  6
CONTINUOUS
 62
256
 10
-389.002561000000010
 20
-76.797332999999995
 11
-386.002561000000010
 21
-76.797332999999995
  0
ARC
  8
0
  6
CONTINUOUS
 62
256
 10
-386.002561000000010
 20
-77.797332999999995
 40
1.000000000000000
 50
0.000000000000000
 51
90.000000000000000
  0
LINE
  8
0
  6
CONTINUOUS
 62
256
 10
-389.002561000000010
 20
-56.297333000000002
 11
-393.002561000000010
 21
-56.297333000000002
  0
LINE
  8
0
  6
CONTINUOUS
 62
256
 10
-393.002561000000010
 20
-38.006793999999999
 11
-405.002561000000010
 21
-37.797333000000002
  0
LINE
  8
0
  6
CONTINUOUS
 62
256
 10
-405.002561000000010
 20
-37.771149999999999
 11
-481.002561000000010
 21
-39.115189999999998
  0
LINE
  8
0
  6
CONTINUOUS
 62
256
 10
-405.002561000000010
 20
-185.797333000000010
 11
-393.002561000000010
 21
-185.587872000000000
  0
LINE
  8
0
  6
CONTINUOUS
 62
256
 10
-481.002561000000010
 20
-184.444566000000010
 11
-491.002561000000010
 21
-184.444566000000010
  0
ARC
  8
0
  6
CONTINUOUS
 62
256
 10
-498.002561000000010
 20
-119.797332999999990
 40
1.000000000000000
 50
180.000000000000000
 51
270.000000000000000
  0
LINE
  8
0
  6
CONTINUOUS
 62
256
 10
-499.002561000000010
 20
-119.797332999999990
 11
-499.002561000000010
 21
-98.797332999999995
  0
LINE
  8
0
  6
CONTINUOUS
 62
256
 10
-495.002561000000010
 20
-76.797332999999995
 11
-498.002561000000010
 21
-76.797332999999995
  0
ARC
  8
0
  6
CONTINUOUS
 62
256
 10
-498.002561000000010
 20
-77.797332999999995
 40
1.000000000000000
 50
90.000000000000000
 51
180.000000000000000
  0
LINE
  8
0
  6
CONTINUOUS
 62
256
 10
-499.002561000000010
 20
-77.797332999999995
 11
-499.002561000000010
 21
-98.797332999999995
  0
LINE
  8
0
  6
CONTINUOUS
 62
256
 10
-481.002561000000010
 20
-39.115189999999998
 11
-491.002561000000010
 21
-39.115189999999998
  0
LINE
  8
0
  6
CONTINUOUS
 62
256
 10
-491.002561000000010
 20
-56.297333000000002
 11
-495.002561000000010
 21
-56.297333000000002
  0
LINE
  8
0
  6
CONTINUOUS
 62
256
 10
-491.002561000000010
 20
-68.593254999999999
 11
-491.002561000000010
 21
-39.115189999999998
  0
LINE
  8
0
  6
CONTINUOUS
 62
256
 10
-495.002561000000010
 20
-85.492070999999996
 11
-495.002561000000010
 21
-56.297333000000002
  0
LINE
  8
0
  6
CONTINUOUS
 62
256
 10
-495.941093000000020
 20
-120.797332999999990
 11
-498.002561000000010
 21
-120.797332999999990
  0
LINE
  8
0
  6
CONTINUOUS
 62
256
 10
-405.002561000000010
 20
-37.771149999999999
 11
-405.002561000000010
 21
-58.229004000000003
  0
LINE
  8
0
  6
CONTINUOUS
 62
256
 10
-393.002561000000010
 20
-68.593254999999999
 11
-393.002561000000010
 21
-38.006793999999999
  0
LINE
  8
0
  6
CONTINUOUS
 62
256
 10
-389.002561000000010
 20
-56.297333000000002
 11
-389.002561000000010
 21
-85.492070999999996
  0
ARC
  8
0
  6
CONTINUOUS
 62
256
 10
-788.602561000000040
 20
-113.779878000000000
 40
400.600000000000020
 50
0.000000000000000
 51
5.743682000000000
  0
LINE
  8
0
  6
CONTINUOUS
 62
256
 10
-388.064029000000000
 20
-120.797332999999990
 11
-386.002561000000010
 21
-120.797332999999990
  0
LINE
  8
0
  6
CONTINUOUS
 62
256
 10
-393.002561000000010
 20
-185.587872000000000
 11
-393.002561000000010
 21
-158.966500999999990
  0
LINE
  8
0
  6
CONTINUOUS
 62
256
 10
-405.002561000000010
 20
-169.330751999999990
 11
-405.002561000000010
 21
-185.788605999999990
  0
LINE
  8
0
  6
CONTINUOUS
 62
256
 10
-491.002561000000010
 20
-184.444566000000010
 11
-491.002561000000010
 21
-158.966500999999990
  0
LINE
  8
0
  6
CONTINUOUS
 62
256
 10
-405.002561000000010
 20
-185.788605999999990
 11
-412.002561000000010
 21
-185.664812000000010
  0
LINE
  8
0
  6
CONTINUOUS
 62
256
 10
-472.002561000000010
 20
-184.603727999999990
 11
-481.002561000000010
 21
-184.444566000000010
  0
LINE
  8
0
  6
DASHED
 62
256
 10
-266.676357999999990
 20
-171.279878000000000
 11
-266.676357999999990
 21
-185.779878000000000
  0
LINE
  8
0
  6
DASHED
 62
256
 10
-252.676357999999990
 20
-171.279878000000000
 11
-252.676357999999990
 21
-185.779878000000000
  0
ARC
  8
0
  6
DASHED
 62
256
 10
-259.676357999999990
 20
-185.779878000000000
 40
7.000000000000000
 50
180.000000000000000
 51
0.000000000000000
  0
LINE
  8
0
  6
DASHDOT
 62
256
 10
-259.676357999999990
 20
-168.496027000000000
 11
-259.676357999999990
 21
-196.475376000000010
  0
LINE
  8
0
  6
DASHDOT
 62
256
 10
-268.984692000000000
 20
-185.779878000000000
 11
-249.795651999999990
 21
-185.779878000000000
  0
LINE
  8
0
  6
DASHED
 62
256
 10
-202.676357999999990
 20
-171.279878000000000
 11
-202.676357999999990
 21
-185.779878000000000
  0
LINE
  8
0
  6
DASHED
 62
256
 10
-216.676357999999990
 20
-171.279878000000000
 11
-216.676357999999990
 21
-185.779878000000000
  0
ARC
  8
0
  6
DASHED
 62
256
 10
-209.676357999999990
 20
-185.779878000000000
 40
7.000000000000000
 50
180.000000000000000
 51
0.000000000000000
  0
CIRCLE
  8
0
  6
DASHED
 62
256
 10
-209.676357999999990
 20
-185.779878000000000
 40
6.000000000000000
  0
LINE
  8
0
  6
DASHDOT
 62
256
 10
-209.676357999999990
 20
-168.496027000000000
 11
-209.676357999999990
 21
-196.475376000000010
  0
LINE
  8
0
  6
DASHDOT
 62
256
 10
-220.086656000000000
 20
-185.779878000000000
 11
-199.712475000000010
 21
-185.779878000000000
  0
LINE
  8
0
  6
DASHDOT
 62
256
 10
289.378859999999970
 20
-71.343978000000007
 11
289.378859999999970
 21
-125.619635000000000
  0
LINE
  8
0
  6
DASHDOT
 62
256
 10
435.472366000000020
 20
-113.779878000000000
 11
415.484425999999980
 21
-113.779878000000000
  0
LINE
  8
0
  6
DASHDOT
 62
256
 10
13.541926000000000
 20
-98.797332999999995
 11
-112.174681000000010
 21
-98.797332999999995
  0
ARC
  8
0
  6
CONTINUOUS
 62
256
 10
-52.676358000000000
 20
-98.797332999999995
 40
15.000000000000004
 50
105.466010000000000
 51
74.533990000000003
  0
LINE
  8
0
  6
CONTINUOUS
 62
256
 10
-56.676358000000000
 20
-84.340501000000003
 11
-56.676358000000000
 21
-80.497332999999998
  0
LINE
  8
0
  6
CONTINUOUS
 62
256
 10
-56.676358000000000
 20
-80.497332999999998
 11
-48.676358000000000
 21
-80.497332999999998
  0
LINE
  8
0
  6
CONTINUOUS
 62
256
 10
-48.676358000000000
 20
-84.340501000000003
 11
-48.676358000000000
 21
-80.497332999999998
  0
LINE
  8
0
  6
CONTINUOUS
 62
256
 10
-142.676357999999990
 20
-37.797333000000002
 11
-0.676358000000000
 21
-37.797333000000002
  0
LINE
  8
0
  6
DASHDOT
 62
256
 10
-52.676358000000000
 20
-25.599996999999998
 11
-52.676358000000000
 21
-165.024398999999990
  0
LINE
  8
0
  6
CONTINUOUS
 62
256
 10
-24.685161000000001
 20
-38.797333000000002
 11
-118.667554000000000
 21
-38.797333000000002
  0
ARC
  8
0
  6
CONTINUOUS
 62
256
 10
-19.176358000000000
 20
-45.297333000000002
 40
12.500000000000002
 50
206.847213000000010
 51
263.651414999999990
  0
ARC
  8
0
  6
CONTINUOUS
 62
256
 10
-33.005673999999999
 20
-52.297333000000002
 40
3.000000000000000
 50
26.847213000000004
 51
90.000000000000000
  0
ARC
  8
0
  6
CONTINUOUS
 62
256
 10
-33.005673999999999
 20
-52.297333000000002
 40
5.999999999999999
 50
26.847213000000004
 51
90.000000000000000
  0
LINE
  8
0
  6
CONTINUOUS
 62
256
 10
-33.005673999999999
 20
-46.297333000000002
 11
-110.347041000000000
 21
-46.297333000000002
  0
LINE
  8
0
  6
CONTINUOUS
 62
256
 10
-33.005673999999999
 20
-49.297333000000002
 11
-110.347041000000000
 21
-49.297333000000002
  0
CIRCLE
  8
0
  6
CONTINUOUS
 62
256
 10
-52.676358000000000
 20
-98.797332999999995
 40
47.000000000000000
  0
CIRCLE
  8
0
  6
CONTINUOUS
 62
256
 10
-52.676358000000000
 20
-98.797332999999995
 40
42.500000000000000
  0
CIRCLE
  8
0
  6
CONTINUOUS
 62
256
 10
-52.676358000000000
 20
-98.797332999999995
 40
22.000000000000000
  0
ARC
  8
0
  6
CONTINUOUS
 62
256
 10
-154.676357999999990
 20
-170.760352000000010
 40
3.000000000000000
 50
0.000000000000000
 51
88.999999999999858
  0
ARC
  8
0
  6
CONTINUOUS
 62
256
 10
-154.676357999999990
 20
-56.834313999999999
 40
2.999999999999997
 50
271.000000000000110
 51
0.000000000000000
  0
LINE
  8
0
  6
CONTINUOUS
 62
256
 10
-180.176357999999990
 20
-60.279874999999997
 11
-154.624000999999990
 21
-59.833857000000002
  0
LINE
  8
0
  6
CONTINUOUS
 62
256
 10
-180.176357999999990
 20
-167.314791000000010
 11
-154.624000999999990
 21
-167.760808999999990
  0
ARC
  8
0
  6
CONTINUOUS
 62
256
 10
-20.890302999999999
 20
-60.702280000000002
 40
5.999999999999998
 50
31.420365999999994
 51
83.651414999999986
  0
ARC
  8
0
  6
CONTINUOUS
 62
256
 10
-19.176358000000000
 20
-45.297333000000002
 40
9.500000000000004
 50
206.847213000000010
 51
263.651414999999990
  0
ARC
  8
0
  6
CONTINUOUS
 62
256
 10
-4.676358000000000
 20
-50.797333000000002
 40
13.000000000000000
 50
211.420365999999970
 51
256.164776000000020
  0
ARC
  8
0
  6
CONTINUOUS
 62
256
 10
-124.176357999999990
 20
-45.297333000000002
 40
9.500000000000004
 50
276.348585000000010
 51
333.152786999999990
  0
ARC
  8
0
  6
CONTINUOUS
 62
256
 10
-122.462412000000000
 20
-60.702280000000002
 40
5.999999999999997
 50
96.348585000000028
 51
148.579634000000030
  0
ARC
  8
0
  6
CONTINUOUS
 62
256
 10
-138.676357999999990
 20
-50.797333000000002
 40
13.000000000000002
 50
283.835223999999980
 51
328.579633999999940
  0
LINE
  8
0
  6
DASHDOT
 62
256
 10
-138.676357999999990
 20
-40.229824999999998
 11
-138.676357999999990
 21
-62.675058000000000
  0
LINE
  8
0
  6
DASHDOT
 62
256
 10
-124.176357999999990
 20
-37.119745000000002
 11
-124.176357999999990
 21
-53.237856999999998
  0
LINE
  8
0
  6
DASHDOT
 62
256
 10
-19.176358000000000
 20
-36.797333000000002
 11
-19.176358000000000
 21
-54.249129000000003
  0
LINE
  8
0
  6
DASHDOT
 62
256
 10
-11.933498000000000
 20
-45.297333000000002
 11
-26.535183000000000
 21
-45.297333000000002
  0
LINE
  8
0
  6
DASHDOT
 62
256
 10
-4.676358000000000
 20
-37.297333000000002
 11
-4.676358000000000
 21
-63.065241000000000
  0
LINE
  8
0
  6
DASHDOT
 62
256
 10
8.823642000000000
 20
-50.797333000000002
 11
-15.721671000000001
 21
-50.797333000000002
  0
ARC
  8
0
  6
CONTINUOUS
 62
256
 10
-0.676358000000000
 20
-46.797333000000002
 40
9.000000000000000
 50
0.000000000000000
 51
90.000000000000000
  0
ARC
  8
0
  6
CONTINUOUS
 62
256
 10
-142.676357999999990
 20
-46.797333000000002
 40
9.000000000000000
 50
90.000000000000000
 51
180.000000000000000
  0
LINE
  8
0
  6
CONTINUOUS
 62
256
 10
8.323642000000000
 20
-46.797333000000002
 11
8.323642000000000
 21
-176.797333000000010
  0
LINE
  8
0
  6
CONTINUOUS
 62
256
 10
-151.676357999999990
 20
-176.797333000000010
 11
-151.676357999999990
 21
-46.797333000000002
  0
ARC
  8
0
  6
CONTINUOUS
 62
256
 10
-4.676358000000000
 20
-172.797333000000010
 40
13.000000000000002
 50
103.835224000000000
 51
148.579634000000060
  0
ARC
  8
0
  6
CONTINUOUS
 62
256
 10
-20.890302999999999
 20
-162.892385999999990
 40
6.000000000000004
 50
276.348585000000010
 51
328.579633999999880
  0
ARC
  8
0
  6
CONTINUOUS
 62
256
 10
-19.176358000000000
 20
-178.297333000000010
 40
9.499999999999996
 50
96.348584999999986
 51
153.152787000000050
  0
ARC
  8
0
  6
CONTINUOUS
 62
256
 10
-122.462412000000000
 20
-162.892385999999990
 40
6.000000000000008
 50
211.420366000000090
 51
263.651414999999990
  0
ARC
  8
0
  6
CONTINUOUS
 62
256
 10
-124.176357999999990
 20
-178.297333000000010
 40
9.500000000000000
 50
26.847212999999975
 51
83.651414999999972
  0
ARC
  8
0
  6
CONTINUOUS
 62
256
 10
-138.676357999999990
 20
-172.797333000000010
 40
12.999999999999998
 50
31.420365999999952
 51
76.164776000000032
  0
LINE
  8
0
  6
DASHDOT
 62
256
 10
6.228438000000000
 20
-172.797333000000010
 11
-15.253785000000001
 21
-172.797333000000010
  0
LINE
  8
0
  6
DASHDOT
 62
256
 10
-11.494396000000000
 20
-178.297333000000010
 11
-27.069008000000000
 21
-178.297333000000010
  0
ARC
  8
0
  6
CONTINUOUS
 62
256
 10
-0.676358000000000
 20
-176.797333000000010
 40
9.000000000000000
 50
270.000000000000000
 51
0.000000000000000
  0
ARC
  8
0
  6
CONTINUOUS
 62
256
 10
-142.676357999999990
 20
-176.797333000000010
 40
9.000000000000000
 50
180.000000000000000
 51
270.000000000000000
  0
LINE
  8
0
  6
CONTINUOUS
 62
256
 10
-0.676358000000000
 20
-185.797333000000010
 11
-142.676357999999990
 21
-185.797333000000010
  0
LINE
  8
0
  6
DASHDOT
 62
256
 10
-128.214476999999990
 20
-172.797333000000010
 11
-149.338663000000000
 21
-172.797333000000010
  0
LINE
  8
0
  6
DASHDOT
 62
256
 10
-19.176358000000000
 20
-169.714611999999990
 11
-19.176358000000000
 21
-187.348490000000000
  0
LINE
  8
0
  6
DASHDOT
 62
256
 10
-4.676358000000000
 20
-161.300740999999990
 11
-4.676358000000000
 21
-187.348490000000000
  0
LINE
  8
0
  6
DASHDOT
 62
256
 10
-138.676357999999990
 20
-162.195833999999990
 11
-138.676357999999990
 21
-183.141000999999990
  0
LINE
  8
0
  6
DASHDOT
 62
256
 10
-126.865575000000010
 20
-50.797333000000002
 11
-153.094463999999990
 21
-50.797333000000002
  0
LINE
  8
0
  6
DASHDOT
 62
256
 10
-124.176357999999990
 20
-171.504797000000000
 11
-124.176357999999990
 21
-187.079409000000000
  0
LINE
  8
0
  6
DASHDOT
 62
256
 10
-116.918255000000000
 20
-45.297333000000002
 11
-131.404777000000000
 21
-45.297333000000002
  0
LINE
  8
0
  6
DASHDOT
 62
256
 10
-117.294346000000000
 20
-178.297333000000010
 11
-131.615828999999990
 21
-178.297333000000010
  0
LINE
  8
0
  6
CONTINUOUS
 62
256
 10
373.474516999999990
 20
-94.279877999999997
 11
373.474516999999990
 21
-133.279878000000000
  0
LINE
  8
0
  6
CONTINUOUS
 62
256
 10
479.474516999999990
 20
-133.279878000000000
 11
479.474516999999990
 21
-94.279877999999997
  0
ARC
  8
0
  6
CONTINUOUS
 62
256
 10
453.474516999999990
 20
-141.279878000000000
 40
25.000000000000000
 50
331.642362999999990
 51
354.269824999999970
  0
ARC
  8
0
  6
CONTINUOUS
 62
256
 10
399.474516999999990
 20
-141.279878000000000
 40
24.999999999999979
 50
185.730174999999970
 51
208.357637000000040
  0
ARC
  8
0
  6
CONTINUOUS
 62
256
 10
774.474516999999990
 20
-133.779878000000000
 40
400.000000000000000
 50
181.076859999999980
 51
181.431983999999970
  0
ARC
  8
0
  6
CONTINUOUS
 62
256
 10
78.474517000000006
 20
-133.779878000000000
 40
400.000000000000000
 50
358.568016000000060
 51
358.849005999999970
  0
ARC
  8
0
  6
CONTINUOUS
 62
256
 10
478.974516999999990
 20
-133.279878000000000
 40
0.500000000000000
 50
270.000000000000000
 51
0.000000000000000
  0
ARC
  8
0
  6
DASHED
 62
256
 10
78.474517000000006
 20
-133.779878000000000
 40
400.000000000000000
 50
358.849005999999970
 51
359.928470000000000
  0
ARC
  8
0
  6
DASHED
 62
256
 10
453.474516999999990
 20
-141.279878000000000
 40
25.000000000000011
 50
275.730175000000030
 51
331.642362999999990
  0
ARC
  8
0
  6
DASHED
 62
256
 10
399.474516999999990
 20
-141.279878000000000
 40
25.000000000000000
 50
208.357637000000040
 51
264.269825000000080
  0
LINE
  8
0
  6
DASHED
 62
256
 10
445.974516999999990
 20
-60.279877999999997
 11
406.974516999999990
 21
-60.279877999999997
  0
ARC
  8
0
  6
DASHED
 62
256
 10
445.974516999999990
 20
-461.279878000000000
 40
400.000000000000000
 50
89.140459000000007
 51
89.928470000000004
  0
ARC
  8
0
  6
DASHED
 62
256
 10
453.474516999999990
 20
-86.279877999999997
 40
24.999999999999979
 50
5.730175000000014
 51
93.438649999999981
  0
ARC
  8
0
  6
DASHED
 62
256
 10
445.974516999999990
 20
-60.779877999999997
 40
0.500000000000000
 50
0.000000000000000
 51
90.000000000000000
  0
ARC
  8
0
  6
DASHED
 62
256
 10
446.974516999999990
 20
-60.779877999999997
 40
0.500000000000000
 50
180.000000000000000
 51
270.000000000000000
  0
ARC
  8
0
  6
DASHED
 62
256
 10
78.474517000000006
 20
-93.779877999999997
 40
399.999999999999940
 50
0.053000000000000
 51
1.431984000000000
  0
ARC
  8
0
  6
DASHED
 62
256
 10
478.974516999999990
 20
-93.279877999999997
 40
0.500000000000000
 50
180.000000000000000
 51
270.000000000000000
  0
ARC
  8
0
  6
DASHED
 62
256
 10
478.974516999999990
 20
-134.279878000000000
 40
0.500000000000000
 50
90.000000000000000
 51
180.000000000000000
  0
ARC
  8
0
  6
DASHED
 62
256
 10
445.974516999999990
 20
233.720122000000000
 40
400.000000000000000
 50
270.071530000000000
 51
271.431984000000000
  0
ARC
  8
0
  6
DASHED
 62
256
 10
446.974516999999990
 20
-166.779878000000000
 40
0.500000000000000
 50
90.000000000000000
 51
180.000000000000000
  0
LINE
  8
0
  6
DASHED
 62
256
 10
406.974516999999990
 20
-167.279878000000000
 11
445.974516999999990
 21
-167.279878000000000
  0
ARC
  8
0
  6
DASHED
 62
256
 10
445.974516999999990
 20
-166.779878000000000
 40
0.500000000000000
 50
270.000000000000000
 51
0.000000000000000
  0
ARC
  8
0
  6
DASHED
 62
256
 10
406.974516999999990
 20
233.720122000000000
 40
400.000000000000000
 50
268.568016000000060
 51
269.928470000000000
  0
ARC
  8
0
  6
DASHED
 62
256
 10
405.974516999999990
 20
-166.779878000000000
 40
0.500000000000000
 50
0.000000000000000
 51
90.000000000000000
  0
ARC
  8
0
  6
DASHED
 62
256
 10
406.974516999999990
 20
-166.779878000000000
 40
0.500000000000000
 50
180.000000000000000
 51
270.000000000000000
  0
ARC
  8
0
  6
DASHED
 62
256
 10
373.974516999999990
 20
-133.279878000000000
 40
0.500000000000000
 50
180.000000000000000
 51
270.000000000000000
  0
ARC
  8
0
  6
DASHED
 62
256
 10
373.974516999999990
 20
-134.279878000000000
 40
0.500000000000000
 50
0.000000000000000
 51
90.000000000000000
  0
ARC
  8
0
  6
DASHED
 62
256
 10
774.474516999999990
 20
-93.779877999999997
 40
400.000000000000000
 50
178.568016000000000
 51
179.928470000000000
  0
ARC
  8
0
  6
DASHED
 62
256
 10
373.974516999999990
 20
-94.279877999999997
 40
0.500000000000000
 50
90.000000000000000
 51
180.000000000000000
  0
ARC
  8
0
  6
DASHED
 62
256
 10
373.974516999999990
 20
-93.279877999999997
 40
0.500000000000000
 50
270.000000000000000
 51
0.000000000000000
  0
ARC
  8
0
  6
DASHED
 62
256
 10
399.474516999999990
 20
-86.279877999999997
 40
25.000000000000000
 50
86.561350000000019
 51
174.269825000000000
  0
ARC
  8
0
  6
DASHED
 62
256
 10
406.974516999999990
 20
-461.279878000000000
 40
400.000000000000000
 50
90.071529999999996
 51
90.859540999999993
  0
ARC
  8
0
  6
DASHED
 62
256
 10
405.974516999999990
 20
-60.779877999999997
 40
0.500000000000000
 50
270.000000000000000
 51
0.000000000000000
  0
ARC
  8
0
  6
DASHED
 62
256
 10
406.974516999999990
 20
-60.779877999999997
 40
0.500000000000000
 50
90.000000000000000
 51
180.000000000000000
  0
INSERT
  8
0
  2
ZU_SYM_1
 10
-124.176357999999990
 20
-178.297333000000010
  0
INSERT
  8
0
  2
ZU_SYM_2
 10
-19.176358000000000
 20
-178.297333000000010
  0
LINE
  8
0
  6
CONTINUOUS
 62
256
 10
-129.685160999999990
 20
-38.797333000000002
 11
-142.676357999999990
 21
-38.797333000000002
  0
ARC
  8
0
  6
CONTINUOUS
 62
256
 10
-20.890302999999999
 20
-60.702280000000002
 40
3.000000000000000
 50
31.420365999999976
 51
83.651415000000000
  0
ARC
  8
0
  6
CONTINUOUS
 62
256
 10
-4.676358000000000
 20
-50.797333000000002
 40
16.000000000000000
 50
211.420366000000000
 51
256.164776000000020
  0
ARC
  8
0
  6
CONTINUOUS
 62
256
 10
-10.176358000000000
 20
-73.130043999999998
 40
10.000000000000000
 50
0.000000000000000
 51
76.164776000000003
  0
ARC
  8
0
  6
CONTINUOUS
 62
256
 10
-10.176358000000000
 20
-73.130043999999998
 40
7.000000000000000
 50
0.000000000000000
 51
76.164775999999989
  0
LINE
  8
0
  6
CONTINUOUS
 62
256
 10
-0.176358000000000
 20
-150.464621999999990
 11
-0.176358000000000
 21
-73.130043999999998
  0
LINE
  8
0
  6
CONTINUOUS
 62
256
 10
-3.176358000000000
 20
-150.464621999999990
 11
-3.176358000000000
 21
-73.130043999999998
  0
ARC
  8
0
  6
CONTINUOUS
 62
256
 10
-10.176358000000000
 20
-150.464621999999990
 40
10.000000000000005
 50
283.835223999999980
 51
0.000000000000000
  0
ARC
  8
0
  6
CONTINUOUS
 62
256
 10
-10.176358000000000
 20
-150.464621999999990
 40
7.000000000000010
 50
283.835223999999930
 51
0.000000000000000
  0
ARC
  8
0
  6
CONTINUOUS
 62
256
 10
-4.676358000000000
 20
-172.797333000000010
 40
15.999999999999998
 50
103.835224000000000
 51
148.579634000000030
  0
ARC
  8
0
  6
CONTINUOUS
 62
256
 10
-138.676357999999990
 20
-172.797333000000010
 40
16.000000000000004
 50
31.420365999999976
 51
76.164775999999975
  0
ARC
  8
0
  6
CONTINUOUS
 62
256
 10
-133.176357999999990
 20
-150.464621999999990
 40
10.000000000000000
 50
180.000000000000000
 51
256.164775999999960
  0
ARC
  8
0
  6
CONTINUOUS
 62
256
 10
-133.176357999999990
 20
-150.464621999999990
 40
7.000000000000000
 50
180.000000000000000
 51
256.164776000000020
  0
ARC
  8
0
  6
CONTINUOUS
 62
256
 10
-133.176357999999990
 20
-73.130043999999998
 40
10.000000000000002
 50
103.835224000000080
 51
180.000000000000000
  0
LINE
  8
0
  6
CONTINUOUS
 62
256
 10
-143.176357999999990
 20
-73.130043999999998
 11
-143.176357999999990
 21
-150.464621999999990
  0
ARC
  8
0
  6
CONTINUOUS
 62
256
 10
-133.176357999999990
 20
-73.130043999999998
 40
6.999999999999996
 50
103.835224000000010
 51
180.000000000000000
  0
LINE
  8
0
  6
CONTINUOUS
 62
256
 10
-140.176357999999990
 20
-73.130043999999998
 11
-140.176357999999990
 21
-150.464621999999990
  0
ARC
  8
0
  6
CONTINUOUS
 62
256
 10
-122.462412000000000
 20
-60.702280000000002
 40
3.000000000000002
 50
96.348585000000014
 51
148.579634000000030
  0
ARC
  8
0
  6
CONTINUOUS
 62
256
 10
-138.676357999999990
 20
-50.797333000000002
 40
16.000000000000007
 50
283.835223999999980
 51
328.579634000000000
  0
ARC
  8
0
  6
CONTINUOUS
 62
256
 10
-110.347041000000000
 20
-52.297333000000002
 40
6.000000000000000
 50
90.000000000000000
 51
153.152786999999990
  0
ARC
  8
0
  6
CONTINUOUS
 62
256
 10
-110.347041000000000
 20
-52.297333000000002
 40
3.000000000000000
 50
90.000000000000000
 51
153.152787000000070
  0
ARC
  8
0
  6
CONTINUOUS
 62
256
 10
-124.176357999999990
 20
-45.297333000000002
 40
12.499999999999998
 50
276.348585000000010
 51
333.152786999999990
  0
LINE
  8
0
  6
CONTINUOUS
 62
256
 10
-150.676357999999990
 20
-46.797333000000002
 11
-150.676357999999990
 21
-176.797333000000010
  0
ARC
  8
0
  6
CONTINUOUS
 62
256
 10
-142.676357999999990
 20
-46.797333000000002
 40
8.000000000000000
 50
90.000000000000000
 51
180.000000000000000
  0
LINE
  8
0
  6
CONTINUOUS
 62
256
 10
-0.676358000000000
 20
-38.797333000000002
 11
-13.667554000000001
 21
-38.797333000000002
  0
ARC
  8
0
  6
CONTINUOUS
 62
256
 10
-0.676358000000000
 20
-46.797333000000002
 40
8.000000000000000
 50
0.000000000000000
 51
90.000000000000000
  0
LINE
  8
0
  6
CONTINUOUS
 62
256
 10
7.323642000000000
 20
-176.797333000000010
 11
7.323642000000000
 21
-46.797333000000002
  0
CIRCLE
  8
0
  6
CONTINUOUS
 62
256
 10
-124.176357999999990
 20
-45.297333000000002
 40
5.500000000000000
  0
CIRCLE
  8
0
  6
CONTINUOUS
 62
256
 10
-19.176358000000000
 20
-45.297333000000002
 40
5.500000000000000
  0
LINE
  8
0
  6
CONTINUOUS
 62
256
 10
-13.667554000000001
 20
-184.797333000000010
 11
-0.676358000000000
 21
-184.797333000000010
  0
LINE
  8
0
  6
CONTINUOUS
 62
256
 10
-118.667554000000000
 20
-184.797333000000010
 11
-24.685161000000001
 21
-184.797333000000010
  0
ARC
  8
0
  6
CONTINUOUS
 62
256
 10
-20.890302999999999
 20
-162.892385999999990
 40
2.999999999999989
 50
276.348585000000010
 51
328.579633999999830
  0
ARC
  8
0
  6
CONTINUOUS
 62
256
 10
-33.005673999999999
 20
-171.297333000000010
 40
6.000000000000000
 50
270.000000000000000
 51
333.152786999999880
  0
ARC
  8
0
  6
CONTINUOUS
 62
256
 10
-33.005673999999999
 20
-171.297333000000010
 40
3.000000000000000
 50
270.000000000000000
 51
333.152787000000100
  0
ARC
  8
0
  6
CONTINUOUS
 62
256
 10
-19.176358000000000
 20
-178.297333000000010
 40
12.500000000000012
 50
96.348584999999986
 51
153.152786999999930
  0
LINE
  8
0
  6
CONTINUOUS
 62
256
 10
-110.347041000000000
 20
-177.297333000000010
 11
-33.005673999999999
 21
-177.297333000000010
  0
ARC
  8
0
  6
CONTINUOUS
 62
256
 10
-110.347041000000000
 20
-171.297333000000010
 40
6.000000000000005
 50
206.847213000000100
 51
270.000000000000000
  0
ARC
  8
0
  6
CONTINUOUS
 62
256
 10
-110.347041000000000
 20
-171.297333000000010
 40
3.000000000000002
 50
206.847212999999810
 51
270.000000000000000
  0
LINE
  8
0
  6
CONTINUOUS
 62
256
 10
-110.347041000000000
 20
-174.297333000000010
 11
-33.005673999999999
 21
-174.297333000000010
  0
ARC
  8
0
  6
CONTINUOUS
 62
256
 10
-122.462412000000000
 20
-162.892385999999990
 40
3.000000000000004
 50
211.420366000000090
 51
263.651414999999990
  0
ARC
  8
0
  6
CONTINUOUS
 62
256
 10
-124.176357999999990
 20
-178.297333000000010
 40
12.499999999999989
 50
26.847212999999968
 51
83.651414999999986
  0
LINE
  8
0
  6
CONTINUOUS
 62
256
 10
-142.676357999999990
 20
-184.797333000000010
 11
-129.685160999999990
 21
-184.797333000000010
  0
ARC
  8
0
  6
CONTINUOUS
 62
256
 10
-142.676357999999990
 20
-176.797333000000010
 40
8.000000000000000
 50
180.000000000000000
 51
270.000000000000000
  0
ARC
  8
0
  6
CONTINUOUS
 62
256
 10
-0.676358000000000
 20
-176.797333000000010
 40
8.000000000000000
 50
270.000000000000000
 51
0.000000000000000
  0
CIRCLE
  8
0
  6
CONTINUOUS
 62
256
 10
-19.176358000000000
 20
-178.297333000000010
 40
5.500000000000000
  0
CIRCLE
  8
0
  6
CONTINUOUS
 62
256
 10
-124.176357999999990
 20
-178.297333000000010
 40
5.500000000000000
  0
LINE
  8
0
  6
CONTINUOUS
 62
256
 10
-162.176357999999990
 20
-63.070872000000001
 11
-162.176357999999990
 21
-164.523795000000010
  0
ARC
  8
0
  6
CONTINUOUS
 62
256
 10
-165.176357999999990
 20
-63.070872000000001
 40
3.000000000000000
 50
0.000000000000000
 51
91.000000000000156
  0
ARC
  8
0
  6
CONTINUOUS
 62
256
 10
-165.176357999999990
 20
-164.523795000000010
 40
3.000000000000011
 50
268.999999999999830
 51
0.000000000000000
  0
ARC
  8
0
  6
CONTINUOUS
 62
256
 10
-165.176357999999990
 20
-152.226985000000010
 40
3.000000000000000
 50
270.000000000000000
 51
0.000000000000000
  0
ARC
  8
0
  6
CONTINUOUS
 62
256
 10
-165.176357999999990
 20
-155.297333000000010
 40
3.000000000000000
 50
270.000000000000000
 51
0.000000000000000
  0
ARC
  8
0
  6
CONTINUOUS
 62
256
 10
-165.176357999999990
 20
-75.367681000000005
 40
3.000000000000000
 50
0.000000000000000
 51
90.000000000000000
  0
ARC
  8
0
  6
CONTINUOUS
 62
256
 10
-165.176357999999990
 20
-72.297332999999995
 40
3.000000000000000
 50
0.000000000000000
 51
90.000000000000000
  0
LINE
  8
0
  6
CONTINUOUS
 62
256
 10
-172.176357999999990
 20
-158.297333000000010
 11
-165.176357999999990
 21
-158.297333000000010
  0
LINE
  8
0
  6
CONTINUOUS
 62
256
 10
-173.176357999999990
 20
-155.226985000000010
 11
-165.176357999999990
 21
-155.226985000000010
  0
LINE
  8
0
  6
CONTINUOUS
 62
256
 10
-173.176357999999990
 20
-72.367681000000005
 11
-165.176357999999990
 21
-72.367681000000005
  0
LINE
  8
0
  6
CONTINUOUS
 62
256
 10
-172.176357999999990
 20
-69.297332999999995
 11
-165.176357999999990
 21
-69.297332999999995
  0
ARC
  8
0
  6
CONTINUOUS
 62
256
 10
-177.176357999999990
 20
-165.349393999999990
 40
1.999999999999998
 50
268.999999999999830
 51
0.000000000000000
  0
LINE
  8
0
  6
CONTINUOUS
 62
256
 10
-175.176357999999990
 20
-161.297333000000010
 11
-175.176357999999990
 21
-165.349393999999990
  0
ARC
  8
0
  6
CONTINUOUS
 62
256
 10
-172.176357999999990
 20
-144.689499000000010
 40
3.000000000000000
 50
180.000000000000000
 51
270.000000000000000
  0
ARC
  8
0
  6
CONTINUOUS
 62
256
 10
-173.176357999999990
 20
-153.226985000000010
 40
2.000000000000000
 50
180.000000000000000
 51
270.000000000000000
  0
LINE
  8
0
  6
CONTINUOUS
 62
256
 10
-166.871676000000010
 20
-147.689499000000010
 11
-172.176357999999990
 21
-147.689499000000010
  0
ARC
  8
0
  6
CONTINUOUS
 62
256
 10
-172.176357999999990
 20
-161.297333000000010
 40
3.000000000000000
 50
90.000000000000000
 51
180.000000000000000
  0
LINE
  8
0
  6
CONTINUOUS
 62
256
 10
-175.176357999999990
 20
-133.797333000000010
 11
-180.176357999999990
 21
-133.797333000000010
  0
LINE
  8
0
  6
CONTINUOUS
 62
256
 10
-175.176357999999990
 20
-113.797332999999990
 11
-175.176357999999990
 21
-153.226985000000010
  0
LINE
  8
0
  6
CONTINUOUS
 62
256
 10
-175.176357999999990
 20
-93.797332999999995
 11
-180.176357999999990
 21
-93.797332999999995
  0
LINE
  8
0
  6
CONTINUOUS
 62
256
 10
-167.111346999999990
 20
-79.905167000000006
 11
-172.176357999999990
 21
-79.905167000000006
  0
ARC
  8
0
  6
CONTINUOUS
 62
256
 10
-172.176357999999990
 20
-82.905167000000006
 40
3.000000000000000
 50
90.000000000000000
 51
180.000000000000000
  0
ARC
  8
0
  6
CONTINUOUS
 62
256
 10
-173.176357999999990
 20
-74.367681000000005
 40
2.000000000000000
 50
90.000000000000000
 51
180.000000000000000
  0
LINE
  8
0
  6
CONTINUOUS
 62
256
 10
-175.176357999999990
 20
-113.797332999999990
 11
-175.176357999999990
 21
-74.367681000000005
  0
ARC
  8
0
  6
CONTINUOUS
 62
256
 10
-172.176357999999990
 20
-66.297332999999995
 40
3.000000000000000
 50
180.000000000000000
 51
270.000000000000000
  0
ARC
  8
0
  6
CONTINUOUS
 62
256
 10
-177.176357999999990
 20
-62.245272999999997
 40
2.000000000000000
 50
0.000000000000000
 51
91.000000000000156
  0
LINE
  8
0
  6
CONTINUOUS
 62
256
 10
-175.176357999999990
 20
-66.297332999999995
 11
-175.176357999999990
 21
-62.245272999999997
  0
LINE
  8
0
  6
CONTINUOUS
 62
256
 10
389.474516999999990
 20
-37.771149999999999
 11
389.474516999999990
 21
-185.788605999999990
  0
LINE
  8
0
  6
CONTINUOUS
 62
256
 10
373.474516999999990
 20
-141.297333000000010
 11
377.474516999999990
 21
-141.297333000000010
  0
LINE
  8
0
  6
CONTINUOUS
 62
256
 10
377.474516999999990
 20
-153.154220000000010
 11
377.474516999999990
 21
-38.006793999999999
  0
LINE
  8
0
  6
CONTINUOUS
 62
256
 10
475.474516999999990
 20
-153.154220000000010
 11
475.474516999999990
 21
-39.115189999999998
  0
LINE
  8
0
  6
CONTINUOUS
 62
256
 10
377.474516999999990
 20
-185.587872000000000
 11
377.474516999999990
 21
-153.154220000000010
  0
LINE
  8
0
  6
CONTINUOUS
 62
256
 10
373.474516999999990
 20
-56.297333000000002
 11
373.474516999999990
 21
-141.297333000000010
  0
LINE
  8
0
  6
CONTINUOUS
 62
256
 10
475.474516999999990
 20
-184.444566000000010
 11
475.474516999999990
 21
-153.154220000000010
  0
LINE
  8
0
  6
CONTINUOUS
 62
256
 10
389.474516999999990
 20
-185.788605999999990
 11
465.474516999999990
 21
-184.444566000000010
  0
LINE
  8
0
  6
CONTINUOUS
 62
256
 10
465.474516999999990
 20
-184.444566000000010
 11
475.474516999999990
 21
-184.444566000000010
  0
LINE
  8
0
  6
CONTINUOUS
 62
256
 10
465.474516999999990
 20
-39.115189999999998
 11
475.474516999999990
 21
-39.115189999999998
  0
LINE
  8
0
  6
CONTINUOUS
 62
256
 10
377.474516999999990
 20
-38.006793999999999
 11
389.474516999999990
 21
-37.797333000000002
  0
LINE
  8
0
  6
CONTINUOUS
 62
256
 10
389.474516999999990
 20
-37.771149999999999
 11
465.474516999999990
 21
-39.115189999999998
  0
LINE
  8
0
  6
CONTINUOUS
 62
256
 10
373.474516999999990
 20
-56.297333000000002
 11
377.474516999999990
 21
-56.297333000000002
  0
LINE
  8
0
  6
CONTINUOUS
 62
256
 10
389.474516999999990
 20
-185.797333000000010
 11
377.474516999999990
 21
-185.587872000000000
  0
LINE
  8
0
  6
CONTINUOUS
 62
256
 10
479.474516999999990
 20
-141.297333000000010
 11
479.474516999999990
 21
-56.297333000000002
  0
LINE
  8
0
  6
CONTINUOUS
 62
256
 10
475.474516999999990
 20
-56.297333000000002
 11
479.474516999999990
 21
-56.297333000000002
  0
LINE
  8
0
  6
CONTINUOUS
 62
256
 10
475.474516999999990
 20
-141.297333000000010
 11
479.474516999999990
 21
-141.297333000000010
  0
LINE
  8
0
  6
CONTINUOUS
 62
256
 10
-14.167477999999999
 20
-38.306058999999998
 11
-14.176358000000000
 21
-37.797333000000002
  0
ARC
  8
0
  6
CONTINUOUS
 62
256
 10
-13.667554000000001
 20
-38.297333000000002
 40
0.499999999999999
 50
181.000000000000140
 51
270.000000000000000
  0
LINE
  8
0
  6
CONTINUOUS
 62
256
 10
-24.185237999999998
 20
-38.306058999999998
 11
-24.176358000000000
 21
-37.797333000000002
  0
ARC
  8
0
  6
CONTINUOUS
 62
256
 10
-24.685161000000001
 20
-38.297333000000002
 40
0.500000000000000
 50
270.000000000000000
 51
358.999999999999830
  0
ARC
  8
0
  6
CONTINUOUS
 62
256
 10
-118.667554000000000
 20
-38.297333000000002
 40
0.500000000000007
 50
181.000000000000110
 51
270.000000000000000
  0
LINE
  8
0
  6
CONTINUOUS
 62
256
 10
-119.167478000000000
 20
-38.306058999999998
 11
-119.176357999999990
 21
-37.797333000000002
  0
ARC
  8
0
  6
CONTINUOUS
 62
256
 10
-129.685160999999990
 20
-38.297333000000002
 40
0.500000000000000
 50
270.000000000000000
 51
358.999999999999830
  0
LINE
  8
0
  6
CONTINUOUS
 62
256
 10
-129.185238000000000
 20
-38.306058999999998
 11
-129.176357999999990
 21
-37.797333000000002
  0
LINE
  8
0
  6
CONTINUOUS
 62
256
 10
-129.185238000000000
 20
-185.288607000000010
 11
-129.176357999999990
 21
-185.797333000000010
  0
ARC
  8
0
  6
CONTINUOUS
 62
256
 10
-129.685160999999990
 20
-185.297333000000010
 40
0.500000000000006
 50
0.999999999998505
 51
90.000000000000000
  0
LINE
  8
0
  6
CONTINUOUS
 62
256
 10
-119.167478000000000
 20
-185.288607000000010
 11
-119.176357999999990
 21
-185.797333000000010
  0
ARC
  8
0
  6
CONTINUOUS
 62
256
 10
-118.667554000000000
 20
-185.297333000000010
 40
0.500000000000000
 50
90.000000000000000
 51
179.000000000001510
  0
LINE
  8
0
  6
CONTINUOUS
 62
256
 10
-14.167477999999999
 20
-185.288607000000010
 11
-14.176358000000000
 21
-185.797333000000010
  0
ARC
  8
0
  6
CONTINUOUS
 62
256
 10
-13.667554000000001
 20
-185.297333000000010
 40
0.500000000000000
 50
90.000000000000000
 51
179.000000000001480
  0
LINE
  8
0
  6
CONTINUOUS
 62
256
 10
-24.185237999999998
 20
-185.288607000000010
 11
-24.176358000000000
 21
-185.797333000000010
  0
ARC
  8
0
  6
CONTINUOUS
 62
256
 10
-24.685161000000001
 20
-185.297333000000010
 40
0.499999999999999
 50
0.999999999998520
 51
90.000000000000000
  0
LINE
  8
0
  6
DASHED
 62
256
 10
-150.676312000000000
 20
-113.797332999999990
 11
-150.676312000000000
 21
-101.197333000000000
  0
LINE
  8
0
  6
DASHED
 62
256
 10
-150.676312000000000
 20
-113.797332999999990
 11
-150.676312000000000
 21
-126.397333000000000
  0
LINE
  8
0
  6
CONTINUOUS
 62
256
 10
-180.176357999999990
 20
-113.797332999999990
 11
-180.176357999999990
 21
-167.297333000000010
  0
LINE
  8
0
  6
CONTINUOUS
 62
256
 10
-180.176357999999990
 20
-113.797332999999990
 11
-180.176357999999990
 21
-60.297333000000002
  0
INSERT
  8
0
  2
ZU_SYM_3
 10
-124.176357999999990
 20
-45.297333000000002
  0
INSERT
  8
0
  2
ZU_SYM_4
 10
-19.176358000000000
 20
-45.297333000000002
  0
ARC
  8
0
  6
DASHED
 62
256
 10
774.474516999999990
 20
-133.779878000000000
 40
400.000000000000000
 50
180.071529999999970
 51
181.150993999999970
  0
LINE
  8
0
  6
CONTINUOUS
 62
256
 10
373.474516999999990
 20
-76.797332999999995
 11
370.474516999999990
 21
-76.797332999999995
  0
ARC
  8
0
  6
CONTINUOUS
 62
256
 10
370.474516999999990
 20
-77.797332999999995
 40
1.000000000000000
 50
90.000000000000000
 51
180.000000000000000
  0
LINE
  8
0
  6
CONTINUOUS
 62
256
 10
369.474516999999990
 20
-77.797332999999995
 11
369.474516999999990
 21
-98.797332999999995
  0
LINE
  8
0
  6
CONTINUOUS
 62
256
 10
373.474516999999990
 20
-120.797332999999990
 11
370.474516999999990
 21
-120.797332999999990
  0
ARC
  8
0
  6
CONTINUOUS
 62
256
 10
370.474516999999990
 20
-119.797332999999990
 40
1.000000000000000
 50
180.000000000000000
 51
270.000000000000000
  0
LINE
  8
0
  6
CONTINUOUS
 62
256
 10
369.474516999999990
 20
-119.797332999999990
 11
369.474516999999990
 21
-98.797332999999995
  0
LINE
  8
0
  6
CONTINUOUS
 62
256
 10
479.474516999999990
 20
-76.797332999999995
 11
482.474516999999990
 21
-76.797332999999995
  0
ARC
  8
0
  6
CONTINUOUS
 62
256
 10
482.474516999999990
 20
-77.797332999999995
 40
1.000000000000000
 50
0.000000000000000
 51
90.000000000000000
  0
LINE
  8
0
  6
CONTINUOUS
 62
256
 10
483.474516999999990
 20
-77.797332999999995
 11
483.474516999999990
 21
-98.797332999999995
  0
LINE
  8
0
  6
CONTINUOUS
 62
256
 10
479.474516999999990
 20
-120.797332999999990
 11
482.474516999999990
 21
-120.797332999999990
  0
ARC
  8
0
  6
CONTINUOUS
 62
256
 10
482.474516999999990
 20
-119.797332999999990
 40
1.000000000000000
 50
270.000000000000000
 51
0.000000000000000
  0
LINE
  8
0
  6
CONTINUOUS
 62
256
 10
483.474516999999990
 20
-119.797332999999990
 11
483.474516999999990
 21
-98.797332999999995
  0
LINE
  8
0
  6
DASHDOT
 62
256
 10
314.664712000000010
 20
-98.797332999999995
 11
263.597468999999990
 21
-98.797332999999995
  0
LINE
  8
0
  6
CONTINUOUS
 62
256
 10
-180.176357999999990
 20
-113.779878000000000
 11
-180.176357999999990
 21
-61.279877999999997
  0
LINE
  8
0
  6
CONTINUOUS
 62
256
 10
-180.176357999999990
 20
-113.779878000000000
 11
-180.176357999999990
 21
-166.279878000000000
  0
LINE
  8
0
  6
DASHDOT
 62
256
 10
364.750788000000000
 20
-98.797332999999995
 11
489.968746000000010
 21
-98.797332999999995
  0
LINE
  8
0
  6
DASHDOT
 62
256
 10
426.474516999999990
 20
-35.556846000000000
 11
426.474516999999990
 21
-205.569270999999990
  0
LINE
  8
0
  6
CONTINUOUS
 62
256
 10
-314.176357999999990
 20
-65.936257999999995
 11
-314.176357999999990
 21
-113.779878000000000
  0
LINE
  8
0
  6
CONTINUOUS
 62
256
 10
-305.496876999999980
 20
-58.505346000000003
 11
-313.067656000000000
 21
-63.806463000000001
  0
ARC
  8
0
  6
CONTINUOUS
 62
256
 10
-311.576358000000030
 20
-65.936257999999995
 40
2.600000000000001
 50
125.000000000000110
 51
180.000000000000000
  0
ARC
  8
0
  6
CONTINUOUS
 62
256
 10
-293.681202999999980
 20
-75.379878000000005
 40
20.600000000000001
 50
90.000000000000000
 51
124.999999999999990
  0
LINE
  8
0
  6
CONTINUOUS
 62
256
 10
-314.176357999999990
 20
-161.623498000000010
 11
-314.176357999999990
 21
-113.779878000000000
  0
LINE
  8
0
  6
CONTINUOUS
 62
256
 10
-305.496876999999980
 20
-169.054409999999990
 11
-313.067656000000000
 21
-163.753293000000010
  0
ARC
  8
0
  6
CONTINUOUS
 62
256
 10
-311.576358000000030
 20
-161.623498000000010
 40
2.600000000000023
 50
180.000000000000000
 51
234.999999999999770
  0
ARC
  8
0
  6
CONTINUOUS
 62
256
 10
-293.681202999999980
 20
-152.179878000000000
 40
20.599999999999991
 50
235.000000000000000
 51
270.000000000000000
  0
LINE
  8
0
  6
DASHDOT
 62
256
 10
-138.006745000000000
 20
-113.779878000000000
 11
-321.149633999999990
 21
-113.779878000000000
  0
LINE
  8
0
  6
CONTINUOUS
 62
256
 10
-264.176357999999990
 20
-54.779877999999997
 11
-293.681202999999980
 21
-54.779877999999997
  0
LINE
  8
0
  6
CONTINUOUS
 62
256
 10
-274.176357999999990
 20
-172.779878000000000
 11
-293.681202999999980
 21
-172.779878000000000
  0
LINE
  8
0
  6
CONTINUOUS
 62
256
 10
-272.176357999999990
 20
-171.279878000000000
 11
-272.176357999999990
 21
-168.291147000000000
  0
LINE
  8
0
  6
CONTINUOUS
 62
256
 10
-197.176357999999990
 20
-166.279878000000000
 11
-264.409826000000010
 21
-166.279878000000000
  0
LINE
  8
0
  6
CONTINUOUS
 62
256
 10
-264.176357999999990
 20
-164.779878000000000
 11
-180.176357999999990
 21
-164.779878000000000
  0
LINE
  8
0
  6
CONTINUOUS
 62
256
 10
-264.176357999999990
 20
-164.279878000000000
 11
-180.176357999999990
 21
-164.279878000000000
  0
LINE
  8
0
  6
CONTINUOUS
 62
256
 10
-264.176357999999990
 20
-159.912961000000000
 11
-180.176357999999990
 21
-159.912961000000000
  0
LINE
  8
0
  6
CONTINUOUS
 62
256
 10
-264.176357999999990
 20
-154.821791999999990
 11
-180.176357999999990
 21
-154.821791999999990
  0
LINE
  8
0
  6
CONTINUOUS
 62
256
 10
-264.176357999999990
 20
-145.494269000000000
 11
-180.176357999999990
 21
-145.494269000000000
  0
LINE
  8
0
  6
CONTINUOUS
 62
256
 10
-264.176357999999990
 20
-147.083479000000010
 11
-180.176357999999990
 21
-147.083479000000010
  0
LINE
  8
0
  6
CONTINUOUS
 62
256
 10
-264.176357999999990
 20
-142.536273999999990
 11
-180.176357999999990
 21
-142.536273999999990
  0
LINE
  8
0
  6
CONTINUOUS
 62
256
 10
-264.176357999999990
 20
-141.057250000000010
 11
-180.176357999999990
 21
-141.057250000000010
  0
LINE
  8
0
  6
CONTINUOUS
 62
256
 10
-264.176357999999990
 20
-137.964519000000000
 11
-180.176357999999990
 21
-137.964519000000000
  0
LINE
  8
0
  6
CONTINUOUS
 62
256
 10
-264.176357999999990
 20
-136.618118000000010
 11
-180.176357999999990
 21
-136.618118000000010
  0
LINE
  8
0
  6
CONTINUOUS
 62
256
 10
-264.176357999999990
 20
-133.407913000000010
 11
-180.176357999999990
 21
-133.407913000000010
  0
LINE
  8
0
  6
CONTINUOUS
 62
256
 10
-264.176357999999990
 20
-132.165992999999990
 11
-180.176357999999990
 21
-132.165992999999990
  0
LINE
  8
0
  6
CONTINUOUS
 62
256
 10
-264.176357999999990
 20
-127.779878000000000
 11
-180.176357999999990
 21
-127.779878000000000
  0
LINE
  8
0
  6
CONTINUOUS
 62
256
 10
-264.176357999999990
 20
-99.779877999999997
 11
-180.176357999999990
 21
-99.779877999999997
  0
LINE
  8
0
  6
CONTINUOUS
 62
256
 10
-264.176357999999990
 20
-95.393763000000007
 11
-180.176357999999990
 21
-95.393763000000007
  0
LINE
  8
0
  6
CONTINUOUS
 62
256
 10
-264.176357999999990
 20
-94.151843000000000
 11
-180.176357999999990
 21
-94.151843000000000
  0
LINE
  8
0
  6
CONTINUOUS
 62
256
 10
-264.176357999999990
 20
-90.941637999999998
 11
-180.176357999999990
 21
-90.941637999999998
  0
LINE
  8
0
  6
CONTINUOUS
 62
256
 10
-264.176357999999990
 20
-89.595236999999997
 11
-180.176357999999990
 21
-89.595236999999997
  0
LINE
  8
0
  6
CONTINUOUS
 62
256
 10
-264.176357999999990
 20
-86.502505999999997
 11
-180.176357999999990
 21
-86.502505999999997
  0
LINE
  8
0
  6
CONTINUOUS
 62
256
 10
-264.176357999999990
 20
-85.023482000000001
 11
-180.176357999999990
 21
-85.023482000000001
  0
LINE
  8
0
  6
CONTINUOUS
 62
256
 10
-264.176357999999990
 20
-82.065487000000005
 11
-180.176357999999990
 21
-82.065487000000005
  0
LINE
  8
0
  6
CONTINUOUS
 62
256
 10
-264.176357999999990
 20
-80.476276999999996
 11
-180.176357999999990
 21
-80.476276999999996
  0
LINE
  8
0
  6
CONTINUOUS
 62
256
 10
-264.176357999999990
 20
-72.737964000000005
 11
-180.176357999999990
 21
-72.737964000000005
  0
LINE
  8
0
  6
CONTINUOUS
 62
256
 10
-264.176357999999990
 20
-67.646794999999997
 11
-180.176357999999990
 21
-67.646794999999997
  0
LINE
  8
0
  6
CONTINUOUS
 62
256
 10
-264.176357999999990
 20
-63.279877999999997
 11
-180.176357999999990
 21
-63.279877999999997
  0
LINE
  8
0
  6
CONTINUOUS
 62
256
 10
-264.176357999999990
 20
-62.779877999999997
 11
-180.176357999999990
 21
-62.779877999999997
  0
LINE
  8
0
  6
CONTINUOUS
 62
256
 10
-180.176357999999990
 20
-60.279877999999997
 11
-264.176357999999990
 21
-60.279877999999997
  0
LINE
  8
0
  6
CONTINUOUS
 62
256
 10
-275.176357999999990
 20
-64.635957000000005
 11
-277.176357999999990
 21
-66.288599000000005
  0
LINE
  8
0
  6
CONTINUOUS
 62
256
 10
-273.176357999999990
 20
-63.460171000000003
 11
-275.176357999999990
 21
-64.635957000000005
  0
LINE
  8
0
  6
CONTINUOUS
 62
256
 10
-275.176357999999990
 20
-64.635957000000005
 11
-273.176357999999990
 21
-66.288599000000005
  0
LINE
  8
0
  6
CONTINUOUS
 62
256
 10
-277.176357999999990
 20
-63.460171000000003
 11
-275.176357999999990
 21
-64.635957000000005
  0
POLYLINE
  8
0
  6
CONTINUOUS
 62
256
 66
1
 70
1
  0
VERTEX
  8
0
  6
CONTINUOUS
 62
256
 10
-270.476358000000000
 20
-66.452546999999996
  0
VERTEX
  8
0
  6
CONTINUOUS
 62
256
 10
-270.566667182104820
 20
-65.749590489441829
  0
VERTEX
  8
0
  6
CONTINUOUS
 62
256
 10
-270.834124197196960
 20
-65.073648203361856
  0
VERTEX
  8
0
  6
CONTINUOUS
 62
256
 10
-271.268450822178070
 20
-64.450696224741336
  0
VERTEX
  8
0
  6
CONTINUOUS
 62
256
 10
-271.852956128423220
 20
-63.904674248763158
  0
VERTEX
  8
0
  6
CONTINUOUS
 62
256
 10
-272.565177904807850
 20
-63.456565593751506
  0
VERTEX
  8
0
  6
CONTINUOUS
 62
256
 10
-273.377745867884070
 20
-63.123590824016262
  0
VERTEX
  8
0
  6
CONTINUOUS
 62
256
 10
-274.259433486524190
 20
-62.918545973223935
  0
VERTEX
  8
0
  6
CONTINUOUS
 62
256
 10
-275.176357999999990
 20
-62.849310800000005
  0
VERTEX
  8
0
  6
CONTINUOUS
 62
256
 10
-276.093282513475800
 20
-62.918545973223935
  0
VERTEX
  8
0
  6
CONTINUOUS
 62
256
 10
-276.974970132115910
 20
-63.123590824016262
  0
VERTEX
  8
0
  6
CONTINUOUS
 62
256
 10
-277.787538095192130
 20
-63.456565593751506
  0
VERTEX
  8
0
  6
CONTINUOUS
 62
256
 10
-278.499759871576770
 20
-63.904674248763158
  0
VERTEX
  8
0
  6
CONTINUOUS
 62
256
 10
-279.084265177821920
 20
-64.450696224741336
  0
VERTEX
  8
0
  6
CONTINUOUS
 62
256
 10
-279.518591802803030
 20
-65.073648203361856
  0
VERTEX
  8
0
  6
CONTINUOUS
 62
256
 10
-279.786048817895160
 20
-65.749590489441829
  0
VERTEX
  8
0
  6
CONTINUOUS
 62
256
 10
-279.876357999999980
 20
-66.452546999999996
  0
VERTEX
  8
0
  6
CONTINUOUS
 62
256
 10
-279.786048817895160
 20
-67.155503510558162
  0
VERTEX
  8
0
  6
CONTINUOUS
 62
256
 10
-279.518591802803030
 20
-67.831445796638135
  0
VERTEX
  8
0
  6
CONTINUOUS
 62
256
 10
-279.084265177821920
 20
-68.454397775258656
  0
VERTEX
  8
0
  6
CONTINUOUS
 62
256
 10
-278.499759871576770
 20
-69.000419751236834
  0
VERTEX
  8
0
  6
CONTINUOUS
 62
256
 10
-277.787538095192130
 20
-69.448528406248485
  0
VERTEX
  8
0
  6
CONTINUOUS
 62
256
 10
-276.974970132115910
 20
-69.781503175983730
  0
VERTEX
  8
0
  6
CONTINUOUS
 62
256
 10
-276.093282513475800
 20
-69.986548026776049
  0
VERTEX
  8
0
  6
CONTINUOUS
 62
256
 10
-275.176357999999990
 20
-70.055783199999979
  0
VERTEX
  8
0
  6
CONTINUOUS
 62
256
 10
-274.259433486524190
 20
-69.986548026776049
  0
VERTEX
  8
0
  6
CONTINUOUS
 62
256
 10
-273.377745867884070
 20
-69.781503175983730
  0
VERTEX
  8
0
  6
CONTINUOUS
 62
256
 10
-272.565177904807850
 20
-69.448528406248485
  0
VERTEX
  8
0
  6
CONTINUOUS
 62
256
 10
-271.852956128423220
 20
-69.000419751236834
  0
VERTEX
  8
0
  6
CONTINUOUS
 62
256
 10
-271.268450822178070
 20
-68.454397775258656
  0
VERTEX
  8
0
  6
CONTINUOUS
 62
256
 10
-270.834124197196960
 20
-67.831445796638135
  0
VERTEX
  8
0
  6
CONTINUOUS
 62
256
 10
-270.566667182104820
 20
-67.155503510558162
  0
SEQEND
  8
0
  6
CONTINUOUS
 62
256
  0
LINE
  8
0
  6
CONTINUOUS
 62
256
 10
-264.176357999999990
 20
-54.779877999999997
 11
-264.176357999999990
 21
-113.779878000000000
  0
LINE
  8
0
  6
CONTINUOUS
 62
256
 10
-274.176357999999990
 20
-172.779878000000000
 11
-274.176357999999990
 21
-171.119574000000000
  0
ARC
  8
0
  6
CONTINUOUS
 62
256
 10
-271.176357999999990
 20
-171.119574000000000
 40
3.000000000000000
 50
90.000000000000000
 51
180.000000000000000
  0
LINE
  8
0
  6
CONTINUOUS
 62
256
 10
-275.176357999999990
 20
-162.923799000000000
 11
-277.176357999999990
 21
-161.271156999999990
  0
LINE
  8
0
  6
CONTINUOUS
 62
256
 10
-273.176357999999990
 20
-164.099583999999990
 11
-275.176357999999990
 21
-162.923799000000000
  0
LINE
  8
0
  6
CONTINUOUS
 62
256
 10
-275.176357999999990
 20
-162.923799000000000
 11
-273.176357999999990
 21
-161.271156999999990
  0
LINE
  8
0
  6
CONTINUOUS
 62
256
 10
-277.176357999999990
 20
-164.099583999999990
 11
-275.176357999999990
 21
-162.923799000000000
  0
POLYLINE
  8
0
  6
CONTINUOUS
 62
256
 66
1
 70
1
  0
VERTEX
  8
0
  6
CONTINUOUS
 62
256
 10
-270.476358000000000
 20
-161.107209000000010
  0
VERTEX
  8
0
  6
CONTINUOUS
 62
256
 10
-270.566667182104820
 20
-160.404252489441830
  0
VERTEX
  8
0
  6
CONTINUOUS
 62
256
 10
-270.834124197196960
 20
-159.728310203361870
  0
VERTEX
  8
0
  6
CONTINUOUS
 62
256
 10
-271.268450822178070
 20
-159.105358224741340
  0
VERTEX
  8
0
  6
CONTINUOUS
 62
256
 10
-271.852956128423220
 20
-158.559336248763170
  0
VERTEX
  8
0
  6
CONTINUOUS
 62
256
 10
-272.565177904807850
 20
-158.111227593751520
  0
VERTEX
  8
0
  6
CONTINUOUS
 62
256
 10
-273.377745867884070
 20
-157.778252824016280
  0
VERTEX
  8
0
  6
CONTINUOUS
 62
256
 10
-274.259433486524190
 20
-157.573207973223930
  0
VERTEX
  8
0
  6
CONTINUOUS
 62
256
 10
-275.176357999999990
 20
-157.503972800000010
  0
VERTEX
  8
0
  6
CONTINUOUS
 62
256
 10
-276.093282513475800
 20
-157.573207973223930
  0
VERTEX
  8
0
  6
CONTINUOUS
 62
256
 10
-276.974970132115910
 20
-157.778252824016280
  0
VERTEX
  8
0
  6
CONTINUOUS
 62
256
 10
-277.787538095192130
 20
-158.111227593751520
  0
VERTEX
  8
0
  6
CONTINUOUS
 62
256
 10
-278.499759871576770
 20
-158.559336248763170
  0
VERTEX
  8
0
  6
CONTINUOUS
 62
256
 10
-279.084265177821920
 20
-159.105358224741340
  0
VERTEX
  8
0
  6
CONTINUOUS
 62
256
 10
-279.518591802803030
 20
-159.728310203361870
  0
VERTEX
  8
0
  6
CONTINUOUS
 62
256
 10
-279.786048817895160
 20
-160.404252489441830
  0
VERTEX
  8
0
  6
CONTINUOUS
 62
256
 10
-279.876357999999980
 20
-161.107209000000010
  0
VERTEX
  8
0
  6
CONTINUOUS
 62
256
 10
-279.786048817895160
 20
-161.810165510558190
  0
VERTEX
  8
0
  6
CONTINUOUS
 62
256
 10
-279.518591802803030
 20
-162.486107796638150
  0
VERTEX
  8
0
  6
CONTINUOUS
 62
256
 10
-279.084265177821920
 20
-163.109059775258690
  0
VERTEX
  8
0
  6
CONTINUOUS
 62
256
 10
-278.499759871576770
 20
-163.655081751236850
  0
VERTEX
  8
0
  6
CONTINUOUS
 62
256
 10
-277.787538095192130
 20
-164.103190406248500
  0
VERTEX
  8
0
  6
CONTINUOUS
 62
256
 10
-276.974970132115910
 20
-164.436165175983750
  0
VERTEX
  8
0
  6
CONTINUOUS
 62
256
 10
-276.093282513475800
 20
-164.641210026776060
  0
VERTEX
  8
0
  6
CONTINUOUS
 62
256
 10
-275.176357999999990
 20
-164.710445200000010
  0
VERTEX
  8
0
  6
CONTINUOUS
 62
256
 10
-274.259433486524190
 20
-164.641210026776060
  0
VERTEX
  8
0
  6
CONTINUOUS
 62
256
 10
-273.377745867884070
 20
-164.436165175983750
  0
VERTEX
  8
0
  6
CONTINUOUS
 62
256
 10
-272.565177904807850
 20
-164.103190406248500
  0
VERTEX
  8
0
  6
CONTINUOUS
 62
256
 10
-271.852956128423220
 20
-163.655081751236850
  0
VERTEX
  8
0
  6
CONTINUOUS
 62
256
 10
-271.268450822178070
 20
-163.109059775258690
  0
VERTEX
  8
0
  6
CONTINUOUS
 62
256
 10
-270.834124197196960
 20
-162.486107796638150
  0
VERTEX
  8
0
  6
CONTINUOUS
 62
256
 10
-270.566667182104820
 20
-161.810165510558190
  0
SEQEND
  8
0
  6
CONTINUOUS
 62
256
  0
LINE
  8
0
  6
CONTINUOUS
 62
256
 10
-271.176357999999990
 20
-168.119574000000000
 11
-267.176357999999990
 21
-168.119574000000000
  0
ARC
  8
0
  6
CONTINUOUS
 62
256
 10
-267.176357999999990
 20
-165.119574000000000
 40
3.000000000000000
 50
270.000000000000000
 51
0.000000000000000
  0
LINE
  8
0
  6
CONTINUOUS
 62
256
 10
-264.176357999999990
 20
-165.119574000000000
 11
-264.176357999999990
 21
-113.779878000000000
  0
LINE
  8
0
  6
CONTINUOUS
 62
256
 10
-199.176357999999990
 20
-200.779878000000000
 11
-270.176357999999990
 21
-200.779878000000000
  0
LINE
  8
0
  6
CONTINUOUS
 62
256
 10
-213.176357999999990
 20
-201.279878000000000
 11
-213.176357999999990
 21
-200.779878000000000
  0
LINE
  8
0
  6
CONTINUOUS
 62
256
 10
-213.176357999999990
 20
-201.279878000000000
 11
-205.176357999999990
 21
-201.279878000000000
  0
LINE
  8
0
  6
CONTINUOUS
 62
256
 10
-205.176357999999990
 20
-201.279878000000000
 11
-205.176357999999990
 21
-200.779878000000000
  0
LINE
  8
0
  6
CONTINUOUS
 62
256
 10
-180.176357999999990
 20
-60.279877999999997
 11
-180.176357999999990
 21
-113.779878000000000
  0
LINE
  8
0
  6
CONTINUOUS
 62
256
 10
-180.176357999999990
 20
-167.279878000000000
 11
-197.176357999999990
 21
-167.279878000000000
  0
ARC
  8
0
  6
CONTINUOUS
 62
256
 10
-199.176357999999990
 20
-199.779878000000000
 40
1.000000000000000
 50
270.000000000000000
 51
0.000000000000000
  0
ARC
  8
0
  6
CONTINUOUS
 62
256
 10
-270.176357999999990
 20
-199.779878000000000
 40
1.000000000000000
 50
180.000000000000000
 51
270.000000000000000
  0
LINE
  8
0
  6
CONTINUOUS
 62
256
 10
-271.176357999999990
 20
-199.779878000000000
 11
-271.176357999999990
 21
-171.279878000000000
  0
LINE
  8
0
  6
CONTINUOUS
 62
256
 10
-198.176357999999990
 20
-199.779878000000000
 11
-198.176357999999990
 21
-171.279878000000000
  0
LINE
  8
0
  6
CONTINUOUS
 62
256
 10
-197.176357999999990
 20
-171.279878000000000
 11
-197.176357999999990
 21
-166.279878000000000
  0
LINE
  8
0
  6
CONTINUOUS
 62
256
 10
-272.176357999999990
 20
-171.279878000000000
 11
-197.176357999999990
 21
-171.279878000000000
  0
LINE
  8
0
  6
CONTINUOUS
 62
256
 10
-180.176357999999990
 20
-167.279878000000000
 11
-180.176357999999990
 21
-113.779878000000000
  0
LINE
  8
0
  6
DASHDOT
 62
256
 10
476.920601999999970
 20
-50.797333000000002
 11
375.837387999999980
 21
-50.797333000000002
  0
LINE
  8
0
  6
DASHDOT
 62
256
 10
476.920601999999970
 20
-172.797333000000010
 11
375.837387999999980
 21
-172.797333000000010
  0
LINE
  8
0
  6
CONTINUOUS
 62
256
 10
285.378859999999970
 20
-80.497332999999998
 11
285.378859999999970
 21
-84.340501000000003
  0
LINE
  8
0
  6
CONTINUOUS
 62
256
 10
293.378859999999970
 20
-80.497332999999998
 11
285.378859999999970
 21
-80.497332999999998
  0
CIRCLE
  8
0
  6
CONTINUOUS
 62
256
 10
289.378859999999970
 20
-98.797332999999995
 40
22.000000000000000
  0
ARC
  8
0
  6
CONTINUOUS
 62
256
 10
289.378859999999970
 20
-98.797332999999995
 40
15.000000000000002
 50
105.466009999999980
 51
74.533990000000031
  0
LINE
  8
0
  6
CONTINUOUS
 62
256
 10
293.378859999999970
 20
-80.497332999999998
 11
293.378859999999970
 21
-84.340501000000003
  0
ARC
  8
0
  6
CONTINUOUS
 62
256
 10
773.074517000000010
 20
-113.779878000000000
 40
400.600000000000080
 50
181.003722000000010
 51
185.743681999999980
  0
LINE
  8
0
  6
CONTINUOUS
 62
256
 10
377.474516999999990
 20
-158.966500999999990
 11
376.385666000000010
 21
-157.877649999999990
  0
ARC
  8
0
  6
CONTINUOUS
 62
256
 10
381.052571000000000
 20
-153.210745000000000
 40
6.599999999999971
 50
185.743681999999920
 51
224.999999999999830
  0
ARC
  8
0
  6
CONTINUOUS
 62
256
 10
401.474516999999990
 20
-194.718647000000000
 40
5.000000000000000
 50
180.000000000000000
 51
265.138594999999900
  0
LINE
  8
0
  6
CONTINUOUS
 62
256
 10
396.474516999999990
 20
-185.664812000000010
 11
396.474516999999990
 21
-194.718647000000000
  0
ARC
  8
0
  6
CONTINUOUS
 62
256
 10
451.474516999999990
 20
-194.718647000000000
 40
4.999999999999989
 50
274.861405000000100
 51
0.000000000000000
  0
LINE
  8
0
  6
CONTINUOUS
 62
256
 10
456.474516999999990
 20
-184.603727999999990
 11
456.474516999999990
 21
-194.718647000000000
  0
ARC
  8
0
  6
CONTINUOUS
 62
256
 10
426.474516999999990
 20
99.220122000000003
 40
300.000000000000000
 50
265.138595000000010
 51
274.861404999999990
  0
LINE
  8
0
  6
CONTINUOUS
 62
256
 10
428.974516999999990
 20
-200.769461000000010
 11
428.974516999999990
 21
-201.279878000000000
  0
LINE
  8
0
  6
CONTINUOUS
 62
256
 10
423.974516999999990
 20
-200.769461000000010
 11
423.974516999999990
 21
-201.279878000000000
  0
LINE
  8
0
  6
CONTINUOUS
 62
256
 10
423.974516999999990
 20
-201.279878000000000
 11
428.974516999999990
 21
-201.279878000000000
  0
ARC
  8
0
  6
CONTINUOUS
 62
256
 10
471.896463999999980
 20
-153.210745000000000
 40
6.600000000000017
 50
315.000000000000170
 51
354.256318000000020
  0
LINE
  8
0
  6
CONTINUOUS
 62
256
 10
475.474516999999990
 20
-158.966500999999990
 11
476.563369000000020
 21
-157.877649999999990
  0
ARC
  8
0
  6
CONTINUOUS
 62
256
 10
79.874516999999997
 20
-113.779878000000000
 40
400.600000000000020
 50
354.256318000000020
 51
358.996278000000020
  0
ARC
  8
0
  6
CONTINUOUS
 62
256
 10
83.825652000000005
 20
-77.197273999999993
 40
0.400000000000006
 50
90.000000000000000
 51
180.000000000000000
  0
ARC
  8
0
  6
CONTINUOUS
 62
256
 10
83.825652000000005
 20
-120.397274000000000
 40
0.400000000000006
 50
180.000000000000000
 51
270.000000000000000
  0
ARC
  8
0
  6
CONTINUOUS
 62
256
 10
99.617530000000002
 20
-76.497274000000004
 40
0.200000000000003
 50
90.000000000000000
 51
170.405932000000040
  0
LINE
  8
0
  6
CONTINUOUS
 62
256
 10
112.925923999999990
 20
-76.297291000000001
 11
99.925923999999995
 21
-76.297306000000006
  0
ARC
  8
0
  6
CONTINUOUS
 62
256
 10
85.425651999999999
 20
-81.797274000000002
 40
2.000000000000000
 50
180.000000000000000
 51
270.000000000000000
  0
ARC
  8
0
  6
CONTINUOUS
 62
256
 10
83.825652000000005
 20
-77.197273999999993
 40
0.400000000000006
 50
90.000000000000000
 51
180.000000000000000
  0
LINE
  8
0
  6
CONTINUOUS
 62
256
 10
83.425651999999999
 20
-120.397274000000000
 11
83.425651999999999
 21
-77.197273999999993
  0
LINE
  8
0
  6
CONTINUOUS
 62
256
 10
99.025921999999994
 20
-76.797274000000002
 11
83.825652000000005
 21
-76.797274000000002
  0
ARC
  8
0
  6
CONTINUOUS
 62
256
 10
99.025921999999994
 20
-76.397273999999996
 40
0.400000000000006
 50
270.000000000000000
 51
350.405932000000400
  0
LINE
  8
0
  6
CONTINUOUS
 62
256
 10
103.425652000000000
 20
-83.797274000000002
 11
85.425651999999999
 21
-83.797274000000002
  0
LINE
  8
0
  6
CONTINUOUS
 62
256
 10
105.425652000000000
 20
-82.547332999999995
 11
105.425652000000000
 21
-98.797274000000002
  0
LINE
  8
0
  6
CONTINUOUS
 62
256
 10
103.425652000000000
 20
-82.547332999999995
 11
103.425652000000000
 21
-115.047332999999990
  0
LINE
  8
0
  6
CONTINUOUS
 62
256
 10
105.425652000000000
 20
-82.547332999999995
 11
103.425652000000000
 21
-82.547332999999995
  0
LINE
  8
0
  6
CONTINUOUS
 62
256
 10
99.025921999999994
 20
-120.797274000000000
 11
83.825652000000005
 21
-120.797274000000000
  0
ARC
  8
0
  6
CONTINUOUS
 62
256
 10
83.825652000000005
 20
-120.397274000000000
 40
0.400000000000006
 50
180.000000000000000
 51
270.000000000000000
  0
ARC
  8
0
  6
CONTINUOUS
 62
256
 10
85.425651999999999
 20
-115.797274000000000
 40
2.000000000000000
 50
90.000000000000000
 51
180.000000000000000
  0
LINE
  8
0
  6
CONTINUOUS
 62
256
 10
103.425652000000000
 20
-113.797274000000000
 11
85.425651999999999
 21
-113.797274000000000
  0
LINE
  8
0
  6
CONTINUOUS
 62
256
 10
105.425652000000000
 20
-115.047332999999990
 11
105.425652000000000
 21
-98.797274000000002
  0
ARC
  8
0
  6
CONTINUOUS
 62
256
 10
99.025921999999994
 20
-121.197273999999990
 40
0.400000000000005
 50
9.594067999999622
 51
90.000000000000000
  0
ARC
  8
0
  6
CONTINUOUS
 62
256
 10
99.617530000000002
 20
-121.097274000000000
 40
0.199999999999996
 50
189.594067999999960
 51
270.000000000000000
  0
LINE
  8
0
  6
CONTINUOUS
 62
256
 10
112.925978000000000
 20
-121.297275000000000
 11
99.925978000000001
 21
-121.297291000000000
  0
LINE
  8
0
  6
CONTINUOUS
 62
256
 10
105.425652000000000
 20
-115.047332999999990
 11
103.425652000000000
 21
-115.047332999999990
  0
LINE
  8
0
  6
CONTINUOUS
 62
256
 10
129.425652000000010
 20
-113.797274000000000
 11
105.425652000000000
 21
-113.797274000000000
  0
LINE
  8
0
  6
CONTINUOUS
 62
256
 10
129.425652000000010
 20
-114.097274000000000
 11
129.425652000000010
 21
-98.797274000000002
  0
LINE
  8
0
  6
CONTINUOUS
 62
256
 10
129.425652000000010
 20
-113.997274000000000
 11
151.425652000000010
 21
-113.997274000000000
  0
LINE
  8
0
  6
CONTINUOUS
 62
256
 10
130.425935000000010
 20
-123.297332999999990
 11
148.925935000000010
 21
-123.297332999999990
  0
LINE
  8
0
  6
CONTINUOUS
 62
256
 10
99.617530000000002
 20
-121.297274000000000
 11
130.025935000000000
 21
-121.297274000000000
  0
ARC
  8
0
  6
CONTINUOUS
 62
256
 10
130.025935000000000
 20
-121.697273999999990
 40
0.400000000000006
 50
0.000000000000000
 51
90.000000000000000
  0
LINE
  8
0
  6
CONTINUOUS
 62
256
 10
130.425935000000010
 20
-123.297332999999990
 11
130.425935000000010
 21
-121.697273999999990
  0
LINE
  8
0
  6
CONTINUOUS
 62
256
 10
148.925935000000010
 20
-124.197333000000000
 11
148.925935000000010
 21
-123.297332999999990
  0
LINE
  8
0
  6
CONTINUOUS
 62
256
 10
151.425652000000010
 20
-113.997274000000000
 11
151.425652000000010
 21
-98.797274000000002
  0
LINE
  8
0
  6
CONTINUOUS
 62
256
 10
129.425652000000010
 20
-83.597273999999999
 11
151.425652000000010
 21
-83.597273999999999
  0
LINE
  8
0
  6
CONTINUOUS
 62
256
 10
151.425652000000010
 20
-83.597273999999999
 11
151.425652000000010
 21
-98.797274000000002
  0
LINE
  8
0
  6
CONTINUOUS
 62
256
 10
129.425652000000010
 20
-83.797274000000002
 11
105.425652000000000
 21
-83.797274000000002
  0
LINE
  8
0
  6
CONTINUOUS
 62
256
 10
129.425652000000010
 20
-83.597273999999999
 11
129.425652000000010
 21
-98.797274000000002
  0
LINE
  8
0
  6
CONTINUOUS
 62
256
 10
99.617530000000002
 20
-76.297274000000002
 11
130.025935000000000
 21
-76.297274000000002
  0
ARC
  8
0
  6
CONTINUOUS
 62
256
 10
130.025935000000000
 20
-75.897273999999996
 40
0.400000000000006
 50
270.000000000000000
 51
0.000000000000000
  0
LINE
  8
0
  6
CONTINUOUS
 62
256
 10
83.425651999999999
 20
-80.497332999999998
 11
197.425652000000010
 21
-80.497332999999998
  0
LINE
  8
0
  6
CONTINUOUS
 62
256
 10
175.425652000000010
 20
-83.797274000000002
 11
151.425652000000010
 21
-83.797274000000002
  0
ARC
  8
0
  6
CONTINUOUS
 62
256
 10
166.825381999999990
 20
-75.897333000000003
 40
0.399999999999989
 50
179.999927000000550
 51
270.000000000000000
  0
ARC
  8
0
  6
CONTINUOUS
 62
256
 10
166.825381999999990
 20
-75.897273999999996
 40
0.399999999999989
 50
179.999927000000550
 51
270.000000000000000
  0
LINE
  8
0
  6
CONTINUOUS
 62
256
 10
166.425382000000010
 20
-75.897272999999998
 11
166.425385000000010
 21
-73.797334000000006
  0
LINE
  8
0
  6
CONTINUOUS
 62
256
 10
177.425652000000010
 20
-82.547332999999995
 11
175.425652000000010
 21
-82.547332999999995
  0
LINE
  8
0
  6
CONTINUOUS
 62
256
 10
175.425652000000010
 20
-82.547332999999995
 11
175.425652000000010
 21
-98.797274000000002
  0
LINE
  8
0
  6
CONTINUOUS
 62
256
 10
175.425652000000010
 20
-113.797274000000000
 11
151.425652000000010
 21
-113.797274000000000
  0
LINE
  8
0
  6
CONTINUOUS
 62
256
 10
175.425652000000010
 20
-115.047332999999990
 11
175.425652000000010
 21
-98.797274000000002
  0
LINE
  8
0
  6
CONTINUOUS
 62
256
 10
177.425652000000010
 20
-115.047332999999990
 11
175.425652000000010
 21
-115.047332999999990
  0
LINE
  8
0
  6
CONTINUOUS
 62
256
 10
177.425652000000010
 20
-82.547332999999995
 11
177.425652000000010
 21
-115.047332999999990
  0
LINE
  8
0
  6
CONTINUOUS
 62
256
 10
148.925935000000010
 20
-124.197333000000000
 11
166.425399000000000
 21
-124.197333000000000
  0
ARC
  8
0
  6
CONTINUOUS
 62
256
 10
166.825381999999990
 20
-121.697273999999990
 40
0.400000000000006
 50
90.000000000000000
 51
180.000072999999450
  0
LINE
  8
0
  6
CONTINUOUS
 62
256
 10
166.425382000000010
 20
-121.697273999999990
 11
166.425385000000010
 21
-124.197333000000000
  0
LINE
  8
0
  6
CONTINUOUS
 62
256
 10
166.825381999999990
 20
-121.297274000000000
 11
181.225381000000000
 21
-121.297274000000000
  0
LINE
  8
0
  6
DASHDOT
 62
256
 10
200.991188999999990
 20
-98.797332999999995
 11
79.523375000000001
 21
-98.797332999999995
  0
ARC
  8
0
  6
CONTINUOUS
 62
256
 10
181.225381000000000
 20
-121.097274000000000
 40
0.200000000000003
 50
270.000000000000000
 51
350.405932000000010
  0
ARC
  8
0
  6
CONTINUOUS
 62
256
 10
181.816989000000010
 20
-121.197273999999990
 40
0.400000000000006
 50
90.000000000000000
 51
170.405932000000040
  0
LINE
  8
0
  6
CONTINUOUS
 62
256
 10
166.825381999999990
 20
-76.297274000000002
 11
181.225381000000000
 21
-76.297274000000002
  0
ARC
  8
0
  6
CONTINUOUS
 62
256
 10
181.225381000000000
 20
-76.497274000000004
 40
0.199999999999996
 50
9.594067999999961
 51
90.000000000000000
  0
LINE
  8
0
  6
CONTINUOUS
 62
256
 10
181.816989000000010
 20
-76.797274000000002
 11
197.425652000000010
 21
-76.797274000000002
  0
ARC
  8
0
  6
CONTINUOUS
 62
256
 10
181.816989000000010
 20
-76.397273999999996
 40
0.399999999999991
 50
189.594067999999960
 51
270.000000000000000
  0
LINE
  8
0
  6
CONTINUOUS
 62
256
 10
195.425652000000010
 20
-83.797274000000002
 11
177.425652000000010
 21
-83.797274000000002
  0
ARC
  8
0
  6
CONTINUOUS
 62
256
 10
195.425652000000010
 20
-81.797274000000002
 40
2.000000000000000
 50
270.000000000000000
 51
0.000000000000000
  0
LINE
  8
0
  6
CONTINUOUS
 62
256
 10
197.425652000000010
 20
-120.397274000000000
 11
197.425652000000010
 21
-76.797274000000002
  0
LINE
  8
0
  6
CONTINUOUS
 62
256
 10
195.425652000000010
 20
-113.797274000000000
 11
177.425652000000010
 21
-113.797274000000000
  0
LINE
  8
0
  6
CONTINUOUS
 62
256
 10
181.816989000000010
 20
-120.797274000000000
 11
197.025652000000010
 21
-120.797274000000000
  0
ARC
  8
0
  6
CONTINUOUS
 62
256
 10
195.425652000000010
 20
-115.797274000000000
 40
2.000000000000000
 50
0.000000000000000
 51
90.000000000000000
  0
ARC
  8
0
  6
CONTINUOUS
 62
256
 10
197.025652000000010
 20
-120.397274000000000
 40
0.400000000000006
 50
270.000000000000000
 51
0.000000000000000
  0
LINE
  8
0
  6
CONTINUOUS
 62
256
 10
166.425382000000010
 20
-75.897391999999996
 11
166.425385000000010
 21
-73.397333000000003
  0
LINE
  8
0
  6
CONTINUOUS
 62
256
 10
148.925935000000010
 20
-73.397333000000003
 11
166.425399000000000
 21
-73.397333000000003
  0
LINE
  8
0
  6
CONTINUOUS
 62
256
 10
148.925935000000010
 20
-73.397333000000003
 11
148.925935000000010
 21
-74.297332999999995
  0
LINE
  8
0
  6
CONTINUOUS
 62
256
 10
130.425935000000010
 20
-74.297332999999995
 11
130.425935000000010
 21
-75.897392999999994
  0
LINE
  8
0
  6
CONTINUOUS
 62
256
 10
130.425935000000010
 20
-74.297332999999995
 11
148.925935000000010
 21
-74.297332999999995
  0
LINE
  8
0
  6
CONTINUOUS
 62
256
 10
-175.176357999999990
 20
138.625673000000010
 11
-180.176357999999990
 21
138.625673000000010
  0
ENDSEC
  0
EOF
