  0
SECTION
  2
HEADER
  9
$TEXTSIZE
 40
2.5
  9
$ACADVER
  1
AC1009
  9
$DIMASZ
 40
3.863703297614046
  9
$DIMEXE
 40
2.000000000000000
  9
$DIMEXO
 40
1.000000000000000
  9
$DIMLFAC
 40
1.000000000000000
  9
$DIMSCALE
 40
1.000000000000000
  9
$DIMTAD
 70
1
  9
$DIMTFAC
 40
0.625000000000000
  9
$DIMTXT
 40
3.200000047683716
  9
$LUPREC
 70
3
  9
$REGENMODE
 70
1
  9
$TEXTSTYLE
  7
STANDARD1
  0
ENDSEC
  0
SECTION
  2
TABLES
  0
TABLE
  2
LTYPE
 70
4
  0
LTYPE
  2
CONTINUOUS
 70
64
  3
Solid line
 72
65
 73
0
 40
0.0
  0
LTYPE
  2
DASHED
 70
64
  3
-- -- -- -- -- -- -- -- -- -- -- -- -- -- --
 72
65
 73
2
 40
0.75
 49
0.5
 49
-0.25
  0
LTYPE
  2
DASHDOT
 70
64
  3
__ . __ . __ . __ . __ . __ . __ . __ . __ . __
 72
65
 73
4
 40
1.0
 49
0.5
 49
-0.25
 49
0.0
 49
-0.25
  0
LTYPE
  2
DIVIDE
 70
64
  3
__ . . __ . . __ . . __ . . __ . . __ . . __
 72
65
 73
6
 40
1.25
 49
0.5
 49
-0.25
 49
0.0
 49
-0.25
 49
0.0
 49
-0.25
  0
ENDTAB
  0
TABLE
  2
LAYER
 70
3
  0
LAYER
  2
0
 70
64
 62
53
  6
CONTINUOUS
  0
LAYER
  2
1
 70
64
 62
102
  6
CONTINUOUS
  0
LAYER
  2
2
 70
64
 62
102
  6
CONTINUOUS
  0
ENDTAB
  0
TABLE
  2
STYLE
 70
4
  0
STYLE
  2
STANDARD1
 70
64
 40
0.0
 41
1.0
 50
0.0
 71
0
 42
3.200000047683716
  3
MONOTXT
  4
BIGFONT
  0
STYLE
  2
STANDARD2
 70
68
 40
0.0
 41
1.0
 50
0.0
 71
0
 42
3.200000047683716
  3
MONOTXT
  4
BIGFONT
  0
STYLE
  2
STANDARD3
 70
64
 40
0.0
 41
1.0
 50
0.0
 71
0
 42
3.200000047683716
  3
MONOTXT
  4

  0
STYLE
  2
STANDARD4
 70
68
 40
0.0
 41
1.0
 50
0.0
 71
0
 42
3.200000047683716
  3
MONOTXT
  4

  0
ENDTAB
  0
TABLE
  2
VIEW
 70
0
  0
ENDTAB
  0
ENDSEC
  0
SECTION
  2
BLOCKS
  0
BLOCK
  8
0
  2
ZU_SYM_1
 70
64
 10
0.000000000000000
 20
0.000000000000000
  0
LINE
  8
0
  6
CONTINUOUS
 62
256
 10
2.499999000000000
 20
-1.443374000000000
 11
-0.000005000000000
 21
-2.886748000000000
  0
LINE
  8
0
  6
CONTINUOUS
 62
256
 10
0.000005000000000
 20
2.886748000000000
 11
-2.500000000000000
 21
1.443377000000000
  0
LINE
  8
0
  6
CONTINUOUS
 62
256
 10
-0.000006000000000
 20
-2.886747000000000
 11
-2.499998000000000
 21
-1.443372000000000
  0
LINE
  8
0
  6
CONTINUOUS
 62
256
 10
0.000005000000000
 20
2.886749000000000
 11
2.499999000000000
 21
1.443372000000000
  0
LINE
  8
0
  6
CONTINUOUS
 62
256
 10
2.499998000000000
 20
1.443372000000000
 11
2.499999000000000
 21
-1.443374000000000
  0
LINE
  8
0
  6
CONTINUOUS
 62
256
 10
-2.499998000000000
 20
-1.443372000000000
 11
-2.499999000000000
 21
1.443378000000000
  0
POINT
  8
0
  6
CONTINUOUS
 62
256
 10
0.000000000000000
 20
0.000000000000000
  0
CIRCLE
  8
0
  6
CONTINUOUS
 62
256
 10
0.000000000000000
 20
0.000000000000000
 40
5.000000000000000
  0
ENDBLK
  8
0
  0
BLOCK
  8
0
  2
ZU_SYM_2
 70
64
 10
0.000000000000000
 20
0.000000000000000
  0
LINE
  8
0
  6
CONTINUOUS
 62
256
 10
2.499999000000000
 20
-1.443374000000000
 11
-0.000005000000000
 21
-2.886748000000000
  0
LINE
  8
0
  6
CONTINUOUS
 62
256
 10
0.000005000000000
 20
2.886748000000000
 11
-2.500000000000000
 21
1.443377000000000
  0
LINE
  8
0
  6
CONTINUOUS
 62
256
 10
-0.000006000000000
 20
-2.886747000000000
 11
-2.499998000000000
 21
-1.443372000000000
  0
LINE
  8
0
  6
CONTINUOUS
 62
256
 10
0.000005000000000
 20
2.886749000000000
 11
2.499999000000000
 21
1.443372000000000
  0
LINE
  8
0
  6
CONTINUOUS
 62
256
 10
2.499998000000000
 20
1.443372000000000
 11
2.499999000000000
 21
-1.443374000000000
  0
LINE
  8
0
  6
CONTINUOUS
 62
256
 10
-2.499998000000000
 20
-1.443372000000000
 11
-2.499999000000000
 21
1.443378000000000
  0
POINT
  8
0
  6
CONTINUOUS
 62
256
 10
0.000000000000000
 20
0.000000000000000
  0
CIRCLE
  8
0
  6
CONTINUOUS
 62
256
 10
0.000000000000000
 20
0.000000000000000
 40
5.000000000000000
  0
ENDBLK
  8
0
  0
BLOCK
  8
0
  2
ZU_SYM_3
 70
64
 10
0.000000000000000
 20
0.000000000000000
  0
LINE
  8
0
  6
CONTINUOUS
 62
256
 10
2.499999000000000
 20
-1.443374000000000
 11
-0.000005000000000
 21
-2.886748000000000
  0
LINE
  8
0
  6
CONTINUOUS
 62
256
 10
0.000005000000000
 20
2.886748000000000
 11
-2.500000000000000
 21
1.443377000000000
  0
LINE
  8
0
  6
CONTINUOUS
 62
256
 10
-0.000006000000000
 20
-2.886747000000000
 11
-2.499998000000000
 21
-1.443372000000000
  0
LINE
  8
0
  6
CONTINUOUS
 62
256
 10
0.000005000000000
 20
2.886749000000000
 11
2.499999000000000
 21
1.443372000000000
  0
LINE
  8
0
  6
CONTINUOUS
 62
256
 10
2.499998000000000
 20
1.443372000000000
 11
2.499999000000000
 21
-1.443374000000000
  0
LINE
  8
0
  6
CONTINUOUS
 62
256
 10
-2.499998000000000
 20
-1.443372000000000
 11
-2.499999000000000
 21
1.443378000000000
  0
POINT
  8
0
  6
CONTINUOUS
 62
256
 10
0.000000000000000
 20
0.000000000000000
  0
CIRCLE
  8
0
  6
CONTINUOUS
 62
256
 10
0.000000000000000
 20
0.000000000000000
 40
5.000000000000000
  0
ENDBLK
  8
0
  0
BLOCK
  8
0
  2
ZU_SYM_4
 70
64
 10
0.000000000000000
 20
0.000000000000000
  0
LINE
  8
0
  6
CONTINUOUS
 62
256
 10
2.499999000000000
 20
-1.443374000000000
 11
-0.000005000000000
 21
-2.886748000000000
  0
LINE
  8
0
  6
CONTINUOUS
 62
256
 10
0.000005000000000
 20
2.886748000000000
 11
-2.500000000000000
 21
1.443377000000000
  0
LINE
  8
0
  6
CONTINUOUS
 62
256
 10
-0.000006000000000
 20
-2.886747000000000
 11
-2.499998000000000
 21
-1.443372000000000
  0
LINE
  8
0
  6
CONTINUOUS
 62
256
 10
0.000005000000000
 20
2.886749000000000
 11
2.499999000000000
 21
1.443372000000000
  0
LINE
  8
0
  6
CONTINUOUS
 62
256
 10
2.499998000000000
 20
1.443372000000000
 11
2.499999000000000
 21
-1.443374000000000
  0
LINE
  8
0
  6
CONTINUOUS
 62
256
 10
-2.499998000000000
 20
-1.443372000000000
 11
-2.499999000000000
 21
1.443378000000000
  0
POINT
  8
0
  6
CONTINUOUS
 62
256
 10
0.000000000000000
 20
0.000000000000000
  0
CIRCLE
  8
0
  6
CONTINUOUS
 62
256
 10
0.000000000000000
 20
0.000000000000000
 40
5.000000000000000
  0
ENDBLK
  8
0
  0
ENDSEC
  0
SECTION
  2
ENTITIES
  0
TEXT
  8
0
  6
CONTINUOUS
 62
256
 10
-70.375488281250000
 20
-13.156250000000000
 40
2.799999952316284
  1
ü@
 50
0.000002504478167
 41
0.996000017370497
  7
STANDARD1
  0
TEXT
  8
0
  6
CONTINUOUS
 62
256
 10
1.624511957168579
 20
-253.406250000000000
 40
2.799999952316284
  1
ü@
 50
0.000002504478167
 41
0.996000017370497
  7
STANDARD1
  0
LINE
  8
0
  6
DASHED
 62
256
 10
382.256041999999980
 20
-26.593017000000000
 11
369.256041999999980
 21
-26.593017000000000
  0
LINE
  8
0
  6
DASHED
 62
256
 10
382.256041999999980
 20
-9.593017000000000
 11
382.256041999999980
 21
-26.593017000000000
  0
LINE
  8
0
  6
DASHED
 62
256
 10
454.256041999999980
 20
-23.593017000000000
 11
382.256041999999980
 21
-23.593017000000000
  0
LINE
  8
0
  6
DASHED
 62
256
 10
454.256041999999980
 20
-12.593017000000000
 11
382.256041999999980
 21
-12.593017000000000
  0
LINE
  8
0
  6
DASHED
 62
256
 10
382.256041999999980
 20
-9.593017000000000
 11
369.256041999999980
 21
-9.593017000000000
  0
LINE
  8
0
  6
DASHED
 62
256
 10
454.256041999999980
 20
-9.593017000000000
 11
454.256041999999980
 21
-26.593017000000000
  0
LINE
  8
0
  6
DASHED
 62
256
 10
467.256041999999980
 20
-9.593017000000000
 11
454.256041999999980
 21
-9.593017000000000
  0
LINE
  8
0
  6
DASHED
 62
256
 10
467.256041999999980
 20
-26.593017000000000
 11
454.256041999999980
 21
-26.593017000000000
  0
LINE
  8
0
  6
DASHED
 62
256
 10
382.256041999999980
 20
-131.593017000000000
 11
369.256041999999980
 21
-131.593017000000000
  0
LINE
  8
0
  6
DASHED
 62
256
 10
382.256041999999980
 20
-131.593017000000000
 11
382.256041999999980
 21
-148.593017000000000
  0
LINE
  8
0
  6
DASHED
 62
256
 10
454.256041999999980
 20
-134.593017000000000
 11
382.256041999999980
 21
-134.593017000000000
  0
LINE
  8
0
  6
DASHED
 62
256
 10
382.256041999999980
 20
-148.593017000000000
 11
369.256041999999980
 21
-148.593017000000000
  0
LINE
  8
0
  6
DASHED
 62
256
 10
454.256041999999980
 20
-145.593017000000000
 11
382.256041999999980
 21
-145.593017000000000
  0
LINE
  8
0
  6
DASHED
 62
256
 10
467.256041999999980
 20
-131.593017000000000
 11
454.256041999999980
 21
-131.593017000000000
  0
LINE
  8
0
  6
DASHED
 62
256
 10
454.256041999999980
 20
-131.593017000000000
 11
454.256041999999980
 21
-148.593017000000000
  0
LINE
  8
0
  6
DASHED
 62
256
 10
467.256041999999980
 20
-148.593017000000000
 11
454.256041999999980
 21
-148.593017000000000
  0
CIRCLE
  8
0
  6
CONTINUOUS
 62
256
 10
-141.894833000000010
 20
-18.093017000000000
 40
8.500000000000000
  0
CIRCLE
  8
0
  6
CONTINUOUS
 62
256
 10
-7.894833000000000
 20
-18.093017000000000
 40
8.500000000000000
  0
CIRCLE
  8
0
  6
CONTINUOUS
 62
256
 10
-7.894833000000000
 20
-140.093017000000000
 40
8.500000000000000
  0
CIRCLE
  8
0
  6
CONTINUOUS
 62
256
 10
-141.894833000000010
 20
-140.093017000000000
 40
8.500000000000000
  0
LINE
  8
0
  6
DASHED
 62
256
 10
-223.394833000000010
 20
-152.593017000000000
 11
-223.394833000000010
 21
-167.093017000000000
  0
LINE
  8
0
  6
DASHED
 62
256
 10
-237.394833000000010
 20
-152.593017000000000
 11
-237.394833000000010
 21
-167.093017000000000
  0
ARC
  8
0
  6
DASHED
 62
256
 10
-230.394833000000010
 20
-167.093017000000000
 40
7.000000000000000
 50
180.000000000000000
 51
0.000000000000000
  0
CIRCLE
  8
0
  6
DASHED
 62
256
 10
-230.394833000000010
 20
-167.093017000000000
 40
6.000000000000000
  0
LINE
  8
0
  6
DASHDOT
 62
256
 10
-230.394833000000010
 20
-149.809166000000000
 11
-230.394833000000010
 21
-177.788515999999990
  0
LINE
  8
0
  6
DASHDOT
 62
256
 10
-240.805131999999990
 20
-167.093017000000000
 11
-220.430950999999990
 21
-167.093017000000000
  0
LINE
  8
0
  6
DASHED
 62
256
 10
-287.394833000000010
 20
-152.593017000000000
 11
-287.394833000000010
 21
-167.093017000000000
  0
LINE
  8
0
  6
DASHED
 62
256
 10
-273.394833000000010
 20
-152.593017000000000
 11
-273.394833000000010
 21
-167.093017000000000
  0
ARC
  8
0
  6
DASHED
 62
256
 10
-280.394833000000010
 20
-167.093017000000000
 40
7.000000000000000
 50
180.000000000000000
 51
0.000000000000000
  0
LINE
  8
0
  6
DASHDOT
 62
256
 10
-280.394833000000010
 20
-149.809166000000000
 11
-280.394833000000010
 21
-177.788515999999990
  0
LINE
  8
0
  6
DASHDOT
 62
256
 10
-289.703167000000010
 20
-167.093017000000000
 11
-270.514126999999970
 21
-167.093017000000000
  0
ARC
  8
0
  6
CONTINUOUS
 62
256
 10
-177.894833000000010
 20
182.172547000000010
 40
3.000000000000000
 50
180.000000000000000
 51
270.000000000000000
  0
LINE
  8
0
  6
CONTINUOUS
 62
256
 10
-187.894833000000010
 20
127.076239000000000
 11
-187.894833000000010
 21
186.576238999999990
  0
LINE
  8
0
  6
CONTINUOUS
 62
256
 10
-167.394833000000010
 20
186.576238999999990
 11
-187.894833000000010
 21
186.576238999999990
  0
ARC
  8
0
  6
CONTINUOUS
 62
256
 10
-167.394833000000010
 20
183.576238999999990
 40
3.000000000000000
 50
0.000000000000000
 51
90.000000000000000
  0
LINE
  8
0
  6
CONTINUOUS
 62
256
 10
-180.894833000000010
 20
107.076239000000000
 11
-187.894833000000010
 21
107.076239000000000
  0
ARC
  8
0
  6
CONTINUOUS
 62
256
 10
-167.394833000000010
 20
70.576239000000001
 40
3.000000000000000
 50
270.000000000000000
 51
0.000000000000000
  0
LINE
  8
0
  6
CONTINUOUS
 62
256
 10
-187.894833000000010
 20
127.076239000000000
 11
-187.894833000000010
 21
67.576239000000001
  0
LINE
  8
0
  6
CONTINUOUS
 62
256
 10
-167.394833000000010
 20
67.576239000000001
 11
-187.894833000000010
 21
67.576239000000001
  0
LINE
  8
0
  6
DASHED
 62
256
 10
-164.394833000000010
 20
146.536789000000000
 11
-164.394833000000010
 21
127.076239000000000
  0
LINE
  8
0
  6
DASHED
 62
256
 10
-164.394833000000010
 20
146.536789000000000
 11
-164.394833000000010
 21
127.076239000000000
  0
LINE
  8
0
  6
CONTINUOUS
 62
256
 10
-164.394833000000010
 20
183.576238999999990
 11
-164.394833000000010
 21
70.576239000000001
  0
LINE
  8
0
  6
CONTINUOUS
 62
256
 10
-161.394833000000010
 20
92.076239000000001
 11
-157.894833000000010
 21
92.076239000000001
  0
ARC
  8
0
  6
CONTINUOUS
 62
256
 10
-161.394833000000010
 20
89.076239000000001
 40
3.000000000000000
 50
90.000000000000000
 51
180.000000000000000
  0
LINE
  8
0
  6
CONTINUOUS
 62
256
 10
-155.768981999999990
 20
165.076238999999990
 11
-161.394833000000010
 21
165.076238999999990
  0
ARC
  8
0
  6
CONTINUOUS
 62
256
 10
-161.394833000000010
 20
168.076238999999990
 40
3.000000000000000
 50
180.000000000000000
 51
270.000000000000000
  0
ARC
  8
0
  6
CONTINUOUS
 62
256
 10
-157.894833000000010
 20
89.076239000000001
 40
2.999999999999995
 50
19.471220999999893
 51
90.000000000000000
  0
ARC
  8
0
  6
CONTINUOUS
 62
256
 10
-155.768981999999990
 20
167.076238999999990
 40
2.000000000000000
 50
270.000000000000000
 51
0.000000000000000
  0
LINE
  8
0
  6
CONTINUOUS
 62
256
 10
-58.685372999999998
 20
90.076239000000001
 11
5.323355000000000
 21
90.076239000000001
  0
LINE
  8
0
  6
CONTINUOUS
 62
256
 10
-155.104294000000010
 20
90.076239000000001
 11
-58.685372999999998
 21
90.076239000000001
  0
LINE
  8
0
  6
CONTINUOUS
 62
256
 10
-12.822222000000000
 20
176.076238999999990
 11
-153.768981999999990
 21
176.076238999999990
  0
LINE
  8
0
  6
CONTINUOUS
 62
256
 10
-12.822222000000000
 20
78.076239000000001
 11
-154.894833000000010
 21
78.076239000000001
  0
LINE
  8
0
  6
CONTINUOUS
 62
256
 10
5.323355000000000
 20
90.076239000000001
 11
3.979315000000000
 21
166.076238999999990
  0
LINE
  8
0
  6
CONTINUOUS
 62
256
 10
3.979315000000000
 20
166.076238999999990
 11
3.979315000000000
 21
176.076238999999990
  0
LINE
  8
0
  6
CONTINUOUS
 62
256
 10
3.979315000000000
 20
176.076238999999990
 11
-12.822222000000000
 21
176.076238999999990
  0
LINE
  8
0
  6
CONTINUOUS
 62
256
 10
5.314627000000000
 20
90.076239000000001
 11
5.105167000000000
 21
78.076239000000001
  0
LINE
  8
0
  6
CONTINUOUS
 62
256
 10
-32.894832999999998
 20
180.076238999999990
 11
-98.394833000000006
 21
180.076238999999990
  0
LINE
  8
0
  6
CONTINUOUS
 62
256
 10
-98.394833000000006
 20
176.076238999999990
 11
-98.394833000000006
 21
180.076238999999990
  0
LINE
  8
0
  6
CONTINUOUS
 62
256
 10
-153.768981999999990
 20
166.076238999999990
 11
-153.768981999999990
 21
176.076238999999990
  0
LINE
  8
0
  6
CONTINUOUS
 62
256
 10
-155.113022000000000
 20
90.076239000000001
 11
-153.768981999999990
 21
166.076238999999990
  0
LINE
  8
0
  6
CONTINUOUS
 62
256
 10
-13.394833000000000
 20
176.076238999999990
 11
-13.394833000000000
 21
180.076238999999990
  0
LINE
  8
0
  6
CONTINUOUS
 62
256
 10
-32.894832999999998
 20
180.076238999999990
 11
-13.394833000000000
 21
180.076238999999990
  0
LINE
  8
0
  6
CONTINUOUS
 62
256
 10
-13.394833000000000
 20
74.076239000000001
 11
-32.894832999999998
 21
74.076239000000001
  0
LINE
  8
0
  6
CONTINUOUS
 62
256
 10
-98.394833000000006
 20
74.076239000000001
 11
-32.894832999999998
 21
74.076239000000001
  0
LINE
  8
0
  6
CONTINUOUS
 62
256
 10
-13.394833000000000
 20
74.076239000000001
 11
-13.394833000000000
 21
78.076239000000001
  0
LINE
  8
0
  6
CONTINUOUS
 62
256
 10
5.105167000000000
 20
78.076239000000001
 11
-12.822222000000000
 21
78.076239000000001
  0
LINE
  8
0
  6
CONTINUOUS
 62
256
 10
-98.394833000000006
 20
74.076239000000001
 11
-98.394833000000006
 21
78.076239000000001
  0
LINE
  8
0
  6
CONTINUOUS
 62
256
 10
-154.894833000000010
 20
78.076239000000001
 11
-155.104294000000010
 21
90.076239000000001
  0
ARC
  8
0
  6
CONTINUOUS
 62
256
 10
-183.894833000000010
 20
183.576238999999990
 40
3.000000000000000
 50
0.000000000000000
 51
90.000000000000000
  0
ARC
  8
0
  6
CONTINUOUS
 62
256
 10
-177.894833000000010
 20
169.260969999999990
 40
3.000000000000000
 50
90.000000000000000
 51
180.000000000000000
  0
ARC
  8
0
  6
CONTINUOUS
 62
256
 10
-177.894833000000010
 20
163.077506000000000
 40
3.000000000000000
 50
90.000000000000000
 51
180.000000000000000
  0
LINE
  8
0
  6
CONTINUOUS
 62
256
 10
-180.894833000000010
 20
182.576238999999990
 11
-180.894833000000010
 21
183.576238999999990
  0
LINE
  8
0
  6
CONTINUOUS
 62
256
 10
-177.894833000000010
 20
166.077506000000000
 11
-172.894833000000010
 21
166.077506000000000
  0
LINE
  8
0
  6
CONTINUOUS
 62
256
 10
-180.894833000000010
 20
169.260969999999990
 11
-180.894833000000010
 21
127.076239000000000
  0
LINE
  8
0
  6
CONTINUOUS
 62
256
 10
-180.894833000000010
 20
182.576238999999990
 11
-180.894833000000010
 21
182.172547000000010
  0
LINE
  8
0
  6
CONTINUOUS
 62
256
 10
-177.894833000000010
 20
179.172547000000010
 11
-172.894833000000010
 21
179.172547000000010
  0
LINE
  8
0
  6
CONTINUOUS
 62
256
 10
-177.894833000000010
 20
172.260969999999990
 11
-172.894833000000010
 21
172.260969999999990
  0
ARC
  8
0
  6
CONTINUOUS
 62
256
 10
-162.894833000000010
 20
167.625025999999990
 40
5.000000000000000
 50
180.000000000000000
 51
252.542397000000110
  0
ARC
  8
0
  6
CONTINUOUS
 62
256
 10
-162.894833000000010
 20
174.172547000000010
 40
5.000000000000000
 50
180.000000000000000
 51
252.542397000000110
  0
ARC
  8
0
  6
CONTINUOUS
 62
256
 10
-172.894833000000010
 20
167.260969999999990
 40
5.000000000000000
 50
0.000000000000000
 51
90.000000000000000
  0
ARC
  8
0
  6
CONTINUOUS
 62
256
 10
-172.894833000000010
 20
174.172547000000010
 40
5.000000000000000
 50
0.000000000000000
 51
90.000000000000000
  0
ARC
  8
0
  6
CONTINUOUS
 62
256
 10
-183.894833000000010
 20
70.576239000000001
 40
3.000000000000000
 50
270.000000000000000
 51
0.000000000000000
  0
ARC
  8
0
  6
CONTINUOUS
 62
256
 10
-177.894833000000010
 20
84.891508000000002
 40
3.000000000000000
 50
180.000000000000000
 51
270.000000000000000
  0
ARC
  8
0
  6
CONTINUOUS
 62
256
 10
-177.894833000000010
 20
71.979932000000005
 40
3.000000000000000
 50
90.000000000000000
 51
180.000000000000000
  0
ARC
  8
0
  6
CONTINUOUS
 62
256
 10
-177.894833000000010
 20
91.074972000000002
 40
3.000000000000000
 50
180.000000000000000
 51
270.000000000000000
  0
LINE
  8
0
  6
CONTINUOUS
 62
256
 10
-180.894833000000010
 20
71.576239000000001
 11
-180.894833000000010
 21
70.576239000000001
  0
LINE
  8
0
  6
CONTINUOUS
 62
256
 10
-180.894833000000010
 20
71.576239000000001
 11
-180.894833000000010
 21
71.979932000000005
  0
LINE
  8
0
  6
CONTINUOUS
 62
256
 10
-180.894833000000010
 20
71.576239000000001
 11
-180.894833000000010
 21
71.979932000000005
  0
LINE
  8
0
  6
CONTINUOUS
 62
256
 10
-177.894833000000010
 20
88.074972000000002
 11
-172.894833000000010
 21
88.074972000000002
  0
LINE
  8
0
  6
CONTINUOUS
 62
256
 10
-180.894833000000010
 20
84.891508000000002
 11
-180.894833000000010
 21
127.076239000000000
  0
LINE
  8
0
  6
CONTINUOUS
 62
256
 10
-177.894833000000010
 20
74.979932000000005
 11
-172.894833000000010
 21
74.979932000000005
  0
LINE
  8
0
  6
CONTINUOUS
 62
256
 10
-177.894833000000010
 20
81.891508000000002
 11
-172.894833000000010
 21
81.891508000000002
  0
ARC
  8
0
  6
CONTINUOUS
 62
256
 10
-162.894833000000010
 20
79.979932000000005
 40
5.000000000000003
 50
107.457602999999910
 51
180.000000000000000
  0
ARC
  8
0
  6
CONTINUOUS
 62
256
 10
-162.894833000000010
 20
86.527451999999997
 40
5.000000000000003
 50
107.457602999999910
 51
180.000000000000000
  0
ARC
  8
0
  6
CONTINUOUS
 62
256
 10
-172.894833000000010
 20
79.979932000000005
 40
5.000000000000000
 50
270.000000000000000
 51
0.000000000000000
  0
ARC
  8
0
  6
CONTINUOUS
 62
256
 10
-172.894833000000010
 20
86.891508000000002
 40
5.000000000000000
 50
270.000000000000000
 51
0.000000000000000
  0
LINE
  8
0
  6
CONTINUOUS
 62
256
 10
-33.894832999999998
 20
74.076239000000001
 11
-33.894832999999998
 21
71.076239000000001
  0
ARC
  8
0
  6
CONTINUOUS
 62
256
 10
-34.894832999999998
 20
71.076239000000001
 40
1.000000000000000
 50
270.000000000000000
 51
0.000000000000000
  0
LINE
  8
0
  6
CONTINUOUS
 62
256
 10
-34.894832999999998
 20
70.076239000000001
 11
-55.894832999999998
 21
70.076239000000001
  0
LINE
  8
0
  6
CONTINUOUS
 62
256
 10
-77.894833000000006
 20
74.076239000000001
 11
-77.894833000000006
 21
71.076239000000001
  0
ARC
  8
0
  6
CONTINUOUS
 62
256
 10
-76.894833000000006
 20
71.076239000000001
 40
1.000000000000000
 50
180.000000000000000
 51
270.000000000000000
  0
LINE
  8
0
  6
CONTINUOUS
 62
256
 10
-76.894833000000006
 20
70.076239000000001
 11
-55.894832999999998
 21
70.076239000000001
  0
LINE
  8
0
  6
CONTINUOUS
 62
256
 10
-33.894832999999998
 20
180.076238999999990
 11
-33.894832999999998
 21
183.076238999999990
  0
ARC
  8
0
  6
CONTINUOUS
 62
256
 10
-34.894832999999998
 20
183.076238999999990
 40
1.000000000000000
 50
0.000000000000000
 51
90.000000000000000
  0
LINE
  8
0
  6
CONTINUOUS
 62
256
 10
-34.894832999999998
 20
184.076238999999990
 11
-55.894832999999998
 21
184.076238999999990
  0
LINE
  8
0
  6
CONTINUOUS
 62
256
 10
-77.894833000000006
 20
180.076238999999990
 11
-77.894833000000006
 21
183.076238999999990
  0
ARC
  8
0
  6
CONTINUOUS
 62
256
 10
-76.894833000000006
 20
183.076238999999990
 40
1.000000000000000
 50
90.000000000000000
 51
180.000000000000000
  0
LINE
  8
0
  6
CONTINUOUS
 62
256
 10
-76.894833000000006
 20
184.076238999999990
 11
-55.894832999999998
 21
184.076238999999990
  0
LINE
  8
0
  6
CONTINUOUS
 62
256
 10
-284.894833000000010
 20
96.793805000000006
 11
-187.894833000000010
 21
96.793805000000006
  0
LINE
  8
0
  6
CONTINUOUS
 62
256
 10
-284.894833000000010
 20
102.246185999999990
 11
-187.894833000000010
 21
102.246185999999990
  0
LINE
  8
0
  6
CONTINUOUS
 62
256
 10
-284.894833000000010
 20
100.884305000000000
 11
-187.894833000000010
 21
100.884305000000000
  0
LINE
  8
0
  6
CONTINUOUS
 62
256
 10
-284.894833000000010
 20
107.076239000000000
 11
-187.894833000000010
 21
107.076239000000000
  0
LINE
  8
0
  6
CONTINUOUS
 62
256
 10
-284.894833000000010
 20
147.076238999999990
 11
-187.894833000000010
 21
147.076238999999990
  0
LINE
  8
0
  6
CONTINUOUS
 62
256
 10
-284.894833000000010
 20
157.358674000000010
 11
-187.894833000000010
 21
157.358674000000010
  0
LINE
  8
0
  6
CONTINUOUS
 62
256
 10
-284.894833000000010
 20
151.906293000000010
 11
-187.894833000000010
 21
151.906293000000010
  0
LINE
  8
0
  6
CONTINUOUS
 62
256
 10
-284.894833000000010
 20
153.268172999999990
 11
-187.894833000000010
 21
153.268172999999990
  0
LINE
  8
0
  6
CONTINUOUS
 62
256
 10
-284.894833000000010
 20
89.757053999999997
 11
-187.894833000000010
 21
89.757053999999997
  0
LINE
  8
0
  6
CONTINUOUS
 62
256
 10
-284.894833000000010
 20
91.361701999999994
 11
-187.894833000000010
 21
91.361701999999994
  0
LINE
  8
0
  6
CONTINUOUS
 62
256
 10
-284.894833000000010
 20
164.395423999999990
 11
-187.894833000000010
 21
164.395423999999990
  0
LINE
  8
0
  6
CONTINUOUS
 62
256
 10
-284.894833000000010
 20
162.790775999999990
 11
-187.894833000000010
 21
162.790775999999990
  0
LINE
  8
0
  6
CONTINUOUS
 62
256
 10
-284.894833000000010
 20
127.076239000000000
 11
-284.894833000000010
 21
67.076239000000001
  0
LINE
  8
0
  6
CONTINUOUS
 62
256
 10
-284.894833000000010
 20
127.076239000000000
 11
-284.894833000000010
 21
187.076238999999990
  0
LINE
  8
0
  6
CONTINUOUS
 62
256
 10
-295.894833000000010
 20
73.336123999999998
 11
-297.894833000000010
 21
74.988765999999998
  0
LINE
  8
0
  6
CONTINUOUS
 62
256
 10
-293.894833000000010
 20
72.160338999999993
 11
-295.894833000000010
 21
73.336123999999998
  0
LINE
  8
0
  6
CONTINUOUS
 62
256
 10
-295.894833000000010
 20
73.336123999999998
 11
-293.894833000000010
 21
74.988765999999998
  0
LINE
  8
0
  6
CONTINUOUS
 62
256
 10
-297.894833000000010
 20
72.160338999999993
 11
-295.894833000000010
 21
73.336123999999998
  0
POLYLINE
  8
0
  6
CONTINUOUS
 62
256
 66
1
 70
1
  0
VERTEX
  8
0
  6
CONTINUOUS
 62
256
 10
-291.194833000000020
 20
75.152714000000003
  0
VERTEX
  8
0
  6
CONTINUOUS
 62
256
 10
-291.285142182104830
 20
75.855670510558170
  0
VERTEX
  8
0
  6
CONTINUOUS
 62
256
 10
-291.552599197196970
 20
76.531612796638143
  0
VERTEX
  8
0
  6
CONTINUOUS
 62
256
 10
-291.986925822178080
 20
77.154564775258663
  0
VERTEX
  8
0
  6
CONTINUOUS
 62
256
 10
-292.571431128423230
 20
77.700586751236841
  0
VERTEX
  8
0
  6
CONTINUOUS
 62
256
 10
-293.283652904807870
 20
78.148695406248493
  0
VERTEX
  8
0
  6
CONTINUOUS
 62
256
 10
-294.096220867884090
 20
78.481670175983751
  0
VERTEX
  8
0
  6
CONTINUOUS
 62
256
 10
-294.977908486524200
 20
78.686715026776071
  0
VERTEX
  8
0
  6
CONTINUOUS
 62
256
 10
-295.894833000000010
 20
78.755950200000001
  0
VERTEX
  8
0
  6
CONTINUOUS
 62
256
 10
-296.811757513475810
 20
78.686715026776071
  0
VERTEX
  8
0
  6
CONTINUOUS
 62
256
 10
-297.693445132115930
 20
78.481670175983751
  0
VERTEX
  8
0
  6
CONTINUOUS
 62
256
 10
-298.506013095192150
 20
78.148695406248493
  0
VERTEX
  8
0
  6
CONTINUOUS
 62
256
 10
-299.218234871576780
 20
77.700586751236841
  0
VERTEX
  8
0
  6
CONTINUOUS
 62
256
 10
-299.802740177821930
 20
77.154564775258663
  0
VERTEX
  8
0
  6
CONTINUOUS
 62
256
 10
-300.237066802803040
 20
76.531612796638143
  0
VERTEX
  8
0
  6
CONTINUOUS
 62
256
 10
-300.504523817895180
 20
75.855670510558170
  0
VERTEX
  8
0
  6
CONTINUOUS
 62
256
 10
-300.594832999999990
 20
75.152714000000003
  0
VERTEX
  8
0
  6
CONTINUOUS
 62
256
 10
-300.504523817895180
 20
74.449757489441836
  0
VERTEX
  8
0
  6
CONTINUOUS
 62
256
 10
-300.237066802803040
 20
73.773815203361863
  0
VERTEX
  8
0
  6
CONTINUOUS
 62
256
 10
-299.802740177821930
 20
73.150863224741343
  0
VERTEX
  8
0
  6
CONTINUOUS
 62
256
 10
-299.218234871576780
 20
72.604841248763165
  0
VERTEX
  8
0
  6
CONTINUOUS
 62
256
 10
-298.506013095192150
 20
72.156732593751514
  0
VERTEX
  8
0
  6
CONTINUOUS
 62
256
 10
-297.693445132115930
 20
71.823757824016269
  0
VERTEX
  8
0
  6
CONTINUOUS
 62
256
 10
-296.811757513475810
 20
71.618712973223936
  0
VERTEX
  8
0
  6
CONTINUOUS
 62
256
 10
-295.894833000000010
 20
71.549477800000005
  0
VERTEX
  8
0
  6
CONTINUOUS
 62
256
 10
-294.977908486524200
 20
71.618712973223936
  0
VERTEX
  8
0
  6
CONTINUOUS
 62
256
 10
-294.096220867884090
 20
71.823757824016255
  0
VERTEX
  8
0
  6
CONTINUOUS
 62
256
 10
-293.283652904807870
 20
72.156732593751514
  0
VERTEX
  8
0
  6
CONTINUOUS
 62
256
 10
-292.571431128423230
 20
72.604841248763165
  0
VERTEX
  8
0
  6
CONTINUOUS
 62
256
 10
-291.986925822178080
 20
73.150863224741343
  0
VERTEX
  8
0
  6
CONTINUOUS
 62
256
 10
-291.552599197196970
 20
73.773815203361863
  0
VERTEX
  8
0
  6
CONTINUOUS
 62
256
 10
-291.285142182104830
 20
74.449757489441836
  0
SEQEND
  8
0
  6
CONTINUOUS
 62
256
  0
LINE
  8
0
  6
CONTINUOUS
 62
256
 10
-295.894833000000010
 20
180.816353999999990
 11
-297.894833000000010
 21
179.163713000000000
  0
LINE
  8
0
  6
CONTINUOUS
 62
256
 10
-293.894833000000010
 20
181.992140000000010
 11
-295.894833000000010
 21
180.816353999999990
  0
LINE
  8
0
  6
CONTINUOUS
 62
256
 10
-295.894833000000010
 20
180.816353999999990
 11
-293.894833000000010
 21
179.163713000000000
  0
LINE
  8
0
  6
CONTINUOUS
 62
256
 10
-297.894833000000010
 20
181.992140000000010
 11
-295.894833000000010
 21
180.816353999999990
  0
POLYLINE
  8
0
  6
CONTINUOUS
 62
256
 66
1
 70
1
  0
VERTEX
  8
0
  6
CONTINUOUS
 62
256
 10
-291.194833000000020
 20
178.999764000000000
  0
VERTEX
  8
0
  6
CONTINUOUS
 62
256
 10
-291.285142182104830
 20
179.702720510558180
  0
VERTEX
  8
0
  6
CONTINUOUS
 62
256
 10
-291.552599197196970
 20
180.378662796638140
  0
VERTEX
  8
0
  6
CONTINUOUS
 62
256
 10
-291.986925822178080
 20
181.001614775258670
  0
VERTEX
  8
0
  6
CONTINUOUS
 62
256
 10
-292.571431128423230
 20
181.547636751236840
  0
VERTEX
  8
0
  6
CONTINUOUS
 62
256
 10
-293.283652904807870
 20
181.995745406248490
  0
VERTEX
  8
0
  6
CONTINUOUS
 62
256
 10
-294.096220867884090
 20
182.328720175983730
  0
VERTEX
  8
0
  6
CONTINUOUS
 62
256
 10
-294.977908486524200
 20
182.533765026776080
  0
VERTEX
  8
0
  6
CONTINUOUS
 62
256
 10
-295.894833000000010
 20
182.603000200000000
  0
VERTEX
  8
0
  6
CONTINUOUS
 62
256
 10
-296.811757513475810
 20
182.533765026776080
  0
VERTEX
  8
0
  6
CONTINUOUS
 62
256
 10
-297.693445132115930
 20
182.328720175983730
  0
VERTEX
  8
0
  6
CONTINUOUS
 62
256
 10
-298.506013095192150
 20
181.995745406248490
  0
VERTEX
  8
0
  6
CONTINUOUS
 62
256
 10
-299.218234871576780
 20
181.547636751236840
  0
VERTEX
  8
0
  6
CONTINUOUS
 62
256
 10
-299.802740177821930
 20
181.001614775258670
  0
VERTEX
  8
0
  6
CONTINUOUS
 62
256
 10
-300.237066802803040
 20
180.378662796638140
  0
VERTEX
  8
0
  6
CONTINUOUS
 62
256
 10
-300.504523817895180
 20
179.702720510558180
  0
VERTEX
  8
0
  6
CONTINUOUS
 62
256
 10
-300.594832999999990
 20
178.999764000000000
  0
VERTEX
  8
0
  6
CONTINUOUS
 62
256
 10
-300.504523817895180
 20
178.296807489441820
  0
VERTEX
  8
0
  6
CONTINUOUS
 62
256
 10
-300.237066802803040
 20
177.620865203361860
  0
VERTEX
  8
0
  6
CONTINUOUS
 62
256
 10
-299.802740177821930
 20
176.997913224741320
  0
VERTEX
  8
0
  6
CONTINUOUS
 62
256
 10
-299.218234871576780
 20
176.451891248763160
  0
VERTEX
  8
0
  6
CONTINUOUS
 62
256
 10
-298.506013095192150
 20
176.003782593751510
  0
VERTEX
  8
0
  6
CONTINUOUS
 62
256
 10
-297.693445132115930
 20
175.670807824016260
  0
VERTEX
  8
0
  6
CONTINUOUS
 62
256
 10
-296.811757513475810
 20
175.465762973223950
  0
VERTEX
  8
0
  6
CONTINUOUS
 62
256
 10
-295.894833000000010
 20
175.396527800000000
  0
VERTEX
  8
0
  6
CONTINUOUS
 62
256
 10
-294.977908486524200
 20
175.465762973223950
  0
VERTEX
  8
0
  6
CONTINUOUS
 62
256
 10
-294.096220867884090
 20
175.670807824016260
  0
VERTEX
  8
0
  6
CONTINUOUS
 62
256
 10
-293.283652904807870
 20
176.003782593751510
  0
VERTEX
  8
0
  6
CONTINUOUS
 62
256
 10
-292.571431128423230
 20
176.451891248763160
  0
VERTEX
  8
0
  6
CONTINUOUS
 62
256
 10
-291.986925822178080
 20
176.997913224741320
  0
VERTEX
  8
0
  6
CONTINUOUS
 62
256
 10
-291.552599197196970
 20
177.620865203361860
  0
VERTEX
  8
0
  6
CONTINUOUS
 62
256
 10
-291.285142182104830
 20
178.296807489441820
  0
SEQEND
  8
0
  6
CONTINUOUS
 62
256
  0
ARC
  8
0
  6
CONTINUOUS
 62
256
 10
-333.294832999999980
 20
79.633033999999995
 40
2.600000000000023
 50
180.000000000000000
 51
234.999999999999940
  0
LINE
  8
0
  6
CONTINUOUS
 62
256
 10
-325.060385999999990
 20
70.693197999999995
 11
-334.786132000000010
 21
77.503238999999994
  0
ARC
  8
0
  6
CONTINUOUS
 62
256
 10
-313.588858000000020
 20
87.076239000000001
 40
20.000000000000007
 50
234.999999999999940
 51
270.000000000000000
  0
LINE
  8
0
  6
CONTINUOUS
 62
256
 10
-335.894833000000010
 20
127.076239000000000
 11
-335.894833000000010
 21
79.633033999999995
  0
LINE
  8
0
  6
CONTINUOUS
 62
256
 10
-284.894833000000010
 20
67.076239000000001
 11
-313.588858000000020
 21
67.076239000000001
  0
LINE
  8
0
  6
CONTINUOUS
 62
256
 10
-187.894833000000010
 20
68.576239000000001
 11
-284.894833000000010
 21
68.576239000000001
  0
LINE
  8
0
  6
CONTINUOUS
 62
256
 10
-284.894833000000010
 20
81.710453000000001
 11
-187.894833000000010
 21
81.710453000000001
  0
LINE
  8
0
  6
CONTINUOUS
 62
256
 10
-284.894833000000010
 20
76.760705000000002
 11
-187.894833000000010
 21
76.760705000000002
  0
LINE
  8
0
  6
CONTINUOUS
 62
256
 10
-284.894833000000010
 20
72.076239000000001
 11
-187.894833000000010
 21
72.076239000000001
  0
LINE
  8
0
  6
CONTINUOUS
 62
256
 10
-284.894833000000010
 20
71.076239000000001
 11
-187.894833000000010
 21
71.076239000000001
  0
LINE
  8
0
  6
CONTINUOUS
 62
256
 10
-284.894833000000010
 20
69.576239000000001
 11
-187.894833000000010
 21
69.576239000000001
  0
LINE
  8
0
  6
CONTINUOUS
 62
256
 10
-284.894833000000010
 20
70.076239000000001
 11
-187.894833000000010
 21
70.076239000000001
  0
ARC
  8
0
  6
CONTINUOUS
 62
256
 10
-333.294832999999980
 20
174.519443999999990
 40
2.599999999999996
 50
125.000000000000210
 51
180.000000000000000
  0
LINE
  8
0
  6
CONTINUOUS
 62
256
 10
-325.060385999999990
 20
183.459280000000010
 11
-334.786132000000010
 21
176.649239999999990
  0
ARC
  8
0
  6
CONTINUOUS
 62
256
 10
-313.588858000000020
 20
167.076238999999990
 40
20.000000000000000
 50
90.000000000000000
 51
125.000000000000010
  0
LINE
  8
0
  6
CONTINUOUS
 62
256
 10
-335.894833000000010
 20
127.076239000000000
 11
-335.894833000000010
 21
174.519443999999990
  0
LINE
  8
0
  6
CONTINUOUS
 62
256
 10
-284.894833000000010
 20
187.076238999999990
 11
-313.588858000000020
 21
187.076238999999990
  0
LINE
  8
0
  6
CONTINUOUS
 62
256
 10
-187.894833000000010
 20
185.576238999999990
 11
-284.894833000000010
 21
185.576238999999990
  0
LINE
  8
0
  6
CONTINUOUS
 62
256
 10
-284.894833000000010
 20
172.442026000000000
 11
-187.894833000000010
 21
172.442026000000000
  0
LINE
  8
0
  6
CONTINUOUS
 62
256
 10
-284.894833000000010
 20
177.391773000000000
 11
-187.894833000000010
 21
177.391773000000000
  0
LINE
  8
0
  6
CONTINUOUS
 62
256
 10
-284.894833000000010
 20
182.076238999999990
 11
-187.894833000000010
 21
182.076238999999990
  0
LINE
  8
0
  6
CONTINUOUS
 62
256
 10
-284.894833000000010
 20
183.076238999999990
 11
-187.894833000000010
 21
183.076238999999990
  0
LINE
  8
0
  6
CONTINUOUS
 62
256
 10
-284.894833000000010
 20
184.576238999999990
 11
-187.894833000000010
 21
184.576238999999990
  0
LINE
  8
0
  6
CONTINUOUS
 62
256
 10
-284.894833000000010
 20
184.076238999999990
 11
-187.894833000000010
 21
184.076238999999990
  0
LINE
  8
0
  6
DASHDOT
 62
256
 10
-343.580864000000020
 20
127.076239000000000
 11
8.100552000000000
 21
127.076239000000000
  0
LINE
  8
0
  6
DASHDOT
 62
256
 10
-55.894832999999998
 20
192.511379000000010
 11
-55.894832999999998
 21
54.134369999999997
  0
ARC
  8
0
  6
CONTINUOUS
 62
256
 10
-433.366322000000030
 20
-52.220117000000002
 40
26.600000000000016
 50
44.999999999999957
 51
83.948015000000026
  0
ARC
  8
0
  6
CONTINUOUS
 62
256
 10
-462.254351999999980
 20
-324.693017000000000
 40
300.600000000000020
 50
83.948014999999998
 51
96.051985000000002
  0
ARC
  8
0
  6
CONTINUOUS
 62
256
 10
-491.142381000000000
 20
-52.220117000000002
 40
26.599999999999998
 50
96.051984999999959
 51
134.999999999999970
  0
ARC
  8
0
  6
CONTINUOUS
 62
256
 10
-422.145574000000010
 20
-50.151499999999999
 40
5.999999999999990
 50
7.897989000000010
 51
45.000000000000149
  0
LINE
  8
0
  6
CONTINUOUS
 62
256
 10
-417.902934000000020
 20
-45.908859000000000
 11
-422.478998999999990
 21
-41.332793000000002
  0
ARC
  8
0
  6
CONTINUOUS
 62
256
 10
-412.157737000000000
 20
-45.144430000000000
 40
6.600000000000021
 50
8.597081999999979
 51
44.999999999999829
  0
ARC
  8
0
  6
CONTINUOUS
 62
256
 10
-438.136861000000010
 20
-55.320296999999997
 40
1.499999999999989
 50
54.468928000000517
 51
149.999999999999460
  0
ARC
  8
0
  6
CONTINUOUS
 62
256
 10
-479.443640000000020
 20
-51.320296999999997
 40
1.499999999999995
 50
114.468927999999890
 51
210.000000000000510
  0
ARC
  8
0
  6
CONTINUOUS
 62
256
 10
-462.254351999999980
 20
-89.093017000000003
 40
43.000000000000007
 50
65.531071999999980
 51
114.468928000000030
  0
ARC
  8
0
  6
CONTINUOUS
 62
256
 10
-445.065064000000010
 20
-51.320296999999997
 40
1.499999999999975
 50
329.999999999999490
 51
65.531072000000108
  0
ARC
  8
0
  6
CONTINUOUS
 62
256
 10
-486.371843000000010
 20
-55.320296999999997
 40
1.500000000000025
 50
29.999999999999456
 51
125.531071999999480
  0
LINE
  8
0
  6
CONTINUOUS
 62
256
 10
-517.017871000000010
 20
-40.477525000000000
 11
-509.951421999999980
 21
-33.411076000000001
  0
ARC
  8
0
  6
CONTINUOUS
 62
256
 10
-512.350965999999970
 20
-45.144430000000000
 40
6.599999999999977
 50
134.999999999999830
 51
171.402918000000030
  0
LINE
  8
0
  6
CONTINUOUS
 62
256
 10
-407.490833000000010
 20
-40.477525000000000
 11
-414.557281999999990
 21
-33.411076000000001
  0
ARC
  8
0
  6
CONTINUOUS
 62
256
 10
-433.366322000000030
 20
-52.220117000000002
 40
15.397000000000016
 50
44.999999999999929
 51
83.948015000000069
  0
ARC
  8
0
  6
CONTINUOUS
 62
256
 10
-462.254351999999980
 20
-324.693017000000000
 40
289.396999999999990
 50
90.000000000000000
 51
96.051985000000002
  0
ARC
  8
0
  6
CONTINUOUS
 62
256
 10
-491.142381000000000
 20
-52.220117000000002
 40
15.397000000000000
 50
96.051984999999931
 51
135.000000000000090
  0
LINE
  8
0
  6
CONTINUOUS
 62
256
 10
-506.605770000000010
 20
-45.908859000000000
 11
-502.029704999999980
 21
-41.332793000000002
  0
ARC
  8
0
  6
CONTINUOUS
 62
256
 10
-502.363129000000010
 20
-50.151499999999999
 40
5.999999999999983
 50
134.999999999999890
 51
172.102011000000000
  0
ARC
  8
0
  6
CONTINUOUS
 62
256
 10
-702.854351999999950
 20
-89.093017000000003
 40
289.396999999999990
 50
0.000000000000000
 51
7.897989000000000
  0
LINE
  8
0
  6
CONTINUOUS
 62
256
 10
-493.754351999999980
 20
-152.438011999999990
 11
-493.754351999999980
 21
-152.593017000000000
  0
LINE
  8
0
  6
CONTINUOUS
 62
256
 10
-432.261852999999970
 20
-152.593017000000000
 11
-430.754351999999980
 21
-152.593017000000000
  0
LINE
  8
0
  6
CONTINUOUS
 62
256
 10
-493.754351999999980
 20
-152.593017000000000
 11
-492.246850999999990
 21
-152.593017000000000
  0
LINE
  8
0
  6
CONTINUOUS
 62
256
 10
-432.254351999999980
 20
-176.031787000000010
 11
-432.254351999999980
 21
-152.592265000000000
  0
LINE
  8
0
  6
CONTINUOUS
 62
256
 10
-430.754351999999980
 20
-152.438011999999990
 11
-430.754351999999980
 21
-152.593017000000000
  0
LINE
  8
0
  6
CONTINUOUS
 62
256
 10
-464.754351999999980
 20
-182.593017000000000
 11
-459.754351999999980
 21
-182.593017000000000
  0
LINE
  8
0
  6
CONTINUOUS
 62
256
 10
-464.754351999999980
 20
-182.593017000000000
 11
-464.754351999999980
 21
-182.082601000000010
  0
LINE
  8
0
  6
CONTINUOUS
 62
256
 10
-459.754351999999980
 20
-182.593017000000000
 11
-459.754351999999980
 21
-182.082601000000010
  0
ARC
  8
0
  6
CONTINUOUS
 62
256
 10
-462.254351999999980
 20
117.906983000000000
 40
300.000000000000000
 50
270.000000000000000
 51
274.861404999999990
  0
ARC
  8
0
  6
CONTINUOUS
 62
256
 10
-437.254351999999980
 20
-176.031787000000010
 40
4.999999999999989
 50
274.861405000000100
 51
0.000000000000000
  0
ARC
  8
0
  6
CONTINUOUS
 62
256
 10
-487.254351999999980
 20
-176.031787000000010
 40
5.000000000000000
 50
180.000000000000000
 51
265.138594999999900
  0
LINE
  8
0
  6
CONTINUOUS
 62
256
 10
-492.254351999999980
 20
-176.031787000000010
 11
-492.254351999999980
 21
-152.593017000000000
  0
ARC
  8
0
  6
CONTINUOUS
 62
256
 10
-462.254351999999980
 20
117.906983000000000
 40
300.000000000000000
 50
265.138595000000010
 51
270.000000000000000
  0
ARC
  8
0
  6
CONTINUOUS
 62
256
 10
-433.531539000000010
 20
-85.093017000000003
 40
1.500000000000004
 50
187.928142000000150
 51
270.000000000000000
  0
ARC
  8
0
  6
CONTINUOUS
 62
256
 10
-462.254351999999980
 20
-89.093017000000003
 40
33.500000000000007
 50
7.180755999999994
 51
52.819243999999983
  0
ARC
  8
0
  6
CONTINUOUS
 62
256
 10
-462.254351999999980
 20
-89.093017000000003
 40
42.999999999999979
 50
5.531071999999997
 51
54.468927999999984
  0
ARC
  8
0
  6
CONTINUOUS
 62
256
 10
-462.254351999999980
 20
-89.093017000000003
 40
36.999999999999979
 50
5.963570000000011
 51
54.036430000000010
  0
ARC
  8
0
  6
CONTINUOUS
 62
256
 10
-444.428844000000030
 20
-66.218332000000004
 40
1.500000000000025
 50
150.000000000000540
 51
232.071857999999280
  0
ARC
  8
0
  6
CONTINUOUS
 62
256
 10
-442.915742000000020
 20
-63.597563000000001
 40
1.500000000000000
 50
52.819244000000090
 51
150.000000000000540
  0
ARC
  8
0
  6
CONTINUOUS
 62
256
 10
-439.644428000000000
 20
-57.931480999999998
 40
1.499999999999975
 50
149.999999999999460
 51
234.036429999999370
  0
LINE
  8
0
  6
CONTINUOUS
 62
256
 10
-445.727882000000020
 20
-65.468332000000004
 11
-444.214780000000020
 21
-62.847563000000001
  0
LINE
  8
0
  6
CONTINUOUS
 62
256
 10
-440.943466000000000
 20
-57.181480999999998
 11
-439.435899000000010
 21
-54.570296999999997
  0
ARC
  8
0
  6
CONTINUOUS
 62
256
 10
-474.664758000000010
 20
-59.597563000000001
 40
1.499999999999989
 50
112.819243999999050
 51
210.000000000000510
  0
LINE
  8
0
  6
CONTINUOUS
 62
256
 10
-475.963796000000000
 20
-60.347563000000001
 11
-474.450695000000000
 21
-62.968331999999997
  0
ARC
  8
0
  6
CONTINUOUS
 62
256
 10
-477.936072000000020
 20
-53.931480999999998
 40
1.499999999999975
 50
210.000000000000510
 51
294.036429999999600
  0
LINE
  8
0
  6
CONTINUOUS
 62
256
 10
-480.742678000000010
 20
-52.070296999999997
 11
-479.235110000000020
 21
-54.681480999999998
  0
ARC
  8
0
  6
CONTINUOUS
 62
256
 10
-473.151657000000000
 20
-62.218331999999997
 40
1.499999999999975
 50
210.000000000000510
 51
292.071857999999220
  0
ARC
  8
0
  6
CONTINUOUS
 62
256
 10
-462.254351999999980
 20
-89.093017000000003
 40
33.500000000000000
 50
67.180756000000002
 51
112.819244000000000
  0
ARC
  8
0
  6
CONTINUOUS
 62
256
 10
-462.254351999999980
 20
-89.093017000000003
 40
36.999999999999993
 50
65.963570000000033
 51
114.036429999999970
  0
ARC
  8
0
  6
CONTINUOUS
 62
256
 10
-462.254351999999980
 20
-89.093017000000003
 40
27.499999999999993
 50
67.928142000000022
 51
112.071857999999980
  0
ARC
  8
0
  6
CONTINUOUS
 62
256
 10
-451.357047000000020
 20
-62.218331999999997
 40
1.499999999999991
 50
247.928142000000750
 51
329.999999999999490
  0
ARC
  8
0
  6
CONTINUOUS
 62
256
 10
-449.843945000000020
 20
-59.597563000000001
 40
1.499999999999975
 50
329.999999999999490
 51
67.180756000000954
  0
ARC
  8
0
  6
CONTINUOUS
 62
256
 10
-446.572631000000000
 20
-53.931480999999998
 40
1.499999999999999
 50
245.963570000000350
 51
329.999999999999490
  0
LINE
  8
0
  6
CONTINUOUS
 62
256
 10
-450.058009000000030
 20
-62.968331999999997
 11
-448.544907000000020
 21
-60.347563000000001
  0
LINE
  8
0
  6
CONTINUOUS
 62
256
 10
-445.273593000000010
 20
-54.681480999999998
 11
-443.766026000000010
 21
-52.070296999999997
  0
ARC
  8
0
  6
CONTINUOUS
 62
256
 10
-481.592961000000000
 20
-63.597563000000001
 40
1.499999999999975
 50
30.000000000000544
 51
127.180755999999920
  0
LINE
  8
0
  6
CONTINUOUS
 62
256
 10
-480.293923000000010
 20
-62.847563000000001
 11
-478.780822000000000
 21
-65.468332000000004
  0
ARC
  8
0
  6
CONTINUOUS
 62
256
 10
-484.864275000000020
 20
-57.931480999999998
 40
1.500000000000013
 50
305.963570000000630
 51
29.999999999999456
  0
LINE
  8
0
  6
CONTINUOUS
 62
256
 10
-485.072805000000020
 20
-54.570296999999997
 11
-483.565237000000020
 21
-57.181480999999998
  0
ARC
  8
0
  6
CONTINUOUS
 62
256
 10
-480.079860000000000
 20
-66.218332000000004
 40
1.500000000000018
 50
307.928142000000720
 51
30.000000000000544
  0
ARC
  8
0
  6
CONTINUOUS
 62
256
 10
-462.254351999999980
 20
-89.093017000000003
 40
33.500000000000000
 50
127.180756000000020
 51
172.819244000000000
  0
ARC
  8
0
  6
CONTINUOUS
 62
256
 10
-462.254351999999980
 20
-89.093017000000003
 40
43.000000000000014
 50
125.531072000000020
 51
174.468928000000010
  0
ARC
  8
0
  6
CONTINUOUS
 62
256
 10
-462.254351999999980
 20
-89.093017000000003
 40
37.000000000000000
 50
125.963569999999990
 51
174.036430000000000
  0
ARC
  8
0
  6
CONTINUOUS
 62
256
 10
-462.254351999999980
 20
-89.093017000000003
 40
27.500000000000004
 50
127.928141999999990
 51
172.071857999999990
  0
ARC
  8
0
  6
CONTINUOUS
 62
256
 10
-490.977165000000010
 20
-85.093017000000003
 40
1.500000000000000
 50
270.000000000000000
 51
352.071857999999850
  0
ARC
  8
0
  6
CONTINUOUS
 62
256
 10
-494.003367000000030
 20
-85.093017000000003
 40
1.500000000000028
 50
172.819243999999910
 51
270.000000000000000
  0
ARC
  8
0
  6
CONTINUOUS
 62
256
 10
-500.545996000000000
 20
-85.093017000000003
 40
1.500000000000000
 50
270.000000000000000
 51
354.036430000000220
  0
LINE
  8
0
  6
CONTINUOUS
 62
256
 10
-490.977165000000010
 20
-86.593017000000003
 11
-494.003367000000030
 21
-86.593017000000003
  0
LINE
  8
0
  6
CONTINUOUS
 62
256
 10
-500.545996000000000
 20
-86.593017000000003
 11
-503.561130999999990
 21
-86.593017000000003
  0
ARC
  8
0
  6
CONTINUOUS
 62
256
 10
-503.561130999999990
 20
-85.093017000000003
 40
1.499999999999979
 50
174.468927999999720
 51
270.000000000000000
  0
ARC
  8
0
  6
CONTINUOUS
 62
256
 10
-481.592961000000000
 20
-114.588472000000000
 40
1.499999999999994
 50
232.819243999999940
 51
329.999999999999490
  0
LINE
  8
0
  6
CONTINUOUS
 62
256
 10
-480.293923000000010
 20
-115.338472000000000
 11
-478.780822000000000
 21
-112.717703000000000
  0
ARC
  8
0
  6
CONTINUOUS
 62
256
 10
-484.864275000000020
 20
-120.254554000000000
 40
1.499999999999975
 50
329.999999999999490
 51
54.036429999999186
  0
ARC
  8
0
  6
CONTINUOUS
 62
256
 10
-480.079860000000000
 20
-111.967703000000000
 40
1.499999999999975
 50
329.999999999999490
 51
52.071857999999288
  0
ARC
  8
0
  6
CONTINUOUS
 62
256
 10
-462.254351999999980
 20
-89.093017000000003
 40
33.500000000000007
 50
187.180756000000000
 51
232.819243999999940
  0
ARC
  8
0
  6
CONTINUOUS
 62
256
 10
-462.254351999999980
 20
-89.093017000000003
 40
42.999999999999979
 50
185.531071999999990
 51
234.468927999999950
  0
ARC
  8
0
  6
CONTINUOUS
 62
256
 10
-462.254351999999980
 20
-89.093017000000003
 40
36.999999999999979
 50
185.963570000000000
 51
234.036429999999970
  0
ARC
  8
0
  6
CONTINUOUS
 62
256
 10
-462.254351999999980
 20
-89.093017000000003
 40
27.499999999999989
 50
187.928142000000010
 51
232.071858000000050
  0
ARC
  8
0
  6
CONTINUOUS
 62
256
 10
-490.977165000000010
 20
-93.093017000000003
 40
1.500000000000004
 50
7.928142000000149
 51
90.000000000000000
  0
ARC
  8
0
  6
CONTINUOUS
 62
256
 10
-494.003367000000030
 20
-93.093017000000003
 40
1.500000000000000
 50
90.000000000000000
 51
187.180756000000090
  0
ARC
  8
0
  6
CONTINUOUS
 62
256
 10
-500.545996000000000
 20
-93.093017000000003
 40
1.500000000000012
 50
5.963569999999792
 51
90.000000000000000
  0
LINE
  8
0
  6
CONTINUOUS
 62
256
 10
-490.977165000000010
 20
-91.593017000000003
 11
-494.003367000000030
 21
-91.593017000000003
  0
LINE
  8
0
  6
CONTINUOUS
 62
256
 10
-500.545996000000000
 20
-91.593017000000003
 11
-503.561130999999990
 21
-91.593017000000003
  0
ARC
  8
0
  6
CONTINUOUS
 62
256
 10
-503.561130999999990
 20
-93.093017000000003
 40
1.500000000000000
 50
90.000000000000000
 51
185.531072000000280
  0
ARC
  8
0
  6
CONTINUOUS
 62
256
 10
-474.664758000000010
 20
-118.588472000000000
 40
1.500000000000025
 50
150.000000000000540
 51
247.180756000000940
  0
LINE
  8
0
  6
CONTINUOUS
 62
256
 10
-475.963796000000000
 20
-117.838472000000000
 11
-474.450695000000000
 21
-115.217703000000000
  0
ARC
  8
0
  6
CONTINUOUS
 62
256
 10
-473.151657000000000
 20
-115.967703000000000
 40
1.499999999999998
 50
67.928142000000889
 51
150.000000000000540
  0
ARC
  8
0
  6
CONTINUOUS
 62
256
 10
-462.254351999999980
 20
-89.093017000000003
 40
33.500000000000007
 50
247.180756000000030
 51
292.819243999999970
  0
ARC
  8
0
  6
CONTINUOUS
 62
256
 10
-462.254351999999980
 20
-89.093017000000003
 40
27.500000000000004
 50
247.928142000000040
 51
292.071857999999960
  0
ARC
  8
0
  6
CONTINUOUS
 62
256
 10
-451.357047000000020
 20
-115.967703000000000
 40
1.499999999999975
 50
30.000000000000544
 51
112.071857999999120
  0
ARC
  8
0
  6
CONTINUOUS
 62
256
 10
-449.843945000000020
 20
-118.588472000000000
 40
1.499999999999989
 50
292.819243999999060
 51
30.000000000000544
  0
LINE
  8
0
  6
CONTINUOUS
 62
256
 10
-450.058009000000030
 20
-115.217703000000000
 11
-448.544907000000020
 21
-117.838472000000000
  0
ARC
  8
0
  6
CONTINUOUS
 62
256
 10
-462.254351999999980
 20
-89.093017000000003
 40
33.499999999999986
 50
307.180755999999920
 51
352.819244000000030
  0
ARC
  8
0
  6
CONTINUOUS
 62
256
 10
-462.254351999999980
 20
-89.093017000000003
 40
36.999999999999993
 50
305.963570000000000
 51
354.036429999999940
  0
ARC
  8
0
  6
CONTINUOUS
 62
256
 10
-439.644428000000000
 20
-120.254554000000000
 40
1.500000000000018
 50
125.963570000000500
 51
210.000000000000510
  0
ARC
  8
0
  6
CONTINUOUS
 62
256
 10
-442.915742000000020
 20
-114.588472000000000
 40
1.499999999999975
 50
210.000000000000510
 51
307.180756000000090
  0
ARC
  8
0
  6
CONTINUOUS
 62
256
 10
-462.254351999999980
 20
-89.093017000000003
 40
27.500000000000004
 50
307.928141999999980
 51
352.071858000000020
  0
ARC
  8
0
  6
CONTINUOUS
 62
256
 10
-433.531539000000010
 20
-93.093017000000003
 40
1.500000000000000
 50
90.000000000000000
 51
172.071857999999850
  0
LINE
  8
0
  6
CONTINUOUS
 62
256
 10
-445.727882000000020
 20
-112.717703000000000
 11
-444.214780000000020
 21
-115.338472000000000
  0
ARC
  8
0
  6
CONTINUOUS
 62
256
 10
-444.428844000000030
 20
-111.967703000000000
 40
1.500000000000018
 50
127.928142000000730
 51
210.000000000000510
  0
CIRCLE
  8
0
  6
CONTINUOUS
 62
256
 10
-462.254351999999980
 20
-89.093017000000003
 40
5.000000000000000
  0
ARC
  8
0
  6
CONTINUOUS
 62
256
 10
-454.207674000000000
 20
-95.030270999999999
 40
1.500000000000000
 50
143.578178000000040
 51
210.000000000000510
  0
ARC
  8
0
  6
CONTINUOUS
 62
256
 10
-453.089200000000010
 20
-93.093017000000003
 40
1.500000000000000
 50
90.000000000000000
 51
156.421821999999620
  0
ARC
  8
0
  6
CONTINUOUS
 62
256
 10
-447.719454999999980
 20
-106.268197000000000
 40
1.499999999999975
 50
210.000000000000510
 51
310.240347999999810
  0
ARC
  8
0
  6
CONTINUOUS
 62
256
 10
-449.885035000000020
 20
-93.093017000000003
 40
1.500000000000024
 50
342.079787000000580
 51
90.000000000000000
  0
ARC
  8
0
  6
CONTINUOUS
 62
256
 10
-443.169017000000000
 20
-93.093017000000003
 40
1.500000000000000
 50
90.000000000000000
 51
168.162996000000190
  0
ARC
  8
0
  6
CONTINUOUS
 62
256
 10
-449.247583000000020
 20
-103.621402000000000
 40
1.499999999999989
 50
131.837003999999810
 51
210.000000000000510
  0
ARC
  8
0
  6
CONTINUOUS
 62
256
 10
-440.112761999999980
 20
-93.093017000000003
 40
1.500000000000009
 50
349.759652000000300
 51
90.000000000000000
  0
ARC
  8
0
  6
CONTINUOUS
 62
256
 10
-452.605592000000000
 20
-97.805160000000001
 40
1.499999999999975
 50
210.000000000000510
 51
317.920212999999820
  0
LINE
  8
0
  6
CONTINUOUS
 62
256
 10
-450.546621000000020
 20
-104.371402000000000
 11
-449.018492999999980
 21
-107.018197000000000
  0
ARC
  8
0
  6
CONTINUOUS
 62
256
 10
-462.254351999999980
 20
-89.093017000000003
 40
14.500000000000021
 50
317.920213000000050
 51
342.079787000000010
  0
LINE
  8
0
  6
CONTINUOUS
 62
256
 10
-449.885035000000020
 20
-91.593017000000003
 11
-453.089200000000010
 21
-91.593017000000003
  0
LINE
  8
0
  6
CONTINUOUS
 62
256
 10
-440.112761999999980
 20
-91.593017000000003
 11
-443.169017000000000
 21
-91.593017000000003
  0
LINE
  8
0
  6
CONTINUOUS
 62
256
 10
-455.506712999999990
 20
-95.780270999999999
 11
-453.904630000000000
 21
-98.555160000000001
  0
ARC
  8
0
  6
CONTINUOUS
 62
256
 10
-462.254351999999980
 20
-89.093017000000003
 40
24.000000000000004
 50
310.240347999999980
 51
349.759652000000020
  0
ARC
  8
0
  6
CONTINUOUS
 62
256
 10
-462.254351999999980
 20
-89.093017000000003
 40
8.499999999999989
 50
323.578177999999920
 51
336.421821999999910
  0
ARC
  8
0
  6
CONTINUOUS
 62
256
 10
-464.974909000000030
 20
-101.805160000000000
 40
1.500000000000025
 50
150.000000000000540
 51
257.920213000000730
  0
LINE
  8
0
  6
CONTINUOUS
 62
256
 10
-466.273947000000020
 20
-101.055160000000000
 11
-464.671864000000030
 21
-98.280270999999999
  0
ARC
  8
0
  6
CONTINUOUS
 62
256
 10
-463.372825999999980
 20
-99.030270999999999
 40
1.500000000000001
 50
83.578178000000747
 51
149.999999999999460
  0
ARC
  8
0
  6
CONTINUOUS
 62
256
 10
-462.254351999999980
 20
-89.093017000000003
 40
8.500000000000007
 50
263.578177999999980
 51
276.421822000000020
  0
ARC
  8
0
  6
CONTINUOUS
 62
256
 10
-461.135877999999990
 20
-99.030270999999999
 40
1.499999999999975
 50
30.000000000000544
 51
96.421821999999253
  0
LINE
  8
0
  6
CONTINUOUS
 62
256
 10
-459.836840000000000
 20
-98.280270999999999
 11
-458.234757000000000
 21
-101.055160000000000
  0
ARC
  8
0
  6
CONTINUOUS
 62
256
 10
-459.533795000000000
 20
-101.805160000000000
 40
1.499999999999989
 50
282.079786999999270
 51
30.000000000000544
  0
ARC
  8
0
  6
CONTINUOUS
 62
256
 10
-462.254351999999980
 20
-89.093017000000003
 40
14.500000000000002
 50
257.920213000000050
 51
282.079786999999950
  0
ARC
  8
0
  6
CONTINUOUS
 62
256
 10
-469.861044999999990
 20
-110.268197000000000
 40
1.500000000000025
 50
150.000000000000540
 51
250.240347999999300
  0
LINE
  8
0
  6
CONTINUOUS
 62
256
 10
-471.160082999999990
 20
-109.518197000000000
 11
-469.631956000000000
 21
-106.871402000000000
  0
ARC
  8
0
  6
CONTINUOUS
 62
256
 10
-468.332917000000010
 20
-107.621402000000000
 40
1.500000000000007
 50
71.837003999999709
 51
149.999999999999460
  0
ARC
  8
0
  6
CONTINUOUS
 62
256
 10
-462.254351999999980
 20
-89.093017000000003
 40
17.999999999999996
 50
251.837003999999980
 51
288.162995999999960
  0
ARC
  8
0
  6
CONTINUOUS
 62
256
 10
-456.175786000000020
 20
-107.621402000000000
 40
1.500000000000025
 50
29.999999999999456
 51
108.162996000000290
  0
LINE
  8
0
  6
CONTINUOUS
 62
256
 10
-454.876748000000020
 20
-106.871402000000000
 11
-453.348619999999980
 21
-109.518197000000000
  0
ARC
  8
0
  6
CONTINUOUS
 62
256
 10
-454.647657999999980
 20
-110.268197000000000
 40
1.500000000000012
 50
289.759652000000640
 51
29.999999999999456
  0
ARC
  8
0
  6
CONTINUOUS
 62
256
 10
-462.254351999999980
 20
-89.093017000000003
 40
23.999999999999993
 50
250.240348000000010
 51
289.759652000000020
  0
ARC
  8
0
  6
CONTINUOUS
 62
256
 10
-464.974909000000030
 20
-76.380875000000003
 40
1.499999999999989
 50
102.079786999999230
 51
210.000000000000510
  0
LINE
  8
0
  6
CONTINUOUS
 62
256
 10
-466.273947000000020
 20
-77.130875000000003
 11
-464.671864000000030
 21
-79.905764000000005
  0
ARC
  8
0
  6
CONTINUOUS
 62
256
 10
-463.372825999999980
 20
-79.155764000000005
 40
1.499999999999975
 50
210.000000000000510
 51
276.421821999999220
  0
ARC
  8
0
  6
CONTINUOUS
 62
256
 10
-462.254351999999980
 20
-89.093017000000003
 40
8.500000000000007
 50
83.578177999999994
 51
96.421822000000020
  0
ARC
  8
0
  6
CONTINUOUS
 62
256
 10
-461.135877999999990
 20
-79.155764000000005
 40
1.500000000000001
 50
263.578178000000780
 51
329.999999999999490
  0
LINE
  8
0
  6
CONTINUOUS
 62
256
 10
-459.836840000000000
 20
-79.905764000000005
 11
-458.234757000000000
 21
-77.130875000000003
  0
ARC
  8
0
  6
CONTINUOUS
 62
256
 10
-459.533795000000000
 20
-76.380875000000003
 40
1.499999999999975
 50
329.999999999999490
 51
77.920213000000771
  0
ARC
  8
0
  6
CONTINUOUS
 62
256
 10
-462.254351999999980
 20
-89.093017000000003
 40
14.500000000000002
 50
77.920213000000032
 51
102.079786999999980
  0
ARC
  8
0
  6
CONTINUOUS
 62
256
 10
-469.861044999999990
 20
-67.917838000000003
 40
1.500000000000012
 50
109.759652000000680
 51
210.000000000000510
  0
LINE
  8
0
  6
CONTINUOUS
 62
256
 10
-471.160082999999990
 20
-68.667838000000003
 11
-469.631956000000000
 21
-71.314633000000001
  0
ARC
  8
0
  6
CONTINUOUS
 62
256
 10
-468.332917000000010
 20
-70.564633000000001
 40
1.499999999999975
 50
210.000000000000510
 51
288.162996000000310
  0
ARC
  8
0
  6
CONTINUOUS
 62
256
 10
-462.254351999999980
 20
-89.093017000000003
 40
17.999999999999996
 50
71.837004000000007
 51
108.162996000000010
  0
ARC
  8
0
  6
CONTINUOUS
 62
256
 10
-456.175786000000020
 20
-70.564633000000001
 40
1.500000000000007
 50
251.837003999999720
 51
329.999999999999490
  0
LINE
  8
0
  6
CONTINUOUS
 62
256
 10
-454.876748000000020
 20
-71.314633000000001
 11
-453.348619999999980
 21
-68.667838000000003
  0
ARC
  8
0
  6
CONTINUOUS
 62
256
 10
-454.647657999999980
 20
-67.917838000000003
 40
1.499999999999975
 50
329.999999999999490
 51
70.240347999999329
  0
ARC
  8
0
  6
CONTINUOUS
 62
256
 10
-462.254351999999980
 20
-89.093017000000003
 40
23.999999999999993
 50
70.240348000000012
 51
109.759651999999990
  0
ARC
  8
0
  6
CONTINUOUS
 62
256
 10
-471.903112000000020
 20
-80.380875000000003
 40
1.499999999999975
 50
30.000000000000544
 51
137.920212999999820
  0
LINE
  8
0
  6
CONTINUOUS
 62
256
 10
-470.604074000000030
 20
-79.630875000000003
 11
-469.001990999999980
 21
-82.405764000000005
  0
ARC
  8
0
  6
CONTINUOUS
 62
256
 10
-470.301029000000030
 20
-83.155764000000005
 40
1.500000000000000
 50
323.578178000000040
 51
30.000000000000544
  0
ARC
  8
0
  6
CONTINUOUS
 62
256
 10
-462.254351999999980
 20
-89.093017000000003
 40
8.499999999999989
 50
143.578177999999950
 51
156.421821999999930
  0
ARC
  8
0
  6
CONTINUOUS
 62
256
 10
-471.419503000000020
 20
-85.093017000000003
 40
1.500000000000000
 50
270.000000000000000
 51
336.421821999999620
  0
LINE
  8
0
  6
CONTINUOUS
 62
256
 10
-471.419503000000020
 20
-86.593017000000003
 11
-474.623669000000010
 21
-86.593017000000003
  0
ARC
  8
0
  6
CONTINUOUS
 62
256
 10
-474.623669000000010
 20
-85.093017000000003
 40
1.500000000000024
 50
162.079787000000550
 51
270.000000000000000
  0
ARC
  8
0
  6
CONTINUOUS
 62
256
 10
-462.254351999999980
 20
-89.093017000000003
 40
14.500000000000012
 50
137.920213000000070
 51
162.079787000000070
  0
ARC
  8
0
  6
CONTINUOUS
 62
256
 10
-476.789247999999990
 20
-71.917838000000003
 40
1.499999999999975
 50
30.000000000000544
 51
130.240347999999780
  0
LINE
  8
0
  6
CONTINUOUS
 62
256
 10
-475.490209999999990
 20
-71.167838000000003
 11
-473.962083000000010
 21
-73.814633000000001
  0
ARC
  8
0
  6
CONTINUOUS
 62
256
 10
-475.261121000000000
 20
-74.564633000000001
 40
1.499999999999989
 50
311.837003999999810
 51
29.999999999999456
  0
ARC
  8
0
  6
CONTINUOUS
 62
256
 10
-462.254351999999980
 20
-89.093017000000003
 40
17.999999999999989
 50
131.837003999999920
 51
168.162995999999990
  0
ARC
  8
0
  6
CONTINUOUS
 62
256
 10
-481.339685999999970
 20
-85.093017000000003
 40
1.500000000000000
 50
270.000000000000000
 51
348.162996000000190
  0
LINE
  8
0
  6
CONTINUOUS
 62
256
 10
-481.339685999999970
 20
-86.593017000000003
 11
-484.395941999999990
 21
-86.593017000000003
  0
ARC
  8
0
  6
CONTINUOUS
 62
256
 10
-484.395941999999990
 20
-85.093017000000003
 40
1.500000000000009
 50
169.759652000000300
 51
270.000000000000000
  0
ARC
  8
0
  6
CONTINUOUS
 62
256
 10
-462.254351999999980
 20
-89.093017000000003
 40
24.000000000000004
 50
130.240347999999980
 51
169.759651999999960
  0
ARC
  8
0
  6
CONTINUOUS
 62
256
 10
-471.903112000000020
 20
-97.805160000000001
 40
1.499999999999994
 50
222.079787000000180
 51
329.999999999999490
  0
LINE
  8
0
  6
CONTINUOUS
 62
256
 10
-470.604074000000030
 20
-98.555160000000001
 11
-469.001990999999980
 21
-95.780270999999999
  0
ARC
  8
0
  6
CONTINUOUS
 62
256
 10
-470.301029000000030
 20
-95.030270999999999
 40
1.499999999999975
 50
329.999999999999490
 51
36.421821999999963
  0
ARC
  8
0
  6
CONTINUOUS
 62
256
 10
-462.254351999999980
 20
-89.093017000000003
 40
8.499999999999991
 50
203.578178000000070
 51
216.421822000000050
  0
ARC
  8
0
  6
CONTINUOUS
 62
256
 10
-471.419503000000020
 20
-93.093017000000003
 40
1.499999999999984
 50
23.578178000000403
 51
90.000000000000000
  0
LINE
  8
0
  6
CONTINUOUS
 62
256
 10
-471.419503000000020
 20
-91.593017000000003
 11
-474.623669000000010
 21
-91.593017000000003
  0
ARC
  8
0
  6
CONTINUOUS
 62
256
 10
-474.623669000000010
 20
-93.093017000000003
 40
1.500000000000000
 50
90.000000000000000
 51
197.920212999999450
  0
ARC
  8
0
  6
CONTINUOUS
 62
256
 10
-462.254351999999980
 20
-89.093017000000003
 40
14.500000000000011
 50
197.920212999999930
 51
222.079786999999930
  0
ARC
  8
0
  6
CONTINUOUS
 62
256
 10
-476.789247999999990
 20
-106.268197000000000
 40
1.499999999999991
 50
229.759652000000220
 51
329.999999999999490
  0
LINE
  8
0
  6
CONTINUOUS
 62
256
 10
-475.490209999999990
 20
-107.018197000000000
 11
-473.962083000000010
 21
-104.371402000000000
  0
ARC
  8
0
  6
CONTINUOUS
 62
256
 10
-475.261121000000000
 20
-103.621402000000000
 40
1.499999999999975
 50
329.999999999999490
 51
48.162996000000220
  0
ARC
  8
0
  6
CONTINUOUS
 62
256
 10
-462.254351999999980
 20
-89.093017000000003
 40
17.999999999999975
 50
191.837004000000010
 51
228.162996000000020
  0
ARC
  8
0
  6
CONTINUOUS
 62
256
 10
-481.339685999999970
 20
-93.093017000000003
 40
1.499999999999997
 50
11.837003999999803
 51
90.000000000000000
  0
LINE
  8
0
  6
CONTINUOUS
 62
256
 10
-481.339685999999970
 20
-91.593017000000003
 11
-484.395941999999990
 21
-91.593017000000003
  0
ARC
  8
0
  6
CONTINUOUS
 62
256
 10
-484.395941999999990
 20
-93.093017000000003
 40
1.500000000000000
 50
90.000000000000000
 51
190.240347999999700
  0
ARC
  8
0
  6
CONTINUOUS
 62
256
 10
-462.254351999999980
 20
-89.093017000000003
 40
23.999999999999996
 50
190.240348000000040
 51
229.759652000000020
  0
ARC
  8
0
  6
CONTINUOUS
 62
256
 10
-449.885035000000020
 20
-85.093017000000003
 40
1.500000000000000
 50
270.000000000000000
 51
17.920212999999450
  0
LINE
  8
0
  6
CONTINUOUS
 62
256
 10
-449.885035000000020
 20
-86.593017000000003
 11
-453.089200000000010
 21
-86.593017000000003
  0
ARC
  8
0
  6
CONTINUOUS
 62
256
 10
-453.089200000000010
 20
-85.093017000000003
 40
1.499999999999984
 50
203.578178000000380
 51
270.000000000000000
  0
ARC
  8
0
  6
CONTINUOUS
 62
256
 10
-462.254351999999980
 20
-89.093017000000003
 40
8.499999999999991
 50
23.578178000000058
 51
36.421822000000063
  0
ARC
  8
0
  6
CONTINUOUS
 62
256
 10
-454.207674000000000
 20
-83.155764000000005
 40
1.500000000000025
 50
150.000000000000540
 51
216.421821999999960
  0
LINE
  8
0
  6
CONTINUOUS
 62
256
 10
-455.506712999999990
 20
-82.405764000000005
 11
-453.904630000000000
 21
-79.630875000000003
  0
ARC
  8
0
  6
CONTINUOUS
 62
256
 10
-452.605592000000000
 20
-80.380875000000003
 40
1.499999999999994
 50
42.079787000000181
 51
150.000000000000540
  0
ARC
  8
0
  6
CONTINUOUS
 62
256
 10
-462.254351999999980
 20
-89.093017000000003
 40
14.500000000000014
 50
17.920213000000000
 51
42.079786999999946
  0
ARC
  8
0
  6
CONTINUOUS
 62
256
 10
-440.112761999999980
 20
-85.093017000000003
 40
1.500000000000000
 50
270.000000000000000
 51
10.240347999999715
  0
LINE
  8
0
  6
CONTINUOUS
 62
256
 10
-440.112761999999980
 20
-86.593017000000003
 11
-443.169017000000000
 21
-86.593017000000003
  0
ARC
  8
0
  6
CONTINUOUS
 62
256
 10
-443.169017000000000
 20
-85.093017000000003
 40
1.499999999999997
 50
191.837003999999810
 51
270.000000000000000
  0
ARC
  8
0
  6
CONTINUOUS
 62
256
 10
-462.254351999999980
 20
-89.093017000000003
 40
17.999999999999975
 50
11.837004000000027
 51
48.162996000000071
  0
ARC
  8
0
  6
CONTINUOUS
 62
256
 10
-449.247583000000020
 20
-74.564633000000001
 40
1.499999999999975
 50
149.999999999999460
 51
228.162996000000190
  0
LINE
  8
0
  6
CONTINUOUS
 62
256
 10
-450.546621000000020
 20
-73.814633000000001
 11
-449.018492999999980
 21
-71.167838000000003
  0
ARC
  8
0
  6
CONTINUOUS
 62
256
 10
-447.719454999999980
 20
-71.917838000000003
 40
1.499999999999991
 50
49.759652000000230
 51
149.999999999999460
  0
ARC
  8
0
  6
CONTINUOUS
 62
256
 10
-462.254351999999980
 20
-89.093017000000003
 40
23.999999999999993
 50
10.240347999999988
 51
49.759652000000010
  0
ARC
  8
0
  6
CONTINUOUS
 62
256
 10
-430.505336000000000
 20
-85.093017000000003
 40
1.500000000000000
 50
270.000000000000000
 51
7.180756000000089
  0
LINE
  8
0
  6
CONTINUOUS
 62
256
 10
-430.505336000000000
 20
-86.593017000000003
 11
-433.531539000000010
 21
-86.593017000000003
  0
ARC
  8
0
  6
CONTINUOUS
 62
256
 10
-423.962708000000020
 20
-85.093017000000003
 40
1.500000000000012
 50
185.963569999999780
 51
270.000000000000000
  0
LINE
  8
0
  6
CONTINUOUS
 62
256
 10
-420.947572999999980
 20
-86.593017000000003
 11
-423.962708000000020
 21
-86.593017000000003
  0
LINE
  8
0
  6
CONTINUOUS
 62
256
 10
-485.072805000000020
 20
-123.615737999999990
 11
-483.565237000000020
 21
-121.004554000000000
  0
ARC
  8
0
  6
CONTINUOUS
 62
256
 10
-486.371843000000010
 20
-122.865737999999990
 40
1.499999999999989
 50
234.468928000000520
 51
329.999999999999490
  0
ARC
  8
0
  6
CONTINUOUS
 62
256
 10
-477.936072000000020
 20
-124.254554000000000
 40
1.499999999999999
 50
65.963570000000374
 51
149.999999999999460
  0
LINE
  8
0
  6
CONTINUOUS
 62
256
 10
-480.742678000000010
 20
-126.115737999999990
 11
-479.235110000000020
 21
-123.504554000000000
  0
ARC
  8
0
  6
CONTINUOUS
 62
256
 10
-479.443640000000020
 20
-126.865737999999990
 40
1.499999999999975
 50
149.999999999999460
 51
245.531072000000020
  0
ARC
  8
0
  6
CONTINUOUS
 62
256
 10
-462.254351999999980
 20
-89.093017000000003
 40
42.999999999999993
 50
245.531071999999970
 51
294.468927999999950
  0
ARC
  8
0
  6
CONTINUOUS
 62
256
 10
-462.254351999999980
 20
-89.093017000000003
 40
37.000000000000014
 50
245.963569999999950
 51
294.036429999999940
  0
ARC
  8
0
  6
CONTINUOUS
 62
256
 10
-446.572631000000000
 20
-124.254554000000000
 40
1.500000000000025
 50
29.999999999999456
 51
114.036429999999640
  0
LINE
  8
0
  6
CONTINUOUS
 62
256
 10
-445.273593000000010
 20
-123.504554000000000
 11
-443.766026000000010
 21
-126.115737999999990
  0
ARC
  8
0
  6
CONTINUOUS
 62
256
 10
-445.065064000000010
 20
-126.865737999999990
 40
1.499999999999989
 50
294.468928000000010
 51
29.999999999999456
  0
ARC
  8
0
  6
CONTINUOUS
 62
256
 10
-462.254351999999980
 20
-89.093017000000003
 40
43.000000000000021
 50
305.531071999999990
 51
354.468928000000010
  0
ARC
  8
0
  6
CONTINUOUS
 62
256
 10
-438.136861000000010
 20
-122.865737999999990
 40
1.499999999999975
 50
210.000000000000510
 51
305.531071999999480
  0
ARC
  8
0
  6
CONTINUOUS
 62
256
 10
-423.962708000000020
 20
-93.093017000000003
 40
1.500000000000000
 50
90.000000000000000
 51
174.036430000000220
  0
ARC
  8
0
  6
CONTINUOUS
 62
256
 10
-430.505336000000000
 20
-93.093017000000003
 40
1.500000000000028
 50
352.819243999999910
 51
90.000000000000000
  0
LINE
  8
0
  6
CONTINUOUS
 62
256
 10
-430.505336000000000
 20
-91.593017000000003
 11
-433.531539000000010
 21
-91.593017000000003
  0
LINE
  8
0
  6
CONTINUOUS
 62
256
 10
-440.943466000000000
 20
-121.004554000000000
 11
-439.435899000000010
 21
-123.615737999999990
  0
LINE
  8
0
  6
CONTINUOUS
 62
256
 10
-420.947572999999980
 20
-91.593017000000003
 11
-423.962708000000020
 21
-91.593017000000003
  0
ARC
  8
0
  6
CONTINUOUS
 62
256
 10
-462.254351999999980
 20
-89.093017000000003
 40
27.499999999999986
 50
7.928141999999994
 51
52.071858000000006
  0
ARC
  8
0
  6
CONTINUOUS
 62
256
 10
-462.254351999999980
 20
-89.093017000000003
 40
17.999999999999989
 50
311.837003999999920
 51
348.162995999999960
  0
ARC
  8
0
  6
CONTINUOUS
 62
256
 10
-420.947572999999980
 20
-85.093017000000003
 40
1.500000000000000
 50
270.000000000000000
 51
5.531072000000276
  0
ARC
  8
0
  6
CONTINUOUS
 62
256
 10
-420.947572999999980
 20
-93.093017000000003
 40
1.499999999999979
 50
354.468927999999720
 51
90.000000000000000
  0
LINE
  8
0
  6
CONTINUOUS
 62
256
 10
-407.490833000000010
 20
-137.708509999999990
 11
-414.557281999999990
 21
-144.774959000000000
  0
ARC
  8
0
  6
CONTINUOUS
 62
256
 10
-702.854351999999950
 20
-89.093017000000003
 40
300.600000000000020
 50
0.000000000000000
 51
8.597082000000000
  0
ARC
  8
0
  6
CONTINUOUS
 62
256
 10
-221.654351999999990
 20
-89.093017000000003
 40
300.600000000000020
 50
180.000000000000000
 51
188.597082000000000
  0
ARC
  8
0
  6
CONTINUOUS
 62
256
 10
-412.157737000000000
 20
-133.041605000000000
 40
6.600000000000017
 50
315.000000000000170
 51
351.402917999999940
  0
ARC
  8
0
  6
CONTINUOUS
 62
256
 10
-702.854351999999950
 20
-89.093017000000003
 40
300.600000000000020
 50
351.402918000000000
 51
0.000000000000000
  0
ARC
  8
0
  6
CONTINUOUS
 62
256
 10
-462.254351999999980
 20
146.506982999999990
 40
300.600000000000020
 50
263.948015000000000
 51
276.051985000000000
  0
LINE
  8
0
  6
CONTINUOUS
 62
256
 10
-517.017871000000010
 20
-137.708509999999990
 11
-509.951421999999980
 21
-144.774959000000000
  0
ARC
  8
0
  6
CONTINUOUS
 62
256
 10
-512.350965999999970
 20
-133.041605000000000
 40
6.600000000000022
 50
188.597082000000030
 51
225.000000000000170
  0
ARC
  8
0
  6
CONTINUOUS
 62
256
 10
-221.654351999999990
 20
-89.093017000000003
 40
300.600000000000020
 50
171.402918000000000
 51
180.000000000000000
  0
LINE
  8
0
  6
DASHDOT
 62
256
 10
-528.259635000000000
 20
-89.093017000000003
 11
-397.425123999999980
 21
-89.093017000000003
  0
ARC
  8
0
  6
CONTINUOUS
 62
256
 10
-433.366322000000030
 20
-125.965918000000000
 40
26.599999999999994
 50
276.051984999999950
 51
315.000000000000000
  0
ARC
  8
0
  6
CONTINUOUS
 62
256
 10
-491.142381000000000
 20
-125.965918000000000
 40
26.600000000000030
 50
224.999999999999970
 51
263.948015000000050
  0
ARC
  8
0
  6
CONTINUOUS
 62
256
 10
-462.254351999999980
 20
146.506982999999990
 40
289.396999999999990
 50
270.000000000000000
 51
276.051985000000000
  0
ARC
  8
0
  6
CONTINUOUS
 62
256
 10
-433.366322000000030
 20
-125.965918000000000
 40
15.396999999999988
 50
276.051984999999890
 51
314.999999999999890
  0
LINE
  8
0
  6
CONTINUOUS
 62
256
 10
-417.902934000000020
 20
-132.277176000000000
 11
-422.478998999999990
 21
-136.853241000000000
  0
ARC
  8
0
  6
CONTINUOUS
 62
256
 10
-422.145574000000010
 20
-128.034535000000010
 40
5.999999999999989
 50
314.999999999999770
 51
352.102010999999950
  0
ARC
  8
0
  6
CONTINUOUS
 62
256
 10
-702.854351999999950
 20
-89.093017000000003
 40
289.396999999999990
 50
352.102011000000000
 51
360.000000000000000
  0
ARC
  8
0
  6
CONTINUOUS
 62
256
 10
-462.254351999999980
 20
146.506982999999990
 40
289.397000000000050
 50
263.948015000000000
 51
270.000000000000000
  0
ARC
  8
0
  6
CONTINUOUS
 62
256
 10
-491.142381000000000
 20
-125.965918000000000
 40
15.397000000000025
 50
224.999999999999940
 51
263.948015000000050
  0
LINE
  8
0
  6
CONTINUOUS
 62
256
 10
-506.605770000000010
 20
-132.277176000000000
 11
-502.029704999999980
 21
-136.853241000000000
  0
ARC
  8
0
  6
CONTINUOUS
 62
256
 10
-502.363129000000010
 20
-128.034535000000010
 40
5.999999999999990
 50
187.897989000000000
 51
225.000000000000170
  0
ARC
  8
0
  6
CONTINUOUS
 62
256
 10
-221.654351999999990
 20
-89.093017000000003
 40
289.396999999999930
 50
180.000000000000000
 51
187.897989000000000
  0
ARC
  8
0
  6
CONTINUOUS
 62
256
 10
-221.654351999999990
 20
-89.093017000000003
 40
289.396999999999990
 50
172.102011000000030
 51
180.000000000000000
  0
LINE
  8
0
  6
CONTINUOUS
 62
256
 10
-501.254351999999980
 20
-151.757704999999990
 11
-511.254351999999980
 21
-151.757704999999990
  0
LINE
  8
0
  6
CONTINUOUS
 62
256
 10
-425.254351999999980
 20
-153.093017000000000
 11
-413.254351999999980
 21
-152.883557000000000
  0
LINE
  8
0
  6
CONTINUOUS
 62
256
 10
-409.254351999999980
 20
-23.593017000000000
 11
-413.254351999999980
 21
-23.593017000000000
  0
LINE
  8
0
  6
CONTINUOUS
 62
256
 10
-425.254351999999980
 20
-5.084290000000000
 11
-501.254351999999980
 21
-6.428330000000000
  0
LINE
  8
0
  6
CONTINUOUS
 62
256
 10
-413.254351999999980
 20
-5.302478000000000
 11
-425.254351999999980
 21
-5.093017000000000
  0
LINE
  8
0
  6
CONTINUOUS
 62
256
 10
-511.254351999999980
 20
-23.593017000000000
 11
-515.254352000000040
 21
-23.593017000000000
  0
LINE
  8
0
  6
CONTINUOUS
 62
256
 10
-501.254351999999980
 20
-6.428330000000000
 11
-511.254351999999980
 21
-6.428330000000000
  0
ARC
  8
0
  6
CONTINUOUS
 62
256
 10
-518.254352000000040
 20
-45.093017000000003
 40
1.000000000000020
 50
130.446459000001600
 51
180.000000000000000
  0
LINE
  8
0
  6
CONTINUOUS
 62
256
 10
-519.254352000000040
 20
-45.093017000000003
 11
-519.254352000000040
 21
-46.730297999999998
  0
LINE
  8
0
  6
CONTINUOUS
 62
256
 10
-515.254352000000040
 20
-38.714005999999998
 11
-515.254352000000040
 21
-23.593017000000000
  0
LINE
  8
0
  6
CONTINUOUS
 62
256
 10
-511.254351999999980
 20
-34.714005999999998
 11
-511.254351999999980
 21
-6.428330000000000
  0
LINE
  8
0
  6
CONTINUOUS
 62
256
 10
-425.254351999999980
 20
-5.084290000000000
 11
-425.254351999999980
 21
-26.887214000000000
  0
LINE
  8
0
  6
CONTINUOUS
 62
256
 10
-413.254351999999980
 20
-34.714005999999998
 11
-413.254351999999980
 21
-5.302478000000000
  0
LINE
  8
0
  6
CONTINUOUS
 62
256
 10
-409.254351999999980
 20
-23.593017000000000
 11
-409.254351999999980
 21
-38.714005999999998
  0
ARC
  8
0
  6
CONTINUOUS
 62
256
 10
-406.254351999999980
 20
-45.093017000000003
 40
1.000000000000000
 50
0.000000000000000
 51
49.553541000000891
  0
LINE
  8
0
  6
CONTINUOUS
 62
256
 10
-405.254351999999980
 20
-45.093017000000003
 11
-405.254351999999980
 21
-46.730297999999998
  0
LINE
  8
0
  6
CONTINUOUS
 62
256
 10
-413.254351999999980
 20
-152.883557000000000
 11
-413.254351999999980
 21
-143.472028999999990
  0
LINE
  8
0
  6
CONTINUOUS
 62
256
 10
-425.254351999999980
 20
-151.298821000000000
 11
-425.254351999999980
 21
-153.101744999999990
  0
LINE
  8
0
  6
CONTINUOUS
 62
256
 10
-511.254351999999980
 20
-151.757704999999990
 11
-511.254351999999980
 21
-143.472028999999990
  0
LINE
  8
0
  6
CONTINUOUS
 62
256
 10
-497.371067999999980
 20
-151.826380000000000
 11
-501.254351999999980
 21
-151.757704999999990
  0
LINE
  8
0
  6
CONTINUOUS
 62
256
 10
-425.254351999999980
 20
-153.101744999999990
 11
-432.254351999999980
 21
-152.977951999999990
  0
ARC
  8
0
  6
CONTINUOUS
 62
256
 10
-462.254351999999980
 20
-324.693017000000000
 40
289.396999999999990
 50
83.948014999999998
 51
89.912559000000016
  0
LINE
  8
0
  6
DASHDOT
 62
256
 10
-462.254351999999980
 20
2.362823000000000
 11
-462.254351999999980
 21
-190.019848000000000
  0
TEXT
  8
0
  6
CONTINUOUS
 62
256
 10
517.666259765625000
 20
-206.259368896484370
 40
3.299999952316284
  1
1/1
 50
0.000002504478167
 41
0.850909097352304
  7
STANDARD1
  0
TEXT
  8
0
  6
CONTINUOUS
 62
256
 10
515.248291015625000
 20
-206.259368896484370
 40
3.299999952316284
  1
 
 50
0.000002504478167
 41
1.733333298293026
  7
STANDARD1
  0
TEXT
  8
0
  6
CONTINUOUS
 62
256
 10
502.197662353515620
 20
-206.259368896484370
 40
3.299999952316284
  1
SCALE
 50
0.000002504478167
 41
0.821052645401140
  7
STANDARD1
  0
TEXT
  8
0
  6
CONTINUOUS
 62
256
 10
498.946289062500000
 20
-206.259368896484370
 40
3.299999952316284
  1
 
 50
0.000002504478167
 41
1.733333298293026
  7
STANDARD1
  0
TEXT
  8
0
  6
CONTINUOUS
 62
256
 10
513.809509277343750
 20
-200.959365844726560
 40
3.299999952316284
  1
1/60
 50
0.000002504478167
 41
0.832000075658163
  7
STANDARD1
  0
TEXT
  8
0
  6
CONTINUOUS
 62
256
 10
510.018463134765620
 20
-200.959365844726560
 40
3.299999952316284
  1
ü`
 50
0.000002504478167
 41
1.176000019651471
  7
STANDARD1
  0
TEXT
  8
0
  6
CONTINUOUS
 62
256
 10
502.222290039062500
 20
-200.959365844726560
 40
3.299999952316284
  1
1/5
 50
0.000002504478167
 41
0.850909097352304
  7
STANDARD1
  0
TEXT
  8
0
  6
CONTINUOUS
 62
256
 10
498.946289062500000
 20
-200.959365844726560
 40
3.299999952316284
  1
 
 50
0.000002504478167
 41
1.733333298293026
  7
STANDARD1
  0
TEXT
  8
0
  6
CONTINUOUS
 62
256
 10
498.946289062500000
 20
-195.659362792968750
 40
3.299999952316284
  1
GM-SHYF-RH
 50
0.000002504478167
 41
0.799999980493025
  7
STANDARD1
  0
TEXT
  8
0
  6
CONTINUOUS
 62
256
 10
504.771667480468750
 20
-190.359375000000000
 40
3.299999952316284
  1
0.4kW
 50
0.000002504478167
 41
0.821052645401140
  7
STANDARD1
  0
TEXT
  8
0
  6
CONTINUOUS
 62
256
 10
498.946289062500000
 20
-190.359375000000000
 40
3.299999952316284
  1
  
 50
0.000002504478167
 41
1.485714400175845
  7
STANDARD1
  0
TEXT
  8
0
  6
CONTINUOUS
 62
256
 10
504.765777587890620
 20
-185.059371948242190
 40
3.299999952316284
  1
SHY014
 50
0.000002504478167
 41
0.813913121261144
  7
STANDARD1
  0
TEXT
  8
0
  6
CONTINUOUS
 62
256
 10
498.946289062500000
 20
-185.059371948242190
 40
3.299999952316284
  1
  
 50
0.000002504478167
 41
1.485714400175845
  7
STANDARD1
  0
LINE
  8
0
  6
CONTINUOUS
 62
256
 10
267.160385000000020
 20
-47.793016999999999
 11
267.160385000000020
 21
-51.636184999999998
  0
LINE
  8
0
  6
CONTINUOUS
 62
256
 10
275.160385000000020
 20
-47.793016999999999
 11
275.160385000000020
 21
-51.636184999999998
  0
LINE
  8
0
  6
CONTINUOUS
 62
256
 10
275.160385000000020
 20
-47.793016999999999
 11
267.160385000000020
 21
-47.793016999999999
  0
LINE
  8
0
  6
DASHDOT
 62
256
 10
296.446236000000000
 20
-66.093017000000003
 11
245.378993000000010
 21
-66.093017000000003
  0
ARC
  8
0
  6
CONTINUOUS
 62
256
 10
271.160385000000020
 20
-66.093017000000003
 40
15.000000000000002
 50
105.466009999999980
 51
74.533990000000031
  0
CIRCLE
  8
0
  6
CONTINUOUS
 62
256
 10
271.160385000000020
 20
-66.093017000000003
 40
22.000000000000000
  0
LINE
  8
0
  6
DASHDOT
 62
256
 10
271.160385000000020
 20
-38.639662999999999
 11
271.160385000000020
 21
-92.915318999999997
  0
LINE
  8
0
  6
DASHDOT
 62
256
 10
8.849392000000000
 20
-66.093017000000003
 11
-112.649033000000000
 21
-66.093017000000003
  0
ARC
  8
0
  6
CONTINUOUS
 62
256
 10
-55.894832999999998
 20
-66.093017000000003
 40
15.000000000000004
 50
105.466010000000000
 51
74.533990000000003
  0
LINE
  8
0
  6
CONTINUOUS
 62
256
 10
-59.894832999999998
 20
-51.636184999999998
 11
-59.894832999999998
 21
-47.793016999999999
  0
LINE
  8
0
  6
CONTINUOUS
 62
256
 10
-59.894832999999998
 20
-47.793016999999999
 11
-51.894832999999998
 21
-47.793016999999999
  0
LINE
  8
0
  6
CONTINUOUS
 62
256
 10
-51.894832999999998
 20
-51.636184999999998
 11
-51.894832999999998
 21
-47.793016999999999
  0
ARC
  8
0
  6
CONTINUOUS
 62
256
 10
-36.224150000000002
 20
-19.593017000000000
 40
5.999999999999999
 50
26.847213000000004
 51
90.000000000000000
  0
ARC
  8
0
  6
CONTINUOUS
 62
256
 10
-22.394832999999998
 20
-12.593017000000000
 40
12.500000000000000
 50
206.847212999999980
 51
263.651414999999990
  0
ARC
  8
0
  6
CONTINUOUS
 62
256
 10
-36.224150000000002
 20
-19.593017000000000
 40
3.000000000000000
 50
26.847213000000004
 51
90.000000000000000
  0
LINE
  8
0
  6
CONTINUOUS
 62
256
 10
-36.224150000000002
 20
-16.593017000000000
 11
-113.565517000000000
 21
-16.593017000000000
  0
LINE
  8
0
  6
CONTINUOUS
 62
256
 10
-36.224150000000002
 20
-13.593017000000000
 11
-113.565517000000000
 21
-13.593017000000000
  0
LINE
  8
0
  6
CONTINUOUS
 62
256
 10
-27.894832999999998
 20
-6.093017000000000
 11
-121.894833000000010
 21
-6.093017000000000
  0
LINE
  8
0
  6
CONTINUOUS
 62
256
 10
-145.894833000000010
 20
-5.093017000000000
 11
-3.894833000000000
 21
-5.093017000000000
  0
LINE
  8
0
  6
DASHDOT
 62
256
 10
-55.894832999999998
 20
0.995187000000000
 11
-55.894832999999998
 21
-127.517668000000000
  0
CIRCLE
  8
0
  6
CONTINUOUS
 62
256
 10
-55.894832999999998
 20
-66.093017000000003
 40
42.500000000000000
  0
CIRCLE
  8
0
  6
CONTINUOUS
 62
256
 10
-55.894832999999998
 20
-66.093017000000003
 40
47.000000000000000
  0
CIRCLE
  8
0
  6
CONTINUOUS
 62
256
 10
-55.894832999999998
 20
-66.093017000000003
 40
22.000000000000000
  0
LINE
  8
0
  6
CONTINUOUS
 62
256
 10
-180.894833000000010
 20
-144.593017000000000
 11
-180.894833000000010
 21
-145.593017000000000
  0
ARC
  8
0
  6
CONTINUOUS
 62
256
 10
-183.894833000000010
 20
-145.593017000000000
 40
3.000000000000000
 50
270.000000000000000
 51
0.000000000000000
  0
LINE
  8
0
  6
CONTINUOUS
 62
256
 10
-180.894833000000010
 20
-109.093017000000000
 11
-187.894833000000010
 21
-109.093017000000000
  0
LINE
  8
0
  6
CONTINUOUS
 62
256
 10
-180.894833000000010
 20
-69.093017000000003
 11
-187.894833000000010
 21
-69.093017000000003
  0
ARC
  8
0
  6
CONTINUOUS
 62
256
 10
-167.394833000000010
 20
-145.593017000000000
 40
3.000000000000000
 50
270.000000000000000
 51
0.000000000000000
  0
LINE
  8
0
  6
DASHED
 62
256
 10
-164.394833000000010
 20
-108.553567000000000
 11
-164.394833000000010
 21
-89.093017000000003
  0
LINE
  8
0
  6
DASHED
 62
256
 10
-154.894833000000010
 20
-100.027381000000010
 11
-154.894833000000010
 21
-89.093017000000003
  0
LINE
  8
0
  6
DASHED
 62
256
 10
-154.894833000000010
 20
-78.158653999999999
 11
-154.894833000000010
 21
-89.093017000000003
  0
LINE
  8
0
  6
DASHED
 62
256
 10
-164.394833000000010
 20
-69.632468000000003
 11
-164.394833000000010
 21
-89.093017000000003
  0
LINE
  8
0
  6
CONTINUOUS
 62
256
 10
-187.894833000000010
 20
-89.093017000000003
 11
-187.894833000000010
 21
-148.593017000000000
  0
LINE
  8
0
  6
CONTINUOUS
 62
256
 10
-187.894833000000010
 20
-89.093017000000003
 11
-187.894833000000010
 21
-29.593017000000000
  0
LINE
  8
0
  6
CONTINUOUS
 62
256
 10
-157.894833000000010
 20
-29.593017000000000
 11
-187.894833000000010
 21
-29.593017000000000
  0
LINE
  8
0
  6
CONTINUOUS
 62
256
 10
-155.262329999999990
 20
-148.593017000000000
 11
-187.894833000000010
 21
-148.593017000000000
  0
LINE
  8
0
  6
DASHED
 62
256
 10
-164.394833000000010
 20
-69.632468000000003
 11
-164.394833000000010
 21
-89.093017000000003
  0
LINE
  8
0
  6
DASHED
 62
256
 10
-164.394833000000010
 20
-108.553567000000000
 11
-164.394833000000010
 21
-89.093017000000003
  0
LINE
  8
0
  6
CONTINUOUS
 62
256
 10
-164.394833000000010
 20
-32.593017000000003
 11
-164.394833000000010
 21
-145.593017000000000
  0
ARC
  8
0
  6
CONTINUOUS
 62
256
 10
-155.262329999999990
 20
-151.593017000000000
 40
2.999999999999993
 50
38.682186999999864
 51
90.000000000000000
  0
ARC
  8
0
  6
CONTINUOUS
 62
256
 10
-157.894833000000010
 20
-26.593017000000000
 40
3.000000000000000
 50
270.000000000000000
 51
0.000000000000000
  0
ARC
  8
0
  6
CONTINUOUS
 62
256
 10
-167.394833000000010
 20
-32.593017000000003
 40
3.000000000000000
 50
0.000000000000000
 51
90.000000000000000
  0
LINE
  8
0
  6
DASHDOT
 62
256
 10
-13.894833000000000
 20
-145.593017000000000
 11
-29.942530000000001
 21
-145.593017000000000
  0
LINE
  8
0
  6
DASHDOT
 62
256
 10
-141.894833000000010
 20
-4.593017000000000
 11
-141.894833000000010
 21
-28.860894999999999
  0
LINE
  8
0
  6
DASHDOT
 62
256
 10
-127.394833000000010
 20
-4.093017000000000
 11
-127.394833000000010
 21
-20.314869999999999
  0
LINE
  8
0
  6
DASHDOT
 62
256
 10
-22.394832999999998
 20
-4.093017000000000
 11
-22.394832999999998
 21
-20.559042000000002
  0
LINE
  8
0
  6
DASHDOT
 62
256
 10
-15.780547000000000
 20
-12.593017000000000
 11
-29.454186000000000
 21
-12.593017000000000
  0
LINE
  8
0
  6
DASHDOT
 62
256
 10
-7.894833000000000
 20
-4.593017000000000
 11
-7.894833000000000
 21
-30.081755000000001
  0
LINE
  8
0
  6
DASHDOT
 62
256
 10
5.605167000000000
 20
-18.093017000000000
 11
-18.466439999999999
 21
-18.093017000000000
  0
LINE
  8
0
  6
DASHDOT
 62
256
 10
5.605167000000000
 20
-140.093017000000000
 11
-18.466439999999999
 21
-140.093017000000000
  0
CIRCLE
  8
0
  6
CONTINUOUS
 62
256
 10
-127.394833000000010
 20
-12.593017000000000
 40
5.500000000000000
  0
CIRCLE
  8
0
  6
CONTINUOUS
 62
256
 10
-127.394833000000010
 20
-145.593017000000000
 40
5.500000000000000
  0
CIRCLE
  8
0
  6
CONTINUOUS
 62
256
 10
-22.394832999999998
 20
-12.593017000000000
 40
5.500000000000000
  0
LINE
  8
0
  6
CONTINUOUS
 62
256
 10
-6.394833000000000
 20
-117.760306000000000
 11
-6.394833000000000
 21
-40.425728999999997
  0
ARC
  8
0
  6
CONTINUOUS
 62
256
 10
-13.394833000000000
 20
-40.425728999999997
 40
7.000000000000000
 50
0.000000000000000
 51
76.164776000000018
  0
ARC
  8
0
  6
CONTINUOUS
 62
256
 10
-7.894833000000000
 20
-18.093017000000000
 40
16.000000000000000
 50
211.420366000000000
 51
256.164776000000020
  0
ARC
  8
0
  6
CONTINUOUS
 62
256
 10
-24.108778999999998
 20
-27.997964000000000
 40
3.000000000000000
 50
31.420365999999976
 51
83.651414999999986
  0
ARC
  8
0
  6
CONTINUOUS
 62
256
 10
-13.394833000000000
 20
-40.425728999999997
 40
10.000000000000000
 50
0.000000000000000
 51
76.164776000000003
  0
ARC
  8
0
  6
CONTINUOUS
 62
256
 10
-13.394833000000000
 20
-117.760306000000000
 40
10.000000000000005
 50
283.835223999999980
 51
0.000000000000000
  0
ARC
  8
0
  6
CONTINUOUS
 62
256
 10
-113.565517000000000
 20
-19.593017000000000
 40
3.000000000000000
 50
90.000000000000000
 51
153.152787000000070
  0
CIRCLE
  8
0
  6
CONTINUOUS
 62
256
 10
-22.394832999999998
 20
-145.593017000000000
 40
5.500000000000000
  0
ARC
  8
0
  6
CONTINUOUS
 62
256
 10
-127.394833000000010
 20
-12.593017000000000
 40
12.499999999999998
 50
276.348585000000010
 51
333.152786999999990
  0
ARC
  8
0
  6
CONTINUOUS
 62
256
 10
-36.224150000000002
 20
-138.593017000000000
 40
6.000000000000000
 50
270.000000000000000
 51
333.152786999999880
  0
ARC
  8
0
  6
CONTINUOUS
 62
256
 10
-125.680888000000000
 20
-27.997964000000000
 40
2.999999999999999
 50
96.348585000000028
 51
148.579634000000030
  0
ARC
  8
0
  6
CONTINUOUS
 62
256
 10
-141.894833000000010
 20
-18.093017000000000
 40
16.000000000000004
 50
283.835223999999980
 51
328.579634000000000
  0
ARC
  8
0
  6
CONTINUOUS
 62
256
 10
-113.565517000000000
 20
-138.593017000000000
 40
6.000000000000005
 50
206.847213000000100
 51
270.000000000000000
  0
LINE
  8
0
  6
CONTINUOUS
 62
256
 10
-3.394833000000000
 20
-117.760306000000000
 11
-3.394833000000000
 21
-40.425728999999997
  0
ARC
  8
0
  6
CONTINUOUS
 62
256
 10
-3.894833000000000
 20
-144.093017000000000
 40
8.000000000000000
 50
270.000000000000000
 51
0.000000000000000
  0
LINE
  8
0
  6
CONTINUOUS
 62
256
 10
4.105167000000000
 20
-144.093017000000000
 11
4.105167000000000
 21
-14.093017000000000
  0
LINE
  8
0
  6
CONTINUOUS
 62
256
 10
-113.565517000000000
 20
-144.593017000000000
 11
-36.224150000000002
 21
-144.593017000000000
  0
LINE
  8
0
  6
CONTINUOUS
 62
256
 10
-146.394833000000010
 20
-40.425728999999997
 11
-146.394833000000010
 21
-117.760306000000000
  0
ARC
  8
0
  6
CONTINUOUS
 62
256
 10
-136.394833000000010
 20
-40.425728999999997
 40
7.000000000000003
 50
103.835224000000000
 51
180.000000000000000
  0
LINE
  8
0
  6
CONTINUOUS
 62
256
 10
-143.394833000000010
 20
-40.425728999999997
 11
-143.394833000000010
 21
-117.760306000000000
  0
ARC
  8
0
  6
CONTINUOUS
 62
256
 10
-3.894833000000000
 20
-14.093017000000000
 40
8.000000000000000
 50
0.000000000000000
 51
90.000000000000000
  0
ARC
  8
0
  6
CONTINUOUS
 62
256
 10
-113.565517000000000
 20
-19.593017000000000
 40
6.000000000000000
 50
90.000000000000000
 51
153.152786999999990
  0
LINE
  8
0
  6
CONTINUOUS
 62
256
 10
-3.894833000000000
 20
-6.093017000000000
 11
-16.894832999999998
 21
-6.093017000000000
  0
ARC
  8
0
  6
CONTINUOUS
 62
256
 10
-145.894833000000010
 20
-14.093017000000000
 40
8.000000000000000
 50
90.000000000000000
 51
180.000000000000000
  0
LINE
  8
0
  6
CONTINUOUS
 62
256
 10
-153.894833000000010
 20
-14.093017000000000
 11
-153.894833000000010
 21
-144.093017000000000
  0
ARC
  8
0
  6
CONTINUOUS
 62
256
 10
-136.394833000000010
 20
-117.760306000000000
 40
10.000000000000000
 50
180.000000000000000
 51
256.164775999999900
  0
ARC
  8
0
  6
CONTINUOUS
 62
256
 10
-136.394833000000010
 20
-117.760306000000000
 40
7.000000000000000
 50
180.000000000000000
 51
256.164776000000020
  0
ARC
  8
0
  6
CONTINUOUS
 62
256
 10
-145.894833000000010
 20
-144.093017000000000
 40
8.000000000000000
 50
180.000000000000000
 51
270.000000000000000
  0
LINE
  8
0
  6
CONTINUOUS
 62
256
 10
-145.894833000000010
 20
-152.093017000000000
 11
-132.894833000000010
 21
-152.093017000000000
  0
ARC
  8
0
  6
CONTINUOUS
 62
256
 10
-136.394833000000010
 20
-40.425728999999997
 40
10.000000000000002
 50
103.835224000000080
 51
180.000000000000000
  0
ARC
  8
0
  6
CONTINUOUS
 62
256
 10
-141.894833000000010
 20
-140.093017000000000
 40
16.000000000000004
 50
31.420365999999976
 51
76.164775999999975
  0
ARC
  8
0
  6
CONTINUOUS
 62
256
 10
-125.680888000000000
 20
-130.188070000000010
 40
3.000000000000004
 50
211.420366000000090
 51
263.651414999999990
  0
ARC
  8
0
  6
CONTINUOUS
 62
256
 10
-127.394833000000010
 20
-145.593017000000000
 40
12.499999999999989
 50
26.847212999999968
 51
83.651414999999986
  0
ARC
  8
0
  6
CONTINUOUS
 62
256
 10
-113.565517000000000
 20
-138.593017000000000
 40
3.000000000000002
 50
206.847212999999810
 51
270.000000000000000
  0
LINE
  8
0
  6
CONTINUOUS
 62
256
 10
-113.565517000000000
 20
-141.593017000000000
 11
-36.224150000000002
 21
-141.593017000000000
  0
ARC
  8
0
  6
CONTINUOUS
 62
256
 10
-36.224150000000002
 20
-138.593017000000000
 40
3.000000000000000
 50
270.000000000000000
 51
333.152787000000100
  0
ARC
  8
0
  6
CONTINUOUS
 62
256
 10
-22.394832999999998
 20
-145.593017000000000
 40
12.500000000000012
 50
96.348584999999986
 51
153.152786999999930
  0
ARC
  8
0
  6
CONTINUOUS
 62
256
 10
-24.108778999999998
 20
-130.188070000000010
 40
2.999999999999989
 50
276.348585000000010
 51
328.579633999999880
  0
ARC
  8
0
  6
CONTINUOUS
 62
256
 10
-7.894833000000000
 20
-140.093017000000000
 40
15.999999999999998
 50
103.835224000000000
 51
148.579634000000030
  0
ARC
  8
0
  6
CONTINUOUS
 62
256
 10
-13.394833000000000
 20
-117.760306000000000
 40
6.999999999999996
 50
283.835223999999980
 51
0.000000000000000
  0
LINE
  8
0
  6
CONTINUOUS
 62
256
 10
-132.894833000000010
 20
-6.093017000000000
 11
-145.894833000000010
 21
-6.093017000000000
  0
LINE
  8
0
  6
CONTINUOUS
 62
256
 10
-121.894833000000010
 20
-152.093017000000000
 11
-27.894832999999998
 21
-152.093017000000000
  0
LINE
  8
0
  6
CONTINUOUS
 62
256
 10
-16.894832999999998
 20
-152.093017000000000
 11
-3.894833000000000
 21
-152.093017000000000
  0
ARC
  8
0
  6
CONTINUOUS
 62
256
 10
-127.394833000000010
 20
-145.593017000000000
 40
9.500000000000000
 50
26.847212999999975
 51
83.651414999999972
  0
ARC
  8
0
  6
CONTINUOUS
 62
256
 10
-125.680888000000000
 20
-130.188070000000010
 40
5.999999999999996
 50
211.420366000000140
 51
263.651414999999990
  0
ARC
  8
0
  6
CONTINUOUS
 62
256
 10
-22.394832999999998
 20
-145.593017000000000
 40
9.499999999999996
 50
96.348584999999986
 51
153.152787000000050
  0
ARC
  8
0
  6
CONTINUOUS
 62
256
 10
-7.894833000000000
 20
-140.093017000000000
 40
13.000000000000002
 50
103.835224000000000
 51
148.579634000000060
  0
ARC
  8
0
  6
CONTINUOUS
 62
256
 10
-24.108778999999998
 20
-130.188070000000010
 40
6.000000000000004
 50
276.348585000000010
 51
328.579633999999880
  0
ARC
  8
0
  6
CONTINUOUS
 62
256
 10
-22.394832999999998
 20
-12.593017000000000
 40
9.500000000000002
 50
206.847212999999980
 51
263.651414999999990
  0
ARC
  8
0
  6
CONTINUOUS
 62
256
 10
-24.108778999999998
 20
-27.997964000000000
 40
6.000000000000000
 50
31.420366000000019
 51
83.651414999999986
  0
ARC
  8
0
  6
CONTINUOUS
 62
256
 10
-7.894833000000000
 20
-18.093017000000000
 40
13.000000000000004
 50
211.420365999999970
 51
256.164776000000020
  0
ARC
  8
0
  6
CONTINUOUS
 62
256
 10
-141.894833000000010
 20
-18.093017000000000
 40
12.999999999999998
 50
283.835223999999980
 51
328.579633999999940
  0
ARC
  8
0
  6
CONTINUOUS
 62
256
 10
-125.680888000000000
 20
-27.997964000000000
 40
6.000000000000001
 50
96.348585000000014
 51
148.579633999999910
  0
ARC
  8
0
  6
CONTINUOUS
 62
256
 10
-127.394833000000010
 20
-12.593017000000000
 40
9.500000000000000
 50
276.348585000000010
 51
333.152786999999990
  0
ARC
  8
0
  6
CONTINUOUS
 62
256
 10
-141.894833000000010
 20
-140.093017000000000
 40
12.999999999999988
 50
31.420365999999984
 51
76.164776000000032
  0
ARC
  8
0
  6
CONTINUOUS
 62
256
 10
-3.894833000000000
 20
-14.093017000000000
 40
9.000000000000000
 50
0.000000000000000
 51
90.000000000000000
  0
ARC
  8
0
  6
CONTINUOUS
 62
256
 10
-3.894833000000000
 20
-144.093017000000000
 40
9.000000000000000
 50
270.000000000000000
 51
0.000000000000000
  0
ARC
  8
0
  6
CONTINUOUS
 62
256
 10
-145.894833000000010
 20
-144.093017000000000
 40
9.000000000000000
 50
180.000000000000000
 51
270.000000000000000
  0
ARC
  8
0
  6
CONTINUOUS
 62
256
 10
-145.894833000000010
 20
-14.093017000000000
 40
9.000000000000000
 50
90.000000000000000
 51
180.000000000000000
  0
LINE
  8
0
  6
CONTINUOUS
 62
256
 10
5.105167000000000
 20
-14.093017000000000
 11
5.105167000000000
 21
-144.093017000000000
  0
LINE
  8
0
  6
CONTINUOUS
 62
256
 10
-3.894833000000000
 20
-153.093017000000000
 11
-145.894833000000010
 21
-153.093017000000000
  0
LINE
  8
0
  6
CONTINUOUS
 62
256
 10
-154.894833000000010
 20
-144.093017000000000
 11
-154.894833000000010
 21
-14.093017000000000
  0
LINE
  8
0
  6
DASHDOT
 62
256
 10
-141.894833000000010
 20
-128.727293000000000
 11
-141.894833000000010
 21
-154.334402000000010
  0
LINE
  8
0
  6
DASHDOT
 62
256
 10
-7.894833000000000
 20
-129.459809000000010
 11
-7.894833000000000
 21
-154.334402000000010
  0
LINE
  8
0
  6
DASHDOT
 62
256
 10
-130.541445000000010
 20
-140.093017000000000
 11
-155.930867000000010
 21
-140.093017000000000
  0
LINE
  8
0
  6
DASHDOT
 62
256
 10
-131.029788999999990
 20
-18.093017000000000
 11
-155.930867000000010
 21
-18.093017000000000
  0
LINE
  8
0
  6
DASHDOT
 62
256
 10
-22.394832999999998
 20
-138.250006000000010
 11
-22.394832999999998
 21
-154.877256999999990
  0
LINE
  8
0
  6
DASHDOT
 62
256
 10
-127.394833000000010
 20
-138.494178000000010
 11
-127.394833000000010
 21
-154.334402000000010
  0
LINE
  8
0
  6
DASHDOT
 62
256
 10
-121.018732000000000
 20
-12.593017000000000
 11
-135.121429000000010
 21
-12.593017000000000
  0
LINE
  8
0
  6
DASHDOT
 62
256
 10
-120.042044000000000
 20
-145.593017000000000
 11
-133.854767000000010
 21
-145.593017000000000
  0
ARC
  8
0
  6
CONTINUOUS
 62
256
 10
-132.894833000000010
 20
-5.593017000000000
 40
0.500000000000000
 50
270.000000000000000
 51
0.000000000000000
  0
ARC
  8
0
  6
CONTINUOUS
 62
256
 10
-121.894833000000010
 20
-5.593017000000000
 40
0.500000000000000
 50
180.000000000000000
 51
270.000000000000000
  0
LINE
  8
0
  6
CONTINUOUS
 62
256
 10
-122.394833000000010
 20
-5.593017000000000
 11
-122.394833000000010
 21
-5.093017000000000
  0
LINE
  8
0
  6
CONTINUOUS
 62
256
 10
-132.394833000000010
 20
-5.593017000000000
 11
-132.394833000000010
 21
-5.093017000000000
  0
ARC
  8
0
  6
CONTINUOUS
 62
256
 10
-27.894832999999998
 20
-5.593017000000000
 40
0.500000000000000
 50
270.000000000000000
 51
0.000000000000000
  0
LINE
  8
0
  6
CONTINUOUS
 62
256
 10
-27.394832999999998
 20
-5.593017000000000
 11
-27.394832999999998
 21
-5.093017000000000
  0
ARC
  8
0
  6
CONTINUOUS
 62
256
 10
-16.894832999999998
 20
-5.593017000000000
 40
0.500000000000000
 50
180.000000000000000
 51
270.000000000000000
  0
LINE
  8
0
  6
CONTINUOUS
 62
256
 10
-17.394832999999998
 20
-5.593017000000000
 11
-17.394832999999998
 21
-5.093017000000000
  0
LINE
  8
0
  6
CONTINUOUS
 62
256
 10
-17.394832999999998
 20
-152.593017000000000
 11
-17.394832999999998
 21
-153.093017000000000
  0
ARC
  8
0
  6
CONTINUOUS
 62
256
 10
-16.894832999999998
 20
-152.593017000000000
 40
0.500000000000000
 50
90.000000000000000
 51
180.000000000000000
  0
ARC
  8
0
  6
CONTINUOUS
 62
256
 10
-27.894832999999998
 20
-152.593017000000000
 40
0.500000000000000
 50
0.000000000000000
 51
90.000000000000000
  0
LINE
  8
0
  6
CONTINUOUS
 62
256
 10
-27.394832999999998
 20
-152.593017000000000
 11
-27.394832999999998
 21
-153.093017000000000
  0
ARC
  8
0
  6
CONTINUOUS
 62
256
 10
-121.894833000000010
 20
-152.593017000000000
 40
0.500000000000000
 50
90.000000000000000
 51
180.000000000000000
  0
LINE
  8
0
  6
CONTINUOUS
 62
256
 10
-122.394833000000010
 20
-152.593017000000000
 11
-122.394833000000010
 21
-153.093017000000000
  0
ARC
  8
0
  6
CONTINUOUS
 62
256
 10
-132.894833000000010
 20
-152.593017000000000
 40
0.500000000000000
 50
0.000000000000000
 51
90.000000000000000
  0
LINE
  8
0
  6
CONTINUOUS
 62
256
 10
-132.394833000000010
 20
-152.593017000000000
 11
-132.394833000000010
 21
-153.093017000000000
  0
INSERT
  8
0
  2
ZU_SYM_1
 10
-127.394833000000010
 20
-145.593017000000000
  0
INSERT
  8
0
  2
ZU_SYM_2
 10
-22.394832999999998
 20
-145.593017000000000
  0
INSERT
  8
0
  2
ZU_SYM_3
 10
-22.394832999999998
 20
-12.593017000000000
  0
INSERT
  8
0
  2
ZU_SYM_4
 10
-127.394833000000010
 20
-12.593017000000000
  0
ARC
  8
0
  6
CONTINUOUS
 62
256
 10
-183.894833000000010
 20
-32.593017000000003
 40
3.000000000000000
 50
0.000000000000000
 51
90.000000000000000
  0
ARC
  8
0
  6
CONTINUOUS
 62
256
 10
-177.894833000000010
 20
-33.996710000000000
 40
3.000000000000000
 50
180.000000000000000
 51
270.000000000000000
  0
ARC
  8
0
  6
CONTINUOUS
 62
256
 10
-177.894833000000010
 20
-46.908285999999997
 40
3.000000000000000
 50
90.000000000000000
 51
180.000000000000000
  0
ARC
  8
0
  6
CONTINUOUS
 62
256
 10
-177.894833000000010
 20
-53.091751000000002
 40
3.000000000000000
 50
90.000000000000000
 51
180.000000000000000
  0
ARC
  8
0
  6
CONTINUOUS
 62
256
 10
-177.894833000000010
 20
-131.277749000000000
 40
3.000000000000000
 50
180.000000000000000
 51
270.000000000000000
  0
ARC
  8
0
  6
CONTINUOUS
 62
256
 10
-177.894833000000010
 20
-144.189325000000000
 40
3.000000000000000
 50
90.000000000000000
 51
180.000000000000000
  0
ARC
  8
0
  6
CONTINUOUS
 62
256
 10
-177.894833000000010
 20
-125.094284000000000
 40
3.000000000000000
 50
180.000000000000000
 51
270.000000000000000
  0
LINE
  8
0
  6
CONTINUOUS
 62
256
 10
-180.894833000000010
 20
-33.593017000000003
 11
-180.894833000000010
 21
-32.593017000000003
  0
LINE
  8
0
  6
CONTINUOUS
 62
256
 10
-177.894833000000010
 20
-50.091751000000002
 11
-172.894833000000010
 21
-50.091751000000002
  0
LINE
  8
0
  6
CONTINUOUS
 62
256
 10
-180.894833000000010
 20
-46.908285999999997
 11
-180.894833000000010
 21
-89.093017000000003
  0
LINE
  8
0
  6
CONTINUOUS
 62
256
 10
-180.894833000000010
 20
-33.593017000000003
 11
-180.894833000000010
 21
-33.996710000000000
  0
LINE
  8
0
  6
CONTINUOUS
 62
256
 10
-180.894833000000010
 20
-144.593017000000000
 11
-180.894833000000010
 21
-145.593017000000000
  0
LINE
  8
0
  6
CONTINUOUS
 62
256
 10
-180.894833000000010
 20
-144.593017000000000
 11
-180.894833000000010
 21
-144.189325000000000
  0
LINE
  8
0
  6
CONTINUOUS
 62
256
 10
-180.894833000000010
 20
-144.593017000000000
 11
-180.894833000000010
 21
-144.189325000000000
  0
LINE
  8
0
  6
CONTINUOUS
 62
256
 10
-177.894833000000010
 20
-128.094283999999990
 11
-172.894833000000010
 21
-128.094283999999990
  0
LINE
  8
0
  6
CONTINUOUS
 62
256
 10
-180.894833000000010
 20
-131.277749000000000
 11
-180.894833000000010
 21
-89.093017000000003
  0
LINE
  8
0
  6
CONTINUOUS
 62
256
 10
-177.894833000000010
 20
-141.189325000000000
 11
-172.894833000000010
 21
-141.189325000000000
  0
LINE
  8
0
  6
CONTINUOUS
 62
256
 10
-177.894833000000010
 20
-134.277749000000000
 11
-172.894833000000010
 21
-134.277749000000000
  0
LINE
  8
0
  6
CONTINUOUS
 62
256
 10
-177.894833000000010
 20
-36.996710000000000
 11
-172.894833000000010
 21
-36.996710000000000
  0
LINE
  8
0
  6
CONTINUOUS
 62
256
 10
-177.894833000000010
 20
-43.908285999999997
 11
-172.894833000000010
 21
-43.908285999999997
  0
ARC
  8
0
  6
CONTINUOUS
 62
256
 10
-162.894833000000010
 20
-136.189325000000000
 40
5.000000000000003
 50
107.457602999999910
 51
180.000000000000000
  0
ARC
  8
0
  6
CONTINUOUS
 62
256
 10
-162.894833000000010
 20
-129.641805000000010
 40
5.000000000000003
 50
107.457602999999910
 51
180.000000000000000
  0
ARC
  8
0
  6
CONTINUOUS
 62
256
 10
-162.894833000000010
 20
-48.544229999999999
 40
5.000000000000000
 50
180.000000000000000
 51
252.542397000000050
  0
ARC
  8
0
  6
CONTINUOUS
 62
256
 10
-162.894833000000010
 20
-41.996710000000000
 40
5.000000000000000
 50
180.000000000000000
 51
252.542397000000050
  0
ARC
  8
0
  6
CONTINUOUS
 62
256
 10
-172.894833000000010
 20
-136.189325000000000
 40
5.000000000000000
 50
270.000000000000000
 51
0.000000000000000
  0
ARC
  8
0
  6
CONTINUOUS
 62
256
 10
-172.894833000000010
 20
-129.277749000000000
 40
5.000000000000000
 50
270.000000000000000
 51
0.000000000000000
  0
ARC
  8
0
  6
CONTINUOUS
 62
256
 10
-172.894833000000010
 20
-48.908285999999997
 40
5.000000000000000
 50
0.000000000000000
 51
90.000000000000000
  0
ARC
  8
0
  6
CONTINUOUS
 62
256
 10
-172.894833000000010
 20
-41.996710000000000
 40
5.000000000000000
 50
0.000000000000000
 51
90.000000000000000
  0
LINE
  8
0
  6
DASHDOT
 62
256
 10
407.336809000000020
 20
-89.093017000000003
 11
427.270842000000020
 21
-89.093017000000003
  0
LINE
  8
0
  6
DASHED
 62
256
 10
467.518802999999990
 20
-130.370497000000000
 11
467.256041999999980
 21
-130.107735999999990
  0
LINE
  8
0
  6
CONTINUOUS
 62
256
 10
477.256041999999980
 20
-89.093017000000003
 11
477.256041999999980
 21
-108.593017000000000
  0
LINE
  8
0
  6
CONTINUOUS
 62
256
 10
476.756041999999980
 20
-109.093017000000000
 11
475.231041000000000
 21
-109.093017000000000
  0
LINE
  8
0
  6
CONTINUOUS
 62
256
 10
359.256041999999980
 20
-89.093017000000003
 11
359.256041999999980
 21
-108.593017000000000
  0
LINE
  8
0
  6
CONTINUOUS
 62
256
 10
359.756041999999980
 20
-109.093017000000000
 11
361.281042000000010
 21
-109.093017000000000
  0
LINE
  8
0
  6
DASHED
 62
256
 10
368.993280000000030
 20
-130.370497000000000
 11
369.256041999999980
 21
-130.107735999999990
  0
ARC
  8
0
  6
CONTINUOUS
 62
256
 10
476.756041999999980
 20
-69.593017000000003
 40
0.500000000000000
 50
0.000000000000000
 51
90.000000000000000
  0
ARC
  8
0
  6
CONTINUOUS
 62
256
 10
476.756041999999980
 20
-108.593017000000000
 40
0.500000000000000
 50
270.000000000000000
 51
0.000000000000000
  0
ARC
  8
0
  6
CONTINUOUS
 62
256
 10
75.256041999999994
 20
-89.093017000000003
 40
399.999999999999940
 50
355.885654999999990
 51
357.065974999999980
  0
ARC
  8
0
  6
CONTINUOUS
 62
256
 10
475.231041000000000
 20
-109.593017000000000
 40
0.500000000000000
 50
90.000000000000000
 51
177.065974999999950
  0
ARC
  8
0
  6
CONTINUOUS
 62
256
 10
444.302496000000020
 20
-115.639472000000000
 40
29.999999999999993
 50
319.917507000000000
 51
355.885654999999990
  0
ARC
  8
0
  6
CONTINUOUS
 62
256
 10
392.209587000000000
 20
-115.639472000000000
 40
30.000000000000018
 50
184.114344999999960
 51
220.082493000000000
  0
ARC
  8
0
  6
CONTINUOUS
 62
256
 10
761.256041999999980
 20
-89.093017000000003
 40
400.000000000000000
 50
182.934024999999990
 51
184.114344999999960
  0
ARC
  8
0
  6
CONTINUOUS
 62
256
 10
359.756041999999980
 20
-108.593017000000000
 40
0.500000000000000
 50
180.000000000000000
 51
270.000000000000000
  0
ARC
  8
0
  6
CONTINUOUS
 62
256
 10
361.281042000000010
 20
-109.593017000000000
 40
0.500000000000028
 50
2.934025000000031
 51
90.000000000000000
  0
ARC
  8
0
  6
CONTINUOUS
 62
256
 10
361.281042000000010
 20
-109.593017000000000
 40
0.500000000000028
 50
2.934025000000031
 51
90.000000000000000
  0
ARC
  8
0
  6
CONTINUOUS
 62
256
 10
359.756041999999980
 20
-69.593017000000003
 40
0.500000000000000
 50
90.000000000000000
 51
180.000000000000000
  0
ARC
  8
0
  6
CONTINUOUS
 62
256
 10
359.756041999999980
 20
-69.593017000000003
 40
0.500000000000000
 50
90.000000000000000
 51
180.000000000000000
  0
ARC
  8
0
  6
CONTINUOUS
 62
256
 10
371.114600999999990
 20
-132.491817999999990
 40
3.000000000000004
 50
135.000000000000370
 51
218.620629999999860
  0
ARC
  8
0
  6
CONTINUOUS
 62
256
 10
465.397483000000020
 20
-132.491817999999990
 40
2.999999999999993
 50
321.379370000000110
 51
44.999999999999616
  0
LINE
  8
0
  6
CONTINUOUS
 62
256
 10
369.256041999999980
 20
-152.883557000000000
 11
369.256041999999980
 21
-134.956168999999990
  0
LINE
  8
0
  6
CONTINUOUS
 62
256
 10
365.256041999999980
 20
-108.593017000000000
 11
369.256041999999980
 21
-108.593017000000000
  0
LINE
  8
0
  6
CONTINUOUS
 62
256
 10
471.256041999999980
 20
-89.093017000000003
 11
471.256041999999980
 21
-108.593017000000000
  0
LINE
  8
0
  6
CONTINUOUS
 62
256
 10
365.256041999999980
 20
-108.593017000000000
 11
365.256041999999980
 21
-89.093017000000003
  0
LINE
  8
0
  6
CONTINUOUS
 62
256
 10
467.256041999999980
 20
-108.593017000000000
 11
471.256041999999980
 21
-108.593017000000000
  0
LINE
  8
0
  6
CONTINUOUS
 62
256
 10
381.256041999999980
 20
-153.101744999999990
 11
457.256041999999980
 21
-151.757704999999990
  0
LINE
  8
0
  6
CONTINUOUS
 62
256
 10
457.256041999999980
 20
-151.757704999999990
 11
467.256041999999980
 21
-151.757704999999990
  0
LINE
  8
0
  6
CONTINUOUS
 62
256
 10
467.256041999999980
 20
-151.757704999999990
 11
467.256041999999980
 21
-134.956168999999990
  0
LINE
  8
0
  6
CONTINUOUS
 62
256
 10
381.256041999999980
 20
-153.093017000000000
 11
369.256041999999980
 21
-152.883557000000000
  0
LINE
  8
0
  6
CONTINUOUS
 62
256
 10
381.256041999999980
 20
-89.093017000000003
 11
381.256041999999980
 21
-153.101744999999990
  0
LINE
  8
0
  6
CONTINUOUS
 62
256
 10
365.256041999999980
 20
-88.093017000000003
 11
362.256041999999980
 21
-88.093017000000003
  0
ARC
  8
0
  6
CONTINUOUS
 62
256
 10
362.256041999999980
 20
-87.093017000000003
 40
1.000000000000000
 50
180.000000000000000
 51
270.000000000000000
  0
ARC
  8
0
  6
CONTINUOUS
 62
256
 10
362.256041999999980
 20
-45.093017000000003
 40
1.000000000000000
 50
90.000000000000000
 51
180.000000000000000
  0
LINE
  8
0
  6
CONTINUOUS
 62
256
 10
471.256041999999980
 20
-88.093017000000003
 11
474.256041999999980
 21
-88.093017000000003
  0
ARC
  8
0
  6
CONTINUOUS
 62
256
 10
474.256041999999980
 20
-87.093017000000003
 40
1.000000000000000
 50
270.000000000000000
 51
0.000000000000000
  0
ARC
  8
0
  6
CONTINUOUS
 62
256
 10
474.256041999999980
 20
-45.093017000000003
 40
1.000000000000000
 50
0.000000000000000
 51
90.000000000000000
  0
ARC
  8
0
  6
CONTINUOUS
 62
256
 10
417.756041999999980
 20
-89.093017000000003
 40
58.499999999999993
 50
327.795772000000000
 51
10.609142999999994
  0
ARC
  8
0
  6
CONTINUOUS
 62
256
 10
418.756041999999980
 20
-89.093017000000003
 40
58.500000000000000
 50
169.390857000000010
 51
212.204228000000000
  0
LINE
  8
0
  6
CONTINUOUS
 62
256
 10
-284.894833000000010
 20
-32.093017000000003
 11
-187.894833000000010
 21
-32.093017000000003
  0
LINE
  8
0
  6
CONTINUOUS
 62
256
 10
-284.894833000000010
 20
-33.093017000000003
 11
-187.894833000000010
 21
-33.093017000000003
  0
LINE
  8
0
  6
CONTINUOUS
 62
256
 10
-284.894833000000010
 20
-34.093017000000003
 11
-187.894833000000010
 21
-34.093017000000003
  0
LINE
  8
0
  6
CONTINUOUS
 62
256
 10
-284.894833000000010
 20
-38.777482999999997
 11
-187.894833000000010
 21
-38.777482999999997
  0
LINE
  8
0
  6
CONTINUOUS
 62
256
 10
-284.894833000000010
 20
-43.727231000000003
 11
-187.894833000000010
 21
-43.727231000000003
  0
LINE
  8
0
  6
CONTINUOUS
 62
256
 10
-284.894833000000010
 20
-74.093017000000003
 11
-187.894833000000010
 21
-74.093017000000003
  0
LINE
  8
0
  6
CONTINUOUS
 62
256
 10
-284.894833000000010
 20
-69.719756000000004
 11
-187.894833000000010
 21
-69.719756000000004
  0
LINE
  8
0
  6
CONTINUOUS
 62
256
 10
-284.894833000000010
 20
-68.453518000000003
 11
-187.894833000000010
 21
-68.453518000000003
  0
LINE
  8
0
  6
CONTINUOUS
 62
256
 10
-284.894833000000010
 20
-64.262963999999997
 11
-187.894833000000010
 21
-64.262963999999997
  0
LINE
  8
0
  6
CONTINUOUS
 62
256
 10
-284.894833000000010
 20
-62.901083999999997
 11
-187.894833000000010
 21
-62.901083999999997
  0
LINE
  8
0
  6
CONTINUOUS
 62
256
 10
-284.894833000000010
 20
-58.810583000000001
 11
-187.894833000000010
 21
-58.810583000000001
  0
LINE
  8
0
  6
CONTINUOUS
 62
256
 10
-284.894833000000010
 20
-57.342225999999997
 11
-187.894833000000010
 21
-57.342225999999997
  0
LINE
  8
0
  6
CONTINUOUS
 62
256
 10
-284.894833000000010
 20
-53.378480000000003
 11
-187.894833000000010
 21
-53.378480000000003
  0
LINE
  8
0
  6
CONTINUOUS
 62
256
 10
-284.894833000000010
 20
-51.773831999999999
 11
-187.894833000000010
 21
-51.773831999999999
  0
LINE
  8
0
  6
CONTINUOUS
 62
256
 10
-284.894833000000010
 20
-104.093017000000000
 11
-187.894833000000010
 21
-104.093017000000000
  0
LINE
  8
0
  6
CONTINUOUS
 62
256
 10
-284.894833000000010
 20
-108.466279000000000
 11
-187.894833000000010
 21
-108.466279000000000
  0
LINE
  8
0
  6
CONTINUOUS
 62
256
 10
-284.894833000000010
 20
-109.732517000000000
 11
-187.894833000000010
 21
-109.732517000000000
  0
LINE
  8
0
  6
CONTINUOUS
 62
256
 10
-284.894833000000010
 20
-113.923070999999990
 11
-187.894833000000010
 21
-113.923070999999990
  0
LINE
  8
0
  6
CONTINUOUS
 62
256
 10
-284.894833000000010
 20
-115.284951000000010
 11
-187.894833000000010
 21
-115.284951000000010
  0
LINE
  8
0
  6
CONTINUOUS
 62
256
 10
-284.894833000000010
 20
-119.375452000000000
 11
-187.894833000000010
 21
-119.375452000000000
  0
LINE
  8
0
  6
CONTINUOUS
 62
256
 10
-284.894833000000010
 20
-120.843808999999990
 11
-187.894833000000010
 21
-120.843808999999990
  0
LINE
  8
0
  6
CONTINUOUS
 62
256
 10
-284.894833000000010
 20
-124.807554999999990
 11
-187.894833000000010
 21
-124.807554999999990
  0
LINE
  8
0
  6
CONTINUOUS
 62
256
 10
-284.894833000000010
 20
-126.412203000000010
 11
-187.894833000000010
 21
-126.412203000000010
  0
LINE
  8
0
  6
CONTINUOUS
 62
256
 10
-284.894833000000010
 20
-134.458803999999990
 11
-187.894833000000010
 21
-134.458803999999990
  0
LINE
  8
0
  6
CONTINUOUS
 62
256
 10
-284.894833000000010
 20
-139.408551999999990
 11
-187.894833000000010
 21
-139.408551999999990
  0
LINE
  8
0
  6
CONTINUOUS
 62
256
 10
-284.894833000000010
 20
-144.093017000000000
 11
-187.894833000000010
 21
-144.093017000000000
  0
LINE
  8
0
  6
CONTINUOUS
 62
256
 10
-284.894833000000010
 20
-145.093017000000000
 11
-187.894833000000010
 21
-145.093017000000000
  0
LINE
  8
0
  6
CONTINUOUS
 62
256
 10
-284.894833000000010
 20
-146.093017000000000
 11
-187.894833000000010
 21
-146.093017000000000
  0
LINE
  8
0
  6
CONTINUOUS
 62
256
 10
-217.894833000000010
 20
-148.593017000000000
 11
-187.894833000000010
 21
-148.593017000000000
  0
LINE
  8
0
  6
CONTINUOUS
 62
256
 10
-284.894833000000010
 20
-29.593017000000000
 11
-187.894833000000010
 21
-29.593017000000000
  0
ARC
  8
0
  6
CONTINUOUS
 62
256
 10
-291.894833000000010
 20
-153.712238000000010
 40
3.000000000000000
 50
90.000000000000000
 51
180.000000000000000
  0
ARC
  8
0
  6
CONTINUOUS
 62
256
 10
-287.894833000000010
 20
-147.712238000000010
 40
3.000000000000000
 50
270.000000000000000
 51
0.000000000000000
  0
LINE
  8
0
  6
CONTINUOUS
 62
256
 10
-294.894833000000010
 20
-154.093017000000000
 11
-294.894833000000010
 21
-153.712238000000010
  0
LINE
  8
0
  6
CONTINUOUS
 62
256
 10
-291.894833000000010
 20
-150.712238000000010
 11
-287.894833000000010
 21
-150.712238000000010
  0
LINE
  8
0
  6
CONTINUOUS
 62
256
 10
-217.894833000000010
 20
-152.593017000000000
 11
-217.894833000000010
 21
-147.593017000000000
  0
LINE
  8
0
  6
CONTINUOUS
 62
256
 10
-225.894833000000010
 20
-182.593017000000000
 11
-233.894833000000010
 21
-182.593017000000000
  0
LINE
  8
0
  6
CONTINUOUS
 62
256
 10
-233.894833000000010
 20
-182.093017000000000
 11
-233.894833000000010
 21
-182.593017000000000
  0
LINE
  8
0
  6
CONTINUOUS
 62
256
 10
-228.394833000000010
 20
-182.093017000000000
 11
-228.394833000000010
 21
-182.593017000000000
  0
LINE
  8
0
  6
CONTINUOUS
 62
256
 10
-225.894833000000010
 20
-182.093017000000000
 11
-225.894833000000010
 21
-182.593017000000000
  0
LINE
  8
0
  6
CONTINUOUS
 62
256
 10
-219.894833000000010
 20
-182.093017000000000
 11
-290.894833000000010
 21
-182.093017000000000
  0
ARC
  8
0
  6
CONTINUOUS
 62
256
 10
-290.894833000000010
 20
-181.093017000000000
 40
1.000000000000000
 50
180.000000000000000
 51
270.000000000000000
  0
ARC
  8
0
  6
CONTINUOUS
 62
256
 10
-219.894833000000010
 20
-181.093017000000000
 40
1.000000000000000
 50
270.000000000000000
 51
0.000000000000000
  0
LINE
  8
0
  6
CONTINUOUS
 62
256
 10
-218.894833000000010
 20
-181.093017000000000
 11
-218.894833000000010
 21
-152.593017000000000
  0
LINE
  8
0
  6
CONTINUOUS
 62
256
 10
-291.894833000000010
 20
-181.093017000000000
 11
-291.894833000000010
 21
-152.593017000000000
  0
LINE
  8
0
  6
CONTINUOUS
 62
256
 10
-217.894833000000010
 20
-152.593017000000000
 11
-292.894833000000010
 21
-152.593017000000000
  0
LINE
  8
0
  6
CONTINUOUS
 62
256
 10
-217.894833000000010
 20
-147.593017000000000
 11
-284.894833000000010
 21
-147.593017000000000
  0
LINE
  8
0
  6
CONTINUOUS
 62
256
 10
-292.894833000000010
 20
-152.593017000000000
 11
-292.894833000000010
 21
-150.883811000000010
  0
ARC
  8
0
  6
CONTINUOUS
 62
256
 10
-313.588858000000020
 20
-134.093017000000000
 40
19.999999999999996
 50
234.999999999999940
 51
270.000000000000000
  0
LINE
  8
0
  6
CONTINUOUS
 62
256
 10
-294.894833000000010
 20
-154.093017000000000
 11
-313.588858000000020
 21
-154.093017000000000
  0
ARC
  8
0
  6
CONTINUOUS
 62
256
 10
-333.294832999999980
 20
-141.536223000000010
 40
2.600000000000023
 50
180.000000000000000
 51
234.999999999999770
  0
LINE
  8
0
  6
CONTINUOUS
 62
256
 10
-325.060385999999990
 20
-150.476057999999990
 11
-334.786132000000010
 21
-143.666018000000010
  0
LINE
  8
0
  6
CONTINUOUS
 62
256
 10
-335.894833000000010
 20
-89.093017000000003
 11
-335.894833000000010
 21
-141.536223000000010
  0
LINE
  8
0
  6
CONTINUOUS
 62
256
 10
-187.894833000000010
 20
-148.593017000000000
 11
-187.894833000000010
 21
-89.093017000000003
  0
LINE
  8
0
  6
CONTINUOUS
 62
256
 10
-284.894833000000010
 20
-89.093017000000003
 11
-284.894833000000010
 21
-147.712238000000010
  0
ARC
  8
0
  6
CONTINUOUS
 62
256
 10
-333.294832999999980
 20
-36.649811999999997
 40
2.600000000000001
 50
125.000000000000110
 51
180.000000000000000
  0
LINE
  8
0
  6
CONTINUOUS
 62
256
 10
-325.060385999999990
 20
-27.709976999999999
 11
-334.786132000000010
 21
-34.520017000000003
  0
ARC
  8
0
  6
CONTINUOUS
 62
256
 10
-313.588858000000020
 20
-44.093017000000003
 40
20.000000000000000
 50
90.000000000000000
 51
125.000000000000040
  0
LINE
  8
0
  6
CONTINUOUS
 62
256
 10
-335.894833000000010
 20
-89.093017000000003
 11
-335.894833000000010
 21
-36.649811999999997
  0
LINE
  8
0
  6
CONTINUOUS
 62
256
 10
-284.894833000000010
 20
-24.093017000000000
 11
-313.588858000000020
 21
-24.093017000000000
  0
LINE
  8
0
  6
CONTINUOUS
 62
256
 10
-187.894833000000010
 20
-29.593017000000000
 11
-187.894833000000010
 21
-89.093017000000003
  0
LINE
  8
0
  6
CONTINUOUS
 62
256
 10
-284.894833000000010
 20
-89.093017000000003
 11
-284.894833000000010
 21
-24.093017000000000
  0
LINE
  8
0
  6
CONTINUOUS
 62
256
 10
-295.894833000000010
 20
-35.352902000000000
 11
-297.894833000000010
 21
-37.005544000000000
  0
LINE
  8
0
  6
CONTINUOUS
 62
256
 10
-293.894833000000010
 20
-34.177117000000003
 11
-295.894833000000010
 21
-35.352902000000000
  0
LINE
  8
0
  6
CONTINUOUS
 62
256
 10
-295.894833000000010
 20
-35.352902000000000
 11
-293.894833000000010
 21
-37.005544000000000
  0
LINE
  8
0
  6
CONTINUOUS
 62
256
 10
-297.894833000000010
 20
-34.177117000000003
 11
-295.894833000000010
 21
-35.352902000000000
  0
POLYLINE
  8
0
  6
CONTINUOUS
 62
256
 66
1
 70
1
  0
VERTEX
  8
0
  6
CONTINUOUS
 62
256
 10
-291.194833000000020
 20
-37.169491999999998
  0
VERTEX
  8
0
  6
CONTINUOUS
 62
256
 10
-291.285142182104830
 20
-36.466535489441831
  0
VERTEX
  8
0
  6
CONTINUOUS
 62
256
 10
-291.552599197196970
 20
-35.790593203361858
  0
VERTEX
  8
0
  6
CONTINUOUS
 62
256
 10
-291.986925822178080
 20
-35.167641224741338
  0
VERTEX
  8
0
  6
CONTINUOUS
 62
256
 10
-292.571431128423230
 20
-34.621619248763160
  0
VERTEX
  8
0
  6
CONTINUOUS
 62
256
 10
-293.283652904807870
 20
-34.173510593751509
  0
VERTEX
  8
0
  6
CONTINUOUS
 62
256
 10
-294.096220867884090
 20
-33.840535824016264
  0
VERTEX
  8
0
  6
CONTINUOUS
 62
256
 10
-294.977908486524200
 20
-33.635490973223938
  0
VERTEX
  8
0
  6
CONTINUOUS
 62
256
 10
-295.894833000000010
 20
-33.566255800000008
  0
VERTEX
  8
0
  6
CONTINUOUS
 62
256
 10
-296.811757513475810
 20
-33.635490973223938
  0
VERTEX
  8
0
  6
CONTINUOUS
 62
256
 10
-297.693445132115930
 20
-33.840535824016264
  0
VERTEX
  8
0
  6
CONTINUOUS
 62
256
 10
-298.506013095192150
 20
-34.173510593751509
  0
VERTEX
  8
0
  6
CONTINUOUS
 62
256
 10
-299.218234871576780
 20
-34.621619248763160
  0
VERTEX
  8
0
  6
CONTINUOUS
 62
256
 10
-299.802740177821930
 20
-35.167641224741338
  0
VERTEX
  8
0
  6
CONTINUOUS
 62
256
 10
-300.237066802803040
 20
-35.790593203361858
  0
VERTEX
  8
0
  6
CONTINUOUS
 62
256
 10
-300.504523817895180
 20
-36.466535489441831
  0
VERTEX
  8
0
  6
CONTINUOUS
 62
256
 10
-300.594832999999990
 20
-37.169491999999998
  0
VERTEX
  8
0
  6
CONTINUOUS
 62
256
 10
-300.504523817895180
 20
-37.872448510558165
  0
VERTEX
  8
0
  6
CONTINUOUS
 62
256
 10
-300.237066802803040
 20
-38.548390796638138
  0
VERTEX
  8
0
  6
CONTINUOUS
 62
256
 10
-299.802740177821930
 20
-39.171342775258658
  0
VERTEX
  8
0
  6
CONTINUOUS
 62
256
 10
-299.218234871576780
 20
-39.717364751236836
  0
VERTEX
  8
0
  6
CONTINUOUS
 62
256
 10
-298.506013095192150
 20
-40.165473406248488
  0
VERTEX
  8
0
  6
CONTINUOUS
 62
256
 10
-297.693445132115930
 20
-40.498448175983732
  0
VERTEX
  8
0
  6
CONTINUOUS
 62
256
 10
-296.811757513475810
 20
-40.703493026776059
  0
VERTEX
  8
0
  6
CONTINUOUS
 62
256
 10
-295.894833000000010
 20
-40.772728199999989
  0
VERTEX
  8
0
  6
CONTINUOUS
 62
256
 10
-294.977908486524200
 20
-40.703493026776059
  0
VERTEX
  8
0
  6
CONTINUOUS
 62
256
 10
-294.096220867884090
 20
-40.498448175983732
  0
VERTEX
  8
0
  6
CONTINUOUS
 62
256
 10
-293.283652904807870
 20
-40.165473406248488
  0
VERTEX
  8
0
  6
CONTINUOUS
 62
256
 10
-292.571431128423230
 20
-39.717364751236836
  0
VERTEX
  8
0
  6
CONTINUOUS
 62
256
 10
-291.986925822178080
 20
-39.171342775258658
  0
VERTEX
  8
0
  6
CONTINUOUS
 62
256
 10
-291.552599197196970
 20
-38.548390796638138
  0
VERTEX
  8
0
  6
CONTINUOUS
 62
256
 10
-291.285142182104830
 20
-37.872448510558165
  0
SEQEND
  8
0
  6
CONTINUOUS
 62
256
  0
LINE
  8
0
  6
CONTINUOUS
 62
256
 10
-295.894833000000010
 20
-142.833133000000000
 11
-297.894833000000010
 21
-141.180490999999990
  0
LINE
  8
0
  6
CONTINUOUS
 62
256
 10
-293.894833000000010
 20
-144.008917999999990
 11
-295.894833000000010
 21
-142.833133000000000
  0
LINE
  8
0
  6
CONTINUOUS
 62
256
 10
-295.894833000000010
 20
-142.833133000000000
 11
-293.894833000000010
 21
-141.180490999999990
  0
LINE
  8
0
  6
CONTINUOUS
 62
256
 10
-297.894833000000010
 20
-144.008917999999990
 11
-295.894833000000010
 21
-142.833133000000000
  0
POLYLINE
  8
0
  6
CONTINUOUS
 62
256
 66
1
 70
1
  0
VERTEX
  8
0
  6
CONTINUOUS
 62
256
 10
-291.194833000000020
 20
-141.016541999999990
  0
VERTEX
  8
0
  6
CONTINUOUS
 62
256
 10
-291.285142182104830
 20
-140.313585489441810
  0
VERTEX
  8
0
  6
CONTINUOUS
 62
256
 10
-291.552599197196970
 20
-139.637643203361850
  0
VERTEX
  8
0
  6
CONTINUOUS
 62
256
 10
-291.986925822178080
 20
-139.014691224741310
  0
VERTEX
  8
0
  6
CONTINUOUS
 62
256
 10
-292.571431128423230
 20
-138.468669248763150
  0
VERTEX
  8
0
  6
CONTINUOUS
 62
256
 10
-293.283652904807870
 20
-138.020560593751500
  0
VERTEX
  8
0
  6
CONTINUOUS
 62
256
 10
-294.096220867884090
 20
-137.687585824016250
  0
VERTEX
  8
0
  6
CONTINUOUS
 62
256
 10
-294.977908486524200
 20
-137.482540973223910
  0
VERTEX
  8
0
  6
CONTINUOUS
 62
256
 10
-295.894833000000010
 20
-137.413305799999990
  0
VERTEX
  8
0
  6
CONTINUOUS
 62
256
 10
-296.811757513475810
 20
-137.482540973223910
  0
VERTEX
  8
0
  6
CONTINUOUS
 62
256
 10
-297.693445132115930
 20
-137.687585824016250
  0
VERTEX
  8
0
  6
CONTINUOUS
 62
256
 10
-298.506013095192150
 20
-138.020560593751500
  0
VERTEX
  8
0
  6
CONTINUOUS
 62
256
 10
-299.218234871576780
 20
-138.468669248763150
  0
VERTEX
  8
0
  6
CONTINUOUS
 62
256
 10
-299.802740177821930
 20
-139.014691224741310
  0
VERTEX
  8
0
  6
CONTINUOUS
 62
256
 10
-300.237066802803040
 20
-139.637643203361850
  0
VERTEX
  8
0
  6
CONTINUOUS
 62
256
 10
-300.504523817895180
 20
-140.313585489441810
  0
VERTEX
  8
0
  6
CONTINUOUS
 62
256
 10
-300.594832999999990
 20
-141.016541999999990
  0
VERTEX
  8
0
  6
CONTINUOUS
 62
256
 10
-300.504523817895180
 20
-141.719498510558170
  0
VERTEX
  8
0
  6
CONTINUOUS
 62
256
 10
-300.237066802803040
 20
-142.395440796638130
  0
VERTEX
  8
0
  6
CONTINUOUS
 62
256
 10
-299.802740177821930
 20
-143.018392775258660
  0
VERTEX
  8
0
  6
CONTINUOUS
 62
256
 10
-299.218234871576780
 20
-143.564414751236820
  0
VERTEX
  8
0
  6
CONTINUOUS
 62
256
 10
-298.506013095192150
 20
-144.012523406248480
  0
VERTEX
  8
0
  6
CONTINUOUS
 62
256
 10
-297.693445132115930
 20
-144.345498175983720
  0
VERTEX
  8
0
  6
CONTINUOUS
 62
256
 10
-296.811757513475810
 20
-144.550543026776040
  0
VERTEX
  8
0
  6
CONTINUOUS
 62
256
 10
-295.894833000000010
 20
-144.619778199999980
  0
VERTEX
  8
0
  6
CONTINUOUS
 62
256
 10
-294.977908486524200
 20
-144.550543026776040
  0
VERTEX
  8
0
  6
CONTINUOUS
 62
256
 10
-294.096220867884090
 20
-144.345498175983720
  0
VERTEX
  8
0
  6
CONTINUOUS
 62
256
 10
-293.283652904807870
 20
-144.012523406248480
  0
VERTEX
  8
0
  6
CONTINUOUS
 62
256
 10
-292.571431128423230
 20
-143.564414751236820
  0
VERTEX
  8
0
  6
CONTINUOUS
 62
256
 10
-291.986925822178080
 20
-143.018392775258660
  0
VERTEX
  8
0
  6
CONTINUOUS
 62
256
 10
-291.552599197196970
 20
-142.395440796638130
  0
VERTEX
  8
0
  6
CONTINUOUS
 62
256
 10
-291.285142182104830
 20
-141.719498510558170
  0
SEQEND
  8
0
  6
CONTINUOUS
 62
256
  0
LINE
  8
0
  6
DASHDOT
 62
256
 10
-142.207513000000010
 20
-89.093017000000003
 11
-345.824046000000010
 21
-89.093017000000003
  0
LINE
  8
0
  6
CONTINUOUS
 62
256
 10
388.256041999999980
 20
-153.031787000000010
 11
388.256041999999980
 21
-152.977951999999990
  0
LINE
  8
0
  6
DASHDOT
 62
256
 10
468.702126000000020
 20
-140.093017000000000
 11
367.618912000000020
 21
-140.093017000000000
  0
ARC
  8
0
  6
CONTINUOUS
 62
256
 10
658.856042000000000
 20
-89.093017000000003
 40
300.600000000000020
 50
171.898496999999990
 51
180.000000000000000
  0
ARC
  8
0
  6
CONTINUOUS
 62
256
 10
368.159426999999990
 20
-45.144430000000000
 40
6.600000000000017
 50
135.000000000000170
 51
171.402918000000030
  0
ARC
  8
0
  6
CONTINUOUS
 62
256
 10
468.352656000000020
 20
-45.144430000000000
 40
6.600000000000021
 50
8.597081999999979
 51
44.999999999999829
  0
ARC
  8
0
  6
CONTINUOUS
 62
256
 10
177.656042000000010
 20
-89.093017000000003
 40
300.600000000000020
 50
0.000000000000000
 51
8.101502999999999
  0
ARC
  8
0
  6
CONTINUOUS
 62
256
 10
177.656042000000010
 20
-89.093017000000003
 40
300.600000000000020
 50
351.402918000000000
 51
0.000000000000000
  0
ARC
  8
0
  6
CONTINUOUS
 62
256
 10
468.352656000000020
 20
-133.041605000000000
 40
6.600000000000017
 50
315.000000000000170
 51
351.402917999999940
  0
LINE
  8
0
  6
CONTINUOUS
 62
256
 10
473.019561000000010
 20
-137.708509999999990
 11
467.256041999999980
 21
-143.472028999999990
  0
ARC
  8
0
  6
CONTINUOUS
 62
256
 10
447.144071000000000
 20
-125.965918000000000
 40
26.600000000000009
 50
275.635203999999930
 51
283.542179999999920
  0
ARC
  8
0
  6
CONTINUOUS
 62
256
 10
443.256041999999980
 20
-176.031787000000010
 40
4.999999999999989
 50
274.861405000000100
 51
0.000000000000000
  0
LINE
  8
0
  6
CONTINUOUS
 62
256
 10
449.756041999999980
 20
-152.438011999999990
 11
449.756041999999980
 21
-152.593017000000000
  0
LINE
  8
0
  6
CONTINUOUS
 62
256
 10
448.256041999999980
 20
-176.031787000000010
 11
448.256041999999980
 21
-152.592265000000000
  0
LINE
  8
0
  6
CONTINUOUS
 62
256
 10
448.248540999999990
 20
-152.593017000000000
 11
449.756041999999980
 21
-152.593017000000000
  0
ARC
  8
0
  6
CONTINUOUS
 62
256
 10
418.256041999999980
 20
117.906983000000000
 40
300.000000000000000
 50
265.138595000000010
 51
270.000000000000000
  0
ARC
  8
0
  6
CONTINUOUS
 62
256
 10
393.256041999999980
 20
-176.031787000000010
 40
5.000000000000000
 50
180.000000000000000
 51
265.138594999999900
  0
ARC
  8
0
  6
CONTINUOUS
 62
256
 10
418.256041999999980
 20
117.906983000000000
 40
300.000000000000000
 50
270.000000000000000
 51
274.861404999999990
  0
LINE
  8
0
  6
CONTINUOUS
 62
256
 10
420.756041999999980
 20
-182.593017000000000
 11
420.756041999999980
 21
-182.082601000000010
  0
LINE
  8
0
  6
CONTINUOUS
 62
256
 10
415.756041999999980
 20
-182.593017000000000
 11
415.756041999999980
 21
-182.082601000000010
  0
LINE
  8
0
  6
CONTINUOUS
 62
256
 10
415.756041999999980
 20
-182.593017000000000
 11
420.756041999999980
 21
-182.593017000000000
  0
LINE
  8
0
  6
CONTINUOUS
 62
256
 10
388.256041999999980
 20
-176.031787000000010
 11
388.256041999999980
 21
-152.977951999999990
  0
LINE
  8
0
  6
CONTINUOUS
 62
256
 10
363.492522000000010
 20
-137.708509999999990
 11
369.256041999999980
 21
-143.472028999999990
  0
ARC
  8
0
  6
CONTINUOUS
 62
256
 10
368.159426999999990
 20
-133.041605000000000
 40
6.600000000000022
 50
188.597082000000030
 51
224.999999999999830
  0
ARC
  8
0
  6
CONTINUOUS
 62
256
 10
658.856042000000000
 20
-89.093017000000003
 40
300.600000000000020
 50
180.000000000000000
 51
188.597082000000000
  0
LINE
  8
0
  6
CONTINUOUS
 62
256
 10
474.903958999999990
 20
-44.331305999999998
 11
474.878497999999980
 21
-44.157829000000000
  0
LINE
  8
0
  6
CONTINUOUS
 62
256
 10
361.607304000000000
 20
-44.332005000000002
 11
361.633584999999980
 21
-44.157829000000000
  0
LINE
  8
0
  6
CONTINUOUS
 62
256
 10
363.492522000000010
 20
-40.477525000000000
 11
365.256041999999980
 21
-38.714005999999998
  0
LINE
  8
0
  6
CONTINUOUS
 62
256
 10
473.019561000000010
 20
-40.477525000000000
 11
471.256041999999980
 21
-38.714005999999998
  0
LINE
  8
0
  6
DASHDOT
 62
256
 10
418.256041999999980
 20
3.273195000000000
 11
418.256041999999980
 21
-185.261933000000000
  0
LINE
  8
0
  6
DASHDOT
 62
256
 10
468.702126000000020
 20
-18.093017000000000
 11
367.618912000000020
 21
-18.093017000000000
  0
LINE
  8
0
  6
DASHDOT
 62
256
 10
482.089433999999980
 20
-66.093017000000003
 11
354.511620999999990
 21
-66.093017000000003
  0
LINE
  8
0
  6
CONTINUOUS
 62
256
 10
369.256041999999980
 20
-134.956168999999990
 11
369.256041999999980
 21
-5.302478000000000
  0
LINE
  8
0
  6
CONTINUOUS
 62
256
 10
365.256041999999980
 20
-23.593017000000000
 11
365.256041999999980
 21
-89.093017000000003
  0
LINE
  8
0
  6
CONTINUOUS
 62
256
 10
365.256041999999980
 20
-23.593017000000000
 11
369.256041999999980
 21
-23.593017000000000
  0
LINE
  8
0
  6
CONTINUOUS
 62
256
 10
369.256041999999980
 20
-5.302478000000000
 11
381.256041999999980
 21
-5.093017000000000
  0
LINE
  8
0
  6
CONTINUOUS
 62
256
 10
381.256041999999980
 20
-5.084290000000000
 11
457.256041999999980
 21
-6.428330000000000
  0
LINE
  8
0
  6
CONTINUOUS
 62
256
 10
381.256041999999980
 20
-5.084290000000000
 11
381.256041999999980
 21
-89.093017000000003
  0
LINE
  8
0
  6
CONTINUOUS
 62
256
 10
467.256041999999980
 20
-134.956168999999990
 11
467.256041999999980
 21
-6.428330000000000
  0
LINE
  8
0
  6
CONTINUOUS
 62
256
 10
471.256041999999980
 20
-89.093017000000003
 11
471.256041999999980
 21
-23.593017000000000
  0
LINE
  8
0
  6
CONTINUOUS
 62
256
 10
467.256041999999980
 20
-23.593017000000000
 11
471.256041999999980
 21
-23.593017000000000
  0
LINE
  8
0
  6
CONTINUOUS
 62
256
 10
457.256041999999980
 20
-6.428330000000000
 11
467.256041999999980
 21
-6.428330000000000
  0
LINE
  8
0
  6
CONTINUOUS
 62
256
 10
361.256041999999980
 20
-87.093017000000003
 11
361.256041999999980
 21
-66.093017000000003
  0
LINE
  8
0
  6
CONTINUOUS
 62
256
 10
365.256041999999980
 20
-44.093017000000003
 11
362.256041999999980
 21
-44.093017000000003
  0
LINE
  8
0
  6
CONTINUOUS
 62
256
 10
361.256041999999980
 20
-45.093017000000003
 11
361.256041999999980
 21
-66.093017000000003
  0
LINE
  8
0
  6
CONTINUOUS
 62
256
 10
475.256041999999980
 20
-87.093017000000003
 11
475.256041999999980
 21
-66.093017000000003
  0
LINE
  8
0
  6
CONTINUOUS
 62
256
 10
471.256041999999980
 20
-44.093017000000003
 11
474.256041999999980
 21
-44.093017000000003
  0
LINE
  8
0
  6
CONTINUOUS
 62
256
 10
475.256041999999980
 20
-45.093017000000003
 11
475.256041999999980
 21
-66.093017000000003
  0
LINE
  8
0
  6
CONTINUOUS
 62
256
 10
477.256041999999980
 20
-89.093017000000003
 11
477.256041999999980
 21
-69.593017000000003
  0
LINE
  8
0
  6
CONTINUOUS
 62
256
 10
359.256041999999980
 20
-89.093017000000003
 11
359.256041999999980
 21
-69.593017000000003
  0
LINE
  8
0
  6
CONTINUOUS
 62
256
 10
359.756041999999980
 20
-69.093017000000003
 11
361.281042000000010
 21
-69.093017000000003
  0
LINE
  8
0
  6
CONTINUOUS
 62
256
 10
476.756041999999980
 20
-69.093017000000003
 11
475.256041999999980
 21
-69.093017000000003
  0
ARC
  8
0
  6
CONTINUOUS
 62
256
 10
71.174220000000005
 20
-83.092957999999996
 40
2.000000000000000
 50
90.000000000000000
 51
180.000000000000000
  0
ARC
  8
0
  6
CONTINUOUS
 62
256
 10
69.574219999999997
 20
-87.692958000000004
 40
0.400000000000006
 50
180.000000000000000
 51
270.000000000000000
  0
LINE
  8
0
  6
CONTINUOUS
 62
256
 10
69.174220000000005
 20
-87.692958000000004
 11
69.174220000000005
 21
-44.492958000000002
  0
LINE
  8
0
  6
CONTINUOUS
 62
256
 10
91.174220000000005
 20
-49.843017000000003
 11
89.174220000000005
 21
-49.843017000000003
  0
LINE
  8
0
  6
CONTINUOUS
 62
256
 10
91.174220000000005
 20
-49.843017000000003
 11
91.174220000000005
 21
-66.092957999999996
  0
LINE
  8
0
  6
CONTINUOUS
 62
256
 10
89.174220000000005
 20
-51.092958000000003
 11
71.174220000000005
 21
-51.092958000000003
  0
ARC
  8
0
  6
CONTINUOUS
 62
256
 10
84.774490999999998
 20
-43.692957999999997
 40
0.399999999999999
 50
270.000000000000000
 51
350.405932000000400
  0
LINE
  8
0
  6
CONTINUOUS
 62
256
 10
84.774490999999998
 20
-44.092958000000003
 11
69.574219999999997
 21
-44.092958000000003
  0
ARC
  8
0
  6
CONTINUOUS
 62
256
 10
69.574219999999997
 20
-44.492958000000002
 40
0.399999999999999
 50
90.000000000000000
 51
180.000000000000000
  0
ARC
  8
0
  6
CONTINUOUS
 62
256
 10
71.174220000000005
 20
-49.092958000000003
 40
2.000000000000000
 50
180.000000000000000
 51
270.000000000000000
  0
LINE
  8
0
  6
CONTINUOUS
 62
256
 10
98.674492999999998
 20
-43.592975000000003
 11
85.674492999999998
 21
-43.592990000000000
  0
ARC
  8
0
  6
CONTINUOUS
 62
256
 10
85.366099000000006
 20
-43.792957999999999
 40
0.200000000000003
 50
90.000000000000000
 51
170.405932000000040
  0
LINE
  8
0
  6
CONTINUOUS
 62
256
 10
89.174220000000005
 20
-49.843017000000003
 11
89.174220000000005
 21
-82.343017000000003
  0
LINE
  8
0
  6
CONTINUOUS
 62
256
 10
91.174220000000005
 20
-82.343017000000003
 11
89.174220000000005
 21
-82.343017000000003
  0
LINE
  8
0
  6
CONTINUOUS
 62
256
 10
98.674546000000007
 20
-88.592960000000005
 11
85.674546000000007
 21
-88.592974999999996
  0
LINE
  8
0
  6
CONTINUOUS
 62
256
 10
85.366099000000006
 20
-88.592957999999996
 11
115.774503999999990
 21
-88.592957999999996
  0
ARC
  8
0
  6
CONTINUOUS
 62
256
 10
85.366099000000006
 20
-88.392957999999993
 40
0.199999999999996
 50
189.594067999999960
 51
270.000000000000000
  0
ARC
  8
0
  6
CONTINUOUS
 62
256
 10
84.774490999999998
 20
-88.492958000000002
 40
0.400000000000005
 50
9.594067999999622
 51
90.000000000000000
  0
LINE
  8
0
  6
CONTINUOUS
 62
256
 10
89.174220000000005
 20
-81.092957999999996
 11
71.174220000000005
 21
-81.092957999999996
  0
LINE
  8
0
  6
CONTINUOUS
 62
256
 10
84.774490999999998
 20
-88.092957999999996
 11
69.574219999999997
 21
-88.092957999999996
  0
LINE
  8
0
  6
CONTINUOUS
 62
256
 10
115.174220000000010
 20
-81.092957999999996
 11
91.174220000000005
 21
-81.092957999999996
  0
LINE
  8
0
  6
CONTINUOUS
 62
256
 10
91.174220000000005
 20
-82.343017000000003
 11
91.174220000000005
 21
-66.092957999999996
  0
LINE
  8
0
  6
CONTINUOUS
 62
256
 10
116.174504000000000
 20
-90.593017000000003
 11
116.174504000000000
 21
-88.992958000000002
  0
ARC
  8
0
  6
CONTINUOUS
 62
256
 10
115.774503999999990
 20
-88.992958000000002
 40
0.400000000000006
 50
0.000000000000000
 51
90.000000000000000
  0
LINE
  8
0
  6
CONTINUOUS
 62
256
 10
115.174220000000010
 20
-81.392957999999993
 11
115.174220000000010
 21
-66.092957999999996
  0
LINE
  8
0
  6
CONTINUOUS
 62
256
 10
85.366099000000006
 20
-43.592958000000003
 11
115.774503999999990
 21
-43.592958000000003
  0
LINE
  8
0
  6
CONTINUOUS
 62
256
 10
115.174220000000010
 20
-51.092958000000003
 11
91.174220000000005
 21
-51.092958000000003
  0
LINE
  8
0
  6
CONTINUOUS
 62
256
 10
115.174220000000010
 20
-50.892958000000000
 11
115.174220000000010
 21
-66.092957999999996
  0
ARC
  8
0
  6
CONTINUOUS
 62
256
 10
115.774503999999990
 20
-43.192957999999997
 40
0.399999999999999
 50
270.000000000000000
 51
0.000000000000000
  0
LINE
  8
0
  6
CONTINUOUS
 62
256
 10
69.174220000000005
 20
-47.793016999999999
 11
183.174219999999990
 21
-47.793016999999999
  0
LINE
  8
0
  6
CONTINUOUS
 62
256
 10
115.174220000000010
 20
-50.892958000000000
 11
137.174219999999990
 21
-50.892958000000000
  0
ARC
  8
0
  6
CONTINUOUS
 62
256
 10
152.573950999999990
 20
-43.192957999999997
 40
0.399999999999989
 50
179.999926999999530
 51
270.000000000000000
  0
ARC
  8
0
  6
CONTINUOUS
 62
256
 10
152.573950999999990
 20
-43.193016999999998
 40
0.399999999999989
 50
179.999926999999530
 51
270.000000000000000
  0
LINE
  8
0
  6
CONTINUOUS
 62
256
 10
152.173950999999990
 20
-43.193016999999998
 11
152.173953000000010
 21
-41.093018000000001
  0
LINE
  8
0
  6
CONTINUOUS
 62
256
 10
137.174219999999990
 20
-50.892958000000000
 11
137.174219999999990
 21
-66.092957999999996
  0
LINE
  8
0
  6
CONTINUOUS
 62
256
 10
115.174220000000010
 20
-81.292957999999999
 11
137.174219999999990
 21
-81.292957999999999
  0
LINE
  8
0
  6
CONTINUOUS
 62
256
 10
137.174219999999990
 20
-81.292957999999999
 11
137.174219999999990
 21
-66.092957999999996
  0
LINE
  8
0
  6
CONTINUOUS
 62
256
 10
152.173950999999990
 20
-88.992958999999999
 11
152.173954000000010
 21
-91.493016999999995
  0
ARC
  8
0
  6
CONTINUOUS
 62
256
 10
152.573950999999990
 20
-88.992958000000002
 40
0.400000000000006
 50
90.000000000000000
 51
180.000072999999450
  0
LINE
  8
0
  6
CONTINUOUS
 62
256
 10
134.674504000000010
 20
-91.493016999999995
 11
152.173968000000000
 21
-91.493016999999995
  0
LINE
  8
0
  6
CONTINUOUS
 62
256
 10
116.174504000000000
 20
-90.593017000000003
 11
134.674504000000010
 21
-90.593017000000003
  0
LINE
  8
0
  6
CONTINUOUS
 62
256
 10
134.674504000000010
 20
-91.493016999999995
 11
134.674504000000010
 21
-90.593017000000003
  0
LINE
  8
0
  6
CONTINUOUS
 62
256
 10
152.573950999999990
 20
-88.592957999999996
 11
166.973950000000000
 21
-88.592957999999996
  0
LINE
  8
0
  6
CONTINUOUS
 62
256
 10
163.174219999999990
 20
-82.343017000000003
 11
161.174219999999990
 21
-82.343017000000003
  0
LINE
  8
0
  6
CONTINUOUS
 62
256
 10
181.174219999999990
 20
-81.092957999999996
 11
163.174219999999990
 21
-81.092957999999996
  0
LINE
  8
0
  6
CONTINUOUS
 62
256
 10
161.174219999999990
 20
-81.092957999999996
 11
137.174219999999990
 21
-81.092957999999996
  0
ARC
  8
0
  6
CONTINUOUS
 62
256
 10
167.565558000000010
 20
-88.492958000000002
 40
0.400000000000006
 50
90.000000000000000
 51
170.405932000000040
  0
ARC
  8
0
  6
CONTINUOUS
 62
256
 10
166.973950000000000
 20
-88.392957999999993
 40
0.200000000000003
 50
270.000000000000000
 51
350.405932000000010
  0
LINE
  8
0
  6
CONTINUOUS
 62
256
 10
167.565558000000010
 20
-88.092957999999996
 11
182.774220000000010
 21
-88.092957999999996
  0
ARC
  8
0
  6
CONTINUOUS
 62
256
 10
182.774220000000010
 20
-87.692958000000004
 40
0.400000000000006
 50
270.000000000000000
 51
0.000000000000000
  0
LINE
  8
0
  6
CONTINUOUS
 62
256
 10
183.174219999999990
 20
-87.692958000000004
 11
183.174219999999990
 21
-44.092958000000003
  0
ARC
  8
0
  6
CONTINUOUS
 62
256
 10
181.174219999999990
 20
-83.092957999999996
 40
2.000000000000000
 50
0.000000000000000
 51
90.000000000000000
  0
LINE
  8
0
  6
CONTINUOUS
 62
256
 10
163.174219999999990
 20
-49.843017000000003
 11
163.174219999999990
 21
-82.343017000000003
  0
LINE
  8
0
  6
CONTINUOUS
 62
256
 10
161.174219999999990
 20
-51.092958000000003
 11
137.174219999999990
 21
-51.092958000000003
  0
LINE
  8
0
  6
CONTINUOUS
 62
256
 10
181.174219999999990
 20
-51.092958000000003
 11
163.174219999999990
 21
-51.092958000000003
  0
LINE
  8
0
  6
CONTINUOUS
 62
256
 10
161.174219999999990
 20
-49.843017000000003
 11
161.174219999999990
 21
-66.092957999999996
  0
LINE
  8
0
  6
CONTINUOUS
 62
256
 10
161.174219999999990
 20
-82.343017000000003
 11
161.174219999999990
 21
-66.092957999999996
  0
LINE
  8
0
  6
DASHDOT
 62
256
 10
186.739757999999990
 20
-66.093017000000003
 11
65.271942999999993
 21
-66.093017000000003
  0
LINE
  8
0
  6
CONTINUOUS
 62
256
 10
163.174219999999990
 20
-49.843017000000003
 11
161.174219999999990
 21
-49.843017000000003
  0
ARC
  8
0
  6
CONTINUOUS
 62
256
 10
167.565558000000010
 20
-43.692957999999997
 40
0.399999999999991
 50
189.594067999999960
 51
270.000000000000000
  0
LINE
  8
0
  6
CONTINUOUS
 62
256
 10
167.565558000000010
 20
-44.092958000000003
 11
183.174219999999990
 21
-44.092958000000003
  0
LINE
  8
0
  6
CONTINUOUS
 62
256
 10
152.573950999999990
 20
-43.592958000000003
 11
166.973950000000000
 21
-43.592958000000003
  0
ARC
  8
0
  6
CONTINUOUS
 62
256
 10
166.973950000000000
 20
-43.792957999999999
 40
0.199999999999996
 50
9.594067999999961
 51
90.000000000000000
  0
LINE
  8
0
  6
CONTINUOUS
 62
256
 10
134.674504000000010
 20
-40.693016999999998
 11
134.674504000000010
 21
-41.593017000000003
  0
LINE
  8
0
  6
CONTINUOUS
 62
256
 10
116.174504000000000
 20
-41.593017000000003
 11
134.674504000000010
 21
-41.593017000000003
  0
LINE
  8
0
  6
CONTINUOUS
 62
256
 10
134.674504000000010
 20
-40.693016999999998
 11
152.173968000000000
 21
-40.693016999999998
  0
LINE
  8
0
  6
CONTINUOUS
 62
256
 10
152.173950999999990
 20
-43.193075999999998
 11
152.173954000000010
 21
-40.693016999999998
  0
LINE
  8
0
  6
CONTINUOUS
 62
256
 10
116.174504000000000
 20
-41.593017000000003
 11
116.174504000000000
 21
-43.193077000000002
  0
ARC
  8
0
  6
CONTINUOUS
 62
256
 10
181.174219999999990
 20
-49.093077000000001
 40
2.000000000000000
 50
270.000000000000000
 51
0.000000000000000
  0
LINE
  8
0
  6
CONTINUOUS
 62
256
 10
-180.894833000000010
 20
147.076238999999990
 11
-187.894833000000010
 21
147.076238999999990
  0
ENDSEC
  0
EOF
