  0
SECTION
  2
HEADER
  9
$TEXTSIZE
 40
2.5
  9
$ACADVER
  1
AC1009
  9
$DIMASZ
 40
3.863703297614046
  9
$DIMEXE
 40
2.000000000000000
  9
$DIMEXO
 40
1.000000000000000
  9
$DIMLFAC
 40
1.000000000000000
  9
$DIMSCALE
 40
1.000000000000000
  9
$DIMTAD
 70
1
  9
$DIMTFAC
 40
0.625000000000000
  9
$DIMTXT
 40
6.000000000000000
  9
$LUPREC
 70
3
  9
$REGENMODE
 70
1
  9
$TEXTSTYLE
  7
STANDARD1
  0
ENDSEC
  0
SECTION
  2
TABLES
  0
TABLE
  2
LTYPE
 70
4
  0
LTYPE
  2
CONTINUOUS
 70
64
  3
Solid line
 72
65
 73
0
 40
0.0
  0
LTYPE
  2
DASHED
 70
64
  3
-- -- -- -- -- -- -- -- -- -- -- -- -- -- --
 72
65
 73
2
 40
0.75
 49
0.5
 49
-0.25
  0
LTYPE
  2
DASHDOT
 70
64
  3
__ . __ . __ . __ . __ . __ . __ . __ . __ . __
 72
65
 73
4
 40
1.0
 49
0.5
 49
-0.25
 49
0.0
 49
-0.25
  0
LTYPE
  2
DIVIDE
 70
64
  3
__ . . __ . . __ . . __ . . __ . . __ . . __
 72
65
 73
6
 40
1.25
 49
0.5
 49
-0.25
 49
0.0
 49
-0.25
 49
0.0
 49
-0.25
  0
ENDTAB
  0
TABLE
  2
LAYER
 70
3
  0
LAYER
  2
0
 70
64
 62
53
  6
CONTINUOUS
  0
LAYER
  2
1
 70
64
 62
102
  6
CONTINUOUS
  0
LAYER
  2
2
 70
64
 62
102
  6
CONTINUOUS
  0
ENDTAB
  0
TABLE
  2
STYLE
 70
4
  0
STYLE
  2
STANDARD1
 70
64
 40
0.0
 41
1.0
 50
0.0
 71
0
 42
3.200000047683716
  3
MONOTXT
  4
BIGFONT
  0
STYLE
  2
STANDARD2
 70
68
 40
0.0
 41
1.0
 50
0.0
 71
0
 42
3.200000047683716
  3
MONOTXT
  4
BIGFONT
  0
STYLE
  2
STANDARD3
 70
64
 40
0.0
 41
1.0
 50
0.0
 71
0
 42
3.200000047683716
  3
MONOTXT
  4

  0
STYLE
  2
STANDARD4
 70
68
 40
0.0
 41
1.0
 50
0.0
 71
0
 42
3.200000047683716
  3
MONOTXT
  4

  0
ENDTAB
  0
TABLE
  2
VIEW
 70
0
  0
ENDTAB
  0
ENDSEC
  0
SECTION
  2
BLOCKS
  0
BLOCK
  8
0
  2
ZU_SYM_1
 70
64
 10
0.000000000000000
 20
0.000000000000000
  0
LINE
  8
0
  6
CONTINUOUS
 62
256
 10
2.499999000000000
 20
-1.443374000000000
 11
-0.000005000000000
 21
-2.886748000000000
  0
LINE
  8
0
  6
CONTINUOUS
 62
256
 10
0.000005000000000
 20
2.886748000000000
 11
-2.500000000000000
 21
1.443377000000000
  0
LINE
  8
0
  6
CONTINUOUS
 62
256
 10
-0.000006000000000
 20
-2.886747000000000
 11
-2.499998000000000
 21
-1.443372000000000
  0
LINE
  8
0
  6
CONTINUOUS
 62
256
 10
0.000005000000000
 20
2.886749000000000
 11
2.499999000000000
 21
1.443372000000000
  0
LINE
  8
0
  6
CONTINUOUS
 62
256
 10
2.499998000000000
 20
1.443372000000000
 11
2.499999000000000
 21
-1.443374000000000
  0
LINE
  8
0
  6
CONTINUOUS
 62
256
 10
-2.499998000000000
 20
-1.443372000000000
 11
-2.499999000000000
 21
1.443378000000000
  0
POINT
  8
0
  6
CONTINUOUS
 62
256
 10
0.000000000000000
 20
0.000000000000000
  0
CIRCLE
  8
0
  6
CONTINUOUS
 62
256
 10
0.000000000000000
 20
0.000000000000000
 40
5.000000000000000
  0
ENDBLK
  8
0
  0
BLOCK
  8
0
  2
ZU_SYM_2
 70
64
 10
0.000000000000000
 20
0.000000000000000
  0
LINE
  8
0
  6
CONTINUOUS
 62
256
 10
2.499999000000000
 20
-1.443374000000000
 11
-0.000005000000000
 21
-2.886748000000000
  0
LINE
  8
0
  6
CONTINUOUS
 62
256
 10
0.000005000000000
 20
2.886748000000000
 11
-2.500000000000000
 21
1.443377000000000
  0
LINE
  8
0
  6
CONTINUOUS
 62
256
 10
-0.000006000000000
 20
-2.886747000000000
 11
-2.499998000000000
 21
-1.443372000000000
  0
LINE
  8
0
  6
CONTINUOUS
 62
256
 10
0.000005000000000
 20
2.886749000000000
 11
2.499999000000000
 21
1.443372000000000
  0
LINE
  8
0
  6
CONTINUOUS
 62
256
 10
2.499998000000000
 20
1.443372000000000
 11
2.499999000000000
 21
-1.443374000000000
  0
LINE
  8
0
  6
CONTINUOUS
 62
256
 10
-2.499998000000000
 20
-1.443372000000000
 11
-2.499999000000000
 21
1.443378000000000
  0
POINT
  8
0
  6
CONTINUOUS
 62
256
 10
0.000000000000000
 20
0.000000000000000
  0
CIRCLE
  8
0
  6
CONTINUOUS
 62
256
 10
0.000000000000000
 20
0.000000000000000
 40
5.000000000000000
  0
ENDBLK
  8
0
  0
BLOCK
  8
0
  2
ZU_SYM_3
 70
64
 10
0.000000000000000
 20
0.000000000000000
  0
LINE
  8
0
  6
CONTINUOUS
 62
256
 10
2.499999000000000
 20
-1.443374000000000
 11
-0.000005000000000
 21
-2.886748000000000
  0
LINE
  8
0
  6
CONTINUOUS
 62
256
 10
0.000005000000000
 20
2.886748000000000
 11
-2.500000000000000
 21
1.443377000000000
  0
LINE
  8
0
  6
CONTINUOUS
 62
256
 10
-0.000006000000000
 20
-2.886747000000000
 11
-2.499998000000000
 21
-1.443372000000000
  0
LINE
  8
0
  6
CONTINUOUS
 62
256
 10
0.000005000000000
 20
2.886749000000000
 11
2.499999000000000
 21
1.443372000000000
  0
LINE
  8
0
  6
CONTINUOUS
 62
256
 10
2.499998000000000
 20
1.443372000000000
 11
2.499999000000000
 21
-1.443374000000000
  0
LINE
  8
0
  6
CONTINUOUS
 62
256
 10
-2.499998000000000
 20
-1.443372000000000
 11
-2.499999000000000
 21
1.443378000000000
  0
POINT
  8
0
  6
CONTINUOUS
 62
256
 10
0.000000000000000
 20
0.000000000000000
  0
CIRCLE
  8
0
  6
CONTINUOUS
 62
256
 10
0.000000000000000
 20
0.000000000000000
 40
5.000000000000000
  0
ENDBLK
  8
0
  0
BLOCK
  8
0
  2
ZU_SYM_4
 70
64
 10
0.000000000000000
 20
0.000000000000000
  0
LINE
  8
0
  6
CONTINUOUS
 62
256
 10
2.499999000000000
 20
-1.443374000000000
 11
-0.000005000000000
 21
-2.886748000000000
  0
LINE
  8
0
  6
CONTINUOUS
 62
256
 10
0.000005000000000
 20
2.886748000000000
 11
-2.500000000000000
 21
1.443377000000000
  0
LINE
  8
0
  6
CONTINUOUS
 62
256
 10
-0.000006000000000
 20
-2.886747000000000
 11
-2.499998000000000
 21
-1.443372000000000
  0
LINE
  8
0
  6
CONTINUOUS
 62
256
 10
0.000005000000000
 20
2.886749000000000
 11
2.499999000000000
 21
1.443372000000000
  0
LINE
  8
0
  6
CONTINUOUS
 62
256
 10
2.499998000000000
 20
1.443372000000000
 11
2.499999000000000
 21
-1.443374000000000
  0
LINE
  8
0
  6
CONTINUOUS
 62
256
 10
-2.499998000000000
 20
-1.443372000000000
 11
-2.499999000000000
 21
1.443378000000000
  0
POINT
  8
0
  6
CONTINUOUS
 62
256
 10
0.000000000000000
 20
0.000000000000000
  0
CIRCLE
  8
0
  6
CONTINUOUS
 62
256
 10
0.000000000000000
 20
0.000000000000000
 40
5.000000000000000
  0
ENDBLK
  8
0
  0
ENDSEC
  0
SECTION
  2
ENTITIES
  0
TEXT
  8
0
  6
CONTINUOUS
 62
256
 10
-70.375488281250000
 20
-13.156250000000000
 40
2.799999952316284
  1
ü@
 50
0.000002504478167
 41
0.996000017370497
  7
STANDARD1
  0
TEXT
  8
0
  6
CONTINUOUS
 62
256
 10
1.624511957168579
 20
-253.406250000000000
 40
2.799999952316284
  1
ü@
 50
0.000002504478167
 41
0.996000017370497
  7
STANDARD1
  0
LINE
  8
0
  6
DASHED
 62
256
 10
410.685303999999970
 20
-14.967098999999999
 11
494.685303999999970
 21
-14.967098999999999
  0
LINE
  8
0
  6
DASHED
 62
256
 10
410.685303999999970
 20
-21.967099000000001
 11
410.685303999999970
 21
-11.967098999999999
  0
LINE
  8
0
  6
DASHED
 62
256
 10
394.685303999999970
 20
-11.967098999999999
 11
410.685303999999970
 21
-11.967098999999999
  0
LINE
  8
0
  6
DASHED
 62
256
 10
410.685303999999970
 20
-21.967099000000001
 11
410.685303999999970
 21
-31.967099000000001
  0
LINE
  8
0
  6
DASHED
 62
256
 10
394.685303999999970
 20
-31.967099000000001
 11
410.685303999999970
 21
-31.967099000000001
  0
LINE
  8
0
  6
DASHED
 62
256
 10
410.685303999999970
 20
-28.967099000000001
 11
494.685303999999970
 21
-28.967099000000001
  0
LINE
  8
0
  6
DASHED
 62
256
 10
494.685303999999970
 20
-11.967098999999999
 11
510.685303999999970
 21
-11.967098999999999
  0
LINE
  8
0
  6
DASHED
 62
256
 10
494.685303999999970
 20
-21.967099000000001
 11
494.685303999999970
 21
-11.967098999999999
  0
LINE
  8
0
  6
DASHED
 62
256
 10
494.685303999999970
 20
-31.967099000000001
 11
510.685303999999970
 21
-31.967099000000001
  0
LINE
  8
0
  6
DASHED
 62
256
 10
494.685303999999970
 20
-21.967099000000001
 11
494.685303999999970
 21
-31.967099000000001
  0
LINE
  8
0
  6
DASHED
 62
256
 10
394.685303999999970
 20
-157.967098999999990
 11
410.685303999999970
 21
-157.967098999999990
  0
LINE
  8
0
  6
DASHED
 62
256
 10
410.685303999999970
 20
-167.967098999999990
 11
410.685303999999970
 21
-157.967098999999990
  0
LINE
  8
0
  6
DASHED
 62
256
 10
410.685303999999970
 20
-160.967098999999990
 11
494.685303999999970
 21
-160.967098999999990
  0
LINE
  8
0
  6
DASHED
 62
256
 10
394.685303999999970
 20
-177.967098999999990
 11
410.685303999999970
 21
-177.967098999999990
  0
LINE
  8
0
  6
DASHED
 62
256
 10
410.685303999999970
 20
-167.967098999999990
 11
410.685303999999970
 21
-177.967098999999990
  0
LINE
  8
0
  6
DASHED
 62
256
 10
410.685303999999970
 20
-174.967098999999990
 11
494.685303999999970
 21
-174.967098999999990
  0
LINE
  8
0
  6
DASHED
 62
256
 10
494.685303999999970
 20
-157.967098999999990
 11
510.685303999999970
 21
-157.967098999999990
  0
LINE
  8
0
  6
DASHED
 62
256
 10
494.685303999999970
 20
-167.967098999999990
 11
494.685303999999970
 21
-157.967098999999990
  0
LINE
  8
0
  6
DASHED
 62
256
 10
494.685303999999970
 20
-177.967098999999990
 11
510.685303999999970
 21
-177.967098999999990
  0
LINE
  8
0
  6
DASHED
 62
256
 10
494.685303999999970
 20
-167.967098999999990
 11
494.685303999999970
 21
-177.967098999999990
  0
CIRCLE
  8
0
  6
CONTINUOUS
 62
256
 10
-187.849795000000000
 20
-21.967099000000001
 40
10.000000000000000
  0
CIRCLE
  8
0
  6
CONTINUOUS
 62
256
 10
-28.849795000000000
 20
-21.967099000000001
 40
10.000000000000000
  0
CIRCLE
  8
0
  6
CONTINUOUS
 62
256
 10
-28.849795000000000
 20
-167.967098999999990
 40
10.000000000000000
  0
CIRCLE
  8
0
  6
CONTINUOUS
 62
256
 10
-187.849795000000000
 20
-167.967098999999990
 40
10.000000000000000
  0
LINE
  8
0
  6
CONTINUOUS
 62
256
 10
-133.349795000000000
 20
84.471596000000005
 11
-133.349795000000000
 21
89.471596000000005
  0
LINE
  8
0
  6
CONTINUOUS
 62
256
 10
-38.349795000000000
 20
84.471596000000005
 11
-38.349795000000000
 21
89.471596000000005
  0
LINE
  8
0
  6
CONTINUOUS
 62
256
 10
-38.349795000000000
 20
84.471596000000005
 11
-133.349795000000000
 21
84.471596000000005
  0
LINE
  8
0
  6
CONTINUOUS
 62
256
 10
-85.621122000000000
 20
210.471994000000000
 11
-133.349795000000000
 21
210.471994000000000
  0
LINE
  8
0
  6
CONTINUOUS
 62
256
 10
-133.349795000000000
 20
210.471994000000000
 11
-133.349795000000000
 21
205.471596000000010
  0
LINE
  8
0
  6
CONTINUOUS
 62
256
 10
-85.621122000000000
 20
210.471994000000000
 11
-38.349795000000000
 21
210.471994000000000
  0
LINE
  8
0
  6
CONTINUOUS
 62
256
 10
-38.349795000000000
 20
210.471994000000000
 11
-38.349795000000000
 21
205.471596000000010
  0
LINE
  8
0
  6
CONTINUOUS
 62
256
 10
-211.349795000000000
 20
103.471994000000000
 11
-205.059560000000000
 21
103.471994000000000
  0
LINE
  8
0
  6
CONTINUOUS
 62
256
 10
-231.349795000000000
 20
87.989051000000003
 11
-217.401165999999990
 21
87.733035999999998
  0
LINE
  8
0
  6
CONTINUOUS
 62
256
 10
-231.349795000000000
 20
206.954140999999990
 11
-217.401165999999990
 21
207.210157000000010
  0
LINE
  8
0
  6
CONTINUOUS
 62
256
 10
-231.349795000000000
 20
147.471596000000010
 11
-231.349795000000000
 21
206.971596000000010
  0
LINE
  8
0
  6
CONTINUOUS
 62
256
 10
-231.349795000000000
 20
147.471596000000010
 11
-231.349795000000000
 21
87.971596000000005
  0
ARC
  8
0
  6
CONTINUOUS
 62
256
 10
-203.453701000000000
 20
193.471596000000010
 40
2.000000000000000
 50
270.000000000000000
 51
358.999999999999830
  0
ARC
  8
0
  6
CONTINUOUS
 62
256
 10
-205.059560000000000
 20
101.471994000000000
 40
1.999999999999998
 50
358.999999999999830
 51
90.000000000000000
  0
LINE
  8
0
  6
CONTINUOUS
 62
256
 10
-231.349795000000000
 20
127.471596000000010
 11
-225.349795000000000
 21
127.471596000000010
  0
LINE
  8
0
  6
CONTINUOUS
 62
256
 10
-231.349795000000000
 20
167.471596000000010
 11
-225.349795000000000
 21
167.471596000000010
  0
LINE
  8
0
  6
CONTINUOUS
 62
256
 10
-222.349795000000000
 20
95.375288999999995
 11
-217.349795000000000
 21
95.375288999999995
  0
LINE
  8
0
  6
CONTINUOUS
 62
256
 10
-222.349795000000000
 20
102.286865000000010
 11
-217.349795000000000
 21
102.286865000000010
  0
LINE
  8
0
  6
CONTINUOUS
 62
256
 10
-222.349795000000000
 20
192.656328000000000
 11
-217.349795000000000
 21
192.656328000000000
  0
LINE
  8
0
  6
CONTINUOUS
 62
256
 10
-222.349795000000000
 20
199.567904000000000
 11
-217.349795000000000
 21
199.567904000000000
  0
LINE
  8
0
  6
CONTINUOUS
 62
256
 10
-225.349795000000000
 20
202.971596000000010
 11
-225.349795000000000
 21
203.971596000000010
  0
LINE
  8
0
  6
CONTINUOUS
 62
256
 10
-222.349795000000000
 20
186.472862999999990
 11
-217.349795000000000
 21
186.472862999999990
  0
LINE
  8
0
  6
CONTINUOUS
 62
256
 10
-225.349795000000000
 20
189.656328000000000
 11
-225.349795000000000
 21
147.471596000000010
  0
LINE
  8
0
  6
CONTINUOUS
 62
256
 10
-225.349795000000000
 20
202.971596000000010
 11
-225.349795000000000
 21
202.567904000000000
  0
LINE
  8
0
  6
CONTINUOUS
 62
256
 10
-225.349795000000000
 20
91.971596000000005
 11
-225.349795000000000
 21
90.971596000000005
  0
LINE
  8
0
  6
CONTINUOUS
 62
256
 10
-225.349795000000000
 20
91.971596000000005
 11
-225.349795000000000
 21
92.375288999999995
  0
LINE
  8
0
  6
CONTINUOUS
 62
256
 10
-225.349795000000000
 20
91.971596000000005
 11
-225.349795000000000
 21
92.375288999999995
  0
LINE
  8
0
  6
CONTINUOUS
 62
256
 10
-222.349795000000000
 20
108.470329000000010
 11
-217.349795000000000
 21
108.470329000000010
  0
LINE
  8
0
  6
CONTINUOUS
 62
256
 10
-225.349795000000000
 20
105.286865000000010
 11
-225.349795000000000
 21
147.471596000000010
  0
ARC
  8
0
  6
CONTINUOUS
 62
256
 10
-222.349795000000000
 20
202.567904000000000
 40
3.000000000000000
 50
180.000000000000000
 51
270.000000000000000
  0
ARC
  8
0
  6
CONTINUOUS
 62
256
 10
-222.349795000000000
 20
189.656328000000000
 40
3.000000000000000
 50
90.000000000000000
 51
180.000000000000000
  0
ARC
  8
0
  6
CONTINUOUS
 62
256
 10
-222.349795000000000
 20
183.472862999999990
 40
3.000000000000000
 50
90.000000000000000
 51
180.000000000000000
  0
ARC
  8
0
  6
CONTINUOUS
 62
256
 10
-228.349795000000000
 20
203.971596000000010
 40
3.000000000000000
 50
0.000000000000000
 51
90.000000000000000
  0
ARC
  8
0
  6
CONTINUOUS
 62
256
 10
-228.349795000000000
 20
90.971596000000005
 40
3.000000000000000
 50
270.000000000000000
 51
0.000000000000000
  0
ARC
  8
0
  6
CONTINUOUS
 62
256
 10
-222.349795000000000
 20
105.286865000000010
 40
3.000000000000000
 50
180.000000000000000
 51
270.000000000000000
  0
ARC
  8
0
  6
CONTINUOUS
 62
256
 10
-222.349795000000000
 20
92.375288999999995
 40
3.000000000000000
 50
90.000000000000000
 51
180.000000000000000
  0
ARC
  8
0
  6
CONTINUOUS
 62
256
 10
-222.349795000000000
 20
111.470329000000010
 40
3.000000000000000
 50
180.000000000000000
 51
270.000000000000000
  0
ARC
  8
0
  6
CONTINUOUS
 62
256
 10
-217.349795000000000
 20
204.210597000000010
 40
3.000000000000000
 50
0.000000000000000
 51
90.981172999999970
  0
ARC
  8
0
  6
CONTINUOUS
 62
256
 10
-217.349795000000000
 20
90.732596000000001
 40
3.000000000000006
 50
269.018827000000040
 51
0.000000000000000
  0
ARC
  8
0
  6
CONTINUOUS
 62
256
 10
-217.349795000000000
 20
98.375288999999995
 40
3.000000000000000
 50
270.000000000000000
 51
0.000000000000000
  0
ARC
  8
0
  6
CONTINUOUS
 62
256
 10
-217.349795000000000
 20
105.286865000000010
 40
3.000000000000000
 50
270.000000000000000
 51
0.000000000000000
  0
ARC
  8
0
  6
CONTINUOUS
 62
256
 10
-217.349795000000000
 20
196.567904000000000
 40
3.000000000000000
 50
0.000000000000000
 51
90.000000000000000
  0
ARC
  8
0
  6
CONTINUOUS
 62
256
 10
-217.349795000000000
 20
189.656328000000000
 40
3.000000000000000
 50
0.000000000000000
 51
90.000000000000000
  0
ARC
  8
0
  6
CONTINUOUS
 62
256
 10
-211.349795000000000
 20
100.471994000000000
 40
3.000000000000000
 50
90.000000000000000
 51
180.000000000000000
  0
LINE
  8
0
  6
CONTINUOUS
 62
256
 10
-203.453701000000000
 20
191.471596000000010
 11
-211.349795000000000
 21
191.471596000000010
  0
ARC
  8
0
  6
CONTINUOUS
 62
256
 10
-211.349795000000000
 20
194.471596000000010
 40
3.000000000000000
 50
180.000000000000000
 51
270.000000000000000
  0
LINE
  8
0
  6
CONTINUOUS
 62
256
 10
-214.349795000000000
 20
90.732596000000001
 11
-214.349795000000000
 21
204.210597000000010
  0
LINE
  8
0
  6
CONTINUOUS
 62
256
 10
-102.050692000000000
 20
205.471596000000010
 11
-15.708766000000001
 21
205.471596000000010
  0
LINE
  8
0
  6
CONTINUOUS
 62
256
 10
-102.050692000000000
 20
101.471596000000010
 11
-14.059263000000000
 21
101.471596000000010
  0
LINE
  8
0
  6
CONTINUOUS
 62
256
 10
-102.050692000000000
 20
89.471198999999999
 11
-14.768654000000000
 21
89.471198999999999
  0
LINE
  8
0
  6
CONTINUOUS
 62
256
 10
-102.050692000000000
 20
89.471198999999999
 11
-202.849795000000000
 21
89.471198999999999
  0
LINE
  8
0
  6
CONTINUOUS
 62
256
 10
-203.059262999999990
 20
101.471596000000010
 11
-102.050692000000000
 21
101.471596000000010
  0
LINE
  8
0
  6
CONTINUOUS
 62
256
 10
-201.409759000000010
 20
205.471596000000010
 11
-102.050692000000000
 21
205.471596000000010
  0
LINE
  8
0
  6
CONTINUOUS
 62
256
 10
-14.059263000000000
 20
101.471596000000010
 11
-15.708766000000001
 21
195.971596000000010
  0
LINE
  8
0
  6
CONTINUOUS
 62
256
 10
-15.708766000000001
 20
195.971596000000010
 11
-15.708766000000001
 21
205.471596000000010
  0
LINE
  8
0
  6
CONTINUOUS
 62
256
 10
-14.260005000000000
 20
89.971046000000001
 11
-14.059263000000000
 21
101.471596000000010
  0
LINE
  8
0
  6
CONTINUOUS
 62
256
 10
-203.059262999999990
 20
101.471596000000010
 11
-201.409759000000010
 21
195.971596000000010
  0
LINE
  8
0
  6
CONTINUOUS
 62
256
 10
-201.409759000000010
 20
195.971596000000010
 11
-201.409759000000010
 21
205.471596000000010
  0
LINE
  8
0
  6
CONTINUOUS
 62
256
 10
-202.849795000000000
 20
89.471198999999999
 11
-203.059262999999990
 21
101.471596000000010
  0
LINE
  8
0
  6
CONTINUOUS
 62
256
 10
-85.849795000000000
 20
84.471198999999999
 11
-133.349795000000000
 21
84.471198999999999
  0
LINE
  8
0
  6
CONTINUOUS
 62
256
 10
-14.768654000000000
 20
89.471198999999999
 11
-14.260005000000000
 21
89.971046000000001
  0
LINE
  8
0
  6
CONTINUOUS
 62
256
 10
-62.078468000000001
 20
81.471596000000005
 11
-62.078468000000001
 21
84.471596000000005
  0
LINE
  8
0
  6
CONTINUOUS
 62
256
 10
-63.078468000000001
 20
80.471596000000005
 11
-86.078468000000001
 21
80.471596000000005
  0
ARC
  8
0
  6
CONTINUOUS
 62
256
 10
-63.078468000000001
 20
81.471596000000005
 40
1.000000000000000
 50
270.000000000000000
 51
0.000000000000000
  0
LINE
  8
0
  6
CONTINUOUS
 62
256
 10
-110.078468000000000
 20
81.471596000000005
 11
-110.078468000000000
 21
84.471596000000005
  0
LINE
  8
0
  6
CONTINUOUS
 62
256
 10
-109.078468000000000
 20
80.471596000000005
 11
-86.078468000000001
 21
80.471596000000005
  0
ARC
  8
0
  6
CONTINUOUS
 62
256
 10
-109.078468000000000
 20
81.471596000000005
 40
1.000000000000000
 50
180.000000000000000
 51
270.000000000000000
  0
LINE
  8
0
  6
CONTINUOUS
 62
256
 10
-110.078468000000000
 20
213.471596000000010
 11
-110.078468000000000
 21
210.471596000000010
  0
LINE
  8
0
  6
CONTINUOUS
 62
256
 10
-109.078468000000000
 20
214.471596000000010
 11
-86.078468000000001
 21
214.471596000000010
  0
ARC
  8
0
  6
CONTINUOUS
 62
256
 10
-109.078468000000000
 20
213.471596000000010
 40
1.000000000000000
 50
90.000000000000000
 51
180.000000000000000
  0
LINE
  8
0
  6
CONTINUOUS
 62
256
 10
-62.078468000000001
 20
213.471596000000010
 11
-62.078468000000001
 21
210.471596000000010
  0
LINE
  8
0
  6
CONTINUOUS
 62
256
 10
-63.078468000000001
 20
214.471596000000010
 11
-86.078468000000001
 21
214.471596000000010
  0
ARC
  8
0
  6
CONTINUOUS
 62
256
 10
-63.078468000000001
 20
213.471596000000010
 40
1.000000000000000
 50
0.000000000000000
 51
90.000000000000000
  0
LINE
  8
0
  6
CONTINUOUS
 62
256
 10
-328.349794999999970
 20
204.471596000000010
 11
-231.349795000000000
 21
204.471596000000010
  0
LINE
  8
0
  6
CONTINUOUS
 62
256
 10
-328.349794999999970
 20
204.971596000000010
 11
-231.349795000000000
 21
204.971596000000010
  0
LINE
  8
0
  6
CONTINUOUS
 62
256
 10
-328.349794999999970
 20
203.471596000000010
 11
-231.349795000000000
 21
203.471596000000010
  0
LINE
  8
0
  6
CONTINUOUS
 62
256
 10
-328.349794999999970
 20
202.471596000000010
 11
-231.349795000000000
 21
202.471596000000010
  0
LINE
  8
0
  6
CONTINUOUS
 62
256
 10
-328.349794999999970
 20
197.787130999999990
 11
-231.349795000000000
 21
197.787130999999990
  0
LINE
  8
0
  6
CONTINUOUS
 62
256
 10
-328.349794999999970
 20
192.837382999999990
 11
-231.349795000000000
 21
192.837382999999990
  0
LINE
  8
0
  6
CONTINUOUS
 62
256
 10
-231.349795000000000
 20
205.971596000000010
 11
-328.349794999999970
 21
205.971596000000010
  0
LINE
  8
0
  6
CONTINUOUS
 62
256
 10
-328.349794999999970
 20
207.471596000000010
 11
-357.043818999999980
 21
207.471596000000010
  0
LINE
  8
0
  6
CONTINUOUS
 62
256
 10
-379.349794999999970
 20
147.471596000000010
 11
-379.349794999999970
 21
194.914801000000010
  0
ARC
  8
0
  6
CONTINUOUS
 62
256
 10
-357.043818999999980
 20
187.471596000000010
 40
20.000000000000000
 50
90.000000000000000
 51
125.000000000000060
  0
LINE
  8
0
  6
CONTINUOUS
 62
256
 10
-368.515348000000020
 20
203.854637000000000
 11
-378.241093999999980
 21
197.044597000000010
  0
ARC
  8
0
  6
CONTINUOUS
 62
256
 10
-376.749795000000010
 20
194.914801000000010
 40
2.599999999999996
 50
125.000000000000210
 51
180.000000000000000
  0
LINE
  8
0
  6
CONTINUOUS
 62
256
 10
-328.349794999999970
 20
90.471596000000005
 11
-231.349795000000000
 21
90.471596000000005
  0
LINE
  8
0
  6
CONTINUOUS
 62
256
 10
-328.349794999999970
 20
89.971596000000005
 11
-231.349795000000000
 21
89.971596000000005
  0
LINE
  8
0
  6
CONTINUOUS
 62
256
 10
-328.349794999999970
 20
91.471596000000005
 11
-231.349795000000000
 21
91.471596000000005
  0
LINE
  8
0
  6
CONTINUOUS
 62
256
 10
-328.349794999999970
 20
92.471596000000005
 11
-231.349795000000000
 21
92.471596000000005
  0
LINE
  8
0
  6
CONTINUOUS
 62
256
 10
-328.349794999999970
 20
97.156062000000006
 11
-231.349795000000000
 21
97.156062000000006
  0
LINE
  8
0
  6
CONTINUOUS
 62
256
 10
-328.349794999999970
 20
102.105810000000010
 11
-231.349795000000000
 21
102.105810000000010
  0
LINE
  8
0
  6
CONTINUOUS
 62
256
 10
-231.349795000000000
 20
88.971596000000005
 11
-328.349794999999970
 21
88.971596000000005
  0
LINE
  8
0
  6
CONTINUOUS
 62
256
 10
-328.349794999999970
 20
87.471596000000005
 11
-357.043818999999980
 21
87.471596000000005
  0
LINE
  8
0
  6
CONTINUOUS
 62
256
 10
-379.349794999999970
 20
147.471596000000010
 11
-379.349794999999970
 21
100.028391000000000
  0
ARC
  8
0
  6
CONTINUOUS
 62
256
 10
-357.043818999999980
 20
107.471596000000010
 40
20.000000000000007
 50
234.999999999999940
 51
270.000000000000000
  0
LINE
  8
0
  6
CONTINUOUS
 62
256
 10
-368.515348000000020
 20
91.088554999999999
 11
-378.241093999999980
 21
97.898595999999998
  0
ARC
  8
0
  6
CONTINUOUS
 62
256
 10
-376.749795000000010
 20
100.028391000000000
 40
2.600000000000023
 50
180.000000000000000
 51
234.999999999999940
  0
POLYLINE
  8
0
  6
CONTINUOUS
 62
256
 66
1
 70
1
  0
VERTEX
  8
0
  6
CONTINUOUS
 62
256
 10
-334.649794999999980
 20
199.395120999999990
  0
VERTEX
  8
0
  6
CONTINUOUS
 62
256
 10
-334.740104182104800
 20
200.098077510558170
  0
VERTEX
  8
0
  6
CONTINUOUS
 62
256
 10
-335.007561197196940
 20
200.774019796638130
  0
VERTEX
  8
0
  6
CONTINUOUS
 62
256
 10
-335.441887822178050
 20
201.396971775258660
  0
VERTEX
  8
0
  6
CONTINUOUS
 62
256
 10
-336.026393128423190
 20
201.942993751236830
  0
VERTEX
  8
0
  6
CONTINUOUS
 62
256
 10
-336.738614904807830
 20
202.391102406248480
  0
VERTEX
  8
0
  6
CONTINUOUS
 62
256
 10
-337.551182867884050
 20
202.724077175983720
  0
VERTEX
  8
0
  6
CONTINUOUS
 62
256
 10
-338.432870486524170
 20
202.929122026776070
  0
VERTEX
  8
0
  6
CONTINUOUS
 62
256
 10
-339.349794999999970
 20
202.998357199999990
  0
VERTEX
  8
0
  6
CONTINUOUS
 62
256
 10
-340.266719513475780
 20
202.929122026776070
  0
VERTEX
  8
0
  6
CONTINUOUS
 62
256
 10
-341.148407132115890
 20
202.724077175983720
  0
VERTEX
  8
0
  6
CONTINUOUS
 62
256
 10
-341.960975095192110
 20
202.391102406248480
  0
VERTEX
  8
0
  6
CONTINUOUS
 62
256
 10
-342.673196871576750
 20
201.942993751236830
  0
VERTEX
  8
0
  6
CONTINUOUS
 62
256
 10
-343.257702177821900
 20
201.396971775258660
  0
VERTEX
  8
0
  6
CONTINUOUS
 62
256
 10
-343.692028802803010
 20
200.774019796638130
  0
VERTEX
  8
0
  6
CONTINUOUS
 62
256
 10
-343.959485817895140
 20
200.098077510558170
  0
VERTEX
  8
0
  6
CONTINUOUS
 62
256
 10
-344.049794999999960
 20
199.395120999999990
  0
VERTEX
  8
0
  6
CONTINUOUS
 62
256
 10
-343.959485817895140
 20
198.692164489441810
  0
VERTEX
  8
0
  6
CONTINUOUS
 62
256
 10
-343.692028802803010
 20
198.016222203361850
  0
VERTEX
  8
0
  6
CONTINUOUS
 62
256
 10
-343.257702177821900
 20
197.393270224741310
  0
VERTEX
  8
0
  6
CONTINUOUS
 62
256
 10
-342.673196871576750
 20
196.847248248763150
  0
VERTEX
  8
0
  6
CONTINUOUS
 62
256
 10
-341.960975095192110
 20
196.399139593751500
  0
VERTEX
  8
0
  6
CONTINUOUS
 62
256
 10
-341.148407132115890
 20
196.066164824016250
  0
VERTEX
  8
0
  6
CONTINUOUS
 62
256
 10
-340.266719513475780
 20
195.861119973223940
  0
VERTEX
  8
0
  6
CONTINUOUS
 62
256
 10
-339.349794999999970
 20
195.791884799999990
  0
VERTEX
  8
0
  6
CONTINUOUS
 62
256
 10
-338.432870486524170
 20
195.861119973223940
  0
VERTEX
  8
0
  6
CONTINUOUS
 62
256
 10
-337.551182867884050
 20
196.066164824016250
  0
VERTEX
  8
0
  6
CONTINUOUS
 62
256
 10
-336.738614904807830
 20
196.399139593751500
  0
VERTEX
  8
0
  6
CONTINUOUS
 62
256
 10
-336.026393128423190
 20
196.847248248763150
  0
VERTEX
  8
0
  6
CONTINUOUS
 62
256
 10
-335.441887822178050
 20
197.393270224741310
  0
VERTEX
  8
0
  6
CONTINUOUS
 62
256
 10
-335.007561197196940
 20
198.016222203361850
  0
VERTEX
  8
0
  6
CONTINUOUS
 62
256
 10
-334.740104182104800
 20
198.692164489441810
  0
SEQEND
  8
0
  6
CONTINUOUS
 62
256
  0
LINE
  8
0
  6
CONTINUOUS
 62
256
 10
-341.349794999999970
 20
202.387497000000000
 11
-339.349794999999970
 21
201.211711000000010
  0
LINE
  8
0
  6
CONTINUOUS
 62
256
 10
-339.349794999999970
 20
201.211711000000010
 11
-337.349794999999970
 21
199.559069999999990
  0
LINE
  8
0
  6
CONTINUOUS
 62
256
 10
-337.349794999999970
 20
202.387497000000000
 11
-339.349794999999970
 21
201.211711000000010
  0
LINE
  8
0
  6
CONTINUOUS
 62
256
 10
-339.349794999999970
 20
201.211711000000010
 11
-341.349794999999970
 21
199.559069999999990
  0
POLYLINE
  8
0
  6
CONTINUOUS
 62
256
 66
1
 70
1
  0
VERTEX
  8
0
  6
CONTINUOUS
 62
256
 10
-334.649794999999980
 20
95.548070999999993
  0
VERTEX
  8
0
  6
CONTINUOUS
 62
256
 10
-334.740104182104800
 20
96.251027510558160
  0
VERTEX
  8
0
  6
CONTINUOUS
 62
256
 10
-335.007561197196940
 20
96.926969796638133
  0
VERTEX
  8
0
  6
CONTINUOUS
 62
256
 10
-335.441887822178050
 20
97.549921775258653
  0
VERTEX
  8
0
  6
CONTINUOUS
 62
256
 10
-336.026393128423190
 20
98.095943751236831
  0
VERTEX
  8
0
  6
CONTINUOUS
 62
256
 10
-336.738614904807830
 20
98.544052406248483
  0
VERTEX
  8
0
  6
CONTINUOUS
 62
256
 10
-337.551182867884050
 20
98.877027175983741
  0
VERTEX
  8
0
  6
CONTINUOUS
 62
256
 10
-338.432870486524170
 20
99.082072026776061
  0
VERTEX
  8
0
  6
CONTINUOUS
 62
256
 10
-339.349794999999970
 20
99.151307199999991
  0
VERTEX
  8
0
  6
CONTINUOUS
 62
256
 10
-340.266719513475780
 20
99.082072026776061
  0
VERTEX
  8
0
  6
CONTINUOUS
 62
256
 10
-341.148407132115890
 20
98.877027175983741
  0
VERTEX
  8
0
  6
CONTINUOUS
 62
256
 10
-341.960975095192110
 20
98.544052406248483
  0
VERTEX
  8
0
  6
CONTINUOUS
 62
256
 10
-342.673196871576750
 20
98.095943751236831
  0
VERTEX
  8
0
  6
CONTINUOUS
 62
256
 10
-343.257702177821900
 20
97.549921775258653
  0
VERTEX
  8
0
  6
CONTINUOUS
 62
256
 10
-343.692028802803010
 20
96.926969796638133
  0
VERTEX
  8
0
  6
CONTINUOUS
 62
256
 10
-343.959485817895140
 20
96.251027510558160
  0
VERTEX
  8
0
  6
CONTINUOUS
 62
256
 10
-344.049794999999960
 20
95.548070999999993
  0
VERTEX
  8
0
  6
CONTINUOUS
 62
256
 10
-343.959485817895140
 20
94.845114489441826
  0
VERTEX
  8
0
  6
CONTINUOUS
 62
256
 10
-343.692028802803010
 20
94.169172203361853
  0
VERTEX
  8
0
  6
CONTINUOUS
 62
256
 10
-343.257702177821900
 20
93.546220224741333
  0
VERTEX
  8
0
  6
CONTINUOUS
 62
256
 10
-342.673196871576750
 20
93.000198248763155
  0
VERTEX
  8
0
  6
CONTINUOUS
 62
256
 10
-341.960975095192110
 20
92.552089593751504
  0
VERTEX
  8
0
  6
CONTINUOUS
 62
256
 10
-341.148407132115890
 20
92.219114824016259
  0
VERTEX
  8
0
  6
CONTINUOUS
 62
256
 10
-340.266719513475780
 20
92.014069973223926
  0
VERTEX
  8
0
  6
CONTINUOUS
 62
256
 10
-339.349794999999970
 20
91.944834799999995
  0
VERTEX
  8
0
  6
CONTINUOUS
 62
256
 10
-338.432870486524170
 20
92.014069973223926
  0
VERTEX
  8
0
  6
CONTINUOUS
 62
256
 10
-337.551182867884050
 20
92.219114824016245
  0
VERTEX
  8
0
  6
CONTINUOUS
 62
256
 10
-336.738614904807830
 20
92.552089593751504
  0
VERTEX
  8
0
  6
CONTINUOUS
 62
256
 10
-336.026393128423190
 20
93.000198248763155
  0
VERTEX
  8
0
  6
CONTINUOUS
 62
256
 10
-335.441887822178050
 20
93.546220224741333
  0
VERTEX
  8
0
  6
CONTINUOUS
 62
256
 10
-335.007561197196940
 20
94.169172203361853
  0
VERTEX
  8
0
  6
CONTINUOUS
 62
256
 10
-334.740104182104800
 20
94.845114489441826
  0
SEQEND
  8
0
  6
CONTINUOUS
 62
256
  0
LINE
  8
0
  6
CONTINUOUS
 62
256
 10
-341.349794999999970
 20
92.555695999999998
 11
-339.349794999999970
 21
93.731481000000002
  0
LINE
  8
0
  6
CONTINUOUS
 62
256
 10
-339.349794999999970
 20
93.731481000000002
 11
-337.349794999999970
 21
95.384123000000002
  0
LINE
  8
0
  6
CONTINUOUS
 62
256
 10
-337.349794999999970
 20
92.555695999999998
 11
-339.349794999999970
 21
93.731481000000002
  0
LINE
  8
0
  6
CONTINUOUS
 62
256
 10
-339.349794999999970
 20
93.731481000000002
 11
-341.349794999999970
 21
95.384123000000002
  0
LINE
  8
0
  6
CONTINUOUS
 62
256
 10
-328.349794999999970
 20
147.471596000000010
 11
-328.349794999999970
 21
207.471596000000010
  0
LINE
  8
0
  6
CONTINUOUS
 62
256
 10
-328.349794999999970
 20
147.471596000000010
 11
-328.349794999999970
 21
87.471596000000005
  0
LINE
  8
0
  6
CONTINUOUS
 62
256
 10
-328.349794999999970
 20
183.186134000000010
 11
-231.349795000000000
 21
183.186134000000010
  0
LINE
  8
0
  6
CONTINUOUS
 62
256
 10
-328.349794999999970
 20
184.790781000000010
 11
-231.349795000000000
 21
184.790781000000010
  0
LINE
  8
0
  6
CONTINUOUS
 62
256
 10
-328.349794999999970
 20
111.757059000000000
 11
-231.349795000000000
 21
111.757059000000000
  0
LINE
  8
0
  6
CONTINUOUS
 62
256
 10
-328.349794999999970
 20
110.152411000000000
 11
-231.349795000000000
 21
110.152411000000000
  0
LINE
  8
0
  6
CONTINUOUS
 62
256
 10
-328.349794999999970
 20
173.663530000000010
 11
-231.349795000000000
 21
173.663530000000010
  0
LINE
  8
0
  6
CONTINUOUS
 62
256
 10
-328.349794999999970
 20
172.301650000000000
 11
-231.349795000000000
 21
172.301650000000000
  0
LINE
  8
0
  6
CONTINUOUS
 62
256
 10
-328.349794999999970
 20
177.754031000000000
 11
-231.349795000000000
 21
177.754031000000000
  0
LINE
  8
0
  6
CONTINUOUS
 62
256
 10
-328.349794999999970
 20
167.471596000000010
 11
-231.349795000000000
 21
167.471596000000010
  0
LINE
  8
0
  6
CONTINUOUS
 62
256
 10
-328.349794999999970
 20
127.471596000000010
 11
-231.349795000000000
 21
127.471596000000010
  0
LINE
  8
0
  6
CONTINUOUS
 62
256
 10
-328.349794999999970
 20
121.279663000000000
 11
-231.349795000000000
 21
121.279663000000000
  0
LINE
  8
0
  6
CONTINUOUS
 62
256
 10
-328.349794999999970
 20
122.641543000000000
 11
-231.349795000000000
 21
122.641543000000000
  0
LINE
  8
0
  6
CONTINUOUS
 62
256
 10
-328.349794999999970
 20
117.189162000000000
 11
-231.349795000000000
 21
117.189162000000000
  0
LINE
  8
0
  6
DASHDOT
 62
256
 10
-85.849795000000000
 20
70.755853000000002
 11
-85.849795000000000
 21
228.137003999999990
  0
LINE
  8
0
  6
DASHDOT
 62
256
 10
-391.163750999999990
 20
147.471596000000010
 11
-3.085612000000000
 21
147.471596000000010
  0
LINE
  8
0
  6
CONTINUOUS
 62
256
 10
389.685303999999970
 20
-126.467099000000000
 11
394.685303999999970
 21
-126.467099000000000
  0
LINE
  8
0
  6
CONTINUOUS
 62
256
 10
389.685303999999970
 20
-31.467099000000001
 11
394.685303999999970
 21
-31.467099000000001
  0
LINE
  8
0
  6
CONTINUOUS
 62
256
 10
515.685303999999970
 20
-31.467099000000001
 11
510.685303999999970
 21
-31.467099000000001
  0
LINE
  8
0
  6
CONTINUOUS
 62
256
 10
515.685303999999970
 20
-126.467099000000000
 11
510.685303999999970
 21
-126.467099000000000
  0
LINE
  8
0
  6
DASHDOT
 62
256
 10
392.141704000000000
 20
-21.967099000000001
 11
513.442067999999950
 21
-21.967099000000001
  0
LINE
  8
0
  6
DASHDOT
 62
256
 10
392.141704000000000
 20
-167.967098999999990
 11
513.442067999999950
 21
-167.967098999999990
  0
ARC
  8
0
  6
CONTINUOUS
 62
256
 10
693.285304000000000
 20
-94.966942000000003
 40
300.600000000000020
 50
186.015121999999990
 51
186.612353000000010
  0
LINE
  8
0
  6
CONTINUOUS
 62
256
 10
482.685303999999970
 20
-181.905711999999990
 11
482.685303999999970
 21
-181.402800000000010
  0
LINE
  8
0
  6
CONTINUOUS
 62
256
 10
450.185303999999970
 20
-188.466941999999990
 11
455.185303999999970
 21
-188.466941999999990
  0
LINE
  8
0
  6
CONTINUOUS
 62
256
 10
450.185303999999970
 20
-188.466941999999990
 11
450.185303999999970
 21
-187.956526000000000
  0
LINE
  8
0
  6
CONTINUOUS
 62
256
 10
455.185303999999970
 20
-188.466941999999990
 11
455.185303999999970
 21
-187.956526000000000
  0
ARC
  8
0
  6
CONTINUOUS
 62
256
 10
452.685303999999970
 20
112.033058000000000
 40
300.000000000000000
 50
270.000000000000000
 51
274.861404999999990
  0
ARC
  8
0
  6
CONTINUOUS
 62
256
 10
477.685303999999970
 20
-181.905711999999990
 40
4.999999999999989
 50
274.861405000000100
 51
0.000000000000000
  0
ARC
  8
0
  6
CONTINUOUS
 62
256
 10
427.685303999999970
 20
-181.905711999999990
 40
5.000000000000006
 50
186.244704000000100
 51
265.138594999999900
  0
ARC
  8
0
  6
CONTINUOUS
 62
256
 10
452.685303999999970
 20
112.033058000000000
 40
300.000000000000000
 50
265.138595000000010
 51
270.000000000000000
  0
ARC
  8
0
  6
CONTINUOUS
 62
256
 10
212.085304000000010
 20
-94.966942000000003
 40
300.600000000000020
 50
353.386989000000030
 51
353.984877999999980
  0
ARC
  8
0
  6
CONTINUOUS
 62
256
 10
386.685303999999970
 20
-55.967098999999997
 40
1.000000000000000
 50
90.000000000000000
 51
180.000000000000000
  0
LINE
  8
0
  6
CONTINUOUS
 62
256
 10
385.685303999999970
 20
-55.967098999999997
 11
385.685303999999970
 21
-78.967099000000005
  0
LINE
  8
0
  6
CONTINUOUS
 62
256
 10
386.685303999999970
 20
-54.967098999999997
 11
389.685303999999970
 21
-54.967098999999997
  0
ARC
  8
0
  6
CONTINUOUS
 62
256
 10
386.685303999999970
 20
-101.967099000000000
 40
1.000000000000000
 50
180.000000000000000
 51
270.000000000000000
  0
LINE
  8
0
  6
CONTINUOUS
 62
256
 10
385.685303999999970
 20
-101.967099000000000
 11
385.685303999999970
 21
-78.967099000000005
  0
LINE
  8
0
  6
CONTINUOUS
 62
256
 10
386.685303999999970
 20
-102.967099000000000
 11
389.685303999999970
 21
-102.967099000000000
  0
ARC
  8
0
  6
CONTINUOUS
 62
256
 10
518.685303999999970
 20
-101.967099000000000
 40
1.000000000000000
 50
270.000000000000000
 51
0.000000000000000
  0
LINE
  8
0
  6
CONTINUOUS
 62
256
 10
519.685303999999970
 20
-101.967099000000000
 11
519.685303999999970
 21
-78.967099000000005
  0
LINE
  8
0
  6
CONTINUOUS
 62
256
 10
518.685303999999970
 20
-102.967099000000000
 11
515.685303999999970
 21
-102.967099000000000
  0
ARC
  8
0
  6
CONTINUOUS
 62
256
 10
518.685303999999970
 20
-55.967098999999997
 40
1.000000000000000
 50
0.000000000000000
 51
90.000000000000000
  0
LINE
  8
0
  6
CONTINUOUS
 62
256
 10
519.685303999999970
 20
-55.967098999999997
 11
519.685303999999970
 21
-78.967099000000005
  0
LINE
  8
0
  6
CONTINUOUS
 62
256
 10
518.685303999999970
 20
-54.967098999999997
 11
515.685303999999970
 21
-54.967098999999997
  0
LINE
  8
0
  6
CONTINUOUS
 62
256
 10
395.184754000000000
 20
-182.528955999999990
 11
406.685303999999970
 21
-182.729698000000010
  0
LINE
  8
0
  6
CONTINUOUS
 62
256
 10
406.685303999999970
 20
-94.738269000000003
 11
406.685303999999970
 21
-182.729698000000010
  0
LINE
  8
0
  6
CONTINUOUS
 62
256
 10
501.185303999999970
 20
-181.080195000000000
 11
510.685303999999970
 21
-181.080195000000000
  0
LINE
  8
0
  6
CONTINUOUS
 62
256
 10
510.685303999999970
 20
-94.738269000000003
 11
510.685303999999970
 21
-181.080195000000000
  0
LINE
  8
0
  6
CONTINUOUS
 62
256
 10
501.185303999999970
 20
-8.396656999999999
 11
510.685303999999970
 21
-8.396656999999999
  0
LINE
  8
0
  6
CONTINUOUS
 62
256
 10
515.685303999999970
 20
-31.467099000000001
 11
515.685303999999970
 21
-126.467099000000000
  0
LINE
  8
0
  6
CONTINUOUS
 62
256
 10
510.685303999999970
 20
-8.396656999999999
 11
510.685303999999970
 21
-94.738269000000003
  0
LINE
  8
0
  6
CONTINUOUS
 62
256
 10
406.685303999999970
 20
-6.747154000000000
 11
501.185303999999970
 21
-8.396656999999999
  0
LINE
  8
0
  6
CONTINUOUS
 62
256
 10
406.685303999999970
 20
-6.747154000000000
 11
406.685303999999970
 21
-94.738269000000003
  0
LINE
  8
0
  6
CONTINUOUS
 62
256
 10
394.684906000000010
 20
-6.956621000000000
 11
406.685303999999970
 21
-6.747154000000000
  0
LINE
  8
0
  6
CONTINUOUS
 62
256
 10
394.684906000000010
 20
-182.020307000000000
 11
395.184754000000000
 21
-182.528955999999990
  0
LINE
  8
0
  6
CONTINUOUS
 62
256
 10
394.684906000000010
 20
-94.738269000000003
 11
394.684906000000010
 21
-182.020307000000000
  0
LINE
  8
0
  6
CONTINUOUS
 62
256
 10
389.684906000000010
 20
-78.738426000000004
 11
389.684906000000010
 21
-126.467099000000000
  0
LINE
  8
0
  6
CONTINUOUS
 62
256
 10
389.684906000000010
 20
-78.738426000000004
 11
389.684906000000010
 21
-31.467099000000001
  0
LINE
  8
0
  6
CONTINUOUS
 62
256
 10
394.684906000000010
 20
-94.738269000000003
 11
394.684906000000010
 21
-6.956621000000000
  0
LINE
  8
0
  6
DASHED
 62
256
 10
432.685303999999970
 20
-35.966942000000003
 11
432.685303999999970
 21
-37.491942999999999
  0
LINE
  8
0
  6
DASHED
 62
256
 10
452.685303999999970
 20
-35.466942000000003
 11
433.185303999999970
 21
-35.466942000000003
  0
LINE
  8
0
  6
DASHED
 62
256
 10
393.685303999999970
 20
-74.966942000000003
 11
395.210305000000010
 21
-74.966942000000003
  0
LINE
  8
0
  6
DASHED
 62
256
 10
393.185303999999970
 20
-94.966942000000003
 11
393.185303999999970
 21
-75.466942000000003
  0
LINE
  8
0
  6
DASHED
 62
256
 10
393.685303999999970
 20
-114.966942000000000
 11
395.210305000000010
 21
-114.966942000000000
  0
LINE
  8
0
  6
DASHED
 62
256
 10
393.185303999999970
 20
-94.966942000000003
 11
393.185303999999970
 21
-114.466942000000000
  0
LINE
  8
0
  6
DASHED
 62
256
 10
432.685303999999970
 20
-153.966941999999990
 11
432.685303999999970
 21
-152.441942000000010
  0
LINE
  8
0
  6
DASHED
 62
256
 10
452.685303999999970
 20
-154.466941999999990
 11
433.185303999999970
 21
-154.466941999999990
  0
LINE
  8
0
  6
DASHED
 62
256
 10
432.685303999999970
 20
-153.966941999999990
 11
432.685303999999970
 21
-152.441942000000010
  0
LINE
  8
0
  6
DASHED
 62
256
 10
452.685303999999970
 20
-154.466941999999990
 11
433.185303999999970
 21
-154.466941999999990
  0
LINE
  8
0
  6
DASHED
 62
256
 10
472.685303999999970
 20
-153.966941999999990
 11
472.685303999999970
 21
-152.441942000000010
  0
LINE
  8
0
  6
DASHED
 62
256
 10
452.685303999999970
 20
-154.466941999999990
 11
472.185303999999970
 21
-154.466941999999990
  0
LINE
  8
0
  6
DASHED
 62
256
 10
511.685303999999970
 20
-114.966942000000000
 11
510.160303000000000
 21
-114.966942000000000
  0
LINE
  8
0
  6
DASHED
 62
256
 10
512.185303999999970
 20
-94.966942000000003
 11
512.185303999999970
 21
-114.466942000000000
  0
LINE
  8
0
  6
DASHED
 62
256
 10
512.185303999999970
 20
-94.966942000000003
 11
512.185303999999970
 21
-75.466942000000003
  0
LINE
  8
0
  6
DASHED
 62
256
 10
511.685303999999970
 20
-74.966942000000003
 11
510.160303000000000
 21
-74.966942000000003
  0
LINE
  8
0
  6
DASHED
 62
256
 10
472.685303999999970
 20
-35.966942000000003
 11
472.685303999999970
 21
-37.491942999999999
  0
LINE
  8
0
  6
DASHED
 62
256
 10
452.685303999999970
 20
-35.466942000000003
 11
472.185303999999970
 21
-35.466942000000003
  0
LINE
  8
0
  6
DASHDOT
 62
256
 10
452.685303999999970
 20
-4.185058000000000
 11
452.685303999999970
 21
-192.640133999999990
  0
ARC
  8
0
  6
DASHED
 62
256
 10
510.160303000000000
 20
-74.466942000000003
 40
0.500000000000028
 50
182.934025000000020
 51
270.000000000000000
  0
ARC
  8
0
  6
DASHED
 62
256
 10
473.185303999999970
 20
-37.491942999999999
 40
0.500000000000000
 50
180.000000000000000
 51
267.065974999999810
  0
ARC
  8
0
  6
DASHED
 62
256
 10
432.185303999999970
 20
-37.491942999999999
 40
0.499999999999999
 50
272.934025000000190
 51
0.000000000000000
  0
ARC
  8
0
  6
DASHED
 62
256
 10
433.185303999999970
 20
-35.966942000000003
 40
0.500000000000000
 50
90.000000000000000
 51
180.000000000000000
  0
ARC
  8
0
  6
DASHED
 62
256
 10
452.685303999999970
 20
-437.466942000000020
 40
400.000000000000000
 50
92.934025000000005
 51
94.114345000000000
  0
ARC
  8
0
  6
DASHED
 62
256
 10
426.138848999999990
 20
-68.420488000000006
 40
30.000000000000004
 50
94.114344999999972
 51
175.885655000000010
  0
ARC
  8
0
  6
DASHED
 62
256
 10
795.185303999999970
 20
-94.966942000000003
 40
400.000000000000060
 50
175.885655000000010
 51
177.065975000000010
  0
ARC
  8
0
  6
DASHED
 62
256
 10
395.210305000000010
 20
-74.466942000000003
 40
0.500000000000000
 50
270.000000000000000
 51
357.065974999999980
  0
ARC
  8
0
  6
DASHED
 62
256
 10
393.685303999999970
 20
-75.466942000000003
 40
0.500000000000000
 50
90.000000000000000
 51
180.000000000000000
  0
ARC
  8
0
  6
DASHED
 62
256
 10
395.210305000000010
 20
-74.466942000000003
 40
0.500000000000000
 50
270.000000000000000
 51
357.065974999999980
  0
ARC
  8
0
  6
DASHED
 62
256
 10
393.685303999999970
 20
-75.466942000000003
 40
0.500000000000000
 50
90.000000000000000
 51
180.000000000000000
  0
ARC
  8
0
  6
DASHED
 62
256
 10
395.210305000000010
 20
-115.466942000000000
 40
0.500000000000028
 50
2.934025000000031
 51
90.000000000000000
  0
ARC
  8
0
  6
DASHED
 62
256
 10
395.210305000000010
 20
-115.466942000000000
 40
0.500000000000028
 50
2.934025000000031
 51
90.000000000000000
  0
ARC
  8
0
  6
DASHED
 62
256
 10
393.685303999999970
 20
-114.466942000000000
 40
0.500000000000000
 50
180.000000000000000
 51
270.000000000000000
  0
ARC
  8
0
  6
DASHED
 62
256
 10
795.185303999999970
 20
-94.966942000000003
 40
400.000000000000000
 50
182.934024999999990
 51
184.114344999999960
  0
ARC
  8
0
  6
DASHED
 62
256
 10
426.138848999999990
 20
-121.513397000000000
 40
30.000000000000018
 50
184.114344999999960
 51
265.885655000000040
  0
ARC
  8
0
  6
DASHED
 62
256
 10
452.685303999999970
 20
247.533058000000010
 40
399.999999999999940
 50
265.885654999999990
 51
267.065974999999980
  0
ARC
  8
0
  6
DASHED
 62
256
 10
432.185303999999970
 20
-152.441942000000010
 40
0.500000000000000
 50
0.000000000000000
 51
87.065974999999796
  0
ARC
  8
0
  6
DASHED
 62
256
 10
433.185303999999970
 20
-153.966941999999990
 40
0.500000000000000
 50
180.000000000000000
 51
270.000000000000000
  0
ARC
  8
0
  6
DASHED
 62
256
 10
432.185303999999970
 20
-152.441942000000010
 40
0.500000000000000
 50
0.000000000000000
 51
87.065974999999796
  0
ARC
  8
0
  6
DASHED
 62
256
 10
433.185303999999970
 20
-153.966941999999990
 40
0.500000000000000
 50
180.000000000000000
 51
270.000000000000000
  0
ARC
  8
0
  6
DASHED
 62
256
 10
473.185303999999970
 20
-152.441942000000010
 40
0.499999999999999
 50
92.934025000000204
 51
180.000000000000000
  0
ARC
  8
0
  6
DASHED
 62
256
 10
472.185303999999970
 20
-153.966941999999990
 40
0.500000000000000
 50
270.000000000000000
 51
0.000000000000000
  0
ARC
  8
0
  6
DASHED
 62
256
 10
452.685303999999970
 20
247.533058000000010
 40
400.000000000000000
 50
272.934025000000020
 51
274.114345000000010
  0
ARC
  8
0
  6
DASHED
 62
256
 10
479.231758000000010
 20
-121.513397000000000
 40
29.999999999999989
 50
274.114344999999960
 51
355.885654999999990
  0
ARC
  8
0
  6
DASHED
 62
256
 10
110.185304000000000
 20
-94.966942000000003
 40
400.000000000000060
 50
2.934025000000000
 51
4.114344999999999
  0
ARC
  8
0
  6
DASHED
 62
256
 10
510.160303000000000
 20
-115.466942000000000
 40
0.500000000000000
 50
90.000000000000000
 51
177.065974999999950
  0
ARC
  8
0
  6
DASHED
 62
256
 10
110.185304000000000
 20
-94.966942000000003
 40
400.000000000000060
 50
355.885654999999990
 51
357.065974999999980
  0
ARC
  8
0
  6
DASHED
 62
256
 10
511.685303999999970
 20
-114.466942000000000
 40
0.500000000000000
 50
270.000000000000000
 51
0.000000000000000
  0
ARC
  8
0
  6
DASHED
 62
256
 10
511.685303999999970
 20
-75.466942000000003
 40
0.500000000000000
 50
0.000000000000000
 51
90.000000000000000
  0
ARC
  8
0
  6
DASHED
 62
256
 10
479.231758000000010
 20
-68.420488000000006
 40
30.000000000000018
 50
4.114344999999991
 51
85.885655000000028
  0
ARC
  8
0
  6
DASHED
 62
256
 10
452.685303999999970
 20
-437.466942000000020
 40
400.000000000000060
 50
85.885655000000000
 51
87.065974999999995
  0
ARC
  8
0
  6
DASHED
 62
256
 10
472.185303999999970
 20
-35.966942000000003
 40
0.500000000000000
 50
0.000000000000000
 51
90.000000000000000
  0
LINE
  8
0
  6
CONTINUOUS
 62
256
 10
406.685303999999970
 20
-182.729385000000010
 11
501.185303999999970
 21
-181.079882000000000
  0
LINE
  8
0
  6
DASHDOT
 62
256
 10
522.164112000000050
 20
-78.967099000000005
 11
381.315889000000030
 21
-78.967099000000005
  0
LINE
  8
0
  6
DASHDOT
 62
256
 10
441.444077999999990
 20
-94.966942000000003
 11
463.683270999999990
 21
-94.966942000000003
  0
LINE
  8
0
  6
DASHDOT
 62
256
 10
287.701127999999980
 20
-110.705779000000010
 11
287.701127999999980
 21
-48.609547999999997
  0
LINE
  8
0
  6
CONTINUOUS
 62
256
 10
292.701127999999980
 20
-62.196589000000003
 11
292.701127999999980
 21
-58.167099000000000
  0
LINE
  8
0
  6
CONTINUOUS
 62
256
 10
282.701127999999980
 20
-62.196589000000003
 11
282.701127999999980
 21
-58.167099000000000
  0
LINE
  8
0
  6
CONTINUOUS
 62
256
 10
292.701127999999980
 20
-58.167099000000000
 11
282.701127999999980
 21
-58.167099000000000
  0
LINE
  8
0
  6
DASHDOT
 62
256
 10
319.138988999999980
 20
-78.967099000000005
 11
257.492730999999990
 21
-78.967099000000005
  0
ARC
  8
0
  6
CONTINUOUS
 62
256
 10
287.701127999999980
 20
-78.967099000000005
 40
17.500000000000004
 50
106.601550000000100
 51
73.398449999999912
  0
CIRCLE
  8
0
  6
CONTINUOUS
 62
256
 10
287.701127999999980
 20
-78.967099000000005
 40
24.000000000000000
  0
LINE
  8
0
  6
CONTINUOUS
 62
256
 10
76.885444000000007
 20
-53.967097000000003
 11
90.885380999999995
 21
-53.967080000000003
  0
LINE
  8
0
  6
CONTINUOUS
 62
256
 10
90.885379000000000
 20
-51.967098999999997
 11
90.885380999999995
 21
-53.967098999999997
  0
LINE
  8
0
  6
CONTINUOUS
 62
256
 10
76.885444000000007
 20
-103.967099000000000
 11
90.885441999999998
 21
-103.967099000000000
  0
LINE
  8
0
  6
CONTINUOUS
 62
256
 10
173.885520000000010
 20
-53.967097000000003
 11
161.385577000000010
 21
-53.967081999999998
  0
LINE
  8
0
  6
CONTINUOUS
 62
256
 10
173.885520000000010
 20
-103.967080999999990
 11
173.885520000000010
 21
-103.367098000000000
  0
LINE
  8
0
  6
CONTINUOUS
 62
256
 10
77.385444000000007
 20
-103.967099000000000
 11
90.885441999999998
 21
-103.967099000000000
  0
LINE
  8
0
  6
CONTINUOUS
 62
256
 10
76.885444000000007
 20
-103.967099000000000
 11
76.885441999999998
 21
-102.967099000000000
  0
LINE
  8
0
  6
CONTINUOUS
 62
256
 10
58.385413000000000
 20
-55.367099000000003
 11
58.385413000000000
 21
-78.967099000000005
  0
LINE
  8
0
  6
CONTINUOUS
 62
256
 10
90.885441999999998
 20
-53.967098999999997
 11
90.885445000000004
 21
-51.967098999999997
  0
LINE
  8
0
  6
CONTINUOUS
 62
256
 10
76.885444000000007
 20
-53.967098999999997
 11
90.885441999999998
 21
-53.967098999999997
  0
LINE
  8
0
  6
CONTINUOUS
 62
256
 10
58.785412999999998
 20
-102.967099000000000
 11
76.885441999999998
 21
-102.967099000000000
  0
LINE
  8
0
  6
CONTINUOUS
 62
256
 10
58.785412999999998
 20
-54.967098999999997
 11
76.885441999999998
 21
-54.967098999999997
  0
LINE
  8
0
  6
CONTINUOUS
 62
256
 10
76.885444000000007
 20
-53.967097000000003
 11
76.885441999999998
 21
-54.967098999999997
  0
LINE
  8
0
  6
CONTINUOUS
 62
256
 10
192.385549999999990
 20
-55.367099000000003
 11
192.385549999999990
 21
-78.967099000000005
  0
LINE
  8
0
  6
CONTINUOUS
 62
256
 10
173.885520000000010
 20
-103.967099000000000
 11
159.885517999999990
 21
-103.967099000000000
  0
LINE
  8
0
  6
CONTINUOUS
 62
256
 10
191.985549999999990
 20
-54.967098999999997
 11
173.885521000000010
 21
-54.967098999999997
  0
LINE
  8
0
  6
CONTINUOUS
 62
256
 10
191.985549999999990
 20
-102.967099000000000
 11
174.285519999999990
 21
-102.967099000000000
  0
LINE
  8
0
  6
CONTINUOUS
 62
256
 10
173.885520000000010
 20
-53.967097000000003
 11
173.885521000000010
 21
-54.967098999999997
  0
LINE
  8
0
  6
DASHDOT
 62
256
 10
55.381922000000003
 20
-78.967099000000005
 11
195.538487000000000
 21
-78.967099000000005
  0
LINE
  8
0
  6
CONTINUOUS
 62
256
 10
58.385413000000000
 20
-78.967099000000005
 11
58.385413000000000
 21
-102.567099000000000
  0
LINE
  8
0
  6
CONTINUOUS
 62
256
 10
192.385549999999990
 20
-78.967099000000005
 11
192.385549999999990
 21
-102.567099000000000
  0
LINE
  8
0
  6
CONTINUOUS
 62
256
 10
173.885520000000010
 20
-53.967112999999998
 11
173.885521000000010
 21
-54.967098999999997
  0
LINE
  8
0
  6
CONTINUOUS
 62
256
 10
173.885520000000010
 20
-53.967098999999997
 11
136.885549999999990
 21
-53.967098999999997
  0
LINE
  8
0
  6
CONTINUOUS
 62
256
 10
173.385520000000010
 20
-53.967098999999997
 11
159.385549999999990
 21
-53.967098999999997
  0
LINE
  8
0
  6
CONTINUOUS
 62
256
 10
90.885379000000000
 20
-51.967098999999997
 11
136.885549999999990
 21
-51.967098999999997
  0
LINE
  8
0
  6
CONTINUOUS
 62
256
 10
136.885549999999990
 20
-51.967098999999997
 11
136.885549999999990
 21
-53.967098999999997
  0
LINE
  8
0
  6
CONTINUOUS
 62
256
 10
76.885444000000007
 20
-53.967098999999997
 11
90.885441999999998
 21
-53.967098999999997
  0
LINE
  8
0
  6
CONTINUOUS
 62
256
 10
90.885441999999998
 20
-53.967098999999997
 11
90.885445000000004
 21
-51.967098999999997
  0
LINE
  8
0
  6
CONTINUOUS
 62
256
 10
76.885444000000007
 20
-53.967112999999998
 11
76.885441999999998
 21
-54.967098999999997
  0
LINE
  8
0
  6
CONTINUOUS
 62
256
 10
77.385444000000007
 20
-53.967098999999997
 11
90.885441999999998
 21
-53.967098999999997
  0
LINE
  8
0
  6
CONTINUOUS
 62
256
 10
173.885520000000010
 20
-103.967099000000000
 11
136.885549999999990
 21
-103.967099000000000
  0
LINE
  8
0
  6
CONTINUOUS
 62
256
 10
90.885445000000004
 20
-105.967099000000000
 11
136.885549999999990
 21
-105.967099000000000
  0
LINE
  8
0
  6
CONTINUOUS
 62
256
 10
136.885549999999990
 20
-105.967099000000000
 11
136.885549999999990
 21
-103.967099000000000
  0
LINE
  8
0
  6
CONTINUOUS
 62
256
 10
90.885441999999998
 20
-103.967099000000000
 11
90.885445000000004
 21
-105.967099000000000
  0
LINE
  8
0
  6
CONTINUOUS
 62
256
 10
90.885441999999998
 20
-103.967099000000000
 11
90.885445000000004
 21
-105.967099000000000
  0
LINE
  8
0
  6
CONTINUOUS
 62
256
 10
76.885444000000007
 20
-103.967099000000000
 11
90.885441999999998
 21
-103.967099000000000
  0
LINE
  8
0
  6
CONTINUOUS
 62
256
 10
169.135549999999990
 20
-96.467099000000005
 11
189.885549999999990
 21
-96.467099000000005
  0
LINE
  8
0
  6
CONTINUOUS
 62
256
 10
169.135549999999990
 20
-78.967099000000005
 11
169.135549999999990
 21
-98.467099000000005
  0
LINE
  8
0
  6
CONTINUOUS
 62
256
 10
166.385549999999990
 20
-78.967099000000005
 11
166.385549999999990
 21
-98.467099000000005
  0
LINE
  8
0
  6
CONTINUOUS
 62
256
 10
166.385549999999990
 20
-98.467099000000005
 11
169.135549999999990
 21
-98.467099000000005
  0
LINE
  8
0
  6
CONTINUOUS
 62
256
 10
140.385549999999990
 20
-96.467099000000005
 11
166.385549999999990
 21
-96.467099000000005
  0
LINE
  8
0
  6
CONTINUOUS
 62
256
 10
140.385549999999990
 20
-78.967099000000005
 11
140.385549999999990
 21
-96.767099000000002
  0
LINE
  8
0
  6
CONTINUOUS
 62
256
 10
110.385413000000000
 20
-96.767099000000002
 11
140.385549999999990
 21
-96.767099000000002
  0
LINE
  8
0
  6
CONTINUOUS
 62
256
 10
110.385413000000000
 20
-78.967099000000005
 11
110.385413000000000
 21
-96.467099000000005
  0
LINE
  8
0
  6
CONTINUOUS
 62
256
 10
84.385413000000000
 20
-96.467099000000005
 11
110.385413000000000
 21
-96.467099000000005
  0
LINE
  8
0
  6
CONTINUOUS
 62
256
 10
84.385413000000000
 20
-78.967099000000005
 11
84.385413000000000
 21
-98.467099000000005
  0
LINE
  8
0
  6
CONTINUOUS
 62
256
 10
81.635413000000000
 20
-78.967099000000005
 11
81.635413000000000
 21
-98.467099000000005
  0
LINE
  8
0
  6
CONTINUOUS
 62
256
 10
81.635413000000000
 20
-98.467099000000005
 11
84.385413000000000
 21
-98.467099000000005
  0
LINE
  8
0
  6
CONTINUOUS
 62
256
 10
60.885413000000000
 20
-96.467099000000005
 11
81.635413000000000
 21
-96.467099000000005
  0
LINE
  8
0
  6
CONTINUOUS
 62
256
 10
169.135549999999990
 20
-61.467098999999997
 11
189.885549999999990
 21
-61.467098999999997
  0
LINE
  8
0
  6
CONTINUOUS
 62
256
 10
169.135549999999990
 20
-78.967099000000005
 11
169.135549999999990
 21
-60.467098999999997
  0
LINE
  8
0
  6
CONTINUOUS
 62
256
 10
166.385549999999990
 20
-78.967099000000005
 11
166.385549999999990
 21
-60.467098999999997
  0
LINE
  8
0
  6
CONTINUOUS
 62
256
 10
166.385549999999990
 20
-60.467098999999997
 11
169.135549999999990
 21
-60.467098999999997
  0
LINE
  8
0
  6
CONTINUOUS
 62
256
 10
140.385549999999990
 20
-61.467098999999997
 11
166.385549999999990
 21
-61.467098999999997
  0
LINE
  8
0
  6
CONTINUOUS
 62
256
 10
140.385549999999990
 20
-78.967099000000005
 11
140.385549999999990
 21
-61.167099000000000
  0
LINE
  8
0
  6
CONTINUOUS
 62
256
 10
110.385413000000000
 20
-61.167099000000000
 11
140.385549999999990
 21
-61.167099000000000
  0
LINE
  8
0
  6
CONTINUOUS
 62
256
 10
110.385413000000000
 20
-78.967099000000005
 11
110.385413000000000
 21
-61.167099000000000
  0
LINE
  8
0
  6
CONTINUOUS
 62
256
 10
84.385413000000000
 20
-61.467098999999997
 11
110.385413000000000
 21
-61.467098999999997
  0
LINE
  8
0
  6
CONTINUOUS
 62
256
 10
84.385413000000000
 20
-78.967099000000005
 11
84.385413000000000
 21
-60.467098999999997
  0
LINE
  8
0
  6
CONTINUOUS
 62
256
 10
81.635413000000000
 20
-78.967099000000005
 11
81.635413000000000
 21
-60.467098999999997
  0
LINE
  8
0
  6
CONTINUOUS
 62
256
 10
81.635413000000000
 20
-60.467098999999997
 11
84.385413000000000
 21
-60.467098999999997
  0
LINE
  8
0
  6
CONTINUOUS
 62
256
 10
60.885413000000000
 20
-61.467098999999997
 11
81.635413000000000
 21
-61.467098999999997
  0
LINE
  8
0
  6
CONTINUOUS
 62
256
 10
58.385413000000000
 20
-58.167099000000000
 11
192.385549999999990
 21
-58.167099000000000
  0
ARC
  8
0
  6
CONTINUOUS
 62
256
 10
60.885413000000000
 20
-58.967098999999997
 40
2.500000000000000
 50
180.000000000000000
 51
270.000000000000000
  0
ARC
  8
0
  6
CONTINUOUS
 62
256
 10
189.885549999999990
 20
-58.967098999999997
 40
2.500000000000000
 50
270.000000000000000
 51
0.000000000000000
  0
ARC
  8
0
  6
CONTINUOUS
 62
256
 10
58.785412999999998
 20
-55.367099000000003
 40
0.399999999999999
 50
90.000000000000000
 51
180.000000000000000
  0
ARC
  8
0
  6
CONTINUOUS
 62
256
 10
58.785412999999998
 20
-102.567099000000000
 40
0.399999999999999
 50
180.000000000000000
 51
270.000000000000000
  0
ARC
  8
0
  6
CONTINUOUS
 62
256
 10
174.285519999999990
 20
-103.367099000000000
 40
0.400000000000006
 50
90.000000000000000
 51
179.999929999999470
  0
ARC
  8
0
  6
CONTINUOUS
 62
256
 10
191.985549999999990
 20
-55.367099000000003
 40
0.400000000000006
 50
0.000000000000000
 51
90.000000000000000
  0
ARC
  8
0
  6
CONTINUOUS
 62
256
 10
191.985549999999990
 20
-102.567099000000000
 40
0.400000000000006
 50
270.000000000000000
 51
0.000000000000000
  0
ARC
  8
0
  6
CONTINUOUS
 62
256
 10
60.885413000000000
 20
-98.967099000000005
 40
2.500000000000000
 50
90.000000000000000
 51
180.000000000000000
  0
ARC
  8
0
  6
CONTINUOUS
 62
256
 10
189.885549999999990
 20
-98.967099000000005
 40
2.500000000000000
 50
0.000000000000000
 51
90.000000000000000
  0
ARC
  8
0
  6
CONTINUOUS
 62
256
 10
89.385380999999995
 20
-52.467084000000000
 40
1.500000000000002
 50
270.000000000000000
 51
359.999981999999990
  0
INSERT
  8
0
  2
ZU_SYM_1
 10
-169.849921999999990
 20
-173.967410000000000
  0
INSERT
  8
0
  2
ZU_SYM_2
 10
-45.849921999999999
 20
-173.967410000000000
  0
INSERT
  8
0
  2
ZU_SYM_3
 10
-45.849921999999999
 20
-15.967409999999999
  0
INSERT
  8
0
  2
ZU_SYM_4
 10
-169.849921999999990
 20
-15.967409999999999
  0
LINE
  8
0
  6
DASHDOT
 62
256
 10
-182.409788999999990
 20
-94.966942000000003
 11
-389.279241000000010
 21
-94.966942000000003
  0
POLYLINE
  8
0
  6
CONTINUOUS
 62
256
 66
1
 70
1
  0
VERTEX
  8
0
  6
CONTINUOUS
 62
256
 10
-334.650028000000020
 20
-146.890467000000000
  0
VERTEX
  8
0
  6
CONTINUOUS
 62
256
 10
-334.740337182104840
 20
-146.187510489441820
  0
VERTEX
  8
0
  6
CONTINUOUS
 62
256
 10
-335.007794197196970
 20
-145.511568203361860
  0
VERTEX
  8
0
  6
CONTINUOUS
 62
256
 10
-335.442120822178080
 20
-144.888616224741330
  0
VERTEX
  8
0
  6
CONTINUOUS
 62
256
 10
-336.026626128423230
 20
-144.342594248763160
  0
VERTEX
  8
0
  6
CONTINUOUS
 62
256
 10
-336.738847904807870
 20
-143.894485593751510
  0
VERTEX
  8
0
  6
CONTINUOUS
 62
256
 10
-337.551415867884090
 20
-143.561510824016270
  0
VERTEX
  8
0
  6
CONTINUOUS
 62
256
 10
-338.433103486524200
 20
-143.356465973223920
  0
VERTEX
  8
0
  6
CONTINUOUS
 62
256
 10
-339.350028000000010
 20
-143.287230800000000
  0
VERTEX
  8
0
  6
CONTINUOUS
 62
256
 10
-340.266952513475810
 20
-143.356465973223920
  0
VERTEX
  8
0
  6
CONTINUOUS
 62
256
 10
-341.148640132115930
 20
-143.561510824016270
  0
VERTEX
  8
0
  6
CONTINUOUS
 62
256
 10
-341.961208095192150
 20
-143.894485593751510
  0
VERTEX
  8
0
  6
CONTINUOUS
 62
256
 10
-342.673429871576790
 20
-144.342594248763160
  0
VERTEX
  8
0
  6
CONTINUOUS
 62
256
 10
-343.257935177821930
 20
-144.888616224741330
  0
VERTEX
  8
0
  6
CONTINUOUS
 62
256
 10
-343.692261802803050
 20
-145.511568203361860
  0
VERTEX
  8
0
  6
CONTINUOUS
 62
256
 10
-343.959718817895180
 20
-146.187510489441820
  0
VERTEX
  8
0
  6
CONTINUOUS
 62
256
 10
-344.050028000000000
 20
-146.890467000000000
  0
VERTEX
  8
0
  6
CONTINUOUS
 62
256
 10
-343.959718817895180
 20
-147.593423510558180
  0
VERTEX
  8
0
  6
CONTINUOUS
 62
256
 10
-343.692261802803050
 20
-148.269365796638140
  0
VERTEX
  8
0
  6
CONTINUOUS
 62
256
 10
-343.257935177821930
 20
-148.892317775258680
  0
VERTEX
  8
0
  6
CONTINUOUS
 62
256
 10
-342.673429871576790
 20
-149.438339751236840
  0
VERTEX
  8
0
  6
CONTINUOUS
 62
256
 10
-341.961208095192150
 20
-149.886448406248490
  0
VERTEX
  8
0
  6
CONTINUOUS
 62
256
 10
-341.148640132115930
 20
-150.219423175983740
  0
VERTEX
  8
0
  6
CONTINUOUS
 62
256
 10
-340.266952513475810
 20
-150.424468026776050
  0
VERTEX
  8
0
  6
CONTINUOUS
 62
256
 10
-339.350028000000010
 20
-150.493703200000000
  0
VERTEX
  8
0
  6
CONTINUOUS
 62
256
 10
-338.433103486524200
 20
-150.424468026776050
  0
VERTEX
  8
0
  6
CONTINUOUS
 62
256
 10
-337.551415867884090
 20
-150.219423175983740
  0
VERTEX
  8
0
  6
CONTINUOUS
 62
256
 10
-336.738847904807870
 20
-149.886448406248490
  0
VERTEX
  8
0
  6
CONTINUOUS
 62
256
 10
-336.026626128423230
 20
-149.438339751236840
  0
VERTEX
  8
0
  6
CONTINUOUS
 62
256
 10
-335.442120822178080
 20
-148.892317775258680
  0
VERTEX
  8
0
  6
CONTINUOUS
 62
256
 10
-335.007794197196970
 20
-148.269365796638140
  0
VERTEX
  8
0
  6
CONTINUOUS
 62
256
 10
-334.740337182104840
 20
-147.593423510558180
  0
SEQEND
  8
0
  6
CONTINUOUS
 62
256
  0
LINE
  8
0
  6
CONTINUOUS
 62
256
 10
-341.350028000000010
 20
-149.882843000000010
 11
-339.350028000000010
 21
-148.707057999999990
  0
LINE
  8
0
  6
CONTINUOUS
 62
256
 10
-339.350028000000010
 20
-148.707057999999990
 11
-337.350028000000010
 21
-147.054416000000000
  0
LINE
  8
0
  6
CONTINUOUS
 62
256
 10
-337.350028000000010
 20
-149.882843000000010
 11
-339.350028000000010
 21
-148.707057999999990
  0
LINE
  8
0
  6
CONTINUOUS
 62
256
 10
-339.350028000000010
 20
-148.707057999999990
 11
-341.350028000000010
 21
-147.054416000000000
  0
POLYLINE
  8
0
  6
CONTINUOUS
 62
256
 66
1
 70
1
  0
VERTEX
  8
0
  6
CONTINUOUS
 62
256
 10
-334.650028000000020
 20
-43.043416999999998
  0
VERTEX
  8
0
  6
CONTINUOUS
 62
256
 10
-334.740337182104840
 20
-42.340460489441831
  0
VERTEX
  8
0
  6
CONTINUOUS
 62
256
 10
-335.007794197196970
 20
-41.664518203361858
  0
VERTEX
  8
0
  6
CONTINUOUS
 62
256
 10
-335.442120822178080
 20
-41.041566224741338
  0
VERTEX
  8
0
  6
CONTINUOUS
 62
256
 10
-336.026626128423230
 20
-40.495544248763160
  0
VERTEX
  8
0
  6
CONTINUOUS
 62
256
 10
-336.738847904807870
 20
-40.047435593751509
  0
VERTEX
  8
0
  6
CONTINUOUS
 62
256
 10
-337.551415867884090
 20
-39.714460824016264
  0
VERTEX
  8
0
  6
CONTINUOUS
 62
256
 10
-338.433103486524200
 20
-39.509415973223938
  0
VERTEX
  8
0
  6
CONTINUOUS
 62
256
 10
-339.350028000000010
 20
-39.440180800000007
  0
VERTEX
  8
0
  6
CONTINUOUS
 62
256
 10
-340.266952513475810
 20
-39.509415973223938
  0
VERTEX
  8
0
  6
CONTINUOUS
 62
256
 10
-341.148640132115930
 20
-39.714460824016264
  0
VERTEX
  8
0
  6
CONTINUOUS
 62
256
 10
-341.961208095192150
 20
-40.047435593751509
  0
VERTEX
  8
0
  6
CONTINUOUS
 62
256
 10
-342.673429871576790
 20
-40.495544248763160
  0
VERTEX
  8
0
  6
CONTINUOUS
 62
256
 10
-343.257935177821930
 20
-41.041566224741338
  0
VERTEX
  8
0
  6
CONTINUOUS
 62
256
 10
-343.692261802803050
 20
-41.664518203361858
  0
VERTEX
  8
0
  6
CONTINUOUS
 62
256
 10
-343.959718817895180
 20
-42.340460489441831
  0
VERTEX
  8
0
  6
CONTINUOUS
 62
256
 10
-344.050028000000000
 20
-43.043416999999998
  0
VERTEX
  8
0
  6
CONTINUOUS
 62
256
 10
-343.959718817895180
 20
-43.746373510558165
  0
VERTEX
  8
0
  6
CONTINUOUS
 62
256
 10
-343.692261802803050
 20
-44.422315796638138
  0
VERTEX
  8
0
  6
CONTINUOUS
 62
256
 10
-343.257935177821930
 20
-45.045267775258658
  0
VERTEX
  8
0
  6
CONTINUOUS
 62
256
 10
-342.673429871576790
 20
-45.591289751236836
  0
VERTEX
  8
0
  6
CONTINUOUS
 62
256
 10
-341.961208095192150
 20
-46.039398406248488
  0
VERTEX
  8
0
  6
CONTINUOUS
 62
256
 10
-341.148640132115930
 20
-46.372373175983732
  0
VERTEX
  8
0
  6
CONTINUOUS
 62
256
 10
-340.266952513475810
 20
-46.577418026776058
  0
VERTEX
  8
0
  6
CONTINUOUS
 62
256
 10
-339.350028000000010
 20
-46.646653199999989
  0
VERTEX
  8
0
  6
CONTINUOUS
 62
256
 10
-338.433103486524200
 20
-46.577418026776058
  0
VERTEX
  8
0
  6
CONTINUOUS
 62
256
 10
-337.551415867884090
 20
-46.372373175983732
  0
VERTEX
  8
0
  6
CONTINUOUS
 62
256
 10
-336.738847904807870
 20
-46.039398406248488
  0
VERTEX
  8
0
  6
CONTINUOUS
 62
256
 10
-336.026626128423230
 20
-45.591289751236836
  0
VERTEX
  8
0
  6
CONTINUOUS
 62
256
 10
-335.442120822178080
 20
-45.045267775258658
  0
VERTEX
  8
0
  6
CONTINUOUS
 62
256
 10
-335.007794197196970
 20
-44.422315796638138
  0
VERTEX
  8
0
  6
CONTINUOUS
 62
256
 10
-334.740337182104840
 20
-43.746373510558165
  0
SEQEND
  8
0
  6
CONTINUOUS
 62
256
  0
LINE
  8
0
  6
CONTINUOUS
 62
256
 10
-341.350028000000010
 20
-40.051042000000002
 11
-339.350028000000010
 21
-41.226827000000000
  0
LINE
  8
0
  6
CONTINUOUS
 62
256
 10
-339.350028000000010
 20
-41.226827000000000
 11
-337.350028000000010
 21
-42.879469000000000
  0
LINE
  8
0
  6
CONTINUOUS
 62
256
 10
-337.350028000000010
 20
-40.051042000000002
 11
-339.350028000000010
 21
-41.226827000000000
  0
LINE
  8
0
  6
CONTINUOUS
 62
256
 10
-339.350028000000010
 20
-41.226827000000000
 11
-341.350028000000010
 21
-42.879469000000000
  0
LINE
  8
0
  6
CONTINUOUS
 62
256
 10
-328.350028000000010
 20
-94.966942000000003
 11
-328.350028000000010
 21
-29.966942000000000
  0
LINE
  8
0
  6
CONTINUOUS
 62
256
 10
-231.350028000000010
 20
-35.466942000000003
 11
-231.350028000000010
 21
-94.966942000000003
  0
LINE
  8
0
  6
CONTINUOUS
 62
256
 10
-328.350028000000010
 20
-29.966942000000000
 11
-357.044052000000020
 21
-29.966942000000000
  0
LINE
  8
0
  6
CONTINUOUS
 62
256
 10
-379.350028000000010
 20
-94.966942000000003
 11
-379.350028000000010
 21
-42.523736999999997
  0
ARC
  8
0
  6
CONTINUOUS
 62
256
 10
-357.044052000000020
 20
-49.966942000000003
 40
20.000000000000000
 50
90.000000000000000
 51
125.000000000000040
  0
LINE
  8
0
  6
CONTINUOUS
 62
256
 10
-368.515581000000000
 20
-33.583902000000002
 11
-378.241327000000010
 21
-40.393942000000003
  0
ARC
  8
0
  6
CONTINUOUS
 62
256
 10
-376.750027999999990
 20
-42.523736999999997
 40
2.600000000000001
 50
125.000000000000110
 51
180.000000000000000
  0
LINE
  8
0
  6
CONTINUOUS
 62
256
 10
-328.350028000000010
 20
-94.966942000000003
 11
-328.350028000000010
 21
-153.586163000000000
  0
LINE
  8
0
  6
CONTINUOUS
 62
256
 10
-231.350028000000010
 20
-154.466941999999990
 11
-231.350028000000010
 21
-94.966942000000003
  0
LINE
  8
0
  6
CONTINUOUS
 62
256
 10
-379.350028000000010
 20
-94.966942000000003
 11
-379.350028000000010
 21
-147.410146999999990
  0
LINE
  8
0
  6
CONTINUOUS
 62
256
 10
-368.515581000000000
 20
-156.349983000000010
 11
-378.241327000000010
 21
-149.539942999999990
  0
ARC
  8
0
  6
CONTINUOUS
 62
256
 10
-376.750027999999990
 20
-147.410146999999990
 40
2.600000000000023
 50
180.000000000000000
 51
234.999999999999770
  0
LINE
  8
0
  6
CONTINUOUS
 62
256
 10
-338.350028000000010
 20
-159.966941999999990
 11
-357.044052000000020
 21
-159.966941999999990
  0
ARC
  8
0
  6
CONTINUOUS
 62
256
 10
-357.044052000000020
 20
-139.966941999999990
 40
19.999999999999996
 50
234.999999999999940
 51
270.000000000000000
  0
LINE
  8
0
  6
CONTINUOUS
 62
256
 10
-336.350028000000010
 20
-158.466941999999990
 11
-336.350028000000010
 21
-156.757735999999990
  0
LINE
  8
0
  6
CONTINUOUS
 62
256
 10
-261.350028000000010
 20
-153.466941999999990
 11
-328.350028000000010
 21
-153.466941999999990
  0
LINE
  8
0
  6
CONTINUOUS
 62
256
 10
-261.350028000000010
 20
-158.466941999999990
 11
-336.350028000000010
 21
-158.466941999999990
  0
LINE
  8
0
  6
CONTINUOUS
 62
256
 10
-335.350028000000010
 20
-186.966941999999990
 11
-335.350028000000010
 21
-158.466941999999990
  0
LINE
  8
0
  6
CONTINUOUS
 62
256
 10
-262.350028000000010
 20
-186.966941999999990
 11
-262.350028000000010
 21
-158.466941999999990
  0
ARC
  8
0
  6
CONTINUOUS
 62
256
 10
-263.350028000000010
 20
-186.966941999999990
 40
1.000000000000000
 50
270.000000000000000
 51
0.000000000000000
  0
ARC
  8
0
  6
CONTINUOUS
 62
256
 10
-334.350028000000010
 20
-186.966941999999990
 40
1.000000000000000
 50
180.000000000000000
 51
270.000000000000000
  0
LINE
  8
0
  6
CONTINUOUS
 62
256
 10
-263.350028000000010
 20
-187.966941999999990
 11
-334.350028000000010
 21
-187.966941999999990
  0
LINE
  8
0
  6
CONTINUOUS
 62
256
 10
-269.350028000000010
 20
-187.966941999999990
 11
-269.350028000000010
 21
-188.466941999999990
  0
LINE
  8
0
  6
CONTINUOUS
 62
256
 10
-271.850028000000010
 20
-187.966941999999990
 11
-271.850028000000010
 21
-188.466941999999990
  0
LINE
  8
0
  6
CONTINUOUS
 62
256
 10
-277.350028000000010
 20
-187.966941999999990
 11
-277.350028000000010
 21
-188.466941999999990
  0
LINE
  8
0
  6
CONTINUOUS
 62
256
 10
-269.350028000000010
 20
-188.466941999999990
 11
-277.350028000000010
 21
-188.466941999999990
  0
LINE
  8
0
  6
CONTINUOUS
 62
256
 10
-261.350028000000010
 20
-158.466941999999990
 11
-261.350028000000010
 21
-153.466941999999990
  0
LINE
  8
0
  6
CONTINUOUS
 62
256
 10
-335.350028000000010
 20
-156.586163000000000
 11
-331.350028000000010
 21
-156.586163000000000
  0
LINE
  8
0
  6
CONTINUOUS
 62
256
 10
-338.350028000000010
 20
-159.966941999999990
 11
-338.350028000000010
 21
-159.586163000000000
  0
ARC
  8
0
  6
CONTINUOUS
 62
256
 10
-331.350028000000010
 20
-153.586163000000000
 40
3.000000000000000
 50
270.000000000000000
 51
0.000000000000000
  0
ARC
  8
0
  6
CONTINUOUS
 62
256
 10
-335.350028000000010
 20
-159.586163000000000
 40
3.000000000000000
 50
90.000000000000000
 51
180.000000000000000
  0
LINE
  8
0
  6
CONTINUOUS
 62
256
 10
-328.350028000000010
 20
-35.466942000000003
 11
-231.350028000000010
 21
-35.466942000000003
  0
LINE
  8
0
  6
CONTINUOUS
 62
256
 10
-261.350028000000010
 20
-154.466941999999990
 11
-231.350028000000010
 21
-154.466941999999990
  0
LINE
  8
0
  6
CONTINUOUS
 62
256
 10
-328.350028000000010
 20
-151.966941999999990
 11
-231.350028000000010
 21
-151.966941999999990
  0
LINE
  8
0
  6
CONTINUOUS
 62
256
 10
-328.350028000000010
 20
-150.966941999999990
 11
-231.350028000000010
 21
-150.966941999999990
  0
LINE
  8
0
  6
CONTINUOUS
 62
256
 10
-328.350028000000010
 20
-149.966941999999990
 11
-231.350028000000010
 21
-149.966941999999990
  0
LINE
  8
0
  6
CONTINUOUS
 62
256
 10
-328.350028000000010
 20
-145.282477000000000
 11
-231.350028000000010
 21
-145.282477000000000
  0
LINE
  8
0
  6
CONTINUOUS
 62
256
 10
-328.350028000000010
 20
-140.332729000000000
 11
-231.350028000000010
 21
-140.332729000000000
  0
LINE
  8
0
  6
CONTINUOUS
 62
256
 10
-328.350028000000010
 20
-132.286126999999990
 11
-231.350028000000010
 21
-132.286126999999990
  0
LINE
  8
0
  6
CONTINUOUS
 62
256
 10
-328.350028000000010
 20
-130.681479999999990
 11
-231.350028000000010
 21
-130.681479999999990
  0
LINE
  8
0
  6
CONTINUOUS
 62
256
 10
-328.350028000000010
 20
-126.717733999999990
 11
-231.350028000000010
 21
-126.717733999999990
  0
LINE
  8
0
  6
CONTINUOUS
 62
256
 10
-328.350028000000010
 20
-125.249377000000000
 11
-231.350028000000010
 21
-125.249377000000000
  0
LINE
  8
0
  6
CONTINUOUS
 62
256
 10
-328.350028000000010
 20
-121.158876000000010
 11
-231.350028000000010
 21
-121.158876000000010
  0
LINE
  8
0
  6
CONTINUOUS
 62
256
 10
-328.350028000000010
 20
-119.796995999999990
 11
-231.350028000000010
 21
-119.796995999999990
  0
LINE
  8
0
  6
CONTINUOUS
 62
256
 10
-328.350028000000010
 20
-115.606442000000000
 11
-231.350028000000010
 21
-115.606442000000000
  0
LINE
  8
0
  6
CONTINUOUS
 62
256
 10
-328.350028000000010
 20
-114.340204000000000
 11
-231.350028000000010
 21
-114.340204000000000
  0
LINE
  8
0
  6
CONTINUOUS
 62
256
 10
-328.350028000000010
 20
-109.966942000000000
 11
-231.350028000000010
 21
-109.966942000000000
  0
LINE
  8
0
  6
CONTINUOUS
 62
256
 10
-328.350028000000010
 20
-57.647756999999999
 11
-231.350028000000010
 21
-57.647756999999999
  0
LINE
  8
0
  6
CONTINUOUS
 62
256
 10
-328.350028000000010
 20
-59.252405000000003
 11
-231.350028000000010
 21
-59.252405000000003
  0
LINE
  8
0
  6
CONTINUOUS
 62
256
 10
-328.350028000000010
 20
-63.216151000000004
 11
-231.350028000000010
 21
-63.216151000000004
  0
LINE
  8
0
  6
CONTINUOUS
 62
256
 10
-328.350028000000010
 20
-64.684507999999994
 11
-231.350028000000010
 21
-64.684507999999994
  0
LINE
  8
0
  6
CONTINUOUS
 62
256
 10
-328.350028000000010
 20
-68.775008999999997
 11
-231.350028000000010
 21
-68.775008999999997
  0
LINE
  8
0
  6
CONTINUOUS
 62
256
 10
-328.350028000000010
 20
-70.136888999999996
 11
-231.350028000000010
 21
-70.136888999999996
  0
LINE
  8
0
  6
CONTINUOUS
 62
256
 10
-328.350028000000010
 20
-74.327443000000002
 11
-231.350028000000010
 21
-74.327443000000002
  0
LINE
  8
0
  6
CONTINUOUS
 62
256
 10
-328.350028000000010
 20
-75.593681000000004
 11
-231.350028000000010
 21
-75.593681000000004
  0
LINE
  8
0
  6
CONTINUOUS
 62
256
 10
-328.350028000000010
 20
-79.966942000000003
 11
-231.350028000000010
 21
-79.966942000000003
  0
LINE
  8
0
  6
CONTINUOUS
 62
256
 10
-328.350028000000010
 20
-49.601156000000003
 11
-231.350028000000010
 21
-49.601156000000003
  0
LINE
  8
0
  6
CONTINUOUS
 62
256
 10
-328.350028000000010
 20
-44.651408000000004
 11
-231.350028000000010
 21
-44.651408000000004
  0
LINE
  8
0
  6
CONTINUOUS
 62
256
 10
-328.350028000000010
 20
-39.966942000000003
 11
-231.350028000000010
 21
-39.966942000000003
  0
LINE
  8
0
  6
CONTINUOUS
 62
256
 10
-328.350028000000010
 20
-38.966942000000003
 11
-231.350028000000010
 21
-38.966942000000003
  0
LINE
  8
0
  6
CONTINUOUS
 62
256
 10
-328.350028000000010
 20
-37.966942000000003
 11
-231.350028000000010
 21
-37.966942000000003
  0
LINE
  8
0
  6
CONTINUOUS
 62
256
 10
-261.350028000000010
 20
-35.466942000000003
 11
-231.350028000000010
 21
-35.466942000000003
  0
LINE
  8
0
  6
CONTINUOUS
 62
256
 10
-25.849795000000000
 20
-7.967099000000000
 11
-190.849795000000000
 21
-7.967099000000000
  0
LINE
  8
0
  6
CONTINUOUS
 62
256
 10
-201.849795000000000
 20
-18.967099000000001
 11
-201.849795000000000
 21
-170.967098999999990
  0
LINE
  8
0
  6
CONTINUOUS
 62
256
 10
-190.849795000000000
 20
-181.967098999999990
 11
-25.849795000000000
 21
-181.967098999999990
  0
LINE
  8
0
  6
CONTINUOUS
 62
256
 10
-14.849795000000000
 20
-170.967098999999990
 11
-14.849795000000000
 21
-18.967099000000001
  0
ARC
  8
0
  6
CONTINUOUS
 62
256
 10
-32.849795000000000
 20
-143.289174000000000
 40
7.500000000000013
 50
279.206895999999920
 51
0.000000000000000
  0
LINE
  8
0
  6
CONTINUOUS
 62
256
 10
-25.349795000000000
 20
-143.289174000000000
 11
-25.349795000000000
 21
-46.645023999999999
  0
ARC
  8
0
  6
CONTINUOUS
 62
256
 10
-32.849795000000000
 20
-46.645023999999999
 40
7.500000000000000
 50
0.000000000000000
 51
80.793104000000014
  0
ARC
  8
0
  6
CONTINUOUS
 62
256
 10
-28.849795000000000
 20
-21.967099000000001
 40
17.500000000000004
 50
211.512300000000010
 51
260.793104000000030
  0
ARC
  8
0
  6
CONTINUOUS
 62
256
 10
-46.752882000000000
 20
-32.943413000000000
 40
3.500000000000000
 50
31.512300000000028
 51
86.955283000000023
  0
ARC
  8
0
  6
CONTINUOUS
 62
256
 10
-45.849921999999999
 20
-15.967409999999999
 40
13.500000000000002
 50
200.666195999999990
 51
266.955283000000010
  0
ARC
  8
0
  6
CONTINUOUS
 62
256
 10
-61.756013000000003
 20
-21.967099000000001
 40
3.500000000000003
 50
20.666195999999974
 51
90.000000000000000
  0
LINE
  8
0
  6
CONTINUOUS
 62
256
 10
-61.756013000000003
 20
-18.467099000000001
 11
-153.943830999999990
 21
-18.467099000000001
  0
ARC
  8
0
  6
CONTINUOUS
 62
256
 10
-153.943830999999990
 20
-21.967099000000001
 40
3.500000000000000
 50
90.000000000000000
 51
159.333803999999990
  0
ARC
  8
0
  6
CONTINUOUS
 62
256
 10
-169.849921999999990
 20
-15.967409999999999
 40
13.500000000000002
 50
269.624890999999990
 51
339.333803999999990
  0
ARC
  8
0
  6
CONTINUOUS
 62
256
 10
-169.961218000000000
 20
-32.967046000000003
 40
3.500000000000001
 50
89.624890999999892
 51
148.412034999999950
  0
ARC
  8
0
  6
CONTINUOUS
 62
256
 10
-187.849795000000000
 20
-21.967099000000001
 40
17.499999999999996
 50
279.206895999999970
 51
328.412035000000000
  0
ARC
  8
0
  6
CONTINUOUS
 62
256
 10
-183.849795000000000
 20
-46.645023999999999
 40
7.500000000000000
 50
99.206896000000029
 51
180.000000000000000
  0
LINE
  8
0
  6
CONTINUOUS
 62
256
 10
-191.349795000000000
 20
-46.645023999999999
 11
-191.349795000000000
 21
-143.289174000000000
  0
ARC
  8
0
  6
CONTINUOUS
 62
256
 10
-183.849795000000000
 20
-143.289174000000000
 40
7.500000000000000
 50
180.000000000000000
 51
260.793103999999970
  0
ARC
  8
0
  6
CONTINUOUS
 62
256
 10
-187.849795000000000
 20
-167.967098999999990
 40
17.499999999999996
 50
31.585980000000067
 51
80.793104000000028
  0
ARC
  8
0
  6
CONTINUOUS
 62
256
 10
-169.960837000000000
 20
-156.967772000000000
 40
3.499999999999992
 50
211.585980000000030
 51
270.373825000000070
  0
ARC
  8
0
  6
CONTINUOUS
 62
256
 10
-169.849921999999990
 20
-173.967410000000000
 40
13.499999999999993
 50
20.668436999999983
 51
90.373824999999997
  0
ARC
  8
0
  6
CONTINUOUS
 62
256
 10
-153.944064999999990
 20
-167.967098999999990
 40
3.500000000000014
 50
200.668436999999950
 51
270.000000000000000
  0
LINE
  8
0
  6
CONTINUOUS
 62
256
 10
-153.944064999999990
 20
-171.467098999999990
 11
-61.755777999999999
 21
-171.467098999999990
  0
ARC
  8
0
  6
CONTINUOUS
 62
256
 10
-61.755777999999999
 20
-167.967098999999990
 40
3.500000000000000
 50
270.000000000000000
 51
339.331562999999960
  0
ARC
  8
0
  6
CONTINUOUS
 62
256
 10
-45.849921999999999
 20
-173.967410000000000
 40
13.500000000000007
 50
93.046047000000016
 51
159.331563000000050
  0
ARC
  8
0
  6
CONTINUOUS
 62
256
 10
-46.753276999999997
 20
-156.991428000000010
 40
3.500000000000009
 50
273.046046999999930
 51
328.489758000000050
  0
ARC
  8
0
  6
CONTINUOUS
 62
256
 10
-28.849795000000000
 20
-167.967098999999990
 40
17.499999999999996
 50
99.206896000000000
 51
148.489758000000020
  0
ARC
  8
0
  6
CONTINUOUS
 62
256
 10
-190.849795000000000
 20
-18.967099000000001
 40
12.000000000000000
 50
90.000000000000000
 51
180.000000000000000
  0
ARC
  8
0
  6
CONTINUOUS
 62
256
 10
-190.849795000000000
 20
-18.967099000000001
 40
11.000000000000000
 50
90.000000000000000
 51
180.000000000000000
  0
ARC
  8
0
  6
CONTINUOUS
 62
256
 10
-25.849795000000000
 20
-18.967099000000001
 40
11.000000000000000
 50
0.000000000000000
 51
90.000000000000000
  0
ARC
  8
0
  6
CONTINUOUS
 62
256
 10
-25.849795000000000
 20
-18.967099000000001
 40
12.000000000000000
 50
0.000000000000000
 51
90.000000000000000
  0
ARC
  8
0
  6
CONTINUOUS
 62
256
 10
-190.849795000000000
 20
-170.967098999999990
 40
12.000000000000000
 50
180.000000000000000
 51
270.000000000000000
  0
ARC
  8
0
  6
CONTINUOUS
 62
256
 10
-25.849795000000000
 20
-170.967098999999990
 40
12.000000000000000
 50
270.000000000000000
 51
0.000000000000000
  0
ARC
  8
0
  6
CONTINUOUS
 62
256
 10
-25.849795000000000
 20
-170.967098999999990
 40
11.000000000000000
 50
270.000000000000000
 51
0.000000000000000
  0
ARC
  8
0
  6
CONTINUOUS
 62
256
 10
-190.849795000000000
 20
-170.967098999999990
 40
11.000000000000000
 50
180.000000000000000
 51
270.000000000000000
  0
LINE
  8
0
  6
CONTINUOUS
 62
256
 10
-193.349795000000000
 20
-143.289174000000000
 11
-193.349795000000000
 21
-46.645023999999999
  0
ARC
  8
0
  6
CONTINUOUS
 62
256
 10
-183.849795000000000
 20
-46.645023999999999
 40
9.500000000000004
 50
99.206896000000043
 51
180.000000000000000
  0
ARC
  8
0
  6
CONTINUOUS
 62
256
 10
-187.849795000000000
 20
-21.967099000000001
 40
15.499999999999998
 50
279.206895999999920
 51
328.412035000000000
  0
ARC
  8
0
  6
CONTINUOUS
 62
256
 10
-169.961218000000000
 20
-32.967046000000003
 40
5.500000000000001
 50
89.624891000000005
 51
148.412034999999950
  0
ARC
  8
0
  6
CONTINUOUS
 62
256
 10
-169.849921999999990
 20
-15.967409999999999
 40
11.500000000000000
 50
269.624890999999930
 51
339.333803999999990
  0
ARC
  8
0
  6
CONTINUOUS
 62
256
 10
-153.943830999999990
 20
-21.967099000000001
 40
5.500000000000000
 50
90.000000000000000
 51
159.333804000000010
  0
LINE
  8
0
  6
CONTINUOUS
 62
256
 10
-153.943830999999990
 20
-16.467099000000001
 11
-61.756013000000003
 21
-16.467099000000001
  0
ARC
  8
0
  6
CONTINUOUS
 62
256
 10
-61.756013000000003
 20
-21.967099000000001
 40
5.500000000000003
 50
20.666195999999982
 51
90.000000000000000
  0
ARC
  8
0
  6
CONTINUOUS
 62
256
 10
-45.849921999999999
 20
-15.967409999999999
 40
11.500000000000002
 50
200.666195999999990
 51
266.955283000000010
  0
ARC
  8
0
  6
CONTINUOUS
 62
256
 10
-46.752882000000000
 20
-32.943413000000000
 40
5.499999999999999
 50
31.512300000000035
 51
86.955283000000023
  0
ARC
  8
0
  6
CONTINUOUS
 62
256
 10
-28.849795000000000
 20
-21.967099000000001
 40
15.499999999999998
 50
211.512300000000010
 51
260.793104000000030
  0
ARC
  8
0
  6
CONTINUOUS
 62
256
 10
-32.849795000000000
 20
-46.645023999999999
 40
9.500000000000000
 50
0.000000000000000
 51
80.793104000000000
  0
LINE
  8
0
  6
CONTINUOUS
 62
256
 10
-23.349795000000000
 20
-46.645023999999999
 11
-23.349795000000000
 21
-143.289174000000000
  0
ARC
  8
0
  6
CONTINUOUS
 62
256
 10
-32.849795000000000
 20
-143.289174000000000
 40
9.500000000000009
 50
279.206895999999970
 51
0.000000000000000
  0
ARC
  8
0
  6
CONTINUOUS
 62
256
 10
-28.849795000000000
 20
-167.967098999999990
 40
15.499999999999998
 50
99.206896000000000
 51
148.489758000000020
  0
ARC
  8
0
  6
CONTINUOUS
 62
256
 10
-46.753276999999997
 20
-156.991428000000010
 40
5.499999999999986
 50
273.046046999999990
 51
328.489758000000110
  0
ARC
  8
0
  6
CONTINUOUS
 62
256
 10
-45.849921999999999
 20
-173.967410000000000
 40
11.500000000000002
 50
93.046047000000016
 51
159.331562999999930
  0
ARC
  8
0
  6
CONTINUOUS
 62
256
 10
-61.755777999999999
 20
-167.967098999999990
 40
5.500000000000000
 50
270.000000000000000
 51
339.331562999999850
  0
LINE
  8
0
  6
CONTINUOUS
 62
256
 10
-61.755777999999999
 20
-173.467098999999990
 11
-153.944064999999990
 21
-173.467098999999990
  0
ARC
  8
0
  6
CONTINUOUS
 62
256
 10
-153.944064999999990
 20
-167.967098999999990
 40
5.499999999999998
 50
200.668437000000150
 51
270.000000000000000
  0
ARC
  8
0
  6
CONTINUOUS
 62
256
 10
-169.849921999999990
 20
-173.967410000000000
 40
11.499999999999995
 50
20.668437000000083
 51
90.373825000000068
  0
ARC
  8
0
  6
CONTINUOUS
 62
256
 10
-169.960837000000000
 20
-156.967772000000000
 40
5.500000000000008
 50
211.585980000000010
 51
270.373824999999900
  0
ARC
  8
0
  6
CONTINUOUS
 62
256
 10
-183.849795000000000
 20
-143.289174000000000
 40
9.500000000000000
 50
180.000000000000000
 51
260.793103999999970
  0
LINE
  8
0
  6
DASHED
 62
256
 10
-202.849795000000000
 20
-130.413138000000000
 11
-202.849795000000000
 21
-144.193429000000010
  0
LINE
  8
0
  6
DASHED
 62
256
 10
-202.849795000000000
 20
-59.520747000000000
 11
-202.849795000000000
 21
-45.740454999999997
  0
ARC
  8
0
  6
CONTINUOUS
 62
256
 10
-217.350028000000010
 20
-52.782210999999997
 40
3.000000000000000
 50
0.000000000000000
 51
90.000000000000000
  0
ARC
  8
0
  6
CONTINUOUS
 62
256
 10
-217.350028000000010
 20
-45.870635000000000
 40
3.000000000000000
 50
0.000000000000000
 51
90.000000000000000
  0
ARC
  8
0
  6
CONTINUOUS
 62
256
 10
-217.350028000000010
 20
-137.151674000000010
 40
3.000000000000000
 50
270.000000000000000
 51
0.000000000000000
  0
ARC
  8
0
  6
CONTINUOUS
 62
256
 10
-217.350028000000010
 20
-144.063250000000010
 40
3.000000000000000
 50
270.000000000000000
 51
0.000000000000000
  0
ARC
  8
0
  6
CONTINUOUS
 62
256
 10
-217.350028000000010
 20
-151.705942999999990
 40
2.999999999999992
 50
269.018827000000040
 51
0.000000000000000
  0
ARC
  8
0
  6
CONTINUOUS
 62
256
 10
-217.350028000000010
 20
-38.227941999999999
 40
3.000000000000000
 50
0.000000000000000
 51
90.981172999999970
  0
LINE
  8
0
  6
CONTINUOUS
 62
256
 10
-214.350028000000010
 20
-151.705942999999990
 11
-214.350028000000010
 21
-38.227941999999999
  0
ARC
  8
0
  6
CONTINUOUS
 62
256
 10
-222.350028000000010
 20
-130.968209000000000
 40
3.000000000000000
 50
180.000000000000000
 51
270.000000000000000
  0
ARC
  8
0
  6
CONTINUOUS
 62
256
 10
-222.350028000000010
 20
-150.063250000000010
 40
3.000000000000000
 50
90.000000000000000
 51
180.000000000000000
  0
ARC
  8
0
  6
CONTINUOUS
 62
256
 10
-222.350028000000010
 20
-137.151674000000010
 40
3.000000000000000
 50
180.000000000000000
 51
270.000000000000000
  0
ARC
  8
0
  6
CONTINUOUS
 62
256
 10
-228.350028000000010
 20
-151.466941999999990
 40
3.000000000000000
 50
270.000000000000000
 51
0.000000000000000
  0
ARC
  8
0
  6
CONTINUOUS
 62
256
 10
-228.350028000000010
 20
-38.466942000000003
 40
3.000000000000000
 50
0.000000000000000
 51
90.000000000000000
  0
ARC
  8
0
  6
CONTINUOUS
 62
256
 10
-222.350028000000010
 20
-58.965674999999997
 40
3.000000000000000
 50
90.000000000000000
 51
180.000000000000000
  0
ARC
  8
0
  6
CONTINUOUS
 62
256
 10
-222.350028000000010
 20
-52.782210999999997
 40
3.000000000000000
 50
90.000000000000000
 51
180.000000000000000
  0
ARC
  8
0
  6
CONTINUOUS
 62
256
 10
-222.350028000000010
 20
-39.870635000000000
 40
3.000000000000000
 50
180.000000000000000
 51
270.000000000000000
  0
LINE
  8
0
  6
CONTINUOUS
 62
256
 10
-225.350028000000010
 20
-137.151674000000010
 11
-225.350028000000010
 21
-94.966942000000003
  0
LINE
  8
0
  6
CONTINUOUS
 62
256
 10
-222.350028000000010
 20
-133.968209000000000
 11
-217.350028000000010
 21
-133.968209000000000
  0
LINE
  8
0
  6
CONTINUOUS
 62
256
 10
-225.350028000000010
 20
-150.466941999999990
 11
-225.350028000000010
 21
-150.063250000000010
  0
LINE
  8
0
  6
CONTINUOUS
 62
256
 10
-225.350028000000010
 20
-150.466941999999990
 11
-225.350028000000010
 21
-150.063250000000010
  0
LINE
  8
0
  6
CONTINUOUS
 62
256
 10
-225.350028000000010
 20
-150.466941999999990
 11
-225.350028000000010
 21
-151.466941999999990
  0
LINE
  8
0
  6
CONTINUOUS
 62
256
 10
-225.350028000000010
 20
-39.466942000000003
 11
-225.350028000000010
 21
-39.870635000000000
  0
LINE
  8
0
  6
CONTINUOUS
 62
256
 10
-225.350028000000010
 20
-52.782210999999997
 11
-225.350028000000010
 21
-94.966942000000003
  0
LINE
  8
0
  6
CONTINUOUS
 62
256
 10
-222.350028000000010
 20
-55.965674999999997
 11
-217.350028000000010
 21
-55.965674999999997
  0
LINE
  8
0
  6
CONTINUOUS
 62
256
 10
-225.350028000000010
 20
-39.466942000000003
 11
-225.350028000000010
 21
-38.466942000000003
  0
LINE
  8
0
  6
CONTINUOUS
 62
256
 10
-222.350028000000010
 20
-42.870635000000000
 11
-217.350028000000010
 21
-42.870635000000000
  0
LINE
  8
0
  6
CONTINUOUS
 62
256
 10
-222.350028000000010
 20
-49.782210999999997
 11
-217.350028000000010
 21
-49.782210999999997
  0
LINE
  8
0
  6
CONTINUOUS
 62
256
 10
-222.350028000000010
 20
-140.151674000000010
 11
-217.350028000000010
 21
-140.151674000000010
  0
LINE
  8
0
  6
CONTINUOUS
 62
256
 10
-222.350028000000010
 20
-147.063250000000010
 11
-217.350028000000010
 21
-147.063250000000010
  0
LINE
  8
0
  6
CONTINUOUS
 62
256
 10
-231.350028000000010
 20
-74.966942000000003
 11
-225.350028000000010
 21
-74.966942000000003
  0
LINE
  8
0
  6
CONTINUOUS
 62
256
 10
-231.350028000000010
 20
-114.966942000000000
 11
-225.350028000000010
 21
-114.966942000000000
  0
CIRCLE
  8
0
  6
CONTINUOUS
 62
256
 10
-169.849921999999990
 20
-173.967410000000000
 40
5.500000000000000
  0
CIRCLE
  8
0
  6
CONTINUOUS
 62
256
 10
-169.849921999999990
 20
-15.967409999999999
 40
5.500000000000000
  0
CIRCLE
  8
0
  6
CONTINUOUS
 62
256
 10
-45.849921999999999
 20
-15.967409999999999
 40
5.500000000000000
  0
CIRCLE
  8
0
  6
CONTINUOUS
 62
256
 10
-45.849921999999999
 20
-173.967410000000000
 40
5.500000000000000
  0
LINE
  8
0
  6
DASHDOT
 62
256
 10
-175.246127000000000
 20
-167.967098999999990
 11
-201.849795000000000
 21
-167.967098999999990
  0
LINE
  8
0
  6
DASHDOT
 62
256
 10
-162.558077000000000
 20
-173.967410000000000
 11
-177.683431000000010
 21
-173.967410000000000
  0
LINE
  8
0
  6
DASHDOT
 62
256
 10
-162.995596000000010
 20
-15.967409999999999
 11
-177.214962000000010
 21
-15.967409999999999
  0
LINE
  8
0
  6
DASHDOT
 62
256
 10
-175.902404999999990
 20
-21.967099000000001
 11
-201.849795000000000
 21
-21.967099000000001
  0
LINE
  8
0
  6
DASHDOT
 62
256
 10
-28.849795000000000
 20
-155.694223999999990
 11
-28.849795000000000
 21
-180.090929999999990
  0
LINE
  8
0
  6
DASHDOT
 62
256
 10
-45.849921999999999
 20
-165.757160000000000
 11
-45.849921999999999
 21
-180.632804999999990
  0
LINE
  8
0
  6
DASHDOT
 62
256
 10
-169.849921999999990
 20
-166.413438000000010
 11
-169.849921999999990
 21
-180.851564000000000
  0
LINE
  8
0
  6
DASHDOT
 62
256
 10
-187.849795000000000
 20
-156.131742000000000
 11
-187.849795000000000
 21
-180.737133000000000
  0
LINE
  8
0
  6
DASHDOT
 62
256
 10
-169.849921999999990
 20
-9.125368999999999
 11
-169.849921999999990
 21
-24.001014000000001
  0
LINE
  8
0
  6
DASHDOT
 62
256
 10
-45.849921999999999
 20
-8.011754000000000
 11
-45.849921999999999
 21
-24.219774000000001
  0
LINE
  8
0
  6
DASHDOT
 62
256
 10
-37.262104999999998
 20
-15.967409999999999
 11
-54.053373000000001
 21
-15.967409999999999
  0
LINE
  8
0
  6
DASHDOT
 62
256
 10
-38.302689999999998
 20
-173.967410000000000
 11
-54.053373000000001
 21
-173.967410000000000
  0
LINE
  8
0
  6
DASHDOT
 62
256
 10
-187.849795000000000
 20
-9.967098999999999
 11
-187.849795000000000
 21
-34.938988000000002
  0
LINE
  8
0
  6
DASHDOT
 62
256
 10
-16.849795000000000
 20
-167.967098999999990
 11
-40.709043999999999
 21
-167.967098999999990
  0
LINE
  8
0
  6
DASHDOT
 62
256
 10
-16.849795000000000
 20
-21.967099000000001
 11
-40.490285000000000
 21
-21.967099000000001
  0
LINE
  8
0
  6
DASHDOT
 62
256
 10
-28.849795000000000
 20
-5.210600000000000
 11
-28.849795000000000
 21
-35.376506999999997
  0
LINE
  8
0
  6
CONTINUOUS
 62
256
 10
-190.849795000000000
 20
-182.967098999999990
 11
-25.849795000000000
 21
-182.967098999999990
  0
LINE
  8
0
  6
CONTINUOUS
 62
256
 10
-13.849795000000000
 20
-170.967098999999990
 11
-13.849795000000000
 21
-18.967099000000001
  0
LINE
  8
0
  6
CONTINUOUS
 62
256
 10
-25.849795000000000
 20
-6.967099000000000
 11
-190.849795000000000
 21
-6.967099000000000
  0
LINE
  8
0
  6
CONTINUOUS
 62
256
 10
-202.849795000000000
 20
-18.967099000000001
 11
-202.849795000000000
 21
-170.967098999999990
  0
LINE
  8
0
  6
CONTINUOUS
 62
256
 10
-231.350028000000010
 20
-94.966942000000003
 11
-231.350028000000010
 21
-154.466941999999990
  0
LINE
  8
0
  6
CONTINUOUS
 62
256
 10
-231.350028000000010
 20
-94.966942000000003
 11
-231.350028000000010
 21
-35.466942000000003
  0
LINE
  8
0
  6
CONTINUOUS
 62
256
 10
-231.350028000000010
 20
-35.484397000000001
 11
-205.797438000000000
 21
-35.029648000000002
  0
LINE
  8
0
  6
CONTINUOUS
 62
256
 10
-231.350028000000010
 20
-154.449487000000000
 11
-205.797438000000000
 21
-154.904236999999990
  0
ARC
  8
0
  6
CONTINUOUS
 62
256
 10
-205.849795000000000
 20
-157.903780000000010
 40
3.000000000000000
 50
0.000000000000000
 51
88.999999999999858
  0
ARC
  8
0
  6
CONTINUOUS
 62
256
 10
-205.849795000000000
 20
-32.030104999999999
 40
2.999999999999997
 50
271.000000000000110
 51
0.000000000000000
  0
CIRCLE
  8
0
  6
CONTINUOUS
 62
256
 10
-85.849795000000000
 20
-78.967099000000005
 40
24.000000000000000
  0
CIRCLE
  8
0
  6
CONTINUOUS
 62
256
 10
-85.849795000000000
 20
-78.967099000000005
 40
47.500000000000000
  0
POINT
  8
0
  6
CONTINUOUS
 62
256
 10
-85.849795000000000
 20
-78.967099000000005
  0
LINE
  8
0
  6
DASHDOT
 62
256
 10
-85.849795000000000
 20
-4.006534000000000
 11
-85.849795000000000
 21
-155.587939000000010
  0
LINE
  8
0
  6
CONTINUOUS
 62
256
 10
-80.849795000000000
 20
-62.196589000000003
 11
-80.849795000000000
 21
-58.167099000000000
  0
LINE
  8
0
  6
CONTINUOUS
 62
256
 10
-90.849795000000000
 20
-58.167099000000000
 11
-80.849795000000000
 21
-58.167099000000000
  0
LINE
  8
0
  6
CONTINUOUS
 62
256
 10
-90.849795000000000
 20
-62.196589000000003
 11
-90.849795000000000
 21
-58.167099000000000
  0
ARC
  8
0
  6
CONTINUOUS
 62
256
 10
-85.849795000000000
 20
-78.967099000000005
 40
17.499999999999996
 50
106.601550000000000
 51
73.398450000000011
  0
LINE
  8
0
  6
DASHDOT
 62
256
 10
-9.339100000000000
 20
-78.967099000000005
 11
-158.209105999999990
 21
-78.967099000000005
  0
ARC
  8
0
  6
CONTINUOUS
 62
256
 10
-187.849795000000000
 20
-167.967098999999990
 40
15.500000000000004
 50
31.585980000000028
 51
80.793103999999943
  0
LINE
  8
0
  6
DASHED
 62
256
 10
-266.850028000000010
 20
-158.466941999999990
 11
-266.850028000000010
 21
-172.966941999999990
  0
LINE
  8
0
  6
DASHED
 62
256
 10
-280.850028000000010
 20
-158.466941999999990
 11
-280.850028000000010
 21
-172.966941999999990
  0
ARC
  8
0
  6
DASHED
 62
256
 10
-273.850028000000010
 20
-172.966941999999990
 40
7.000000000000000
 50
180.000000000000000
 51
0.000000000000000
  0
CIRCLE
  8
0
  6
DASHED
 62
256
 10
-273.850028000000010
 20
-172.966941999999990
 40
6.000000000000000
  0
LINE
  8
0
  6
DASHDOT
 62
256
 10
-273.850028000000010
 20
-155.683090999999990
 11
-273.850028000000010
 21
-183.662441000000000
  0
LINE
  8
0
  6
DASHDOT
 62
256
 10
-284.260327000000020
 20
-172.966941999999990
 11
-263.886145000000000
 21
-172.966941999999990
  0
LINE
  8
0
  6
DASHED
 62
256
 10
-330.850028000000010
 20
-158.466941999999990
 11
-330.850028000000010
 21
-172.966941999999990
  0
LINE
  8
0
  6
DASHED
 62
256
 10
-316.850028000000010
 20
-158.466941999999990
 11
-316.850028000000010
 21
-172.966941999999990
  0
ARC
  8
0
  6
DASHED
 62
256
 10
-323.850028000000010
 20
-172.966941999999990
 40
7.000000000000000
 50
180.000000000000000
 51
0.000000000000000
  0
LINE
  8
0
  6
DASHDOT
 62
256
 10
-323.850028000000010
 20
-155.683090999999990
 11
-323.850028000000010
 21
-183.662441000000000
  0
LINE
  8
0
  6
DASHDOT
 62
256
 10
-333.158362000000010
 20
-172.966941999999990
 11
-313.969321999999980
 21
-172.966941999999990
  0
LINE
  8
0
  6
CONTINUOUS
 62
256
 10
-559.270408999999970
 20
-46.351450000000000
 11
-552.203960000000050
 21
-39.285001000000001
  0
ARC
  8
0
  6
CONTINUOUS
 62
256
 10
-554.603505000000040
 20
-51.018355000000000
 40
6.599999999999977
 50
134.999999999999830
 51
171.402918000000030
  0
ARC
  8
0
  6
CONTINUOUS
 62
256
 10
-533.394919999999960
 20
-58.094040999999997
 40
26.599999999999998
 50
96.051984999999959
 51
134.999999999999940
  0
ARC
  8
0
  6
CONTINUOUS
 62
256
 10
-504.506890000000000
 20
-330.566941999999980
 40
300.600000000000020
 50
83.948014999999998
 51
96.051985000000002
  0
ARC
  8
0
  6
CONTINUOUS
 62
256
 10
-475.618860999999980
 20
-58.094040999999997
 40
26.600000000000023
 50
44.999999999999964
 51
83.948015000000026
  0
LINE
  8
0
  6
CONTINUOUS
 62
256
 10
-449.743371000000020
 20
-46.351450000000000
 11
-456.809820000000000
 21
-39.285001000000001
  0
ARC
  8
0
  6
CONTINUOUS
 62
256
 10
-454.410276000000010
 20
-51.018355000000000
 40
6.600000000000021
 50
8.597081999999979
 51
44.999999999999829
  0
ARC
  8
0
  6
CONTINUOUS
 62
256
 10
-504.506890000000000
 20
-330.566941999999980
 40
289.396999999999990
 50
90.000000000000000
 51
96.051984999999988
  0
ARC
  8
0
  6
CONTINUOUS
 62
256
 10
-504.506890000000000
 20
-330.566941999999980
 40
289.396999999999990
 50
83.948014999999998
 51
90.000000000000000
  0
LINE
  8
0
  6
CONTINUOUS
 62
256
 10
-548.858307999999970
 20
-51.782783999999999
 11
-544.282242999999990
 21
-47.206718000000002
  0
ARC
  8
0
  6
CONTINUOUS
 62
256
 10
-533.394919999999960
 20
-58.094040999999997
 40
15.396999999999993
 50
96.051984999999931
 51
135.000000000000060
  0
ARC
  8
0
  6
CONTINUOUS
 62
256
 10
-475.618860999999980
 20
-58.094040999999997
 40
15.397000000000016
 50
44.999999999999929
 51
83.948015000000069
  0
LINE
  8
0
  6
CONTINUOUS
 62
256
 10
-460.155471999999970
 20
-51.782783999999999
 11
-464.731537000000000
 21
-47.206718000000002
  0
ARC
  8
0
  6
CONTINUOUS
 62
256
 10
-544.615668000000030
 20
-56.025424000000001
 40
6.000000000000024
 50
135.000000000000260
 51
172.102011000000000
  0
ARC
  8
0
  6
CONTINUOUS
 62
256
 10
-504.506890000000000
 20
-94.966942000000003
 40
23.999999999999993
 50
70.240348000000012
 51
109.759651999999990
  0
ARC
  8
0
  6
CONTINUOUS
 62
256
 10
-528.624380999999970
 20
-61.194222000000003
 40
1.500000000000025
 50
29.999999999999456
 51
125.531072000001260
  0
LINE
  8
0
  6
CONTINUOUS
 62
256
 10
-527.325342999999980
 20
-60.444222000000003
 11
-525.817775999999980
 21
-63.055405999999998
  0
ARC
  8
0
  6
CONTINUOUS
 62
256
 10
-527.116813999999980
 20
-63.805405999999998
 40
1.500000000000013
 50
305.963570000000630
 51
29.999999999999456
  0
LINE
  8
0
  6
CONTINUOUS
 62
256
 10
-522.546462000000020
 20
-68.721487999999994
 11
-521.033360000000020
 21
-71.342256000000006
  0
ARC
  8
0
  6
CONTINUOUS
 62
256
 10
-523.845500000000020
 20
-69.471487999999994
 40
1.500000000000025
 50
29.999999999999456
 51
127.180756000000090
  0
ARC
  8
0
  6
CONTINUOUS
 62
256
 10
-487.317602000000020
 20
-57.194222000000003
 40
1.499999999999975
 50
329.999999999999490
 51
65.531072000000108
  0
LINE
  8
0
  6
CONTINUOUS
 62
256
 10
-487.526132000000020
 20
-60.555405999999998
 11
-486.018564000000030
 21
-57.944222000000003
  0
LINE
  8
0
  6
CONTINUOUS
 62
256
 10
-492.310546999999990
 20
-68.842256000000006
 11
-490.797445999999980
 21
-66.221487999999994
  0
ARC
  8
0
  6
CONTINUOUS
 62
256
 10
-488.825170000000010
 20
-59.805405999999998
 40
1.499999999999999
 50
245.963570000000350
 51
329.999999999999490
  0
ARC
  8
0
  6
CONTINUOUS
 62
256
 10
-492.096483999999980
 20
-65.471487999999994
 40
1.499999999999975
 50
329.999999999999490
 51
67.180756000000954
  0
ARC
  8
0
  6
CONTINUOUS
 62
256
 10
-493.609584999999980
 20
-68.092256000000006
 40
1.499999999999998
 50
247.928142000000830
 51
329.999999999999490
  0
ARC
  8
0
  6
CONTINUOUS
 62
256
 10
-504.506890000000000
 20
-94.966942000000003
 40
27.500000000000004
 50
67.928142000000022
 51
112.071858000000090
  0
ARC
  8
0
  6
CONTINUOUS
 62
256
 10
-504.506890000000000
 20
-94.966942000000003
 40
36.999999999999993
 50
65.963570000000033
 51
114.036430000000070
  0
ARC
  8
0
  6
CONTINUOUS
 62
256
 10
-504.506890000000000
 20
-94.966942000000003
 40
43.000000000000007
 50
65.531071999999980
 51
114.468928000000030
  0
ARC
  8
0
  6
CONTINUOUS
 62
256
 10
-504.506890000000000
 20
-94.966942000000003
 40
33.500000000000000
 50
67.180756000000002
 51
112.819244000000000
  0
ARC
  8
0
  6
CONTINUOUS
 62
256
 10
-515.404194999999960
 20
-68.092256000000006
 40
1.500000000000025
 50
209.999999999999460
 51
292.071857999999110
  0
ARC
  8
0
  6
CONTINUOUS
 62
256
 10
-521.696178000000030
 20
-57.194222000000003
 40
1.499999999999995
 50
114.468927999999890
 51
209.999999999999460
  0
LINE
  8
0
  6
CONTINUOUS
 62
256
 10
-522.995216000000030
 20
-57.944222000000003
 11
-521.487649000000030
 21
-60.555405999999998
  0
ARC
  8
0
  6
CONTINUOUS
 62
256
 10
-520.188611000000040
 20
-59.805405999999998
 40
1.500000000000025
 50
209.999999999999460
 51
294.036430000001640
  0
LINE
  8
0
  6
CONTINUOUS
 62
256
 10
-518.216334999999960
 20
-66.221487999999994
 11
-516.703232999999950
 21
-68.842256000000006
  0
ARC
  8
0
  6
CONTINUOUS
 62
256
 10
-516.917295999999960
 20
-65.471487999999994
 40
1.499999999999989
 50
112.819243999999050
 51
209.999999999999460
  0
ARC
  8
0
  6
CONTINUOUS
 62
256
 10
-480.389399000000030
 20
-61.194222000000003
 40
1.499999999999989
 50
54.468928000000517
 51
150.000000000000540
  0
LINE
  8
0
  6
CONTINUOUS
 62
256
 10
-483.196005000000010
 20
-63.055405999999998
 11
-481.688437000000020
 21
-60.444222000000003
  0
LINE
  8
0
  6
CONTINUOUS
 62
256
 10
-487.980419999999980
 20
-71.342256000000006
 11
-486.467318999999970
 21
-68.721487999999994
  0
ARC
  8
0
  6
CONTINUOUS
 62
256
 10
-481.896967000000020
 20
-63.805405999999998
 40
1.500000000000025
 50
150.000000000000540
 51
234.036429999999370
  0
ARC
  8
0
  6
CONTINUOUS
 62
256
 10
-485.168280999999980
 20
-69.471487999999994
 40
1.499999999999994
 50
52.819243999999927
 51
150.000000000000540
  0
ARC
  8
0
  6
CONTINUOUS
 62
256
 10
-464.398113000000020
 20
-56.025424000000001
 40
5.999999999999990
 50
7.897989000000010
 51
45.000000000000149
  0
ARC
  8
0
  6
CONTINUOUS
 62
256
 10
-263.906889999999980
 20
-94.966942000000003
 40
289.396999999999990
 50
172.102011000000030
 51
180.000000000000000
  0
ARC
  8
0
  6
CONTINUOUS
 62
256
 10
-263.906889999999980
 20
-94.966942000000003
 40
289.396999999999930
 50
180.000000000000000
 51
187.897988999999970
  0
ARC
  8
0
  6
CONTINUOUS
 62
256
 10
-544.615668000000030
 20
-133.908459999999990
 40
5.999999999999990
 50
187.897989000000000
 51
224.999999999999800
  0
LINE
  8
0
  6
CONTINUOUS
 62
256
 10
-548.858307999999970
 20
-138.151101000000010
 11
-544.282242999999990
 21
-142.727166000000010
  0
ARC
  8
0
  6
CONTINUOUS
 62
256
 10
-533.394919999999960
 20
-131.839843000000000
 40
15.397000000000016
 50
224.999999999999910
 51
263.948015000000110
  0
ARC
  8
0
  6
CONTINUOUS
 62
256
 10
-504.506890000000000
 20
140.633058000000010
 40
289.396999999999990
 50
263.948015000000000
 51
270.000000000000000
  0
ARC
  8
0
  6
CONTINUOUS
 62
256
 10
-745.106890000000020
 20
-94.966942000000003
 40
289.396999999999990
 50
352.102011000000000
 51
360.000000000000000
  0
ARC
  8
0
  6
CONTINUOUS
 62
256
 10
-464.398113000000020
 20
-133.908459999999990
 40
5.999999999999989
 50
314.999999999999770
 51
352.102010999999950
  0
LINE
  8
0
  6
CONTINUOUS
 62
256
 10
-460.155471999999970
 20
-138.151101000000010
 11
-464.731537000000000
 21
-142.727166000000010
  0
ARC
  8
0
  6
CONTINUOUS
 62
256
 10
-475.618860999999980
 20
-131.839843000000000
 40
15.397000000000000
 50
276.051984999999890
 51
314.999999999999940
  0
ARC
  8
0
  6
CONTINUOUS
 62
256
 10
-504.506890000000000
 20
140.633058000000010
 40
289.396999999999990
 50
270.000000000000000
 51
276.051985000000000
  0
ARC
  8
0
  6
CONTINUOUS
 62
256
 10
-533.394919999999960
 20
-131.839843000000000
 40
26.599999999999977
 50
225.000000000000030
 51
263.948015000000050
  0
ARC
  8
0
  6
CONTINUOUS
 62
256
 10
-475.618860999999980
 20
-131.839843000000000
 40
26.600000000000009
 50
276.051984999999950
 51
315.000000000000060
  0
ARC
  8
0
  6
CONTINUOUS
 62
256
 10
-263.906889999999980
 20
-94.966942000000003
 40
300.600000000000020
 50
171.402918000000000
 51
180.000000000000000
  0
ARC
  8
0
  6
CONTINUOUS
 62
256
 10
-554.603505000000040
 20
-138.915529999999990
 40
6.600000000000022
 50
188.597082000000030
 51
225.000000000000170
  0
LINE
  8
0
  6
CONTINUOUS
 62
256
 10
-559.270408999999970
 20
-143.582435000000000
 11
-552.203960000000050
 21
-150.648884000000010
  0
ARC
  8
0
  6
CONTINUOUS
 62
256
 10
-504.506890000000000
 20
140.633058000000010
 40
300.600000000000020
 50
263.948014999999940
 51
276.051985000000000
  0
ARC
  8
0
  6
CONTINUOUS
 62
256
 10
-745.106890000000020
 20
-94.966942000000003
 40
300.600000000000020
 50
351.402918000000000
 51
0.000000000000000
  0
ARC
  8
0
  6
CONTINUOUS
 62
256
 10
-454.410276000000010
 20
-138.915529999999990
 40
6.600000000000017
 50
315.000000000000170
 51
351.402917999999940
  0
ARC
  8
0
  6
CONTINUOUS
 62
256
 10
-263.906889999999980
 20
-94.966942000000003
 40
300.600000000000020
 50
180.000000000000000
 51
188.597082000000000
  0
ARC
  8
0
  6
CONTINUOUS
 62
256
 10
-745.106890000000020
 20
-94.966942000000003
 40
300.600000000000020
 50
0.000000000000000
 51
8.597082000000000
  0
LINE
  8
0
  6
CONTINUOUS
 62
256
 10
-449.743371000000020
 20
-143.582435000000000
 11
-456.809820000000000
 21
-150.648884000000010
  0
ARC
  8
0
  6
CONTINUOUS
 62
256
 10
-463.200110999999990
 20
-98.966942000000003
 40
1.499999999999979
 50
354.468927999999720
 51
90.000000000000000
  0
ARC
  8
0
  6
CONTINUOUS
 62
256
 10
-463.200110999999990
 20
-90.966942000000003
 40
1.500000000000000
 50
270.000000000000000
 51
5.531072000000276
  0
ARC
  8
0
  6
CONTINUOUS
 62
256
 10
-504.506890000000000
 20
-94.966942000000003
 40
17.999999999999989
 50
311.837003999999920
 51
348.162995999999960
  0
ARC
  8
0
  6
CONTINUOUS
 62
256
 10
-504.506890000000000
 20
-94.966942000000003
 40
27.499999999999986
 50
7.928141999999994
 51
52.071858000000006
  0
LINE
  8
0
  6
CONTINUOUS
 62
256
 10
-463.200110999999990
 20
-97.466942000000003
 11
-466.215245999999980
 21
-97.466942000000003
  0
LINE
  8
0
  6
CONTINUOUS
 62
256
 10
-483.196005000000010
 20
-126.878479000000000
 11
-481.688437000000020
 21
-129.489662000000010
  0
LINE
  8
0
  6
CONTINUOUS
 62
256
 10
-472.757875000000010
 20
-97.466942000000003
 11
-475.784077000000020
 21
-97.466942000000003
  0
ARC
  8
0
  6
CONTINUOUS
 62
256
 10
-472.757875000000010
 20
-98.966942000000003
 40
1.500000000000028
 50
352.819243999999910
 51
90.000000000000000
  0
ARC
  8
0
  6
CONTINUOUS
 62
256
 10
-466.215245999999980
 20
-98.966942000000003
 40
1.500000000000000
 50
90.000000000000000
 51
174.036430000000220
  0
ARC
  8
0
  6
CONTINUOUS
 62
256
 10
-480.389399000000030
 20
-128.739662000000010
 40
1.499999999999975
 50
210.000000000000510
 51
305.531071999999480
  0
ARC
  8
0
  6
CONTINUOUS
 62
256
 10
-504.506890000000000
 20
-94.966942000000003
 40
43.000000000000014
 50
305.531071999999990
 51
354.468928000000010
  0
ARC
  8
0
  6
CONTINUOUS
 62
256
 10
-487.317602000000020
 20
-132.739662000000010
 40
1.499999999999989
 50
294.468928000000010
 51
30.000000000000544
  0
LINE
  8
0
  6
CONTINUOUS
 62
256
 10
-487.526132000000020
 20
-129.378479000000000
 11
-486.018564000000030
 21
-131.989662000000010
  0
ARC
  8
0
  6
CONTINUOUS
 62
256
 10
-488.825170000000010
 20
-130.128479000000000
 40
1.499999999999975
 50
30.000000000000544
 51
114.036429999999850
  0
ARC
  8
0
  6
CONTINUOUS
 62
256
 10
-504.506890000000000
 20
-94.966942000000003
 40
37.000000000000014
 50
245.963569999999950
 51
294.036429999999940
  0
ARC
  8
0
  6
CONTINUOUS
 62
256
 10
-504.506890000000000
 20
-94.966942000000003
 40
43.000000000000007
 50
245.531071999999970
 51
294.468927999999950
  0
ARC
  8
0
  6
CONTINUOUS
 62
256
 10
-521.696178000000030
 20
-132.739662000000010
 40
1.500000000000025
 50
150.000000000000540
 51
245.531072000000020
  0
LINE
  8
0
  6
CONTINUOUS
 62
256
 10
-522.995216000000030
 20
-131.989662000000010
 11
-521.487649000000030
 21
-129.378479000000000
  0
ARC
  8
0
  6
CONTINUOUS
 62
256
 10
-520.188611000000040
 20
-130.128479000000000
 40
1.500000000000009
 50
65.963569999998171
 51
150.000000000000540
  0
ARC
  8
0
  6
CONTINUOUS
 62
256
 10
-528.624380999999970
 20
-128.739662000000010
 40
1.500000000000022
 50
234.468927999998730
 51
330.000000000000570
  0
LINE
  8
0
  6
CONTINUOUS
 62
256
 10
-527.325342999999980
 20
-129.489662000000010
 11
-525.817775999999980
 21
-126.878479000000000
  0
LINE
  8
0
  6
CONTINUOUS
 62
256
 10
-463.200110999999990
 20
-92.466942000000003
 11
-466.215245999999980
 21
-92.466942000000003
  0
ARC
  8
0
  6
CONTINUOUS
 62
256
 10
-466.215245999999980
 20
-90.966942000000003
 40
1.500000000000012
 50
185.963569999999780
 51
270.000000000000000
  0
LINE
  8
0
  6
CONTINUOUS
 62
256
 10
-472.757875000000010
 20
-92.466942000000003
 11
-475.784077000000020
 21
-92.466942000000003
  0
ARC
  8
0
  6
CONTINUOUS
 62
256
 10
-472.757875000000010
 20
-90.966942000000003
 40
1.500000000000000
 50
270.000000000000000
 51
7.180756000000089
  0
ARC
  8
0
  6
CONTINUOUS
 62
256
 10
-504.506890000000000
 20
-94.966942000000003
 40
23.999999999999993
 50
10.240347999999988
 51
49.759652000000010
  0
ARC
  8
0
  6
CONTINUOUS
 62
256
 10
-489.971994000000000
 20
-77.791763000000003
 40
1.499999999999991
 50
49.759652000000230
 51
150.000000000000540
  0
LINE
  8
0
  6
CONTINUOUS
 62
256
 10
-492.799158999999970
 20
-79.688558000000000
 11
-491.271031999999990
 21
-77.041763000000003
  0
ARC
  8
0
  6
CONTINUOUS
 62
256
 10
-491.500120999999980
 20
-80.438558000000000
 40
1.499999999999975
 50
149.999999999999460
 51
228.162996000000190
  0
ARC
  8
0
  6
CONTINUOUS
 62
256
 10
-504.506890000000000
 20
-94.966942000000003
 40
17.999999999999975
 50
11.837004000000027
 51
48.162996000000042
  0
ARC
  8
0
  6
CONTINUOUS
 62
256
 10
-485.421556000000010
 20
-90.966942000000003
 40
1.499999999999997
 50
191.837003999999810
 51
270.000000000000000
  0
LINE
  8
0
  6
CONTINUOUS
 62
256
 10
-482.365299999999990
 20
-92.466942000000003
 11
-485.421556000000010
 21
-92.466942000000003
  0
ARC
  8
0
  6
CONTINUOUS
 62
256
 10
-482.365299999999990
 20
-90.966942000000003
 40
1.500000000000000
 50
270.000000000000000
 51
10.240347999999715
  0
ARC
  8
0
  6
CONTINUOUS
 62
256
 10
-504.506890000000000
 20
-94.966942000000003
 40
14.500000000000014
 50
17.920213000000000
 51
42.079786999999946
  0
ARC
  8
0
  6
CONTINUOUS
 62
256
 10
-494.858130000000020
 20
-86.254800000000003
 40
1.499999999999994
 50
42.079787000000181
 51
149.999999999999460
  0
LINE
  8
0
  6
CONTINUOUS
 62
256
 10
-497.759251000000010
 20
-88.279687999999993
 11
-496.157168000000010
 21
-85.504800000000003
  0
ARC
  8
0
  6
CONTINUOUS
 62
256
 10
-496.460213000000010
 20
-89.029687999999993
 40
1.499999999999975
 50
149.999999999999460
 51
216.421821999999960
  0
ARC
  8
0
  6
CONTINUOUS
 62
256
 10
-504.506890000000000
 20
-94.966942000000003
 40
8.499999999999991
 50
23.578178000000058
 51
36.421822000000063
  0
ARC
  8
0
  6
CONTINUOUS
 62
256
 10
-495.341739000000020
 20
-90.966942000000003
 40
1.499999999999984
 50
203.578178000000380
 51
270.000000000000000
  0
LINE
  8
0
  6
CONTINUOUS
 62
256
 10
-492.137572999999970
 20
-92.466942000000003
 11
-495.341739000000020
 21
-92.466942000000003
  0
ARC
  8
0
  6
CONTINUOUS
 62
256
 10
-492.137572999999970
 20
-90.966942000000003
 40
1.500000000000000
 50
270.000000000000000
 51
17.920212999999450
  0
ARC
  8
0
  6
CONTINUOUS
 62
256
 10
-504.506890000000000
 20
-94.966942000000003
 40
24.000000000000050
 50
190.240348000000010
 51
229.759652000000100
  0
ARC
  8
0
  6
CONTINUOUS
 62
256
 10
-526.648479999999950
 20
-98.966942000000003
 40
1.500000000000000
 50
90.000000000000000
 51
190.240348000000100
  0
LINE
  8
0
  6
CONTINUOUS
 62
256
 10
-523.592224999999980
 20
-97.466942000000003
 11
-526.648479999999950
 21
-97.466942000000003
  0
ARC
  8
0
  6
CONTINUOUS
 62
256
 10
-523.592224999999980
 20
-98.966942000000003
 40
1.500000000000053
 50
11.837003999999359
 51
90.000000000000000
  0
ARC
  8
0
  6
CONTINUOUS
 62
256
 10
-504.506890000000000
 20
-94.966942000000003
 40
17.999999999999975
 50
191.837004000000010
 51
228.162996000000020
  0
ARC
  8
0
  6
CONTINUOUS
 62
256
 10
-517.513658999999960
 20
-109.495327000000000
 40
1.500000000000025
 50
330.000000000000570
 51
48.162995999998600
  0
LINE
  8
0
  6
CONTINUOUS
 62
256
 10
-517.742749000000000
 20
-112.892122000000000
 11
-516.214620999999970
 21
-110.245327000000000
  0
ARC
  8
0
  6
CONTINUOUS
 62
256
 10
-519.041787000000000
 20
-112.142122000000000
 40
1.500000000000027
 50
229.759651999998570
 51
330.000000000000570
  0
ARC
  8
0
  6
CONTINUOUS
 62
256
 10
-504.506890000000000
 20
-94.966942000000003
 40
14.499999999999956
 50
197.920213000000020
 51
222.079787000000070
  0
ARC
  8
0
  6
CONTINUOUS
 62
256
 10
-516.876207000000020
 20
-98.966942000000003
 40
1.500000000000000
 50
90.000000000000000
 51
197.920212999999450
  0
LINE
  8
0
  6
CONTINUOUS
 62
256
 10
-513.672042000000030
 20
-97.466942000000003
 11
-516.876207000000020
 21
-97.466942000000003
  0
ARC
  8
0
  6
CONTINUOUS
 62
256
 10
-513.672042000000030
 20
-98.966942000000003
 40
1.500000000000036
 50
23.578177999999536
 51
90.000000000000000
  0
ARC
  8
0
  6
CONTINUOUS
 62
256
 10
-504.506890000000000
 20
-94.966942000000003
 40
8.499999999999991
 50
203.578178000000070
 51
216.421822000000050
  0
ARC
  8
0
  6
CONTINUOUS
 62
256
 10
-512.553568000000040
 20
-100.904196000000000
 40
1.499999999999975
 50
329.999999999999490
 51
36.421821999999963
  0
LINE
  8
0
  6
CONTINUOUS
 62
256
 10
-512.856612000000040
 20
-104.429085000000000
 11
-511.254528999999990
 21
-101.654196000000000
  0
ARC
  8
0
  6
CONTINUOUS
 62
256
 10
-514.155650000000040
 20
-103.679085000000000
 40
1.499999999999994
 50
222.079787000000180
 51
330.000000000000570
  0
ARC
  8
0
  6
CONTINUOUS
 62
256
 10
-504.506890000000000
 20
-94.966942000000003
 40
24.000000000000028
 50
130.240348000000130
 51
169.759651999999990
  0
ARC
  8
0
  6
CONTINUOUS
 62
256
 10
-526.648479999999950
 20
-90.966942000000003
 40
1.499999999999953
 50
169.759651999999900
 51
270.000000000000000
  0
LINE
  8
0
  6
CONTINUOUS
 62
256
 10
-523.592224999999980
 20
-92.466942000000003
 11
-526.648479999999950
 21
-92.466942000000003
  0
ARC
  8
0
  6
CONTINUOUS
 62
256
 10
-523.592224999999980
 20
-90.966942000000003
 40
1.500000000000000
 50
270.000000000000000
 51
348.162996000000650
  0
ARC
  8
0
  6
CONTINUOUS
 62
256
 10
-504.506890000000000
 20
-94.966942000000003
 40
17.999999999999982
 50
131.837003999999980
 51
168.162995999999990
  0
ARC
  8
0
  6
CONTINUOUS
 62
256
 10
-517.513658999999960
 20
-80.438558000000000
 40
1.500000000000027
 50
311.837004000001400
 51
29.999999999999456
  0
LINE
  8
0
  6
CONTINUOUS
 62
256
 10
-517.742749000000000
 20
-77.041763000000003
 11
-516.214620999999970
 21
-79.688558000000000
  0
ARC
  8
0
  6
CONTINUOUS
 62
256
 10
-519.041787000000000
 20
-77.791763000000003
 40
1.500000000000025
 50
29.999999999999456
 51
130.240348000001430
  0
ARC
  8
0
  6
CONTINUOUS
 62
256
 10
-504.506890000000000
 20
-94.966942000000003
 40
14.499999999999970
 50
137.920212999999930
 51
162.079786999999950
  0
ARC
  8
0
  6
CONTINUOUS
 62
256
 10
-516.876207000000020
 20
-90.966942000000003
 40
1.500000000000024
 50
162.079787000000550
 51
270.000000000000000
  0
LINE
  8
0
  6
CONTINUOUS
 62
256
 10
-513.672042000000030
 20
-92.466942000000003
 11
-516.876207000000020
 21
-92.466942000000003
  0
ARC
  8
0
  6
CONTINUOUS
 62
256
 10
-513.672042000000030
 20
-90.966942000000003
 40
1.500000000000000
 50
270.000000000000000
 51
336.421822000000470
  0
ARC
  8
0
  6
CONTINUOUS
 62
256
 10
-504.506890000000000
 20
-94.966942000000003
 40
8.499999999999989
 50
143.578177999999950
 51
156.421821999999930
  0
ARC
  8
0
  6
CONTINUOUS
 62
256
 10
-512.553568000000040
 20
-89.029687999999993
 40
1.500000000000000
 50
323.578178000000040
 51
29.999999999999456
  0
LINE
  8
0
  6
CONTINUOUS
 62
256
 10
-512.856612000000040
 20
-85.504800000000003
 11
-511.254528999999990
 21
-88.279687999999993
  0
ARC
  8
0
  6
CONTINUOUS
 62
256
 10
-514.155650000000040
 20
-86.254800000000003
 40
1.500000000000025
 50
29.999999999999456
 51
137.920212999999820
  0
ARC
  8
0
  6
CONTINUOUS
 62
256
 10
-496.900196999999990
 20
-73.791763000000003
 40
1.499999999999975
 50
329.999999999999490
 51
70.240347999999329
  0
LINE
  8
0
  6
CONTINUOUS
 62
256
 10
-497.129285999999980
 20
-77.188558000000000
 11
-495.601159000000000
 21
-74.541763000000003
  0
ARC
  8
0
  6
CONTINUOUS
 62
256
 10
-498.428324999999970
 20
-76.438558000000000
 40
1.500000000000007
 50
251.837003999999720
 51
329.999999999999490
  0
ARC
  8
0
  6
CONTINUOUS
 62
256
 10
-504.506890000000000
 20
-94.966942000000003
 40
17.999999999999996
 50
71.837004000000007
 51
108.162996000000010
  0
ARC
  8
0
  6
CONTINUOUS
 62
256
 10
-510.585456000000020
 20
-76.438558000000000
 40
1.499999999999975
 50
210.000000000000510
 51
288.162996000000310
  0
LINE
  8
0
  6
CONTINUOUS
 62
256
 10
-513.412622000000060
 20
-74.541763000000003
 11
-511.884494000000020
 21
-77.188558000000000
  0
ARC
  8
0
  6
CONTINUOUS
 62
256
 10
-512.113583999999950
 20
-73.791763000000003
 40
1.500000000000012
 50
109.759652000000680
 51
209.999999999999460
  0
ARC
  8
0
  6
CONTINUOUS
 62
256
 10
-504.506890000000000
 20
-94.966942000000003
 40
14.500000000000002
 50
77.920213000000032
 51
102.079786999999980
  0
ARC
  8
0
  6
CONTINUOUS
 62
256
 10
-501.786333000000010
 20
-82.254800000000003
 40
1.499999999999975
 50
329.999999999999490
 51
77.920213000000885
  0
LINE
  8
0
  6
CONTINUOUS
 62
256
 10
-502.089378000000010
 20
-85.779687999999993
 11
-500.487295000000020
 21
-83.004800000000003
  0
ARC
  8
0
  6
CONTINUOUS
 62
256
 10
-503.388416000000010
 20
-85.029687999999993
 40
1.500000000000001
 50
263.578178000000780
 51
329.999999999999490
  0
ARC
  8
0
  6
CONTINUOUS
 62
256
 10
-504.506890000000000
 20
-94.966942000000003
 40
8.499999999999993
 50
83.578177999999980
 51
96.421822000000034
  0
ARC
  8
0
  6
CONTINUOUS
 62
256
 10
-505.625363999999990
 20
-85.029687999999993
 40
1.499999999999975
 50
210.000000000000510
 51
276.421821999999220
  0
LINE
  8
0
  6
CONTINUOUS
 62
256
 10
-508.526484999999980
 20
-83.004800000000003
 11
-506.924401999999990
 21
-85.779687999999993
  0
ARC
  8
0
  6
CONTINUOUS
 62
256
 10
-507.227446999999980
 20
-82.254800000000003
 40
1.500000000000002
 50
102.079786999999110
 51
210.000000000000510
  0
ARC
  8
0
  6
CONTINUOUS
 62
256
 10
-504.506890000000000
 20
-94.966942000000003
 40
23.999999999999993
 50
250.240348000000010
 51
289.759652000000020
  0
ARC
  8
0
  6
CONTINUOUS
 62
256
 10
-496.900196999999990
 20
-116.142122000000000
 40
1.500000000000012
 50
289.759652000000640
 51
30.000000000000544
  0
LINE
  8
0
  6
CONTINUOUS
 62
256
 10
-497.129285999999980
 20
-112.745327000000000
 11
-495.601159000000000
 21
-115.392122000000000
  0
ARC
  8
0
  6
CONTINUOUS
 62
256
 10
-498.428324999999970
 20
-113.495327000000000
 40
1.500000000000025
 50
29.999999999999456
 51
108.162996000000290
  0
ARC
  8
0
  6
CONTINUOUS
 62
256
 10
-504.506890000000000
 20
-94.966942000000003
 40
17.999999999999996
 50
251.837003999999980
 51
288.162995999999960
  0
ARC
  8
0
  6
CONTINUOUS
 62
256
 10
-510.585456000000020
 20
-113.495327000000000
 40
1.500000000000007
 50
71.837003999999709
 51
150.000000000000540
  0
LINE
  8
0
  6
CONTINUOUS
 62
256
 10
-513.412622000000060
 20
-115.392122000000000
 11
-511.884494000000020
 21
-112.745327000000000
  0
ARC
  8
0
  6
CONTINUOUS
 62
256
 10
-512.113583999999950
 20
-116.142122000000000
 40
1.500000000000025
 50
150.000000000000540
 51
250.240347999999300
  0
ARC
  8
0
  6
CONTINUOUS
 62
256
 10
-504.506890000000000
 20
-94.966942000000003
 40
14.500000000000002
 50
257.920213000000050
 51
282.079786999999950
  0
ARC
  8
0
  6
CONTINUOUS
 62
256
 10
-501.786333000000010
 20
-107.679085000000000
 40
1.500000000000002
 50
282.079786999999160
 51
29.999999999999456
  0
LINE
  8
0
  6
CONTINUOUS
 62
256
 10
-502.089378000000010
 20
-104.154196000000000
 11
-500.487295000000020
 21
-106.929085000000000
  0
ARC
  8
0
  6
CONTINUOUS
 62
256
 10
-503.388416000000010
 20
-104.904196000000000
 40
1.500000000000025
 50
29.999999999999456
 51
96.421821999999253
  0
ARC
  8
0
  6
CONTINUOUS
 62
256
 10
-504.506890000000000
 20
-94.966942000000003
 40
8.499999999999993
 50
263.578177999999980
 51
276.421822000000020
  0
ARC
  8
0
  6
CONTINUOUS
 62
256
 10
-505.625363999999990
 20
-104.904196000000000
 40
1.500000000000001
 50
83.578178000000747
 51
150.000000000000540
  0
LINE
  8
0
  6
CONTINUOUS
 62
256
 10
-508.526484999999980
 20
-106.929085000000000
 11
-506.924401999999990
 21
-104.154196000000000
  0
ARC
  8
0
  6
CONTINUOUS
 62
256
 10
-507.227446999999980
 20
-107.679085000000000
 40
1.500000000000025
 50
150.000000000000540
 51
257.920213000000840
  0
ARC
  8
0
  6
CONTINUOUS
 62
256
 10
-504.506890000000000
 20
-94.966942000000003
 40
8.499999999999989
 50
323.578177999999920
 51
336.421821999999910
  0
ARC
  8
0
  6
CONTINUOUS
 62
256
 10
-504.506890000000000
 20
-94.966942000000003
 40
24.000000000000004
 50
310.240347999999980
 51
349.759652000000020
  0
LINE
  8
0
  6
CONTINUOUS
 62
256
 10
-497.759251000000010
 20
-101.654196000000000
 11
-496.157168000000010
 21
-104.429085000000000
  0
LINE
  8
0
  6
CONTINUOUS
 62
256
 10
-482.365299999999990
 20
-97.466942000000003
 11
-485.421556000000010
 21
-97.466942000000003
  0
LINE
  8
0
  6
CONTINUOUS
 62
256
 10
-492.137572999999970
 20
-97.466942000000003
 11
-495.341739000000020
 21
-97.466942000000003
  0
ARC
  8
0
  6
CONTINUOUS
 62
256
 10
-504.506890000000000
 20
-94.966942000000003
 40
14.500000000000021
 50
317.920213000000050
 51
342.079787000000010
  0
LINE
  8
0
  6
CONTINUOUS
 62
256
 10
-492.799158999999970
 20
-110.245327000000000
 11
-491.271031999999990
 21
-112.892122000000000
  0
ARC
  8
0
  6
CONTINUOUS
 62
256
 10
-494.858130000000020
 20
-103.679085000000000
 40
1.499999999999975
 50
210.000000000000510
 51
317.920212999999820
  0
ARC
  8
0
  6
CONTINUOUS
 62
256
 10
-482.365299999999990
 20
-98.966942000000003
 40
1.500000000000009
 50
349.759652000000300
 51
90.000000000000000
  0
ARC
  8
0
  6
CONTINUOUS
 62
256
 10
-491.500120999999980
 20
-109.495327000000000
 40
1.499999999999989
 50
131.837003999999810
 51
210.000000000000510
  0
ARC
  8
0
  6
CONTINUOUS
 62
256
 10
-485.421556000000010
 20
-98.966942000000003
 40
1.500000000000000
 50
90.000000000000000
 51
168.162996000000190
  0
ARC
  8
0
  6
CONTINUOUS
 62
256
 10
-492.137572999999970
 20
-98.966942000000003
 40
1.500000000000024
 50
342.079787000000580
 51
90.000000000000000
  0
ARC
  8
0
  6
CONTINUOUS
 62
256
 10
-489.971994000000000
 20
-112.142122000000000
 40
1.499999999999975
 50
210.000000000000510
 51
310.240347999999810
  0
ARC
  8
0
  6
CONTINUOUS
 62
256
 10
-495.341739000000020
 20
-98.966942000000003
 40
1.500000000000000
 50
90.000000000000000
 51
156.421821999999620
  0
ARC
  8
0
  6
CONTINUOUS
 62
256
 10
-496.460213000000010
 20
-100.904196000000000
 40
1.500000000000000
 50
143.578178000000040
 51
210.000000000000510
  0
CIRCLE
  8
0
  6
CONTINUOUS
 62
256
 10
-504.506890000000000
 20
-94.966942000000003
 40
5.000000000000000
  0
ARC
  8
0
  6
CONTINUOUS
 62
256
 10
-486.681381999999990
 20
-117.841628000000000
 40
1.500000000000018
 50
127.928142000000730
 51
210.000000000000510
  0
LINE
  8
0
  6
CONTINUOUS
 62
256
 10
-487.980419999999980
 20
-118.591628000000000
 11
-486.467318999999970
 21
-121.212397000000000
  0
ARC
  8
0
  6
CONTINUOUS
 62
256
 10
-475.784077000000020
 20
-98.966942000000003
 40
1.500000000000000
 50
90.000000000000000
 51
172.071857999999850
  0
ARC
  8
0
  6
CONTINUOUS
 62
256
 10
-504.506890000000000
 20
-94.966942000000003
 40
27.500000000000004
 50
307.928141999999980
 51
352.071858000000020
  0
ARC
  8
0
  6
CONTINUOUS
 62
256
 10
-485.168280999999980
 20
-120.462397000000000
 40
1.499999999999975
 50
210.000000000000510
 51
307.180756000000090
  0
ARC
  8
0
  6
CONTINUOUS
 62
256
 10
-481.896967000000020
 20
-126.128479000000000
 40
1.500000000000007
 50
125.963570000000810
 51
210.000000000000510
  0
ARC
  8
0
  6
CONTINUOUS
 62
256
 10
-504.506890000000000
 20
-94.966942000000003
 40
37.000000000000000
 50
305.963569999999950
 51
354.036430000000000
  0
ARC
  8
0
  6
CONTINUOUS
 62
256
 10
-504.506890000000000
 20
-94.966942000000003
 40
33.499999999999986
 50
307.180755999999920
 51
352.819244000000030
  0
LINE
  8
0
  6
CONTINUOUS
 62
256
 10
-492.310546999999990
 20
-121.091628000000000
 11
-490.797445999999980
 21
-123.712397000000000
  0
ARC
  8
0
  6
CONTINUOUS
 62
256
 10
-492.096483999999980
 20
-124.462397000000000
 40
1.499999999999989
 50
292.819243999999060
 51
30.000000000000544
  0
ARC
  8
0
  6
CONTINUOUS
 62
256
 10
-493.609584999999980
 20
-121.841628000000000
 40
1.499999999999975
 50
30.000000000000544
 51
112.071857999999120
  0
ARC
  8
0
  6
CONTINUOUS
 62
256
 10
-504.506890000000000
 20
-94.966942000000003
 40
27.499999999999982
 50
247.928142000000120
 51
292.071857999999960
  0
ARC
  8
0
  6
CONTINUOUS
 62
256
 10
-504.506890000000000
 20
-94.966942000000003
 40
33.500000000000000
 50
247.180756000000030
 51
292.819243999999970
  0
ARC
  8
0
  6
CONTINUOUS
 62
256
 10
-515.404194999999960
 20
-121.841628000000000
 40
1.499999999999998
 50
67.928142000000889
 51
150.000000000000540
  0
LINE
  8
0
  6
CONTINUOUS
 62
256
 10
-518.216334999999960
 20
-123.712397000000000
 11
-516.703232999999950
 21
-121.091628000000000
  0
ARC
  8
0
  6
CONTINUOUS
 62
256
 10
-516.917295999999960
 20
-124.462397000000000
 40
1.500000000000025
 50
150.000000000000540
 51
247.180756000000940
  0
ARC
  8
0
  6
CONTINUOUS
 62
256
 10
-545.813669000000000
 20
-98.966942000000003
 40
1.500000000000000
 50
90.000000000000000
 51
185.531072000000050
  0
LINE
  8
0
  6
CONTINUOUS
 62
256
 10
-542.798534000000020
 20
-97.466942000000003
 11
-545.813669000000000
 21
-97.466942000000003
  0
LINE
  8
0
  6
CONTINUOUS
 62
256
 10
-533.229702999999970
 20
-97.466942000000003
 11
-536.255905999999980
 21
-97.466942000000003
  0
ARC
  8
0
  6
CONTINUOUS
 62
256
 10
-542.798534000000020
 20
-98.966942000000003
 40
1.499999999999955
 50
5.963570000000017
 51
90.000000000000000
  0
ARC
  8
0
  6
CONTINUOUS
 62
256
 10
-536.255905999999980
 20
-98.966942000000003
 40
1.500000000000000
 50
90.000000000000000
 51
187.180756000000340
  0
ARC
  8
0
  6
CONTINUOUS
 62
256
 10
-533.229702999999970
 20
-98.966942000000003
 40
1.500000000000004
 50
7.928142000000149
 51
90.000000000000000
  0
ARC
  8
0
  6
CONTINUOUS
 62
256
 10
-504.506890000000000
 20
-94.966942000000003
 40
27.499999999999989
 50
187.928142000000010
 51
232.071857999999930
  0
ARC
  8
0
  6
CONTINUOUS
 62
256
 10
-504.506890000000000
 20
-94.966942000000003
 40
37.000000000000036
 50
185.963570000000000
 51
234.036429999999970
  0
ARC
  8
0
  6
CONTINUOUS
 62
256
 10
-504.506890000000000
 20
-94.966942000000003
 40
42.999999999999979
 50
185.531071999999990
 51
234.468928000000060
  0
ARC
  8
0
  6
CONTINUOUS
 62
256
 10
-504.506890000000000
 20
-94.966942000000003
 40
33.499999999999950
 50
187.180756000000000
 51
232.819243999999880
  0
ARC
  8
0
  6
CONTINUOUS
 62
256
 10
-522.332398000000010
 20
-117.841628000000000
 40
1.500000000000025
 50
330.000000000000570
 51
52.071857999999288
  0
ARC
  8
0
  6
CONTINUOUS
 62
256
 10
-527.116813999999980
 20
-126.128479000000000
 40
1.500000000000025
 50
330.000000000000570
 51
54.036429999999186
  0
LINE
  8
0
  6
CONTINUOUS
 62
256
 10
-522.546462000000020
 20
-121.212397000000000
 11
-521.033360000000020
 21
-118.591628000000000
  0
ARC
  8
0
  6
CONTINUOUS
 62
256
 10
-523.845500000000020
 20
-120.462397000000000
 40
1.499999999999994
 50
232.819243999999940
 51
330.000000000000570
  0
ARC
  8
0
  6
CONTINUOUS
 62
256
 10
-545.813669000000000
 20
-90.966942000000003
 40
1.500000000000035
 50
174.468927999999950
 51
270.000000000000000
  0
LINE
  8
0
  6
CONTINUOUS
 62
256
 10
-542.798534000000020
 20
-92.466942000000003
 11
-545.813669000000000
 21
-92.466942000000003
  0
LINE
  8
0
  6
CONTINUOUS
 62
256
 10
-533.229702999999970
 20
-92.466942000000003
 11
-536.255905999999980
 21
-92.466942000000003
  0
ARC
  8
0
  6
CONTINUOUS
 62
256
 10
-542.798534000000020
 20
-90.966942000000003
 40
1.500000000000000
 50
270.000000000000000
 51
354.036430000000000
  0
ARC
  8
0
  6
CONTINUOUS
 62
256
 10
-536.255905999999980
 20
-90.966942000000003
 40
1.499999999999972
 50
172.819243999999660
 51
270.000000000000000
  0
ARC
  8
0
  6
CONTINUOUS
 62
256
 10
-533.229702999999970
 20
-90.966942000000003
 40
1.500000000000000
 50
270.000000000000000
 51
352.071857999999850
  0
ARC
  8
0
  6
CONTINUOUS
 62
256
 10
-504.506890000000000
 20
-94.966942000000003
 40
27.500000000000036
 50
127.928142000000070
 51
172.071857999999960
  0
ARC
  8
0
  6
CONTINUOUS
 62
256
 10
-504.506890000000000
 20
-94.966942000000003
 40
37.000000000000000
 50
125.963569999999990
 51
174.036430000000000
  0
ARC
  8
0
  6
CONTINUOUS
 62
256
 10
-504.506890000000000
 20
-94.966942000000003
 40
42.999999999999979
 50
125.531071999999970
 51
174.468928000000010
  0
ARC
  8
0
  6
CONTINUOUS
 62
256
 10
-504.506890000000000
 20
-94.966942000000003
 40
33.499999999999964
 50
127.180755999999960
 51
172.819244000000000
  0
ARC
  8
0
  6
CONTINUOUS
 62
256
 10
-522.332398000000010
 20
-72.092256000000006
 40
1.500000000000018
 50
307.928142000000720
 51
29.999999999999456
  0
ARC
  8
0
  6
CONTINUOUS
 62
256
 10
-486.681381999999990
 20
-72.092256000000006
 40
1.500000000000025
 50
150.000000000000540
 51
232.071857999999280
  0
ARC
  8
0
  6
CONTINUOUS
 62
256
 10
-504.506890000000000
 20
-94.966942000000003
 40
36.999999999999979
 50
5.963570000000011
 51
54.036430000000010
  0
ARC
  8
0
  6
CONTINUOUS
 62
256
 10
-504.506890000000000
 20
-94.966942000000003
 40
42.999999999999979
 50
5.531071999999997
 51
54.468927999999984
  0
ARC
  8
0
  6
CONTINUOUS
 62
256
 10
-504.506890000000000
 20
-94.966942000000003
 40
33.500000000000007
 50
7.180755999999994
 51
52.819243999999983
  0
ARC
  8
0
  6
CONTINUOUS
 62
256
 10
-475.784077000000020
 20
-90.966942000000003
 40
1.500000000000004
 50
187.928142000000150
 51
270.000000000000000
  0
ARC
  8
0
  6
CONTINUOUS
 62
256
 10
-504.506890000000000
 20
112.033058000000000
 40
300.000000000000000
 50
265.138595000000010
 51
270.000000000000000
  0
LINE
  8
0
  6
CONTINUOUS
 62
256
 10
-534.506890000000000
 20
-181.905711999999990
 11
-534.506890000000000
 21
-158.466941999999990
  0
ARC
  8
0
  6
CONTINUOUS
 62
256
 10
-529.506890000000000
 20
-181.905711999999990
 40
5.000000000000000
 50
180.000000000000000
 51
265.138595000000580
  0
ARC
  8
0
  6
CONTINUOUS
 62
256
 10
-479.506890000000000
 20
-181.905711999999990
 40
4.999999999999989
 50
274.861405000000100
 51
0.000000000000000
  0
ARC
  8
0
  6
CONTINUOUS
 62
256
 10
-504.506890000000000
 20
112.033058000000000
 40
300.000000000000000
 50
270.000000000000000
 51
274.861404999999990
  0
LINE
  8
0
  6
CONTINUOUS
 62
256
 10
-502.006890000000000
 20
-188.466941999999990
 11
-502.006890000000000
 21
-187.956526000000000
  0
LINE
  8
0
  6
CONTINUOUS
 62
256
 10
-507.006890000000000
 20
-188.466941999999990
 11
-507.006890000000000
 21
-187.956526000000000
  0
LINE
  8
0
  6
CONTINUOUS
 62
256
 10
-507.006890000000000
 20
-188.466941999999990
 11
-502.006890000000000
 21
-188.466941999999990
  0
LINE
  8
0
  6
CONTINUOUS
 62
256
 10
-473.006890000000000
 20
-158.311937000000000
 11
-473.006890000000000
 21
-158.466941999999990
  0
LINE
  8
0
  6
CONTINUOUS
 62
256
 10
-474.506890000000000
 20
-181.905711999999990
 11
-474.506890000000000
 21
-158.466190000000010
  0
LINE
  8
0
  6
CONTINUOUS
 62
256
 10
-536.006890000000000
 20
-158.466941999999990
 11
-534.499388999999950
 21
-158.466941999999990
  0
LINE
  8
0
  6
CONTINUOUS
 62
256
 10
-474.514390999999990
 20
-158.466941999999990
 11
-473.006890000000000
 21
-158.466941999999990
  0
LINE
  8
0
  6
CONTINUOUS
 62
256
 10
-536.006890000000000
 20
-158.311937000000000
 11
-536.006890000000000
 21
-158.466941999999990
  0
ARC
  8
0
  6
CONTINUOUS
 62
256
 10
-745.106890000000020
 20
-94.966942000000003
 40
289.396999999999990
 50
0.000000000000000
 51
7.897989000000000
  0
ARC
  8
0
  6
CONTINUOUS
 62
256
 10
-445.506890000000000
 20
-75.466942000000003
 40
0.500000000000000
 50
0.000000000000000
 51
46.689569999997964
  0
LINE
  8
0
  6
CONTINUOUS
 62
256
 10
-445.006890000000000
 20
-77.636334000000005
 11
-445.006890000000000
 21
-75.466942000000003
  0
ARC
  8
0
  6
CONTINUOUS
 62
256
 10
-445.506890000000000
 20
-114.466942000000000
 40
0.500000000000015
 50
313.310430000002040
 51
0.000000000000000
  0
LINE
  8
0
  6
CONTINUOUS
 62
256
 10
-445.006890000000000
 20
-112.297551000000000
 11
-445.006890000000000
 21
-114.466942000000000
  0
LINE
  8
0
  6
CONTINUOUS
 62
256
 10
-564.006890000000000
 20
-112.297551000000000
 11
-564.006890000000000
 21
-114.466942000000000
  0
ARC
  8
0
  6
CONTINUOUS
 62
256
 10
-563.506890000000000
 20
-114.466942000000000
 40
0.500000000000000
 50
180.000000000000000
 51
226.689570000002700
  0
LINE
  8
0
  6
CONTINUOUS
 62
256
 10
-564.006890000000000
 20
-77.636334000000005
 11
-564.006890000000000
 21
-75.466942000000003
  0
ARC
  8
0
  6
CONTINUOUS
 62
256
 10
-563.506890000000000
 20
-75.466942000000003
 40
0.499999999999976
 50
133.310429999997300
 51
180.000000000000000
  0
LINE
  8
0
  6
CONTINUOUS
 62
256
 10
-438.506890000000000
 20
-102.967099000000000
 11
-441.506890000000000
 21
-102.967099000000000
  0
ARC
  8
0
  6
CONTINUOUS
 62
256
 10
-438.506890000000000
 20
-101.967099000000000
 40
1.000000000000000
 50
270.000000000000000
 51
0.000000000000000
  0
LINE
  8
0
  6
CONTINUOUS
 62
256
 10
-441.506492999999980
 20
-78.967099000000005
 11
-441.506492999999980
 21
-126.467099000000000
  0
LINE
  8
0
  6
CONTINUOUS
 62
256
 10
-437.506890000000000
 20
-101.967099000000000
 11
-437.506890000000000
 21
-78.967099000000005
  0
LINE
  8
0
  6
CONTINUOUS
 62
256
 10
-438.506890000000000
 20
-54.967098999999997
 11
-441.506890000000000
 21
-54.967098999999997
  0
LINE
  8
0
  6
CONTINUOUS
 62
256
 10
-437.506890000000000
 20
-55.967098999999997
 11
-437.506890000000000
 21
-78.967099000000005
  0
ARC
  8
0
  6
CONTINUOUS
 62
256
 10
-438.506890000000000
 20
-55.967098999999997
 40
1.000000000000000
 50
0.000000000000000
 51
90.000000000000000
  0
LINE
  8
0
  6
CONTINUOUS
 62
256
 10
-446.506492999999980
 20
-31.467099000000001
 11
-441.506492999999980
 21
-31.467099000000001
  0
LINE
  8
0
  6
CONTINUOUS
 62
256
 10
-441.506492999999980
 20
-78.967099000000005
 11
-441.506492999999980
 21
-31.467099000000001
  0
LINE
  8
0
  6
CONTINUOUS
 62
256
 10
-446.506492999999980
 20
-7.185294000000000
 11
-458.506890000000000
 21
-6.975826000000000
  0
LINE
  8
0
  6
CONTINUOUS
 62
256
 10
-458.506890000000000
 20
-6.975826000000000
 11
-553.006890000000000
 21
-8.625330000000000
  0
LINE
  8
0
  6
CONTINUOUS
 62
256
 10
-446.506492999999980
 20
-182.248979999999990
 11
-447.006340000000020
 21
-182.757629000000010
  0
LINE
  8
0
  6
CONTINUOUS
 62
256
 10
-447.006340000000020
 20
-182.757629000000010
 11
-458.506890000000000
 21
-182.958371000000000
  0
LINE
  8
0
  6
CONTINUOUS
 62
256
 10
-553.006890000000000
 20
-181.308867999999990
 11
-562.506890000000000
 21
-181.308867999999990
  0
LINE
  8
0
  6
CONTINUOUS
 62
256
 10
-570.506890000000000
 20
-102.967099000000000
 11
-567.506890000000000
 21
-102.967099000000000
  0
LINE
  8
0
  6
CONTINUOUS
 62
256
 10
-571.506890000000000
 20
-101.967099000000000
 11
-571.506890000000000
 21
-78.967099000000005
  0
ARC
  8
0
  6
CONTINUOUS
 62
256
 10
-570.506890000000000
 20
-101.967099000000000
 40
1.000000000000000
 50
180.000000000000000
 51
270.000000000000000
  0
LINE
  8
0
  6
CONTINUOUS
 62
256
 10
-570.506890000000000
 20
-54.967098999999997
 11
-567.506890000000000
 21
-54.967098999999997
  0
LINE
  8
0
  6
CONTINUOUS
 62
256
 10
-571.506890000000000
 20
-55.967098999999997
 11
-571.506890000000000
 21
-78.967099000000005
  0
ARC
  8
0
  6
CONTINUOUS
 62
256
 10
-570.506890000000000
 20
-55.967098999999997
 40
1.000000000000000
 50
90.000000000000000
 51
180.000000000000000
  0
LINE
  8
0
  6
CONTINUOUS
 62
256
 10
-567.506890000000000
 20
-31.467099000000001
 11
-562.506890000000000
 21
-31.467099000000001
  0
LINE
  8
0
  6
CONTINUOUS
 62
256
 10
-567.506890000000000
 20
-31.467099000000001
 11
-567.506890000000000
 21
-126.467099000000000
  0
LINE
  8
0
  6
CONTINUOUS
 62
256
 10
-553.006890000000000
 20
-8.625330000000000
 11
-562.506890000000000
 21
-8.625330000000000
  0
LINE
  8
0
  6
CONTINUOUS
 62
256
 10
-458.506890000000000
 20
-182.958371000000000
 11
-474.566899999999980
 21
-182.678043000000000
  0
LINE
  8
0
  6
CONTINUOUS
 62
256
 10
-534.499387999999950
 20
-181.631916999999990
 11
-553.006890000000000
 21
-181.308867999999990
  0
LINE
  8
0
  6
CONTINUOUS
 62
256
 10
-458.506890000000000
 20
-152.205020999999990
 11
-458.506890000000000
 21
-182.958371000000000
  0
LINE
  8
0
  6
CONTINUOUS
 62
256
 10
-446.506492999999980
 20
-129.581426999999990
 11
-446.506492999999980
 21
-182.248979999999990
  0
LINE
  8
0
  6
CONTINUOUS
 62
256
 10
-562.506890000000000
 20
-129.584857000000000
 11
-562.506890000000000
 21
-181.308867999999990
  0
LINE
  8
0
  6
CONTINUOUS
 62
256
 10
-446.161911999999970
 20
-126.467099000000000
 11
-441.506492999999980
 21
-126.467099000000000
  0
LINE
  8
0
  6
CONTINUOUS
 62
256
 10
-567.506890000000000
 20
-126.467099000000000
 11
-562.851868999999970
 21
-126.467099000000000
  0
LINE
  8
0
  6
CONTINUOUS
 62
256
 10
-446.506492999999980
 20
-60.352457999999999
 11
-446.506492999999980
 21
-7.185294000000000
  0
LINE
  8
0
  6
CONTINUOUS
 62
256
 10
-562.506890000000000
 20
-8.625330000000000
 11
-562.506890000000000
 21
-60.349027999999997
  0
LINE
  8
0
  6
CONTINUOUS
 62
256
 10
-458.506890000000000
 20
-6.975826000000000
 11
-458.506890000000000
 21
-37.728864000000002
  0
LINE
  8
0
  6
DASHDOT
 62
256
 10
-504.506890000000000
 20
0.331735000000000
 11
-504.506890000000000
 21
-194.588272999999990
  0
LINE
  8
0
  6
DASHDOT
 62
256
 10
-577.348282000000040
 20
-94.966942000000003
 11
-431.673835000000000
 21
-94.966942000000003
  0
TEXT
  8
0
  6
CONTINUOUS
 62
256
 10
579.369628906250000
 20
-223.026092529296870
 40
3.299999952316284
  1
1/1
 50
0.000002504478167
 41
0.850909097352304
  7
STANDARD1
  0
TEXT
  8
0
  6
CONTINUOUS
 62
256
 10
576.951660156250000
 20
-223.026092529296870
 40
3.299999952316284
  1
 
 50
0.000002504478167
 41
1.733333298293026
  7
STANDARD1
  0
TEXT
  8
0
  6
CONTINUOUS
 62
256
 10
563.901000976562500
 20
-223.026092529296870
 40
3.299999952316284
  1
SCALE
 50
0.000002504478167
 41
0.821052645401140
  7
STANDARD1
  0
TEXT
  8
0
  6
CONTINUOUS
 62
256
 10
560.649658203125000
 20
-223.026092529296870
 40
3.299999952316284
  1
 
 50
0.000002504478167
 41
1.733333298293026
  7
STANDARD1
  0
TEXT
  8
0
  6
CONTINUOUS
 62
256
 10
575.503845214843750
 20
-217.726089477539060
 40
3.299999952316284
  1
1/240
 50
0.000002504478167
 41
0.821052645401140
  7
STANDARD1
  0
TEXT
  8
0
  6
CONTINUOUS
 62
256
 10
571.721801757812500
 20
-217.726089477539060
 40
3.299999952316284
  1
ü`
 50
0.000002504478167
 41
1.176000019651471
  7
STANDARD1
  0
TEXT
  8
0
  6
CONTINUOUS
 62
256
 10
560.649658203125000
 20
-217.726089477539060
 40
3.299999952316284
  1
1/80
 50
0.000002504478167
 41
0.832000075658163
  7
STANDARD1
  0
TEXT
  8
0
  6
CONTINUOUS
 62
256
 10
560.649658203125000
 20
-212.426086425781250
 40
3.299999952316284
  1
GM-SHYF-RH
 50
0.000002504478167
 41
0.799999980493025
  7
STANDARD1
  0
TEXT
  8
0
  6
CONTINUOUS
 62
256
 10
566.475036621093750
 20
-207.126098632812500
 40
3.299999952316284
  1
0.4kW
 50
0.000002504478167
 41
0.821052645401140
  7
STANDARD1
  0
TEXT
  8
0
  6
CONTINUOUS
 62
256
 10
560.649658203125000
 20
-207.126098632812500
 40
3.299999952316284
  1
  
 50
0.000002504478167
 41
1.485714400175845
  7
STANDARD1
  0
TEXT
  8
0
  6
CONTINUOUS
 62
256
 10
566.469116210937500
 20
-201.826095581054690
 40
3.299999952316284
  1
SHY015
 50
0.000002504478167
 41
0.813913121261144
  7
STANDARD1
  0
TEXT
  8
0
  6
CONTINUOUS
 62
256
 10
560.649658203125000
 20
-201.826095581054690
 40
3.299999952316284
  1
  
 50
0.000002504478167
 41
1.485714400175845
  7
STANDARD1
  0
ENDSEC
  0
EOF
