  0
SECTION
  2
HEADER
  9
$TEXTSIZE
 40
2.5
  9
$ACADVER
  1
AC1009
  9
$DIMASZ
 40
3.863703297614046
  9
$DIMEXE
 40
2.000000000000000
  9
$DIMEXO
 40
1.000000000000000
  9
$DIMLFAC
 40
1.000000000000000
  9
$DIMSCALE
 40
1.000000000000000
  9
$DIMTAD
 70
1
  9
$DIMTFAC
 40
0.625000000000000
  9
$DIMTXT
 40
3.200000047683716
  9
$LUPREC
 70
3
  9
$REGENMODE
 70
1
  9
$TEXTSTYLE
  7
STANDARD1
  0
ENDSEC
  0
SECTION
  2
TABLES
  0
TABLE
  2
LTYPE
 70
4
  0
LTYPE
  2
CONTINUOUS
 70
64
  3
Solid line
 72
65
 73
0
 40
0.0
  0
LTYPE
  2
DASHED
 70
64
  3
-- -- -- -- -- -- -- -- -- -- -- -- -- -- --
 72
65
 73
2
 40
0.75
 49
0.5
 49
-0.25
  0
LTYPE
  2
DASHDOT
 70
64
  3
__ . __ . __ . __ . __ . __ . __ . __ . __ . __
 72
65
 73
4
 40
1.0
 49
0.5
 49
-0.25
 49
0.0
 49
-0.25
  0
LTYPE
  2
DIVIDE
 70
64
  3
__ . . __ . . __ . . __ . . __ . . __ . . __
 72
65
 73
6
 40
1.25
 49
0.5
 49
-0.25
 49
0.0
 49
-0.25
 49
0.0
 49
-0.25
  0
ENDTAB
  0
TABLE
  2
LAYER
 70
2
  0
LAYER
  2
0
 70
64
 62
53
  6
CONTINUOUS
  0
LAYER
  2
1
 70
64
 62
102
  6
CONTINUOUS
  0
ENDTAB
  0
TABLE
  2
STYLE
 70
4
  0
STYLE
  2
STANDARD1
 70
64
 40
0.0
 41
1.0
 50
0.0
 71
0
 42
3.200000047683716
  3
MONOTXT
  4
BIGFONT
  0
STYLE
  2
STANDARD2
 70
68
 40
0.0
 41
1.0
 50
0.0
 71
0
 42
3.200000047683716
  3
MONOTXT
  4
BIGFONT
  0
STYLE
  2
STANDARD3
 70
64
 40
0.0
 41
1.0
 50
0.0
 71
0
 42
3.200000047683716
  3
MONOTXT
  4

  0
STYLE
  2
STANDARD4
 70
68
 40
0.0
 41
1.0
 50
0.0
 71
0
 42
3.200000047683716
  3
MONOTXT
  4

  0
ENDTAB
  0
TABLE
  2
VIEW
 70
0
  0
ENDTAB
  0
ENDSEC
  0
SECTION
  2
BLOCKS
  0
BLOCK
  8
0
  2
ZU_SYM_1
 70
64
 10
0.000000000000000
 20
0.000000000000000
  0
POINT
  8
0
  6
CONTINUOUS
 62
256
 10
0.000000000000000
 20
0.000000000000000
  0
LINE
  8
0
  6
CONTINUOUS
 62
256
 10
-0.000025000000000
 20
-4.599994000000000
 11
-4.300015000000000
 21
-4.599977000000000
  0
LINE
  8
0
  6
CONTINUOUS
 62
256
 10
-4.299996000000000
 20
-4.599962000000000
 11
-4.799990000000000
 21
-3.899959000000000
  0
LINE
  8
0
  6
CONTINUOUS
 62
256
 10
-4.800010000000000
 20
-3.899973000000000
 11
-4.799979000000000
 21
3.900012000000000
  0
LINE
  8
0
  6
CONTINUOUS
 62
256
 10
-4.799962000000000
 20
3.900001000000000
 11
-4.299962000000000
 21
4.599999000000000
  0
LINE
  8
0
  6
CONTINUOUS
 62
256
 10
-4.299978000000000
 20
4.600015000000000
 11
0.000013000000000
 21
4.599998000000000
  0
LINE
  8
0
  6
CONTINUOUS
 62
256
 10
0.000016000000000
 20
4.599992000000000
 11
-0.000021000000000
 21
-4.599992000000000
  0
LINE
  8
0
  6
CONTINUOUS
 62
256
 10
-4.300006000000000
 20
-2.299980000000000
 11
-1.300007000000000
 21
-2.299992000000000
  0
LINE
  8
0
  6
CONTINUOUS
 62
256
 10
-4.299987000000000
 20
2.300014000000000
 11
-1.299990000000000
 21
2.300004000000000
  0
ARC
  8
0
  6
CONTINUOUS
 62
256
 10
-3.230014000000000
 20
-3.449986000000000
 40
1.570000000000000
 50
132.899744000000000
 51
179.999744999999990
  0
ARC
  8
0
  6
CONTINUOUS
 62
256
 10
-3.229986000000000
 20
3.450012000000000
 40
1.570000000000000
 50
179.999744999999990
 51
227.099745999999980
  0
ARC
  8
0
  6
CONTINUOUS
 62
256
 10
0.740001000000000
 20
-0.000003000000000
 40
5.539999000000000
 50
155.470187000000040
 51
204.529249999999960
  0
LINE
  8
0
  6
CONTINUOUS
 62
256
 10
-1.300018000000000
 20
-4.599993000000000
 11
-1.299981000000000
 21
4.600004000000000
  0
LINE
  8
0
  6
CONTINUOUS
 62
256
 10
-1.300000000000000
 20
-0.299995000000000
 11
-0.000004000000000
 21
-0.000001000000000
  0
LINE
  8
0
  6
CONTINUOUS
 62
256
 10
-1.299999000000000
 20
0.300007000000000
 11
-0.000001000000000
 21
0.600002000000000
  0
ENDBLK
  8
0
  0
BLOCK
  8
0
  2
ZU_SYM_2
 70
64
 10
0.000000000000000
 20
0.000000000000000
  0
POINT
  8
0
  6
CONTINUOUS
 62
256
 10
0.000000000000000
 20
0.000000000000000
  0
LINE
  8
0
  6
CONTINUOUS
 62
256
 10
-0.000025000000000
 20
-4.599994000000000
 11
-4.300015000000000
 21
-4.599977000000000
  0
LINE
  8
0
  6
CONTINUOUS
 62
256
 10
-4.299996000000000
 20
-4.599962000000000
 11
-4.799990000000000
 21
-3.899959000000000
  0
LINE
  8
0
  6
CONTINUOUS
 62
256
 10
-4.800010000000000
 20
-3.899973000000000
 11
-4.799979000000000
 21
3.900012000000000
  0
LINE
  8
0
  6
CONTINUOUS
 62
256
 10
-4.799962000000000
 20
3.900001000000000
 11
-4.299962000000000
 21
4.599999000000000
  0
LINE
  8
0
  6
CONTINUOUS
 62
256
 10
-4.299978000000000
 20
4.600015000000000
 11
0.000013000000000
 21
4.599998000000000
  0
LINE
  8
0
  6
CONTINUOUS
 62
256
 10
0.000016000000000
 20
4.599992000000000
 11
-0.000021000000000
 21
-4.599992000000000
  0
LINE
  8
0
  6
CONTINUOUS
 62
256
 10
-4.300006000000000
 20
-2.299980000000000
 11
-1.300007000000000
 21
-2.299992000000000
  0
LINE
  8
0
  6
CONTINUOUS
 62
256
 10
-4.299987000000000
 20
2.300014000000000
 11
-1.299990000000000
 21
2.300004000000000
  0
ARC
  8
0
  6
CONTINUOUS
 62
256
 10
-3.230014000000000
 20
-3.449986000000000
 40
1.570000000000000
 50
132.899744000000000
 51
179.999744999999990
  0
ARC
  8
0
  6
CONTINUOUS
 62
256
 10
-3.229986000000000
 20
3.450012000000000
 40
1.570000000000000
 50
179.999744999999990
 51
227.099745999999980
  0
ARC
  8
0
  6
CONTINUOUS
 62
256
 10
0.740001000000000
 20
-0.000003000000000
 40
5.539999000000000
 50
155.470187000000040
 51
204.529249999999960
  0
LINE
  8
0
  6
CONTINUOUS
 62
256
 10
-1.300018000000000
 20
-4.599993000000000
 11
-1.299981000000000
 21
4.600004000000000
  0
LINE
  8
0
  6
CONTINUOUS
 62
256
 10
-1.300000000000000
 20
-0.299995000000000
 11
-0.000004000000000
 21
-0.000001000000000
  0
LINE
  8
0
  6
CONTINUOUS
 62
256
 10
-1.299999000000000
 20
0.300007000000000
 11
-0.000001000000000
 21
0.600002000000000
  0
ENDBLK
  8
0
  0
BLOCK
  8
0
  2
ZU_SYM_3
 70
64
 10
0.000000000000000
 20
0.000000000000000
  0
POINT
  8
0
  6
CONTINUOUS
 62
256
 10
0.000000000000000
 20
0.000000000000000
  0
LINE
  8
0
  6
CONTINUOUS
 62
256
 10
-2.300001000000000
 20
-4.000000000000000
 11
-4.600000000000000
 21
-0.000001000000000
  0
LINE
  8
0
  6
CONTINUOUS
 62
256
 10
-4.600000000000000
 20
0.000001000000000
 11
-2.300001000000000
 21
4.000000000000000
  0
LINE
  8
0
  6
CONTINUOUS
 62
256
 10
-2.299999000000000
 20
4.000000000000000
 11
2.299999000000000
 21
4.000000000000000
  0
LINE
  8
0
  6
CONTINUOUS
 62
256
 10
2.300001000000000
 20
4.000000000000000
 11
4.600000000000000
 21
0.000001000000000
  0
LINE
  8
0
  6
CONTINUOUS
 62
256
 10
4.600000000000000
 20
-0.000001000000000
 11
2.300001000000000
 21
-4.000000000000000
  0
LINE
  8
0
  6
CONTINUOUS
 62
256
 10
2.299999000000000
 20
-4.000000000000000
 11
-2.299999000000000
 21
-4.000000000000000
  0
CIRCLE
  8
0
  6
CONTINUOUS
 62
256
 10
0.000000000000000
 20
0.000000000000000
 40
4.000000000000000
  0
ENDBLK
  8
0
  0
BLOCK
  8
0
  2
ZU_SYM_4
 70
64
 10
0.000000000000000
 20
0.000000000000000
  0
POINT
  8
0
  6
CONTINUOUS
 62
256
 10
0.000000000000000
 20
0.000000000000000
  0
LINE
  8
0
  6
CONTINUOUS
 62
256
 10
-2.300001000000000
 20
-4.000000000000000
 11
-4.600000000000000
 21
-0.000001000000000
  0
LINE
  8
0
  6
CONTINUOUS
 62
256
 10
-4.600000000000000
 20
0.000001000000000
 11
-2.300001000000000
 21
4.000000000000000
  0
LINE
  8
0
  6
CONTINUOUS
 62
256
 10
-2.299999000000000
 20
4.000000000000000
 11
2.299999000000000
 21
4.000000000000000
  0
LINE
  8
0
  6
CONTINUOUS
 62
256
 10
2.300001000000000
 20
4.000000000000000
 11
4.600000000000000
 21
0.000001000000000
  0
LINE
  8
0
  6
CONTINUOUS
 62
256
 10
4.600000000000000
 20
-0.000001000000000
 11
2.300001000000000
 21
-4.000000000000000
  0
LINE
  8
0
  6
CONTINUOUS
 62
256
 10
2.299999000000000
 20
-4.000000000000000
 11
-2.299999000000000
 21
-4.000000000000000
  0
CIRCLE
  8
0
  6
CONTINUOUS
 62
256
 10
0.000000000000000
 20
0.000000000000000
 40
4.000000000000000
  0
ENDBLK
  8
0
  0
BLOCK
  8
0
  2
ZU_SYM_5
 70
64
 10
0.000000000000000
 20
0.000000000000000
  0
POINT
  8
0
  6
CONTINUOUS
 62
256
 10
0.000000000000000
 20
0.000000000000000
  0
LINE
  8
0
  6
CONTINUOUS
 62
256
 10
-2.300001000000000
 20
-4.000000000000000
 11
-4.600000000000000
 21
-0.000001000000000
  0
LINE
  8
0
  6
CONTINUOUS
 62
256
 10
-4.600000000000000
 20
0.000001000000000
 11
-2.300001000000000
 21
4.000000000000000
  0
LINE
  8
0
  6
CONTINUOUS
 62
256
 10
-2.299999000000000
 20
4.000000000000000
 11
2.299999000000000
 21
4.000000000000000
  0
LINE
  8
0
  6
CONTINUOUS
 62
256
 10
2.300001000000000
 20
4.000000000000000
 11
4.600000000000000
 21
0.000001000000000
  0
LINE
  8
0
  6
CONTINUOUS
 62
256
 10
4.600000000000000
 20
-0.000001000000000
 11
2.300001000000000
 21
-4.000000000000000
  0
LINE
  8
0
  6
CONTINUOUS
 62
256
 10
2.299999000000000
 20
-4.000000000000000
 11
-2.299999000000000
 21
-4.000000000000000
  0
CIRCLE
  8
0
  6
CONTINUOUS
 62
256
 10
0.000000000000000
 20
0.000000000000000
 40
4.000000000000000
  0
ENDBLK
  8
0
  0
BLOCK
  8
0
  2
ZU_SYM_6
 70
64
 10
0.000000000000000
 20
0.000000000000000
  0
POINT
  8
0
  6
CONTINUOUS
 62
256
 10
0.000000000000000
 20
0.000000000000000
  0
LINE
  8
0
  6
CONTINUOUS
 62
256
 10
-2.300001000000000
 20
-4.000000000000000
 11
-4.600000000000000
 21
-0.000001000000000
  0
LINE
  8
0
  6
CONTINUOUS
 62
256
 10
-4.600000000000000
 20
0.000001000000000
 11
-2.300001000000000
 21
4.000000000000000
  0
LINE
  8
0
  6
CONTINUOUS
 62
256
 10
-2.299999000000000
 20
4.000000000000000
 11
2.299999000000000
 21
4.000000000000000
  0
LINE
  8
0
  6
CONTINUOUS
 62
256
 10
2.300001000000000
 20
4.000000000000000
 11
4.600000000000000
 21
0.000001000000000
  0
LINE
  8
0
  6
CONTINUOUS
 62
256
 10
4.600000000000000
 20
-0.000001000000000
 11
2.300001000000000
 21
-4.000000000000000
  0
LINE
  8
0
  6
CONTINUOUS
 62
256
 10
2.299999000000000
 20
-4.000000000000000
 11
-2.299999000000000
 21
-4.000000000000000
  0
CIRCLE
  8
0
  6
CONTINUOUS
 62
256
 10
0.000000000000000
 20
0.000000000000000
 40
4.000000000000000
  0
ENDBLK
  8
0
  0
BLOCK
  8
0
  2
ZU_SYM_7
 70
64
 10
0.000000000000000
 20
0.000000000000000
  0
POINT
  8
0
  6
CONTINUOUS
 62
256
 10
0.000000000000000
 20
0.000000000000000
  0
LINE
  8
0
  6
CONTINUOUS
 62
256
 10
-0.000025000000000
 20
-4.599994000000000
 11
-4.300015000000000
 21
-4.599977000000000
  0
LINE
  8
0
  6
CONTINUOUS
 62
256
 10
-4.299996000000000
 20
-4.599962000000000
 11
-4.799990000000000
 21
-3.899959000000000
  0
LINE
  8
0
  6
CONTINUOUS
 62
256
 10
-4.800010000000000
 20
-3.899973000000000
 11
-4.799979000000000
 21
3.900012000000000
  0
LINE
  8
0
  6
CONTINUOUS
 62
256
 10
-4.799962000000000
 20
3.900001000000000
 11
-4.299962000000000
 21
4.599999000000000
  0
LINE
  8
0
  6
CONTINUOUS
 62
256
 10
-4.299978000000000
 20
4.600015000000000
 11
0.000013000000000
 21
4.599998000000000
  0
LINE
  8
0
  6
CONTINUOUS
 62
256
 10
0.000016000000000
 20
4.599992000000000
 11
-0.000021000000000
 21
-4.599992000000000
  0
LINE
  8
0
  6
CONTINUOUS
 62
256
 10
-4.300006000000000
 20
-2.299980000000000
 11
-1.300007000000000
 21
-2.299992000000000
  0
LINE
  8
0
  6
CONTINUOUS
 62
256
 10
-4.299987000000000
 20
2.300014000000000
 11
-1.299990000000000
 21
2.300004000000000
  0
ARC
  8
0
  6
CONTINUOUS
 62
256
 10
-3.230014000000000
 20
-3.449986000000000
 40
1.570000000000000
 50
132.899744000000000
 51
179.999744999999990
  0
ARC
  8
0
  6
CONTINUOUS
 62
256
 10
-3.229986000000000
 20
3.450012000000000
 40
1.570000000000000
 50
179.999744999999990
 51
227.099745999999980
  0
ARC
  8
0
  6
CONTINUOUS
 62
256
 10
0.740001000000000
 20
-0.000003000000000
 40
5.539999000000000
 50
155.470187000000040
 51
204.529249999999960
  0
LINE
  8
0
  6
CONTINUOUS
 62
256
 10
-1.300018000000000
 20
-4.599993000000000
 11
-1.299981000000000
 21
4.600004000000000
  0
LINE
  8
0
  6
CONTINUOUS
 62
256
 10
-1.300000000000000
 20
-0.299995000000000
 11
-0.000004000000000
 21
-0.000001000000000
  0
LINE
  8
0
  6
CONTINUOUS
 62
256
 10
-1.299999000000000
 20
0.300007000000000
 11
-0.000001000000000
 21
0.600002000000000
  0
ENDBLK
  8
0
  0
BLOCK
  8
0
  2
ZU_SYM_8
 70
64
 10
0.000000000000000
 20
0.000000000000000
  0
POINT
  8
0
  6
CONTINUOUS
 62
256
 10
0.000000000000000
 20
0.000000000000000
  0
LINE
  8
0
  6
CONTINUOUS
 62
256
 10
-0.000025000000000
 20
-4.599994000000000
 11
-4.300015000000000
 21
-4.599977000000000
  0
LINE
  8
0
  6
CONTINUOUS
 62
256
 10
-4.299996000000000
 20
-4.599962000000000
 11
-4.799990000000000
 21
-3.899959000000000
  0
LINE
  8
0
  6
CONTINUOUS
 62
256
 10
-4.800010000000000
 20
-3.899973000000000
 11
-4.799979000000000
 21
3.900012000000000
  0
LINE
  8
0
  6
CONTINUOUS
 62
256
 10
-4.799962000000000
 20
3.900001000000000
 11
-4.299962000000000
 21
4.599999000000000
  0
LINE
  8
0
  6
CONTINUOUS
 62
256
 10
-4.299978000000000
 20
4.600015000000000
 11
0.000013000000000
 21
4.599998000000000
  0
LINE
  8
0
  6
CONTINUOUS
 62
256
 10
0.000016000000000
 20
4.599992000000000
 11
-0.000021000000000
 21
-4.599992000000000
  0
LINE
  8
0
  6
CONTINUOUS
 62
256
 10
-4.300006000000000
 20
-2.299980000000000
 11
-1.300007000000000
 21
-2.299992000000000
  0
LINE
  8
0
  6
CONTINUOUS
 62
256
 10
-4.299987000000000
 20
2.300014000000000
 11
-1.299990000000000
 21
2.300004000000000
  0
ARC
  8
0
  6
CONTINUOUS
 62
256
 10
-3.230014000000000
 20
-3.449986000000000
 40
1.570000000000000
 50
132.899744000000000
 51
179.999744999999990
  0
ARC
  8
0
  6
CONTINUOUS
 62
256
 10
-3.229986000000000
 20
3.450012000000000
 40
1.570000000000000
 50
179.999744999999990
 51
227.099745999999980
  0
ARC
  8
0
  6
CONTINUOUS
 62
256
 10
0.740001000000000
 20
-0.000003000000000
 40
5.539999000000000
 50
155.470187000000040
 51
204.529249999999960
  0
LINE
  8
0
  6
CONTINUOUS
 62
256
 10
-1.300018000000000
 20
-4.599993000000000
 11
-1.299981000000000
 21
4.600004000000000
  0
LINE
  8
0
  6
CONTINUOUS
 62
256
 10
-1.300000000000000
 20
-0.299995000000000
 11
-0.000004000000000
 21
-0.000001000000000
  0
LINE
  8
0
  6
CONTINUOUS
 62
256
 10
-1.299999000000000
 20
0.300007000000000
 11
-0.000001000000000
 21
0.600002000000000
  0
ENDBLK
  8
0
  0
ENDSEC
  0
SECTION
  2
ENTITIES
  0
LINE
  8
0
  6
DASHDOT
 62
256
 10
-273.987601999999980
 20
-173.570494000000000
 11
-364.211575999999980
 21
-173.570494000000000
  0
LINE
  8
0
  6
DASHDOT
 62
256
 10
-273.910640000000000
 20
-68.570493999999997
 11
-363.727595000000010
 21
-68.570493999999997
  0
LINE
  8
0
  6
CONTINUOUS
 62
256
 10
-269.448483000000010
 20
-122.570494000000000
 11
-269.448483000000010
 21
-98.570493999999997
  0
LINE
  8
0
  6
CONTINUOUS
 62
256
 10
-271.448410000000020
 20
-122.570494000000000
 11
-269.448483000000010
 21
-122.570494000000000
  0
LINE
  8
0
  6
CONTINUOUS
 62
256
 10
-271.448410000000020
 20
-98.570493999999997
 11
-269.448483000000010
 21
-98.570493999999997
  0
LINE
  8
0
  6
CONTINUOUS
 62
256
 10
-261.448483000000010
 20
-99.570493999999997
 11
-229.448483000000010
 21
-99.570493999999997
  0
LINE
  8
0
  6
CONTINUOUS
 62
256
 10
-229.448483000000010
 20
-121.570494000000000
 11
-229.448483000000010
 21
-97.070493999999997
  0
LINE
  8
0
  6
CONTINUOUS
 62
256
 10
-261.448483000000010
 20
-97.070493999999997
 11
-229.448500999999990
 21
-97.070493999999997
  0
LINE
  8
0
  6
CONTINUOUS
 62
256
 10
-269.448483000000010
 20
-121.570494000000000
 11
-229.448483000000010
 21
-121.570494000000000
  0
LINE
  8
0
  6
CONTINUOUS
 62
256
 10
-269.448483000000010
 20
-99.570493999999997
 11
-261.448483000000010
 21
-99.570493999999997
  0
LINE
  8
0
  6
CONTINUOUS
 62
256
 10
-261.448483000000010
 20
-97.070493999999997
 11
-261.448483000000010
 21
-99.570493999999997
  0
LINE
  8
0
  6
CONTINUOUS
 62
256
 10
-316.448410000000020
 20
-36.070493999999997
 11
-321.448410000000020
 21
-36.070493999999997
  0
LINE
  8
0
  6
CONTINUOUS
 62
256
 10
-316.448410000000020
 20
-36.580911000000000
 11
-316.448410000000020
 21
-36.070493999999997
  0
LINE
  8
0
  6
CONTINUOUS
 62
256
 10
-321.448410000000020
 20
-36.580911000000000
 11
-321.448410000000020
 21
-36.070493999999997
  0
ARC
  8
0
  6
CONTINUOUS
 62
256
 10
-318.948410000000020
 20
-336.570494000000000
 40
300.000000000000000
 50
85.138594999999995
 51
94.861405000000005
  0
LINE
  8
0
  6
CONTINUOUS
 62
256
 10
-348.948410000000020
 20
-57.622858999999998
 11
-348.948410000000020
 21
-42.631725000000003
  0
LINE
  8
0
  6
CONTINUOUS
 62
256
 10
-288.948410000000020
 20
-58.670163000000002
 11
-288.948410000000020
 21
-42.631725000000003
  0
ARC
  8
0
  6
CONTINUOUS
 62
256
 10
-343.948410000000020
 20
-42.631725000000003
 40
5.000000000000003
 50
94.861405000000062
 51
180.000000000000000
  0
ARC
  8
0
  6
CONTINUOUS
 62
256
 10
-293.948410000000020
 20
-42.631725000000003
 40
5.000000000000000
 50
0.000000000000000
 51
85.138594999999953
  0
ARC
  8
0
  6
CONTINUOUS
 62
256
 10
-318.948410000000020
 20
-123.570494000000000
 40
53.499999999999986
 50
324.398360999999970
 51
2.142396999999993
  0
ARC
  8
0
  6
CONTINUOUS
 62
256
 10
-318.948410000000020
 20
-123.570494000000000
 40
53.500000000000007
 50
152.604368000000020
 51
215.601639000000010
  0
LINE
  8
0
  6
CONTINUOUS
 62
256
 10
-351.198410000000020
 20
-184.574858000000010
 11
-362.448410000000020
 21
-184.378488000000000
  0
LINE
  8
0
  6
CONTINUOUS
 62
256
 10
-351.948410000000020
 20
-184.587949000000010
 11
-284.948410000000020
 21
-183.418460000000010
  0
LINE
  8
0
  6
CONTINUOUS
 62
256
 10
-275.448410000000020
 20
-183.418460000000010
 11
-275.448410000000020
 21
-169.852134000000010
  0
LINE
  8
0
  6
CONTINUOUS
 62
256
 10
-284.948410000000020
 20
-183.418460000000010
 11
-275.448410000000020
 21
-183.418460000000010
  0
LINE
  8
0
  6
CONTINUOUS
 62
256
 10
-275.448410000000020
 20
-148.061767000000000
 11
-271.448410000000020
 21
-148.061767000000000
  0
LINE
  8
0
  6
CONTINUOUS
 62
256
 10
-351.948410000000020
 20
-57.579222000000001
 11
-362.448410000000020
 21
-57.762500000000003
  0
LINE
  8
0
  6
CONTINUOUS
 62
256
 10
-351.948410000000020
 20
-57.570493999999997
 11
-284.948410000000020
 21
-58.739983000000002
  0
LINE
  8
0
  6
CONTINUOUS
 62
256
 10
-351.948410000000020
 20
-184.587949000000010
 11
-351.948410000000020
 21
-61.061767000000003
  0
LINE
  8
0
  6
CONTINUOUS
 62
256
 10
-351.948410000000020
 20
-57.561767000000003
 11
-351.948410000000020
 21
-62.070493999999997
  0
LINE
  8
0
  6
CONTINUOUS
 62
256
 10
-275.448410000000020
 20
-169.852134000000010
 11
-275.448410000000020
 21
-58.739983000000002
  0
LINE
  8
0
  6
CONTINUOUS
 62
256
 10
-284.948410000000020
 20
-58.739983000000002
 11
-275.448410000000020
 21
-58.739983000000002
  0
LINE
  8
0
  6
CONTINUOUS
 62
256
 10
-271.448410000000020
 20
-73.079222000000001
 11
-271.448410000000020
 21
-148.061767000000000
  0
LINE
  8
0
  6
CONTINUOUS
 62
256
 10
-275.448410000000020
 20
-73.079222000000001
 11
-271.448410000000020
 21
-73.079222000000001
  0
LINE
  8
0
  6
CONTINUOUS
 62
256
 10
-366.448410000000020
 20
-148.070494000000000
 11
-362.448410000000020
 21
-148.070494000000000
  0
LINE
  8
0
  6
CONTINUOUS
 62
256
 10
-362.448410000000020
 20
-57.762500000000003
 11
-362.448410000000020
 21
-184.378488000000000
  0
LINE
  8
0
  6
CONTINUOUS
 62
256
 10
-366.448410000000020
 20
-73.070493999999997
 11
-362.448410000000020
 21
-73.070493999999997
  0
LINE
  8
0
  6
CONTINUOUS
 62
256
 10
-366.448410000000020
 20
-73.070493999999997
 11
-366.448410000000020
 21
-148.070494000000000
  0
ARC
  8
0
  6
CONTINUOUS
 62
256
 10
-363.980765000000020
 20
-82.780778999999995
 40
2.999999999999977
 50
145.340699999999830
 51
214.659300000000170
  0
LINE
  8
0
  6
CONTINUOUS
 62
256
 10
-275.448410000000020
 20
-158.585213000000010
 11
-271.794734000000010
 21
-162.238888000000000
  0
LINE
  8
0
  6
CONTINUOUS
 62
256
 10
-362.448410000000020
 20
-158.585213000000010
 11
-366.102085999999990
 21
-162.238888000000000
  0
LINE
  8
0
  6
CONTINUOUS
 62
256
 10
-265.448410000000020
 20
-143.070494000000000
 11
-265.448410000000020
 21
-121.570494000000000
  0
LINE
  8
0
  6
CONTINUOUS
 62
256
 10
-372.448410000000020
 20
-104.070494000000000
 11
-372.448410000000020
 21
-143.070494000000000
  0
ARC
  8
0
  6
CONTINUOUS
 62
256
 10
-291.448410000000020
 20
-96.070493999999997
 40
24.999999999999979
 50
5.730175000000014
 51
36.869897999999978
  0
ARC
  8
0
  6
CONTINUOUS
 62
256
 10
-666.448409999999970
 20
-103.570494000000000
 40
400.000000000000060
 50
0.572967000000000
 51
1.431984000000000
  0
ARC
  8
0
  6
CONTINUOUS
 62
256
 10
-291.448410000000020
 20
-151.070494000000000
 40
24.999999999999986
 50
309.791818999999920
 51
354.269824999999970
  0
ARC
  8
0
  6
CONTINUOUS
 62
256
 10
-666.448409999999970
 20
-143.570494000000000
 40
400.000000000000000
 50
358.568016000000060
 51
359.928470000000000
  0
ARC
  8
0
  6
CONTINUOUS
 62
256
 10
-346.448410000000020
 20
-151.070494000000000
 40
25.000000000000007
 50
176.561350000000030
 51
230.208180999999880
  0
ARC
  8
0
  6
CONTINUOUS
 62
256
 10
28.551590000000001
 20
-143.570494000000000
 40
400.000000000000000
 50
180.071529999999970
 51
180.859540999999980
  0
ARC
  8
0
  6
CONTINUOUS
 62
256
 10
-346.448410000000020
 20
-96.070493999999997
 40
25.000000000000011
 50
143.130101999999990
 51
174.269825000000000
  0
ARC
  8
0
  6
CONTINUOUS
 62
256
 10
28.551590000000001
 20
-103.570494000000000
 40
400.000000000000000
 50
178.568016000000000
 51
179.928470000000000
  0
ARC
  8
0
  6
CONTINUOUS
 62
256
 10
-273.916054999999970
 20
-82.780778999999995
 40
2.999999999999977
 50
325.340699999999860
 51
34.659300000000187
  0
ARC
  8
0
  6
CONTINUOUS
 62
256
 10
-273.916054999999970
 20
-164.360209000000000
 40
2.999999999999989
 50
322.837479999999800
 51
44.999999999999616
  0
ARC
  8
0
  6
CONTINUOUS
 62
256
 10
-275.856691000000010
 20
-166.591393000000010
 40
2.999999999999995
 50
277.821860000000410
 51
315.130421000000180
  0
ARC
  8
0
  6
CONTINUOUS
 62
256
 10
-362.040128999999980
 20
-166.591393000000010
 40
3.000000000000027
 50
224.869578999999760
 51
262.178139999999590
  0
ARC
  8
0
  6
CONTINUOUS
 62
256
 10
-363.980765000000020
 20
-164.360209000000000
 40
3.000000000000004
 50
135.000000000000370
 51
217.162520000000170
  0
ARC
  8
0
  6
CONTINUOUS
 62
256
 10
-265.948410000000020
 20
-144.070494000000000
 40
0.500000000000000
 50
90.000000000000000
 51
180.000000000000000
  0
ARC
  8
0
  6
CONTINUOUS
 62
256
 10
-265.948410000000020
 20
-143.070494000000000
 40
0.500000000000000
 50
270.000000000000000
 51
0.000000000000000
  0
ARC
  8
0
  6
CONTINUOUS
 62
256
 10
-371.948410000000020
 20
-144.070494000000000
 40
0.500000000000000
 50
0.000000000000000
 51
90.000000000000000
  0
ARC
  8
0
  6
CONTINUOUS
 62
256
 10
-371.948410000000020
 20
-103.070494000000000
 40
0.500000000000000
 50
270.000000000000000
 51
0.000000000000000
  0
ARC
  8
0
  6
CONTINUOUS
 62
256
 10
-371.948410000000020
 20
-104.070494000000000
 40
0.500000000000000
 50
90.000000000000000
 51
180.000000000000000
  0
ARC
  8
0
  6
CONTINUOUS
 62
256
 10
-371.948410000000020
 20
-143.070494000000000
 40
0.500000000000000
 50
180.000000000000000
 51
270.000000000000000
  0
LINE
  8
0
  6
DASHDOT
 62
256
 10
-318.948410000000020
 20
-187.611332000000000
 11
-318.948410000000020
 21
-31.763847999999999
  0
LINE
  8
0
  6
DASHDOT
 62
256
 10
-311.040340000000010
 20
-123.570494000000000
 11
-326.540903000000010
 21
-123.570494000000000
  0
LINE
  8
0
  6
DASHDOT
 62
256
 10
-379.569141000000000
 20
-110.570494000000000
 11
-226.965369000000010
 21
-110.570494000000000
  0
POINT
  8
0
  6
CONTINUOUS
 62
256
 10
-157.130412000000010
 20
-99.570493999999997
  0
CIRCLE
  8
0
  6
CONTINUOUS
 62
256
 10
-157.130412000000010
 20
-110.570494000000000
 40
3.500000000000000
  0
CIRCLE
  8
0
  6
CONTINUOUS
 62
256
 10
-157.130412000000010
 20
-110.570494000000000
 40
4.000000000000000
  0
LINE
  8
0
  6
DASHDOT
 62
256
 10
-157.130412000000010
 20
-93.982397000000006
 11
-157.130412000000010
 21
-124.658886000000000
  0
LINE
  8
0
  6
CONTINUOUS
 62
256
 10
-160.130412000000010
 20
-103.070494000000000
 11
-154.130412000000010
 21
-103.070494000000000
  0
LINE
  8
0
  6
CONTINUOUS
 62
256
 10
-160.130412000000010
 20
-97.070493999999997
 11
-154.130412000000010
 21
-97.070493999999997
  0
LINE
  8
0
  6
CONTINUOUS
 62
256
 10
-160.130412000000010
 20
-97.070493999999997
 11
-160.130412000000010
 21
-103.070494000000000
  0
LINE
  8
0
  6
CONTINUOUS
 62
256
 10
-154.130412000000010
 20
-97.070493999999997
 11
-154.130412000000010
 21
-103.070494000000000
  0
TEXT
  8
0
  6
CONTINUOUS
 62
256
 10
419.601715087890620
 20
-203.388839721679690
 40
3.299999952316284
  1
1/1
 50
0.000002504478167
 41
0.850909097352304
  7
STANDARD1
  0
TEXT
  8
0
  6
CONTINUOUS
 62
256
 10
417.183715820312500
 20
-203.388839721679690
 40
3.299999952316284
  1
 
 50
0.000002504478167
 41
1.733333298293026
  7
STANDARD1
  0
TEXT
  8
0
  6
CONTINUOUS
 62
256
 10
404.133087158203130
 20
-203.388839721679690
 40
3.299999952316284
  1
SCALE
 50
0.000002504478167
 41
0.821052645401140
  7
STANDARD1
  0
TEXT
  8
0
  6
CONTINUOUS
 62
256
 10
400.881713867187500
 20
-203.388839721679690
 40
3.299999952316284
  1
 
 50
0.000002504478167
 41
1.733333298293026
  7
STANDARD1
  0
TEXT
  8
0
  6
CONTINUOUS
 62
256
 10
413.161895751953120
 20
-198.088836669921870
 40
3.299999952316284
  1
1/240
 50
0.000002504478167
 41
0.821052645401140
  7
STANDARD1
  0
TEXT
  8
0
  6
CONTINUOUS
 62
256
 10
409.379882812500000
 20
-198.088836669921870
 40
3.299999952316284
  1
ü`
 50
0.000002504478167
 41
1.176000019651471
  7
STANDARD1
  0
TEXT
  8
0
  6
CONTINUOUS
 62
256
 10
400.881713867187500
 20
-198.088836669921870
 40
3.299999952316284
  1
1/5
 50
0.000002504478167
 41
0.850909097352304
  7
STANDARD1
  0
TEXT
  8
0
  6
CONTINUOUS
 62
256
 10
404.115722656250000
 20
-192.788833618164060
 40
3.299999952316284
  1
GM-SHYM-RL
 50
0.000002504478167
 41
0.799999980493025
  7
STANDARD1
  0
TEXT
  8
0
  6
CONTINUOUS
 62
256
 10
400.881713867187500
 20
-192.788833618164060
 40
3.299999952316284
  1
 
 50
0.000002504478167
 41
1.733333298293026
  7
STANDARD1
  0
TEXT
  8
0
  6
CONTINUOUS
 62
256
 10
406.707092285156250
 20
-187.488845825195310
 40
3.299999952316284
  1
0.1kW
 50
0.000002504478167
 41
0.821052645401140
  7
STANDARD1
  0
TEXT
  8
0
  6
CONTINUOUS
 62
256
 10
400.881713867187500
 20
-187.488845825195310
 40
3.299999952316284
  1
  
 50
0.000002504478167
 41
1.485714400175845
  7
STANDARD1
  0
TEXT
  8
0
  6
CONTINUOUS
 62
256
 10
406.701202392578120
 20
-182.188842773437500
 40
3.299999952316284
  1
SHY021
 50
0.000002504478167
 41
0.813913121261144
  7
STANDARD1
  0
TEXT
  8
0
  6
CONTINUOUS
 62
256
 10
400.881713867187500
 20
-182.188842773437500
 40
3.299999952316284
  1
  
 50
0.000002504478167
 41
1.485714400175845
  7
STANDARD1
  0
LINE
  8
0
  6
DASHDOT
 62
256
 10
-102.753685000000000
 20
75.996536000000006
 11
190.828927999999990
 21
75.996536000000006
  0
INSERT
  8
0
  2
ZU_SYM_1
 10
182.128694000000000
 20
115.594516000000000
 41
-1.000000000000000
 50
0.000000000000007
  0
INSERT
  8
0
  2
ZU_SYM_2
 10
182.128694000000000
 20
36.398555999999999
 50
180.000000000000000
  0
ARC
  8
0
  6
CONTINUOUS
 62
256
 10
-516.371304000000010
 20
75.996536000000006
 40
700.000000000000000
 50
1.652907000000000
 51
2.865818999999999
  0
ARC
  8
0
  6
CONTINUOUS
 62
256
 10
-516.371304000000010
 20
75.996536000000006
 40
700.000000000000000
 50
3.620062000000001
 51
4.148949999999999
  0
LINE
  8
0
  6
CONTINUOUS
 62
256
 10
78.128696000000005
 20
128.496535999999990
 11
177.128695999999990
 21
128.496535999999990
  0
LINE
  8
0
  6
CONTINUOUS
 62
256
 10
170.128695999999990
 20
75.996536000000006
 11
170.128695999999990
 21
105.496536000000010
  0
LINE
  8
0
  6
CONTINUOUS
 62
256
 10
95.128696000000005
 20
75.996536000000006
 11
95.128696000000005
 21
105.496536000000010
  0
LINE
  8
0
  6
CONTINUOUS
 62
256
 10
97.128696000000005
 20
107.496536000000010
 11
168.128695999999990
 21
107.496536000000010
  0
ARC
  8
0
  6
CONTINUOUS
 62
256
 10
97.128696000000005
 20
105.496536000000010
 40
2.000000000000000
 50
90.000000000000000
 51
180.000000000000000
  0
LINE
  8
0
  6
CONTINUOUS
 62
256
 10
177.128695999999990
 20
128.496535999999990
 11
177.128695999999990
 21
75.996536000000006
  0
LINE
  8
0
  6
DASHDOT
 62
256
 10
174.071294999999990
 20
115.594516000000000
 11
188.702460000000000
 21
115.594516000000000
  0
ARC
  8
0
  6
CONTINUOUS
 62
256
 10
168.128695999999990
 20
105.496536000000010
 40
2.000000000000000
 50
0.000000000000000
 51
90.000000000000000
  0
LINE
  8
0
  6
CONTINUOUS
 62
256
 10
177.628695999999990
 20
119.335935000000010
 11
177.128695999999990
 21
119.335935000000010
  0
LINE
  8
0
  6
CONTINUOUS
 62
256
 10
177.128695999999990
 20
112.244935000000000
 11
177.628695999999990
 21
112.244935000000000
  0
LINE
  8
0
  6
CONTINUOUS
 62
256
 10
177.628695999999990
 20
121.094516000000000
 11
177.628695999999990
 21
112.244935000000000
  0
ARC
  8
0
  6
CONTINUOUS
 62
256
 10
179.799473000000010
 20
126.496536000000010
 40
2.000000000000010
 50
4.148950000000029
 51
90.000000000000000
  0
LINE
  8
0
  6
CONTINUOUS
 62
256
 10
177.128695999999990
 20
128.496535999999990
 11
179.799473000000010
 21
128.496535999999990
  0
ARC
  8
0
  6
CONTINUOUS
 62
256
 10
183.128695999999990
 20
105.195177000000000
 40
1.000000000000000
 50
180.000000000000000
 51
238.640963999999340
  0
ARC
  8
0
  6
CONTINUOUS
 62
256
 10
192.128695999999990
 20
122.124076000000000
 40
10.000000000000000
 50
180.000000000000000
 51
183.725036999999960
  0
ARC
  8
0
  6
CONTINUOUS
 62
256
 10
182.087898000000000
 20
103.487331000000000
 40
1.000000000000004
 50
2.253953000000067
 51
58.640963999999322
  0
LINE
  8
0
  6
CONTINUOUS
 62
256
 10
182.128695999999990
 20
120.594516000000000
 11
182.128695999999990
 21
105.195177000000000
  0
ARC
  8
0
  6
CONTINUOUS
 62
256
 10
181.628695999999990
 20
120.594516000000000
 40
0.500000000000000
 50
0.000000000000000
 51
90.000000000000000
  0
LINE
  8
0
  6
CONTINUOUS
 62
256
 10
177.628695999999990
 20
121.094516000000000
 11
181.628695999999990
 21
121.094516000000000
  0
ARC
  8
0
  6
CONTINUOUS
 62
256
 10
183.837222999999990
 20
96.202219999999997
 40
0.499999999999994
 50
181.652906999999350
 51
224.884862000000280
  0
ARC
  8
0
  6
CONTINUOUS
 62
256
 10
183.128695999999990
 20
95.496536000000006
 40
0.500000000000000
 50
0.000000000000000
 51
44.884862000000268
  0
LINE
  8
0
  6
CONTINUOUS
 62
256
 10
183.628695999999990
 20
75.996536000000006
 11
183.628695999999990
 21
95.496536000000006
  0
LINE
  8
0
  6
CONTINUOUS
 62
256
 10
177.128695999999990
 20
126.496536000000010
 11
179.941665000000000
 21
126.496536000000010
  0
LINE
  8
0
  6
CONTINUOUS
 62
256
 10
177.128695999999990
 20
126.996536000000010
 11
179.906657999999990
 21
126.996536000000010
  0
ARC
  8
0
  6
CONTINUOUS
 62
256
 10
179.941665000000000
 20
124.496536000000010
 40
1.999999999999995
 50
3.984363999999913
 51
90.000000000000000
  0
ARC
  8
0
  6
CONTINUOUS
 62
256
 10
179.906657999999990
 20
124.996536000000010
 40
1.999999999999990
 50
4.025508000000131
 51
90.000000000000000
  0
LINE
  8
0
  6
CONTINUOUS
 62
256
 10
177.128695999999990
 20
126.496536000000010
 11
78.128696000000005
 21
126.496536000000010
  0
LINE
  8
0
  6
CONTINUOUS
 62
256
 10
177.128695999999990
 20
126.996536000000010
 11
78.128696000000005
 21
126.996536000000010
  0
LINE
  8
0
  6
CONTINUOUS
 62
256
 10
177.128695999999990
 20
122.129617999999990
 11
78.128696000000005
 21
122.129617999999990
  0
LINE
  8
0
  6
CONTINUOUS
 62
256
 10
177.128695999999990
 20
117.038450000000000
 11
78.128696000000005
 21
117.038450000000000
  0
LINE
  8
0
  6
CONTINUOUS
 62
256
 10
177.128695999999990
 20
95.996536000000006
 11
170.128695999999990
 21
95.996536000000006
  0
LINE
  8
0
  6
CONTINUOUS
 62
256
 10
177.128695999999990
 20
109.300137000000010
 11
78.128696000000005
 21
109.300137000000010
  0
LINE
  8
0
  6
CONTINUOUS
 62
256
 10
177.128695999999990
 20
107.710927000000000
 11
78.128696000000005
 21
107.710927000000000
  0
LINE
  8
0
  6
CONTINUOUS
 62
256
 10
177.128695999999990
 20
104.752931000000000
 11
170.128695999999990
 21
104.752931000000000
  0
LINE
  8
0
  6
CONTINUOUS
 62
256
 10
177.128695999999990
 20
103.273908000000010
 11
170.128695999999990
 21
103.273908000000010
  0
LINE
  8
0
  6
CONTINUOUS
 62
256
 10
177.128695999999990
 20
100.181177000000010
 11
170.128695999999990
 21
100.181177000000010
  0
LINE
  8
0
  6
CONTINUOUS
 62
256
 10
177.128695999999990
 20
98.834776000000005
 11
170.128695999999990
 21
98.834776000000005
  0
LINE
  8
0
  6
CONTINUOUS
 62
256
 10
177.128695999999990
 20
120.501191000000010
 11
78.128696000000005
 21
120.501191000000010
  0
LINE
  8
0
  6
CONTINUOUS
 62
256
 10
177.128695999999990
 20
116.036970999999990
 11
78.128696000000005
 21
116.036970999999990
  0
LINE
  8
0
  6
CONTINUOUS
 62
256
 10
95.128696000000005
 20
95.996536000000006
 11
78.128696000000005
 21
95.996536000000006
  0
LINE
  8
0
  6
CONTINUOUS
 62
256
 10
95.128696000000005
 20
98.834776000000005
 11
78.128696000000005
 21
98.834776000000005
  0
LINE
  8
0
  6
CONTINUOUS
 62
256
 10
95.128696000000005
 20
100.181177000000010
 11
78.128696000000005
 21
100.181177000000010
  0
LINE
  8
0
  6
CONTINUOUS
 62
256
 10
95.128696000000005
 20
103.273908000000010
 11
78.128696000000005
 21
103.273908000000010
  0
LINE
  8
0
  6
CONTINUOUS
 62
256
 10
95.128696000000005
 20
104.752931000000000
 11
78.128696000000005
 21
104.752931000000000
  0
LINE
  8
0
  6
CONTINUOUS
 62
256
 10
182.128695999999990
 20
109.820284000000000
 11
177.128695999999990
 21
109.820284000000000
  0
LINE
  8
0
  6
CONTINUOUS
 62
256
 10
182.128695999999990
 20
107.212020999999990
 11
177.128695999999990
 21
107.212020999999990
  0
LINE
  8
0
  6
CONTINUOUS
 62
256
 10
182.128695999999990
 20
105.310704000000000
 11
177.128695999999990
 21
105.310704000000000
  0
LINE
  8
0
  6
CONTINUOUS
 62
256
 10
183.114297999999990
 20
102.827350999999990
 11
177.128695999999990
 21
102.827350999999990
  0
LINE
  8
0
  6
CONTINUOUS
 62
256
 10
183.194041000000000
 20
100.660852000000010
 11
177.128695999999990
 21
100.660852000000010
  0
LINE
  8
0
  6
CONTINUOUS
 62
256
 10
183.268788000000000
 20
98.440727999999993
 11
177.128695999999990
 21
98.440727999999993
  0
LINE
  8
0
  6
CONTINUOUS
 62
256
 10
183.381487999999990
 20
95.996536000000006
 11
177.128695999999990
 21
95.996536000000006
  0
LINE
  8
0
  6
CONTINUOUS
 62
256
 10
177.128695999999990
 20
23.496535999999999
 11
177.128695999999990
 21
75.996536000000006
  0
LINE
  8
0
  6
CONTINUOUS
 62
256
 10
170.128695999999990
 20
75.996536000000006
 11
170.128695999999990
 21
46.496535999999999
  0
LINE
  8
0
  6
CONTINUOUS
 62
256
 10
95.128696000000005
 20
75.996536000000006
 11
95.128696000000005
 21
46.496535999999999
  0
LINE
  8
0
  6
CONTINUOUS
 62
256
 10
183.381487999999990
 20
55.996535999999999
 11
177.128695999999990
 21
55.996535999999999
  0
LINE
  8
0
  6
CONTINUOUS
 62
256
 10
183.268788000000000
 20
53.552343000000000
 11
177.128695999999990
 21
53.552343000000000
  0
LINE
  8
0
  6
CONTINUOUS
 62
256
 10
183.194041000000000
 20
51.332220000000000
 11
177.128695999999990
 21
51.332220000000000
  0
LINE
  8
0
  6
CONTINUOUS
 62
256
 10
183.114297999999990
 20
49.165720999999998
 11
177.128695999999990
 21
49.165720999999998
  0
LINE
  8
0
  6
CONTINUOUS
 62
256
 10
182.128695999999990
 20
46.682366999999999
 11
177.128695999999990
 21
46.682366999999999
  0
LINE
  8
0
  6
CONTINUOUS
 62
256
 10
182.128695999999990
 20
44.781050999999998
 11
177.128695999999990
 21
44.781050999999998
  0
LINE
  8
0
  6
CONTINUOUS
 62
256
 10
182.128695999999990
 20
42.172787999999997
 11
177.128695999999990
 21
42.172787999999997
  0
LINE
  8
0
  6
CONTINUOUS
 62
256
 10
95.128696000000005
 20
47.240139999999997
 11
78.128696000000005
 21
47.240139999999997
  0
LINE
  8
0
  6
CONTINUOUS
 62
256
 10
177.128695999999990
 20
47.240139999999997
 11
170.128695999999990
 21
47.240139999999997
  0
LINE
  8
0
  6
CONTINUOUS
 62
256
 10
95.128696000000005
 20
48.719163000000002
 11
78.128696000000005
 21
48.719163000000002
  0
LINE
  8
0
  6
CONTINUOUS
 62
256
 10
177.128695999999990
 20
48.719163000000002
 11
170.128695999999990
 21
48.719163000000002
  0
LINE
  8
0
  6
CONTINUOUS
 62
256
 10
95.128696000000005
 20
51.811894000000002
 11
78.128696000000005
 21
51.811894000000002
  0
LINE
  8
0
  6
CONTINUOUS
 62
256
 10
177.128695999999990
 20
51.811894000000002
 11
170.128695999999990
 21
51.811894000000002
  0
LINE
  8
0
  6
CONTINUOUS
 62
256
 10
95.128696000000005
 20
53.158296000000000
 11
78.128696000000005
 21
53.158296000000000
  0
LINE
  8
0
  6
CONTINUOUS
 62
256
 10
177.128695999999990
 20
53.158296000000000
 11
170.128695999999990
 21
53.158296000000000
  0
LINE
  8
0
  6
CONTINUOUS
 62
256
 10
95.128696000000005
 20
55.996535999999999
 11
78.128696000000005
 21
55.996535999999999
  0
LINE
  8
0
  6
CONTINUOUS
 62
256
 10
177.128695999999990
 20
55.996535999999999
 11
170.128695999999990
 21
55.996535999999999
  0
LINE
  8
0
  6
CONTINUOUS
 62
256
 10
177.128695999999990
 20
44.282145000000000
 11
78.128696000000005
 21
44.282145000000000
  0
LINE
  8
0
  6
CONTINUOUS
 62
256
 10
177.128695999999990
 20
42.692934999999999
 11
78.128696000000005
 21
42.692934999999999
  0
LINE
  8
0
  6
CONTINUOUS
 62
256
 10
177.128695999999990
 20
35.956099999999999
 11
78.128696000000005
 21
35.956099999999999
  0
LINE
  8
0
  6
CONTINUOUS
 62
256
 10
177.128695999999990
 20
34.954622000000001
 11
78.128696000000005
 21
34.954622000000001
  0
LINE
  8
0
  6
CONTINUOUS
 62
256
 10
177.128695999999990
 20
29.863453000000000
 11
78.128696000000005
 21
29.863453000000000
  0
LINE
  8
0
  6
CONTINUOUS
 62
256
 10
177.128695999999990
 20
31.491879999999998
 11
78.128696000000005
 21
31.491879999999998
  0
LINE
  8
0
  6
CONTINUOUS
 62
256
 10
177.128695999999990
 20
24.996535999999999
 11
78.128696000000005
 21
24.996535999999999
  0
LINE
  8
0
  6
CONTINUOUS
 62
256
 10
177.128695999999990
 20
25.496535999999999
 11
78.128696000000005
 21
25.496535999999999
  0
LINE
  8
0
  6
CONTINUOUS
 62
256
 10
177.128695999999990
 20
24.996535999999999
 11
179.906657999999990
 21
24.996535999999999
  0
LINE
  8
0
  6
CONTINUOUS
 62
256
 10
177.128695999999990
 20
25.496535999999999
 11
179.941665000000000
 21
25.496535999999999
  0
ARC
  8
0
  6
CONTINUOUS
 62
256
 10
179.906657999999990
 20
26.996535999999999
 40
2.000000000000000
 50
270.000000000000000
 51
355.974491999999940
  0
ARC
  8
0
  6
CONTINUOUS
 62
256
 10
179.941665000000000
 20
27.496535999999999
 40
2.000000000000000
 50
270.000000000000000
 51
356.015635999999970
  0
ARC
  8
0
  6
CONTINUOUS
 62
256
 10
-516.371304000000010
 20
75.996536000000006
 40
700.000000000000000
 50
357.134181000000070
 51
358.347092999999970
  0
ARC
  8
0
  6
CONTINUOUS
 62
256
 10
-516.371304000000010
 20
75.996536000000006
 40
700.000000000000110
 50
355.851049999999990
 51
356.379937999999980
  0
LINE
  8
0
  6
CONTINUOUS
 62
256
 10
78.128696000000005
 20
23.496535999999999
 11
177.128695999999990
 21
23.496535999999999
  0
LINE
  8
0
  6
CONTINUOUS
 62
256
 10
97.128696000000005
 20
44.496535999999999
 11
168.128695999999990
 21
44.496535999999999
  0
ARC
  8
0
  6
CONTINUOUS
 62
256
 10
97.128696000000005
 20
46.496535999999999
 40
2.000000000000000
 50
180.000000000000000
 51
270.000000000000000
  0
LINE
  8
0
  6
DASHDOT
 62
256
 10
174.071294999999990
 20
36.398555999999999
 11
188.702460000000000
 21
36.398555999999999
  0
ARC
  8
0
  6
CONTINUOUS
 62
256
 10
168.128695999999990
 20
46.496535999999999
 40
2.000000000000000
 50
270.000000000000000
 51
0.000000000000000
  0
LINE
  8
0
  6
CONTINUOUS
 62
256
 10
177.628695999999990
 20
32.657136000000001
 11
177.128695999999990
 21
32.657136000000001
  0
LINE
  8
0
  6
CONTINUOUS
 62
256
 10
177.128695999999990
 20
39.748136000000002
 11
177.628695999999990
 21
39.748136000000002
  0
LINE
  8
0
  6
CONTINUOUS
 62
256
 10
177.628695999999990
 20
30.898555999999999
 11
177.628695999999990
 21
39.748136000000002
  0
ARC
  8
0
  6
CONTINUOUS
 62
256
 10
179.799473000000010
 20
25.496535999999999
 40
2.000000000000000
 50
270.000000000000000
 51
355.851049999999990
  0
LINE
  8
0
  6
CONTINUOUS
 62
256
 10
177.128695999999990
 20
23.496535999999999
 11
179.799473000000010
 21
23.496535999999999
  0
ARC
  8
0
  6
CONTINUOUS
 62
256
 10
183.128695999999990
 20
46.797893999999999
 40
1.000000000000005
 50
121.359036000000670
 51
180.000000000000000
  0
ARC
  8
0
  6
CONTINUOUS
 62
256
 10
192.128695999999990
 20
29.868995000000002
 40
9.999999999999993
 50
176.274963000000010
 51
180.000000000000000
  0
ARC
  8
0
  6
CONTINUOUS
 62
256
 10
182.087898000000000
 20
48.505741000000000
 40
1.000000000000005
 50
301.359036000000630
 51
357.746046999999980
  0
LINE
  8
0
  6
CONTINUOUS
 62
256
 10
182.128695999999990
 20
31.398555999999999
 11
182.128695999999990
 21
46.797893999999999
  0
ARC
  8
0
  6
CONTINUOUS
 62
256
 10
181.628695999999990
 20
31.398555999999999
 40
0.500000000000000
 50
270.000000000000000
 51
0.000000000000000
  0
LINE
  8
0
  6
CONTINUOUS
 62
256
 10
177.628695999999990
 20
30.898555999999999
 11
181.628695999999990
 21
30.898555999999999
  0
ARC
  8
0
  6
CONTINUOUS
 62
256
 10
183.837222999999990
 20
55.790851000000004
 40
0.499999999999995
 50
135.115137999999720
 51
178.347092999999830
  0
ARC
  8
0
  6
CONTINUOUS
 62
256
 10
183.128695999999990
 20
56.496535999999999
 40
0.499999999999995
 50
315.115137999999770
 51
0.000000000000000
  0
LINE
  8
0
  6
CONTINUOUS
 62
256
 10
183.628695999999990
 20
75.996536000000006
 11
183.628695999999990
 21
56.496535999999999
  0
LINE
  8
0
  6
CONTINUOUS
 62
256
 10
97.128696000000005
 20
105.996536000000010
 11
168.128695999999990
 21
105.996536000000010
  0
LINE
  8
0
  6
CONTINUOUS
 62
256
 10
97.128696000000005
 20
45.996535999999999
 11
168.128695999999990
 21
45.996535999999999
  0
LINE
  8
0
  6
CONTINUOUS
 62
256
 10
169.128695999999990
 20
46.996535999999999
 11
169.128695999999990
 21
104.996536000000010
  0
LINE
  8
0
  6
CONTINUOUS
 62
256
 10
96.128696000000005
 20
104.996536000000010
 11
96.128696000000005
 21
46.996535999999999
  0
ARC
  8
0
  6
CONTINUOUS
 62
256
 10
168.128695999999990
 20
104.996536000000010
 40
1.000000000000000
 50
0.000000000000000
 51
90.000000000000000
  0
ARC
  8
0
  6
CONTINUOUS
 62
256
 10
168.128695999999990
 20
46.996535999999999
 40
1.000000000000000
 50
270.000000000000000
 51
0.000000000000000
  0
ARC
  8
0
  6
CONTINUOUS
 62
256
 10
97.128696000000005
 20
46.996535999999999
 40
1.000000000000000
 50
180.000000000000000
 51
270.000000000000000
  0
ARC
  8
0
  6
CONTINUOUS
 62
256
 10
97.128696000000005
 20
104.996536000000010
 40
1.000000000000000
 50
90.000000000000000
 51
180.000000000000000
  0
LINE
  8
0
  6
CONTINUOUS
 62
256
 10
-48.871304000000002
 20
-13.503391000000001
 11
-26.871303999999999
 21
-13.503391000000001
  0
LINE
  8
0
  6
CONTINUOUS
 62
256
 10
-40.871304000000002
 20
-13.503391000000001
 11
-40.871304000000002
 21
18.496608999999999
  0
LINE
  8
0
  6
CONTINUOUS
 62
256
 10
-40.871304000000002
 20
18.496608999999999
 11
-34.871304000000002
 21
18.496608999999999
  0
ARC
  8
0
  6
CONTINUOUS
 62
256
 10
-37.871304000000002
 20
18.496608999999999
 40
3.000000000000000
 50
0.000000000000000
 51
180.000000000000000
  0
LINE
  8
0
  6
CONTINUOUS
 62
256
 10
-34.871304000000002
 20
-13.503391000000001
 11
-34.871304000000002
 21
18.496608999999999
  0
LINE
  8
0
  6
DASHDOT
 62
256
 10
-37.871304000000002
 20
131.016191999999990
 11
-37.871304000000002
 21
-16.514358000000001
  0
LINE
  8
0
  6
CONTINUOUS
 62
256
 10
-26.871303999999999
 20
26.496608999999999
 11
-26.871303999999999
 21
18.496608999999999
  0
LINE
  8
0
  6
CONTINUOUS
 62
256
 10
-25.871303999999999
 20
28.496535999999999
 11
-25.871303999999999
 21
26.496608999999999
  0
LINE
  8
0
  6
CONTINUOUS
 62
256
 10
-49.871304000000002
 20
26.496608999999999
 11
-25.871303999999999
 21
26.496608999999999
  0
LINE
  8
0
  6
CONTINUOUS
 62
256
 10
-26.871303999999999
 20
18.496608999999999
 11
-26.871303999999999
 21
-13.503391000000001
  0
LINE
  8
0
  6
CONTINUOUS
 62
256
 10
-48.871304000000002
 20
26.496608999999999
 11
-48.871304000000002
 21
-13.503391000000001
  0
LINE
  8
0
  6
CONTINUOUS
 62
256
 10
-49.871304000000002
 20
28.496535999999999
 11
-49.871304000000002
 21
26.496608999999999
  0
LINE
  8
0
  6
CONTINUOUS
 62
256
 10
-37.871304000000002
 20
32.496535999999999
 11
-89.893820000000005
 21
32.496535999999999
  0
LINE
  8
0
  6
CONTINUOUS
 62
256
 10
-89.893820000000005
 20
41.996535999999999
 11
-89.893820000000005
 21
32.496535999999999
  0
LINE
  8
0
  6
CONTINUOUS
 62
256
 10
-91.054581999999996
 20
108.496536000000010
 11
-89.893820000000005
 21
41.996535999999999
  0
LINE
  8
0
  6
CONTINUOUS
 62
256
 10
50.120272999999997
 20
108.496536000000010
 11
-91.063309000000004
 21
108.496536000000010
  0
LINE
  8
0
  6
CONTINUOUS
 62
256
 10
50.119968999999998
 20
108.496536000000010
 11
48.959206999999999
 21
41.996535999999999
  0
LINE
  8
0
  6
CONTINUOUS
 62
256
 10
48.959206999999999
 20
32.496535999999999
 11
-37.871304000000002
 21
32.496535999999999
  0
LINE
  8
0
  6
CONTINUOUS
 62
256
 10
48.959206999999999
 20
41.996535999999999
 11
48.959206999999999
 21
32.496535999999999
  0
LINE
  8
0
  6
CONTINUOUS
 62
256
 10
62.622191000000001
 20
129.714837999999990
 11
78.128696000000005
 21
129.444171000000010
  0
LINE
  8
0
  6
CONTINUOUS
 62
256
 10
62.622191000000001
 20
22.278234000000001
 11
78.128696000000005
 21
22.548901000000001
  0
ARC
  8
0
  6
CONTINUOUS
 62
256
 10
52.120272999999997
 20
108.496536000000010
 40
2.000000000000000
 50
180.000000000000000
 51
270.000000000000000
  0
ARC
  8
0
  6
CONTINUOUS
 62
256
 10
50.959206999999999
 20
32.496535999999999
 40
2.000000000000000
 50
90.000000000000000
 51
180.000000000000000
  0
LINE
  8
0
  6
CONTINUOUS
 62
256
 10
-75.371303999999995
 20
123.496536000000010
 11
-0.371304000000000
 21
123.496536000000010
  0
LINE
  8
0
  6
CONTINUOUS
 62
256
 10
35.253489000000002
 20
119.496536000000010
 11
21.218330999999999
 21
119.496536000000010
  0
LINE
  8
0
  6
CONTINUOUS
 62
256
 10
-75.371303999999995
 20
123.496536000000010
 11
-75.371303999999995
 21
119.496536000000010
  0
LINE
  8
0
  6
CONTINUOUS
 62
256
 10
-0.371304000000000
 20
123.496536000000010
 11
-0.371304000000000
 21
119.496536000000010
  0
LINE
  8
0
  6
CONTINUOUS
 62
256
 10
-75.371303999999995
 20
32.496535999999999
 11
-75.371303999999995
 21
28.496535999999999
  0
LINE
  8
0
  6
CONTINUOUS
 62
256
 10
-75.371303999999995
 20
28.496535999999999
 11
-0.371304000000000
 21
28.496535999999999
  0
LINE
  8
0
  6
CONTINUOUS
 62
256
 10
-0.371304000000000
 20
32.496535999999999
 11
-0.371304000000000
 21
28.496535999999999
  0
LINE
  8
0
  6
CONTINUOUS
 62
256
 10
-91.063309000000004
 20
108.496536000000010
 11
-90.871303999999995
 21
119.496536000000010
  0
LINE
  8
0
  6
CONTINUOUS
 62
256
 10
-90.871303999999995
 20
119.496536000000010
 11
49.919235000000000
 21
119.496536000000010
  0
LINE
  8
0
  6
CONTINUOUS
 62
256
 10
50.111241000000000
 20
108.496536000000010
 11
49.919235000000000
 21
119.496536000000010
  0
LINE
  8
0
  6
CONTINUOUS
 62
256
 10
50.959206999999999
 20
34.496535999999999
 11
57.128695999999998
 21
34.496535999999999
  0
ARC
  8
0
  6
CONTINUOUS
 62
256
 10
57.128695999999998
 20
31.496535999999999
 40
3.000000000000000
 50
0.000000000000000
 51
90.000000000000000
  0
ARC
  8
0
  6
CONTINUOUS
 62
256
 10
63.128695999999998
 20
126.757904999999990
 40
3.000000000000011
 50
89.000000000000000
 51
180.000000000000000
  0
LINE
  8
0
  6
CONTINUOUS
 62
256
 10
52.120272999999997
 20
106.496536000000010
 11
57.128695999999998
 21
106.496536000000010
  0
ARC
  8
0
  6
CONTINUOUS
 62
256
 10
57.128695999999998
 20
109.496536000000010
 40
3.000000000000000
 50
270.000000000000000
 51
0.000000000000000
  0
ARC
  8
0
  6
CONTINUOUS
 62
256
 10
63.128695999999998
 20
25.235167000000001
 40
3.000000000000000
 50
180.000000000000000
 51
271.000000000000000
  0
LINE
  8
0
  6
CONTINUOUS
 62
256
 10
60.128695999999998
 20
25.235167000000001
 11
60.128695999999998
 21
42.496535999999999
  0
LINE
  8
0
  6
CONTINUOUS
 62
256
 10
60.128695999999998
 20
126.757904999999990
 11
60.128695999999998
 21
120.496536000000010
  0
LINE
  8
0
  6
CONTINUOUS
 62
256
 10
78.128696000000005
 20
75.996536000000006
 11
78.128696000000005
 21
22.496535999999999
  0
LINE
  8
0
  6
CONTINUOUS
 62
256
 10
78.128696000000005
 20
75.996536000000006
 11
78.128696000000005
 21
129.496535999999990
  0
ARC
  8
0
  6
CONTINUOUS
 62
256
 10
63.128695999999998
 20
45.104370000000003
 40
3.000000000000000
 50
180.000000000000000
 51
270.000000000000000
  0
ARC
  8
0
  6
CONTINUOUS
 62
256
 10
63.128695999999998
 20
106.888701999999990
 40
3.000000000000000
 50
90.000000000000000
 51
180.000000000000000
  0
ARC
  8
0
  6
CONTINUOUS
 62
256
 10
63.128695999999998
 20
25.235167000000001
 40
3.000000000000000
 50
180.000000000000000
 51
271.000000000000000
  0
ARC
  8
0
  6
CONTINUOUS
 62
256
 10
63.128695999999998
 20
126.757904999999990
 40
3.000000000000011
 50
89.000000000000000
 51
180.000000000000000
  0
LINE
  8
0
  6
CONTINUOUS
 62
256
 10
60.128695999999998
 20
126.757904999999990
 11
60.128695999999998
 21
75.996536000000006
  0
LINE
  8
0
  6
CONTINUOUS
 62
256
 10
60.128695999999998
 20
25.235167000000001
 11
60.128695999999998
 21
75.996536000000006
  0
ARC
  8
0
  6
CONTINUOUS
 62
256
 10
71.128696000000005
 20
115.426187000000000
 40
2.000000000000000
 50
0.000000000000000
 51
90.000000000000000
  0
ARC
  8
0
  6
CONTINUOUS
 62
256
 10
70.128696000000005
 20
123.496536000000010
 40
3.000000000000000
 50
270.000000000000000
 51
0.000000000000000
  0
ARC
  8
0
  6
CONTINUOUS
 62
256
 10
65.128696000000005
 20
115.496536000000010
 40
5.000000000000000
 50
90.000000000000000
 51
180.000000000000000
  0
ARC
  8
0
  6
CONTINUOUS
 62
256
 10
65.128696000000005
 20
112.426187000000000
 40
5.000000000000000
 50
90.000000000000000
 51
180.000000000000000
  0
ARC
  8
0
  6
CONTINUOUS
 62
256
 10
70.128696000000005
 20
106.888701999999990
 40
3.000000000000000
 50
0.000000000000000
 51
90.000000000000000
  0
ARC
  8
0
  6
CONTINUOUS
 62
256
 10
65.128696000000005
 20
36.496535999999999
 40
5.000000000000000
 50
180.000000000000000
 51
270.000000000000000
  0
ARC
  8
0
  6
CONTINUOUS
 62
256
 10
65.128696000000005
 20
39.566884000000002
 40
5.000000000000000
 50
180.000000000000000
 51
270.000000000000000
  0
ARC
  8
0
  6
CONTINUOUS
 62
256
 10
71.128696000000005
 20
36.566884000000002
 40
2.000000000000000
 50
270.000000000000000
 51
0.000000000000000
  0
ARC
  8
0
  6
CONTINUOUS
 62
256
 10
70.128696000000005
 20
28.496535999999999
 40
3.000000000000000
 50
0.000000000000000
 51
90.000000000000000
  0
ARC
  8
0
  6
CONTINUOUS
 62
256
 10
70.128696000000005
 20
45.104370000000003
 40
3.000000000000000
 50
270.000000000000000
 51
0.000000000000000
  0
ARC
  8
0
  6
CONTINUOUS
 62
256
 10
76.128696000000005
 20
126.530989000000010
 40
3.000000000000011
 50
89.000000000000128
 51
180.000000000000000
  0
ARC
  8
0
  6
CONTINUOUS
 62
256
 10
76.128696000000005
 20
25.462083000000000
 40
3.000000000000000
 50
180.000000000000000
 51
270.999999999999890
  0
LINE
  8
0
  6
CONTINUOUS
 62
256
 10
73.128696000000005
 20
123.496536000000010
 11
73.128696000000005
 21
126.530989000000010
  0
LINE
  8
0
  6
CONTINUOUS
 62
256
 10
71.128696000000005
 20
117.426187000000000
 11
65.128696000000005
 21
117.426187000000000
  0
LINE
  8
0
  6
CONTINUOUS
 62
256
 10
70.128696000000005
 20
120.496536000000010
 11
65.128696000000005
 21
120.496536000000010
  0
LINE
  8
0
  6
CONTINUOUS
 62
256
 10
73.128696000000005
 20
75.996536000000006
 11
73.128696000000005
 21
115.426187000000000
  0
LINE
  8
0
  6
CONTINUOUS
 62
256
 10
63.128695999999998
 20
109.888701999999990
 11
70.128696000000005
 21
109.888701999999990
  0
LINE
  8
0
  6
CONTINUOUS
 62
256
 10
60.128695999999998
 20
112.888701999999990
 11
60.128695999999998
 21
115.496536000000010
  0
LINE
  8
0
  6
CONTINUOUS
 62
256
 10
73.128696000000005
 20
95.996536000000006
 11
78.128696000000005
 21
95.996536000000006
  0
LINE
  8
0
  6
CONTINUOUS
 62
256
 10
73.128696000000005
 20
75.996536000000006
 11
73.128696000000005
 21
36.566884000000002
  0
LINE
  8
0
  6
CONTINUOUS
 62
256
 10
73.128696000000005
 20
55.996535999999999
 11
78.128696000000005
 21
55.996535999999999
  0
LINE
  8
0
  6
CONTINUOUS
 62
256
 10
63.128695999999998
 20
42.104370000000003
 11
70.128696000000005
 21
42.104370000000003
  0
LINE
  8
0
  6
CONTINUOUS
 62
256
 10
60.128695999999998
 20
39.104370000000003
 11
60.128695999999998
 21
36.496535999999999
  0
LINE
  8
0
  6
CONTINUOUS
 62
256
 10
71.128696000000005
 20
34.566884000000002
 11
65.128696000000005
 21
34.566884000000002
  0
LINE
  8
0
  6
CONTINUOUS
 62
256
 10
70.128696000000005
 20
31.496535999999999
 11
65.128696000000005
 21
31.496535999999999
  0
LINE
  8
0
  6
CONTINUOUS
 62
256
 10
73.128696000000005
 20
28.496535999999999
 11
73.128696000000005
 21
25.462083000000000
  0
LINE
  8
0
  6
DASHDOT
 62
256
 10
380.183763000000000
 20
-123.570494000000000
 11
264.046119999999970
 21
-123.570494000000000
  0
LINE
  8
0
  6
DASHDOT
 62
256
 10
226.330043999999990
 20
-110.570494000000000
 11
381.061128000000000
 21
-110.570494000000000
  0
LINE
  8
0
  6
DASHDOT
 62
256
 10
107.628696000000010
 20
-68.854346000000007
 11
107.628696000000010
 21
-40.874996000000003
  0
LINE
  8
0
  6
DASHDOT
 62
256
 10
98.320362000000003
 20
-51.570493999999997
 11
117.509401999999990
 21
-51.570493999999997
  0
LINE
  8
0
  6
DASHED
 62
256
 10
114.628696000000010
 20
-66.070493999999997
 11
114.628696000000010
 21
-51.570493999999997
  0
LINE
  8
0
  6
DASHED
 62
256
 10
100.628696000000010
 20
-66.070493999999997
 11
100.628696000000010
 21
-51.570493999999997
  0
ARC
  8
0
  6
DASHED
 62
256
 10
107.628696000000010
 20
-51.570493999999997
 40
7.000000000000000
 50
0.000000000000000
 51
180.000000000000000
  0
CIRCLE
  8
0
  6
DASHED
 62
256
 10
107.628696000000010
 20
-51.570493999999997
 40
6.000000000000000
  0
LINE
  8
0
  6
DASHDOT
 62
256
 10
147.218398000000010
 20
-51.570493999999997
 11
167.592579000000000
 21
-51.570493999999997
  0
ARC
  8
0
  6
DASHED
 62
256
 10
157.628695999999990
 20
-51.570493999999997
 40
7.000000000000000
 50
0.000000000000000
 51
180.000000000000000
  0
LINE
  8
0
  6
DASHED
 62
256
 10
164.628695999999990
 20
-66.070493999999997
 11
164.628695999999990
 21
-51.570493999999997
  0
LINE
  8
0
  6
DASHED
 62
256
 10
150.628695999999990
 20
-66.070493999999997
 11
150.628695999999990
 21
-51.570493999999997
  0
LINE
  8
0
  6
DASHDOT
 62
256
 10
157.628695999999990
 20
-68.854346000000007
 11
157.628695999999990
 21
-40.874996000000003
  0
LINE
  8
0
  6
CONTINUOUS
 62
256
 10
293.388095000000020
 20
-58.670163000000002
 11
289.388095000000020
 21
-58.739983000000002
  0
LINE
  8
0
  6
CONTINUOUS
 62
256
 10
355.888095000000020
 20
-57.579222000000001
 11
353.388095000000020
 21
-57.622858999999998
  0
LINE
  8
0
  6
CONTINUOUS
 62
256
 10
269.888095000000020
 20
-121.570494000000000
 11
233.888168000000010
 21
-121.570494000000000
  0
LINE
  8
0
  6
CONTINUOUS
 62
256
 10
270.908096000000000
 20
-99.570493999999997
 11
265.888168000000010
 21
-99.570493999999997
  0
LINE
  8
0
  6
CONTINUOUS
 62
256
 10
265.888168000000010
 20
-97.070493999999997
 11
265.888168000000010
 21
-99.570493999999997
  0
LINE
  8
0
  6
CONTINUOUS
 62
256
 10
265.888168000000010
 20
-97.070493999999997
 11
233.888186999999990
 21
-97.070493999999997
  0
LINE
  8
0
  6
CONTINUOUS
 62
256
 10
233.888168000000010
 20
-121.570494000000000
 11
233.888168000000010
 21
-97.070493999999997
  0
LINE
  8
0
  6
CONTINUOUS
 62
256
 10
265.888168000000010
 20
-99.570493999999997
 11
233.888168000000010
 21
-99.570493999999997
  0
LINE
  8
0
  6
CONTINUOUS
 62
256
 10
279.888095000000020
 20
-183.418460000000010
 11
279.888095000000020
 21
-170.279867000000000
  0
LINE
  8
0
  6
CONTINUOUS
 62
256
 10
289.388095000000020
 20
-183.418460000000010
 11
279.888095000000020
 21
-183.418460000000010
  0
LINE
  8
0
  6
CONTINUOUS
 62
256
 10
355.888095000000020
 20
-184.579221999999990
 11
289.388095000000020
 21
-183.418460000000010
  0
LINE
  8
0
  6
CONTINUOUS
 62
256
 10
355.888095000000020
 20
-184.570494000000000
 11
366.888095000000020
 21
-184.378488000000000
  0
LINE
  8
0
  6
CONTINUOUS
 62
256
 10
355.888095000000020
 20
-184.587949000000010
 11
355.888095000000020
 21
-175.565392000000000
  0
LINE
  8
0
  6
CONTINUOUS
 62
256
 10
355.888095000000020
 20
-184.579221999999990
 11
355.888095000000020
 21
-180.079221999999990
  0
LINE
  8
0
  6
CONTINUOUS
 62
256
 10
279.888095000000020
 20
-73.079222000000001
 11
275.888095000000020
 21
-73.079222000000001
  0
LINE
  8
0
  6
CONTINUOUS
 62
256
 10
275.888095000000020
 20
-73.079222000000001
 11
275.888095000000020
 21
-81.070493999999997
  0
LINE
  8
0
  6
CONTINUOUS
 62
256
 10
279.888095000000020
 20
-76.861120999999997
 11
279.888095000000020
 21
-58.739983000000002
  0
LINE
  8
0
  6
CONTINUOUS
 62
256
 10
289.388095000000020
 20
-58.739983000000002
 11
279.888095000000020
 21
-58.739983000000002
  0
LINE
  8
0
  6
CONTINUOUS
 62
256
 10
366.888095000000020
 20
-57.762500000000003
 11
366.888095000000020
 21
-76.861120999999997
  0
LINE
  8
0
  6
CONTINUOUS
 62
256
 10
355.888095000000020
 20
-57.570493999999997
 11
366.888095000000020
 21
-57.762500000000003
  0
LINE
  8
0
  6
CONTINUOUS
 62
256
 10
355.888095000000020
 20
-71.575597000000002
 11
355.888095000000020
 21
-61.061767000000003
  0
LINE
  8
0
  6
CONTINUOUS
 62
256
 10
355.888095000000020
 20
-57.561767000000003
 11
355.888095000000020
 21
-62.070493999999997
  0
LINE
  8
0
  6
CONTINUOUS
 62
256
 10
366.888095000000020
 20
-184.378488000000000
 11
366.888095000000020
 21
-170.279867000000000
  0
LINE
  8
0
  6
CONTINUOUS
 62
256
 10
370.888095000000020
 20
-73.070493999999997
 11
366.888095000000020
 21
-73.070493999999997
  0
LINE
  8
0
  6
CONTINUOUS
 62
256
 10
370.888095000000020
 20
-73.070493999999997
 11
370.888095000000020
 21
-81.070493999999997
  0
ARC
  8
0
  6
CONTINUOUS
 62
256
 10
295.888095000000020
 20
-96.070493999999997
 40
25.000000000000011
 50
95.730175000000045
 51
174.269825000000000
  0
ARC
  8
0
  6
CONTINUOUS
 62
256
 10
270.388095000000020
 20
-104.070494000000000
 40
0.500000000000000
 50
90.000000000000000
 51
180.000000000000000
  0
ARC
  8
0
  6
CONTINUOUS
 62
256
 10
303.888095000000020
 20
-70.570493999999997
 40
0.500000000000000
 50
90.000000000000000
 51
180.000000000000000
  0
ARC
  8
0
  6
CONTINUOUS
 62
256
 10
302.888095000000020
 20
-70.570493999999997
 40
0.500000000000000
 50
270.000000000000000
 51
0.000000000000000
  0
ARC
  8
0
  6
CONTINUOUS
 62
256
 10
343.888095000000020
 20
-70.570493999999997
 40
0.500000000000000
 50
180.000000000000000
 51
270.000000000000000
  0
ARC
  8
0
  6
CONTINUOUS
 62
256
 10
342.888095000000020
 20
-70.570493999999997
 40
0.500000000000000
 50
0.000000000000000
 51
90.000000000000000
  0
ARC
  8
0
  6
CONTINUOUS
 62
256
 10
376.388095000000020
 20
-143.070494000000000
 40
0.500000000000000
 50
270.000000000000000
 51
0.000000000000000
  0
ARC
  8
0
  6
CONTINUOUS
 62
256
 10
376.388095000000020
 20
-104.070494000000000
 40
0.500000000000000
 50
0.000000000000000
 51
90.000000000000000
  0
ARC
  8
0
  6
CONTINUOUS
 62
256
 10
376.388095000000020
 20
-103.070494000000000
 40
0.500000000000000
 50
180.000000000000000
 51
270.000000000000000
  0
ARC
  8
0
  6
CONTINUOUS
 62
256
 10
343.888095000000020
 20
-176.570494000000000
 40
0.500000000000000
 50
90.000000000000000
 51
180.000000000000000
  0
ARC
  8
0
  6
CONTINUOUS
 62
256
 10
376.388095000000020
 20
-144.070494000000000
 40
0.500000000000000
 50
90.000000000000000
 51
180.000000000000000
  0
ARC
  8
0
  6
CONTINUOUS
 62
256
 10
302.888095000000020
 20
-176.570494000000000
 40
0.500000000000000
 50
0.000000000000000
 51
90.000000000000000
  0
ARC
  8
0
  6
CONTINUOUS
 62
256
 10
303.888095000000020
 20
-176.570494000000000
 40
0.500000000000000
 50
180.000000000000000
 51
270.000000000000000
  0
ARC
  8
0
  6
CONTINUOUS
 62
256
 10
342.888095000000020
 20
-176.570494000000000
 40
0.500000000000000
 50
270.000000000000000
 51
0.000000000000000
  0
ARC
  8
0
  6
CONTINUOUS
 62
256
 10
270.388095000000020
 20
-143.070494000000000
 40
0.500000000000000
 50
180.000000000000000
 51
270.000000000000000
  0
ARC
  8
0
  6
CONTINUOUS
 62
256
 10
270.388095000000020
 20
-144.070494000000000
 40
0.500000000000000
 50
0.000000000000000
 51
90.000000000000000
  0
ARC
  8
0
  6
CONTINUOUS
 62
256
 10
270.388095000000020
 20
-103.070494000000000
 40
0.500000000000000
 50
270.000000000000000
 51
0.000000000000000
  0
ARC
  8
0
  6
CONTINUOUS
 62
256
 10
343.388095000000020
 20
-471.070494000000000
 40
400.000000000000000
 50
88.568016000000000
 51
89.928470000000004
  0
ARC
  8
0
  6
CONTINUOUS
 62
256
 10
-24.111905000000000
 20
-103.570494000000000
 40
400.000000000000000
 50
0.071529999999999
 51
1.431984000000000
  0
ARC
  8
0
  6
CONTINUOUS
 62
256
 10
350.888095000000020
 20
-96.070493999999997
 40
24.999999999999979
 50
5.730175000000014
 51
84.269824999999955
  0
ARC
  8
0
  6
CONTINUOUS
 62
256
 10
-24.111905000000000
 20
-143.570494000000000
 40
400.000000000000000
 50
359.140459000000020
 51
359.928470000000000
  0
ARC
  8
0
  6
CONTINUOUS
 62
256
 10
343.388095000000020
 20
223.929506000000000
 40
400.000000000000000
 50
270.071530000000000
 51
271.431984000000000
  0
ARC
  8
0
  6
CONTINUOUS
 62
256
 10
350.888095000000020
 20
-151.070494000000000
 40
25.000000000000011
 50
275.730175000000030
 51
3.438649999999981
  0
ARC
  8
0
  6
CONTINUOUS
 62
256
 10
303.388095000000020
 20
223.929506000000000
 40
400.000000000000000
 50
269.140459000000020
 51
269.928470000000000
  0
ARC
  8
0
  6
CONTINUOUS
 62
256
 10
670.888095000000020
 20
-143.570494000000000
 40
400.000000000000000
 50
180.071529999999970
 51
181.431983999999970
  0
ARC
  8
0
  6
CONTINUOUS
 62
256
 10
295.888095000000020
 20
-151.070494000000000
 40
24.999999999999979
 50
185.730174999999970
 51
273.438650000000000
  0
ARC
  8
0
  6
CONTINUOUS
 62
256
 10
670.888095000000020
 20
-103.570494000000000
 40
400.000000000000000
 50
178.568016000000000
 51
179.947000000000000
  0
ARC
  8
0
  6
CONTINUOUS
 62
256
 10
303.388095000000020
 20
-471.070494000000000
 40
400.000000000000000
 50
90.071529999999996
 51
91.431984000000014
  0
LINE
  8
0
  6
CONTINUOUS
 62
256
 10
303.888095000000020
 20
-70.070493999999997
 11
342.888095000000020
 21
-70.070493999999997
  0
LINE
  8
0
  6
CONTINUOUS
 62
256
 10
342.888095000000020
 20
-177.070494000000000
 11
303.888095000000020
 21
-177.070494000000000
  0
LINE
  8
0
  6
CONTINUOUS
 62
256
 10
376.888095000000020
 20
-104.070494000000000
 11
376.888095000000020
 21
-143.070494000000000
  0
LINE
  8
0
  6
CONTINUOUS
 62
256
 10
269.888095000000020
 20
-143.070494000000000
 11
269.888095000000020
 21
-104.070494000000000
  0
LINE
  8
0
  6
DASHDOT
 62
256
 10
323.388095000000020
 20
-30.663284999999998
 11
323.388095000000020
 21
-192.276837000000000
  0
LINE
  8
0
  6
CONTINUOUS
 62
256
 10
303.388095000000020
 20
-70.770493999999999
 11
303.388095000000020
 21
-74.364294999999998
  0
ARC
  8
0
  6
CONTINUOUS
 62
256
 10
304.088095000000010
 20
-70.770493999999999
 40
0.700000000000003
 50
90.000000000000000
 51
180.000000000000000
  0
LINE
  8
0
  6
CONTINUOUS
 62
256
 10
304.088095000000010
 20
-70.070493999999997
 11
323.388095000000020
 21
-70.070493999999997
  0
LINE
  8
0
  6
CONTINUOUS
 62
256
 10
343.388095000000020
 20
-70.770493999999999
 11
343.388095000000020
 21
-74.364294999999998
  0
ARC
  8
0
  6
CONTINUOUS
 62
256
 10
342.688094999999980
 20
-70.770493999999999
 40
0.699999999999989
 50
0.000000000000000
 51
90.000000000000000
  0
LINE
  8
0
  6
CONTINUOUS
 62
256
 10
342.688094999999980
 20
-70.070493999999997
 11
323.388095000000020
 21
-70.070493999999997
  0
LINE
  8
0
  6
CONTINUOUS
 62
256
 10
325.888095000000020
 20
-36.070493999999997
 11
320.888095000000020
 21
-36.070493999999997
  0
LINE
  8
0
  6
CONTINUOUS
 62
256
 10
325.888095000000020
 20
-36.580911000000000
 11
325.888095000000020
 21
-36.070493999999997
  0
LINE
  8
0
  6
CONTINUOUS
 62
256
 10
320.888095000000020
 20
-36.580911000000000
 11
320.888095000000020
 21
-36.070493999999997
  0
ARC
  8
0
  6
CONTINUOUS
 62
256
 10
323.388095000000020
 20
-336.570494000000000
 40
300.000000000000000
 50
85.138594999999995
 51
94.861405000000005
  0
LINE
  8
0
  6
CONTINUOUS
 62
256
 10
354.888095000000020
 20
-71.070493999999997
 11
354.888095000000020
 21
-66.070493999999997
  0
LINE
  8
0
  6
CONTINUOUS
 62
256
 10
291.888095000000020
 20
-71.070493999999997
 11
291.888095000000020
 21
-66.070493999999997
  0
LINE
  8
0
  6
CONTINUOUS
 62
256
 10
343.888095000000020
 20
-71.070493999999997
 11
354.888095000000020
 21
-71.070493999999997
  0
ARC
  8
0
  6
CONTINUOUS
 62
256
 10
303.088095000000010
 20
-69.770493999999999
 40
0.200000000000003
 50
90.000000000000000
 51
180.000000000000000
  0
LINE
  8
0
  6
CONTINUOUS
 62
256
 10
343.688094999999980
 20
-69.570493999999997
 11
303.088095000000010
 21
-69.570493999999997
  0
LINE
  8
0
  6
CONTINUOUS
 62
256
 10
302.888095000000020
 20
-71.070493999999997
 11
302.888095000000020
 21
-69.770493999999999
  0
LINE
  8
0
  6
CONTINUOUS
 62
256
 10
302.888095000000020
 20
-71.070493999999997
 11
291.888095000000020
 21
-71.070493999999997
  0
ARC
  8
0
  6
CONTINUOUS
 62
256
 10
343.688094999999980
 20
-69.770493999999999
 40
0.199999999999989
 50
0.000000000000000
 51
90.000000000000000
  0
LINE
  8
0
  6
CONTINUOUS
 62
256
 10
343.888095000000020
 20
-71.070493999999997
 11
343.888095000000020
 21
-69.770493999999999
  0
LINE
  8
0
  6
CONTINUOUS
 62
256
 10
354.888095000000020
 20
-66.070493999999997
 11
291.888095000000020
 21
-66.070493999999997
  0
LINE
  8
0
  6
CONTINUOUS
 62
256
 10
300.943902999999980
 20
-74.609181000000007
 11
300.886725000000010
 21
-73.518158000000000
  0
ARC
  8
0
  6
CONTINUOUS
 62
256
 10
301.942532000000030
 20
-74.556844999999996
 40
0.999999999999997
 50
182.999999999999890
 51
293.631429999999280
  0
ARC
  8
0
  6
CONTINUOUS
 62
256
 10
299.888095000000020
 20
-73.570493999999997
 40
0.999999999999997
 50
2.999999999999903
 51
177.000000000000110
  0
LINE
  8
0
  6
CONTINUOUS
 62
256
 10
298.723779999999980
 20
-76.679637999999997
 11
298.889466000000030
 21
-73.518158000000000
  0
LINE
  8
0
  6
CONTINUOUS
 62
256
 10
296.557280999999990
 20
-76.772555999999994
 11
296.386725000000010
 21
-73.518158000000000
  0
ARC
  8
0
  6
CONTINUOUS
 62
256
 10
295.388095000000020
 20
-73.570493999999997
 40
0.999999999999997
 50
2.999999999999903
 51
177.000000000000110
  0
ARC
  8
0
  6
CONTINUOUS
 62
256
 10
290.888095000000020
 20
-74.070493999999997
 40
0.999999999999997
 50
2.999999999999903
 51
177.000000000000110
  0
ARC
  8
0
  6
CONTINUOUS
 62
256
 10
323.388095000000020
 20
-123.570494000000000
 40
52.500000000000007
 50
113.111602000000020
 51
113.663704999999980
  0
ARC
  8
0
  6
CONTINUOUS
 62
256
 10
302.388095000000020
 20
-74.364294999999998
 40
0.999999999999988
 50
293.111601999998980
 51
0.000000000000000
  0
ARC
  8
0
  6
CONTINUOUS
 62
256
 10
323.388095000000020
 20
-123.570494000000000
 40
52.500000000000007
 50
113.111602000000020
 51
113.695081000000030
  0
LINE
  8
0
  6
CONTINUOUS
 62
256
 10
345.832288000000010
 20
-74.609181000000007
 11
345.889466000000030
 21
-73.518158000000000
  0
ARC
  8
0
  6
CONTINUOUS
 62
256
 10
344.833658000000010
 20
-74.556844999999996
 40
0.999999999999990
 50
246.368570000000690
 51
357.000000000000060
  0
ARC
  8
0
  6
CONTINUOUS
 62
256
 10
346.888095000000020
 20
-73.570493999999997
 40
0.999999999999997
 50
2.999999999999903
 51
177.000000000000110
  0
LINE
  8
0
  6
CONTINUOUS
 62
256
 10
348.052411000000010
 20
-76.679637999999997
 11
347.886725000000010
 21
-73.518158000000000
  0
LINE
  8
0
  6
CONTINUOUS
 62
256
 10
350.218909999999990
 20
-76.772555999999994
 11
350.389466000000030
 21
-73.518158000000000
  0
ARC
  8
0
  6
CONTINUOUS
 62
256
 10
351.388095000000020
 20
-73.570493999999997
 40
0.999999999999997
 50
2.999999999999903
 51
177.000000000000110
  0
ARC
  8
0
  6
CONTINUOUS
 62
256
 10
355.888095000000020
 20
-74.070493999999997
 40
0.999999999999997
 50
2.999999999999903
 51
177.000000000000110
  0
ARC
  8
0
  6
CONTINUOUS
 62
256
 10
323.388095000000020
 20
-123.570494000000000
 40
52.500000000000000
 50
66.336295000000021
 51
66.888397999999981
  0
ARC
  8
0
  6
CONTINUOUS
 62
256
 10
344.388095000000020
 20
-74.364294999999998
 40
1.000000000000000
 50
180.000000000000000
 51
246.888398000001020
  0
ARC
  8
0
  6
CONTINUOUS
 62
256
 10
323.388095000000020
 20
-123.570494000000000
 40
52.500000000000007
 50
66.304918999999984
 51
66.888397999999981
  0
ARC
  8
0
  6
CONTINUOUS
 62
256
 10
288.565717000000010
 20
-80.169456999999994
 40
1.000000000000008
 50
228.000000000000060
 51
357.000000000000060
  0
LINE
  8
0
  6
CONTINUOUS
 62
256
 10
289.564347000000000
 20
-80.221793000000005
 11
289.889466000000030
 21
-74.018158000000000
  0
ARC
  8
0
  6
CONTINUOUS
 62
256
 10
323.388095000000020
 20
-123.570494000000000
 40
61.500000000000007
 50
131.401106000000000
 51
138.598893999999970
  0
ARC
  8
0
  6
CONTINUOUS
 62
256
 10
283.377851000000020
 20
-78.189547000000005
 40
1.000000000000008
 50
48.000000000000071
 51
131.401105999998830
  0
ARC
  8
0
  6
CONTINUOUS
 62
256
 10
279.987058999999990
 20
-88.748115999999996
 40
0.999999999999996
 50
272.999999999999090
 51
42.000000000001023
  0
LINE
  8
0
  6
CONTINUOUS
 62
256
 10
280.039395000000010
 20
-89.746746000000002
 11
273.835759000000000
 21
-90.071865000000003
  0
ARC
  8
0
  6
CONTINUOUS
 62
256
 10
278.007147999999970
 20
-83.560249999999996
 40
1.000000000000007
 50
138.598893999999970
 51
222.000000000000990
  0
ARC
  8
0
  6
CONTINUOUS
 62
256
 10
293.075296999999980
 20
-79.486661999999995
 40
0.999999999999985
 50
304.513078999999210
 51
357.000000000000060
  0
ARC
  8
0
  6
CONTINUOUS
 62
256
 10
293.171240000000010
 20
-79.420843000000005
 40
0.999999999999997
 50
182.999999999999890
 51
304.388475999999630
  0
ARC
  8
0
  6
CONTINUOUS
 62
256
 10
297.725149999999990
 20
-76.627302000000000
 40
0.999999999999983
 50
298.664583999998970
 51
357.000000000000060
  0
ARC
  8
0
  6
CONTINUOUS
 62
256
 10
297.555909999999980
 20
-76.720219999999998
 40
0.999999999999997
 50
182.999999999999890
 51
298.871351999999430
  0
LINE
  8
0
  6
CONTINUOUS
 62
256
 10
294.073927000000030
 20
-79.538998000000007
 11
294.389466000000030
 21
-73.518158000000000
  0
LINE
  8
0
  6
CONTINUOUS
 62
256
 10
292.172610000000020
 20
-79.473179000000002
 11
291.886725000000010
 21
-74.018158000000000
  0
ARC
  8
0
  6
CONTINUOUS
 62
256
 10
323.388095000000020
 20
-123.570494000000000
 40
52.500000000000007
 50
118.562833999999970
 51
118.973448999999970
  0
ARC
  8
0
  6
CONTINUOUS
 62
256
 10
323.388095000000020
 20
-123.570494000000000
 40
52.500000000000007
 50
118.562833999999970
 51
118.973448999999970
  0
LINE
  8
0
  6
CONTINUOUS
 62
256
 10
279.356599000000020
 20
-94.256326000000001
 11
273.335759000000000
 21
-94.571865000000003
  0
LINE
  8
0
  6
CONTINUOUS
 62
256
 10
279.290780999999980
 20
-92.355008999999995
 11
273.835759000000000
 21
-92.069124000000002
  0
ARC
  8
0
  6
CONTINUOUS
 62
256
 10
273.888095000000020
 20
-91.070493999999997
 40
0.999999999999996
 50
92.999999999999091
 51
267.000000000000910
  0
LINE
  8
0
  6
CONTINUOUS
 62
256
 10
276.590156999999980
 20
-96.739678999999995
 11
273.335759000000000
 21
-96.569124000000002
  0
ARC
  8
0
  6
CONTINUOUS
 62
256
 10
273.388095000000020
 20
-95.570493999999997
 40
0.999999999999996
 50
92.999999999999091
 51
267.000000000000910
  0
LINE
  8
0
  6
CONTINUOUS
 62
256
 10
274.426782000000000
 20
-101.126302000000000
 11
273.335759000000000
 21
-101.069124000000000
  0
ARC
  8
0
  6
CONTINUOUS
 62
256
 10
273.388095000000020
 20
-104.570494000000000
 40
0.999999999999996
 50
92.999999999999091
 51
249.929667999999880
  0
LINE
  8
0
  6
CONTINUOUS
 62
256
 10
274.253617000000020
 20
-103.523762000000000
 11
273.335759000000000
 21
-103.571865000000000
  0
ARC
  8
0
  6
CONTINUOUS
 62
256
 10
274.201280999999990
 20
-102.525132000000000
 40
0.999999999999996
 50
272.999999999999090
 51
336.835567999999680
  0
ARC
  8
0
  6
CONTINUOUS
 62
256
 10
272.701749000000010
 20
-106.449038000000000
 40
0.999999999999979
 50
341.335428999999240
 51
69.929667999999921
  0
ARC
  8
0
  6
CONTINUOUS
 62
256
 10
274.374445999999980
 20
-102.124931000000000
 40
0.999999999999982
 50
336.368569999999640
 51
87.000000000000909
  0
ARC
  8
0
  6
CONTINUOUS
 62
256
 10
276.444904000000010
 20
-97.907549000000003
 40
0.999999999999996
 50
272.999999999999090
 51
331.335416000000010
  0
LINE
  8
0
  6
CONTINUOUS
 62
256
 10
276.497239999999980
 20
-98.906177999999997
 11
273.335759000000000
 21
-99.071865000000003
  0
ARC
  8
0
  6
CONTINUOUS
 62
256
 10
276.537821000000010
 20
-97.738309000000001
 40
0.999999999999995
 50
331.128647999999880
 51
87.000000000000909
  0
ARC
  8
0
  6
CONTINUOUS
 62
256
 10
273.388095000000020
 20
-100.070494000000000
 40
0.999999999999996
 50
92.999999999999091
 51
267.000000000000910
  0
ARC
  8
0
  6
CONTINUOUS
 62
256
 10
323.388095000000020
 20
-123.570494000000000
 40
52.499999999999979
 50
151.026550999999980
 51
151.437166000000020
  0
ARC
  8
0
  6
CONTINUOUS
 62
256
 10
323.388095000000020
 20
-123.570494000000000
 40
52.499999999999979
 50
161.335429000000000
 51
164.122298000000000
  0
ARC
  8
0
  6
CONTINUOUS
 62
256
 10
272.308178000000000
 20
-110.070494000000000
 40
0.500000000000000
 50
90.000000000000000
 51
172.202150000000130
  0
LINE
  8
0
  6
CONTINUOUS
 62
256
 10
272.308178000000000
 20
-109.570494000000000
 11
272.410159000000020
 21
-109.570494000000000
  0
ARC
  8
0
  6
CONTINUOUS
 62
256
 10
272.410159000000020
 20
-109.070494000000000
 40
0.500000000000000
 50
270.000000000000000
 51
344.122298000000230
  0
ARC
  8
0
  6
CONTINUOUS
 62
256
 10
279.238445000000010
 20
-93.353639000000001
 40
1.000000000000025
 50
328.884247000000410
 51
87.000000000000909
  0
ARC
  8
0
  6
CONTINUOUS
 62
256
 10
279.304262999999990
 20
-93.257695999999996
 40
0.999999999999996
 50
272.999999999999090
 51
322.214196999999560
  0
ARC
  8
0
  6
CONTINUOUS
 62
256
 10
323.388095000000020
 20
-123.570494000000000
 40
52.500000000000007
 50
156.336295000000010
 51
156.863111000000000
  0
LINE
  8
0
  6
CONTINUOUS
 62
256
 10
287.296730000000030
 20
-95.371853000000002
 11
277.264003000000000
 21
-84.229380000000006
  0
LINE
  8
0
  6
CONTINUOUS
 62
256
 10
295.189454000000010
 20
-87.479129000000000
 11
284.046982000000010
 21
-77.446402000000006
  0
ARC
  8
0
  6
CONTINUOUS
 62
256
 10
358.210472999999980
 20
-80.169456999999994
 40
0.999999999999997
 50
182.999999999999890
 51
311.999999999999940
  0
LINE
  8
0
  6
CONTINUOUS
 62
256
 10
357.211843999999990
 20
-80.221793000000005
 11
356.886725000000010
 21
-74.018158000000000
  0
ARC
  8
0
  6
CONTINUOUS
 62
256
 10
323.388095000000020
 20
-123.570494000000000
 40
61.499999999999986
 50
41.401106000000020
 51
48.598894000000001
  0
ARC
  8
0
  6
CONTINUOUS
 62
256
 10
363.398340000000020
 20
-78.189547000000005
 40
0.999999999999988
 50
48.598894000001188
 51
131.999999999999940
  0
ARC
  8
0
  6
CONTINUOUS
 62
256
 10
366.789132000000000
 20
-88.748115999999996
 40
0.999999999999987
 50
137.999999999999010
 51
267.000000000000910
  0
LINE
  8
0
  6
CONTINUOUS
 62
256
 10
366.736796000000030
 20
-89.746746000000002
 11
372.940430999999990
 21
-90.071865000000003
  0
ARC
  8
0
  6
CONTINUOUS
 62
256
 10
368.769042000000010
 20
-83.560249999999996
 40
0.999999999999987
 50
317.999999999998980
 51
41.401106000000027
  0
ARC
  8
0
  6
CONTINUOUS
 62
256
 10
353.700893000000010
 20
-79.486661999999995
 40
0.999999999999997
 50
182.999999999999890
 51
235.486921000000790
  0
ARC
  8
0
  6
CONTINUOUS
 62
256
 10
353.604951000000030
 20
-79.420843000000005
 40
1.000000000000002
 50
235.611524000000370
 51
357.000000000000060
  0
ARC
  8
0
  6
CONTINUOUS
 62
256
 10
349.051041000000000
 20
-76.627302000000000
 40
0.999999999999997
 50
182.999999999999890
 51
241.335416000001000
  0
ARC
  8
0
  6
CONTINUOUS
 62
256
 10
349.220280000000000
 20
-76.720219999999998
 40
0.999999999999988
 50
241.128648000000570
 51
357.000000000000060
  0
LINE
  8
0
  6
CONTINUOUS
 62
256
 10
352.702264000000010
 20
-79.538998000000007
 11
352.386725000000010
 21
-73.518158000000000
  0
LINE
  8
0
  6
CONTINUOUS
 62
256
 10
354.603580000000020
 20
-79.473179000000002
 11
354.889466000000030
 21
-74.018158000000000
  0
ARC
  8
0
  6
CONTINUOUS
 62
256
 10
323.388095000000020
 20
-123.570494000000000
 40
52.499999999999986
 50
61.026551000000019
 51
61.437166000000026
  0
ARC
  8
0
  6
CONTINUOUS
 62
256
 10
323.388095000000020
 20
-123.570494000000000
 40
52.499999999999986
 50
61.026551000000019
 51
61.437166000000026
  0
LINE
  8
0
  6
CONTINUOUS
 62
256
 10
367.419592000000020
 20
-94.256326000000001
 11
373.440430999999990
 21
-94.571865000000003
  0
LINE
  8
0
  6
CONTINUOUS
 62
256
 10
367.485410000000000
 20
-92.355008999999995
 11
372.940430999999990
 21
-92.069124000000002
  0
ARC
  8
0
  6
CONTINUOUS
 62
256
 10
372.888095000000020
 20
-91.070493999999997
 40
0.999999999999996
 50
272.999999999999090
 51
87.000000000000909
  0
LINE
  8
0
  6
CONTINUOUS
 62
256
 10
370.186034000000010
 20
-96.739678999999995
 11
373.440430999999990
 21
-96.569124000000002
  0
ARC
  8
0
  6
CONTINUOUS
 62
256
 10
373.388095000000020
 20
-95.570493999999997
 40
0.999999999999996
 50
272.999999999999090
 51
87.000000000000909
  0
LINE
  8
0
  6
CONTINUOUS
 62
256
 10
372.349408999999980
 20
-101.126302000000000
 11
373.440430999999990
 21
-101.069124000000000
  0
ARC
  8
0
  6
CONTINUOUS
 62
256
 10
373.388095000000020
 20
-104.570494000000000
 40
1.000000000000005
 50
290.070332000000060
 51
87.000000000000909
  0
LINE
  8
0
  6
CONTINUOUS
 62
256
 10
372.522574000000020
 20
-103.523762000000000
 11
373.440430999999990
 21
-103.571865000000000
  0
ARC
  8
0
  6
CONTINUOUS
 62
256
 10
372.574909999999990
 20
-102.525132000000000
 40
0.999999999999977
 50
203.164432000000290
 51
267.000000000000910
  0
ARC
  8
0
  6
CONTINUOUS
 62
256
 10
374.074441999999980
 20
-106.449038000000000
 40
1.000000000000005
 50
110.070332000000090
 51
198.664571000000760
  0
ARC
  8
0
  6
CONTINUOUS
 62
256
 10
372.401745000000010
 20
-102.124931000000000
 40
0.999999999999996
 50
92.999999999999091
 51
203.631430000000390
  0
ARC
  8
0
  6
CONTINUOUS
 62
256
 10
370.331286999999970
 20
-97.907549000000003
 40
1.000000000000009
 50
208.664584000000020
 51
267.000000000000910
  0
LINE
  8
0
  6
CONTINUOUS
 62
256
 10
370.278951000000010
 20
-98.906177999999997
 11
373.440430999999990
 21
-99.071865000000003
  0
ARC
  8
0
  6
CONTINUOUS
 62
256
 10
370.238369999999970
 20
-97.738309000000001
 40
0.999999999999996
 50
92.999999999999091
 51
208.871352000000170
  0
ARC
  8
0
  6
CONTINUOUS
 62
256
 10
373.388095000000020
 20
-100.070494000000000
 40
0.999999999999996
 50
272.999999999999090
 51
87.000000000000909
  0
ARC
  8
0
  6
CONTINUOUS
 62
256
 10
323.388095000000020
 20
-123.570494000000000
 40
52.500000000000014
 50
28.562833999999995
 51
28.973449000000016
  0
ARC
  8
0
  6
CONTINUOUS
 62
256
 10
323.388095000000020
 20
-123.570494000000000
 40
52.500000000000021
 50
15.877701999999992
 51
18.664571000000006
  0
ARC
  8
0
  6
CONTINUOUS
 62
256
 10
374.468011999999990
 20
-110.070494000000000
 40
0.499999999999976
 50
7.797849999999888
 51
90.000000000000000
  0
LINE
  8
0
  6
CONTINUOUS
 62
256
 10
374.468011999999990
 20
-109.570494000000000
 11
374.366032000000020
 21
-109.570494000000000
  0
ARC
  8
0
  6
CONTINUOUS
 62
256
 10
374.366032000000020
 20
-109.070494000000000
 40
0.500000000000015
 50
195.877701999999800
 51
270.000000000000000
  0
ARC
  8
0
  6
CONTINUOUS
 62
256
 10
367.537746000000030
 20
-93.353639000000001
 40
0.999999999999996
 50
92.999999999999091
 51
211.115752999999530
  0
ARC
  8
0
  6
CONTINUOUS
 62
256
 10
367.471927999999990
 20
-93.257695999999996
 40
0.999999999999998
 50
217.785803000000440
 51
267.000000000000910
  0
ARC
  8
0
  6
CONTINUOUS
 62
256
 10
323.388095000000020
 20
-123.570494000000000
 40
52.500000000000014
 50
23.136889000000000
 51
23.663704999999993
  0
LINE
  8
0
  6
CONTINUOUS
 62
256
 10
359.479460000000020
 20
-95.371853000000002
 11
369.512186999999980
 21
-84.229380000000006
  0
LINE
  8
0
  6
CONTINUOUS
 62
256
 10
351.586737000000030
 20
-87.479129000000000
 11
362.729209000000030
 21
-77.446402000000006
  0
ARC
  8
0
  6
CONTINUOUS
 62
256
 10
370.888095000000020
 20
-123.570494000000000
 40
100.000000000000010
 50
172.202150000000020
 51
180.000000000000000
  0
ARC
  8
0
  6
CONTINUOUS
 62
256
 10
275.888095000000020
 20
-123.570494000000000
 40
100.000000000000000
 50
0.000000000000000
 51
7.797850000000000
  0
ARC
  8
0
  6
CONTINUOUS
 62
256
 10
358.210472999999980
 20
-166.971531000000000
 40
1.000000000000008
 50
48.000000000000071
 51
176.999999999999290
  0
LINE
  8
0
  6
CONTINUOUS
 62
256
 10
357.211843999999990
 20
-166.919195000000000
 11
356.886725000000010
 21
-173.122829999999990
  0
ARC
  8
0
  6
CONTINUOUS
 62
256
 10
323.388095000000020
 20
-123.570494000000000
 40
61.500000000000007
 50
311.401106000000030
 51
318.598893999999970
  0
ARC
  8
0
  6
CONTINUOUS
 62
256
 10
363.398340000000020
 20
-168.951440999999990
 40
1.000000000000008
 50
228.000000000000060
 51
311.401105999998780
  0
ARC
  8
0
  6
CONTINUOUS
 62
256
 10
366.789132000000000
 20
-158.392872000000010
 40
0.999999999999996
 50
92.999999999999091
 51
222.000000000000990
  0
LINE
  8
0
  6
CONTINUOUS
 62
256
 10
366.736796000000030
 20
-157.394241999999990
 11
372.940430999999990
 21
-157.069123999999990
  0
ARC
  8
0
  6
CONTINUOUS
 62
256
 10
368.769042000000010
 20
-163.580738000000000
 40
1.000000000000007
 50
318.598893999999970
 51
42.000000000001023
  0
ARC
  8
0
  6
CONTINUOUS
 62
256
 10
353.700893000000010
 20
-167.654326999999990
 40
0.999999999999985
 50
124.513078999999190
 51
176.999999999999290
  0
ARC
  8
0
  6
CONTINUOUS
 62
256
 10
353.604951000000030
 20
-167.720145000000000
 40
0.999999999999997
 50
3.000000000000716
 51
124.388475999999600
  0
LINE
  8
0
  6
CONTINUOUS
 62
256
 10
345.832288000000010
 20
-172.531808000000010
 11
345.889466000000030
 21
-173.622829999999990
  0
ARC
  8
0
  6
CONTINUOUS
 62
256
 10
344.833658000000010
 20
-172.584144000000010
 40
0.999999999999997
 50
3.000000000000716
 51
113.631429999999000
  0
ARC
  8
0
  6
CONTINUOUS
 62
256
 10
346.888095000000020
 20
-173.570494000000000
 40
0.999999999999997
 50
183.000000000000710
 51
356.999999999999260
  0
ARC
  8
0
  6
CONTINUOUS
 62
256
 10
349.051041000000000
 20
-170.513686000000010
 40
0.999999999999996
 50
118.664583999998610
 51
176.999999999999290
  0
LINE
  8
0
  6
CONTINUOUS
 62
256
 10
348.052411000000010
 20
-170.461350000000010
 11
347.886725000000010
 21
-173.622829999999990
  0
ARC
  8
0
  6
CONTINUOUS
 62
256
 10
349.220280000000000
 20
-170.420768000000010
 40
0.999999999999997
 50
3.000000000000716
 51
118.871351999999450
  0
LINE
  8
0
  6
CONTINUOUS
 62
256
 10
350.218909999999990
 20
-170.368433000000010
 11
350.389466000000030
 21
-173.622829999999990
  0
LINE
  8
0
  6
CONTINUOUS
 62
256
 10
352.702264000000010
 20
-167.601991000000000
 11
352.386725000000010
 21
-173.622829999999990
  0
LINE
  8
0
  6
CONTINUOUS
 62
256
 10
354.603580000000020
 20
-167.667809000000010
 11
354.889466000000030
 21
-173.122829999999990
  0
ARC
  8
0
  6
CONTINUOUS
 62
256
 10
351.388095000000020
 20
-173.570494000000000
 40
0.999999999999997
 50
183.000000000000710
 51
356.999999999999260
  0
ARC
  8
0
  6
CONTINUOUS
 62
256
 10
355.888095000000020
 20
-173.070494000000000
 40
0.999999999999997
 50
183.000000000000710
 51
356.999999999999260
  0
ARC
  8
0
  6
CONTINUOUS
 62
256
 10
323.388095000000020
 20
-123.570494000000000
 40
52.499999999999979
 50
298.562833999999950
 51
298.973448999999960
  0
ARC
  8
0
  6
CONTINUOUS
 62
256
 10
323.388095000000020
 20
-123.570494000000000
 40
52.499999999999979
 50
298.562833999999950
 51
298.973448999999960
  0
ARC
  8
0
  6
CONTINUOUS
 62
256
 10
323.388095000000020
 20
-123.570494000000000
 40
52.500000000000014
 50
293.111602000000000
 51
293.663705000000050
  0
ARC
  8
0
  6
CONTINUOUS
 62
256
 10
344.388095000000020
 20
-172.776692999999990
 40
1.000000000000001
 50
113.111601999998680
 51
180.000000000000000
  0
ARC
  8
0
  6
CONTINUOUS
 62
256
 10
323.388095000000020
 20
-123.570494000000000
 40
52.500000000000014
 50
293.111602000000000
 51
293.695081000000020
  0
LINE
  8
0
  6
CONTINUOUS
 62
256
 10
343.388095000000020
 20
-176.370494000000010
 11
343.388095000000020
 21
-172.776692999999990
  0
ARC
  8
0
  6
CONTINUOUS
 62
256
 10
342.688094999999980
 20
-176.370494000000010
 40
0.699999999999989
 50
270.000000000000000
 51
0.000000000000000
  0
LINE
  8
0
  6
CONTINUOUS
 62
256
 10
342.688094999999980
 20
-177.070494000000000
 11
323.388095000000020
 21
-177.070494000000000
  0
LINE
  8
0
  6
CONTINUOUS
 62
256
 10
367.419592000000020
 20
-152.884661999999990
 11
373.440430999999990
 21
-152.569123999999990
  0
LINE
  8
0
  6
CONTINUOUS
 62
256
 10
367.485410000000000
 20
-154.785979000000000
 11
372.940430999999990
 21
-155.071865000000000
  0
ARC
  8
0
  6
CONTINUOUS
 62
256
 10
372.888095000000020
 20
-156.070494000000000
 40
0.999999999999996
 50
272.999999999999090
 51
87.000000000000909
  0
LINE
  8
0
  6
CONTINUOUS
 62
256
 10
370.186034000000010
 20
-150.401309000000000
 11
373.440430999999990
 21
-150.571865000000000
  0
ARC
  8
0
  6
CONTINUOUS
 62
256
 10
373.388095000000020
 20
-151.570494000000000
 40
0.999999999999996
 50
272.999999999999090
 51
87.000000000000909
  0
LINE
  8
0
  6
CONTINUOUS
 62
256
 10
372.349408999999980
 20
-146.014686000000010
 11
373.440430999999990
 21
-146.071865000000000
  0
ARC
  8
0
  6
CONTINUOUS
 62
256
 10
373.388095000000020
 20
-142.570494000000000
 40
0.999999999999996
 50
272.999999999999090
 51
69.929667999999921
  0
LINE
  8
0
  6
CONTINUOUS
 62
256
 10
372.522574000000020
 20
-143.617225999999990
 11
373.440430999999990
 21
-143.569123999999990
  0
ARC
  8
0
  6
CONTINUOUS
 62
256
 10
372.574909999999990
 20
-144.615856000000010
 40
0.999999999999996
 50
92.999999999999091
 51
156.835567999999710
  0
ARC
  8
0
  6
CONTINUOUS
 62
256
 10
374.074441999999980
 20
-140.691949999999990
 40
0.999999999999979
 50
161.335428999999240
 51
249.929667999999880
  0
ARC
  8
0
  6
CONTINUOUS
 62
256
 10
372.401745000000010
 20
-145.016056999999990
 40
0.999999999999988
 50
156.368569999998870
 51
267.000000000000910
  0
ARC
  8
0
  6
CONTINUOUS
 62
256
 10
370.331286999999970
 20
-149.233439000000000
 40
0.999999999999996
 50
92.999999999999091
 51
151.335415999999980
  0
LINE
  8
0
  6
CONTINUOUS
 62
256
 10
370.278951000000010
 20
-148.234810000000010
 11
373.440430999999990
 21
-148.069123999999990
  0
ARC
  8
0
  6
CONTINUOUS
 62
256
 10
370.238369999999970
 20
-149.402679000000010
 40
0.999999999999988
 50
151.128648000000540
 51
267.000000000000910
  0
ARC
  8
0
  6
CONTINUOUS
 62
256
 10
373.388095000000020
 20
-147.070494000000000
 40
0.999999999999996
 50
272.999999999999090
 51
87.000000000000909
  0
ARC
  8
0
  6
CONTINUOUS
 62
256
 10
323.388095000000020
 20
-123.570494000000000
 40
52.499999999999986
 50
331.026550999999980
 51
331.437165999999990
  0
ARC
  8
0
  6
CONTINUOUS
 62
256
 10
323.388095000000020
 20
-123.570494000000000
 40
52.499999999999979
 50
341.335429000000030
 51
344.122298000000000
  0
ARC
  8
0
  6
CONTINUOUS
 62
256
 10
275.888095000000020
 20
-123.570494000000000
 40
100.000000000000010
 50
352.202150000000020
 51
0.000000000000000
  0
ARC
  8
0
  6
CONTINUOUS
 62
256
 10
374.468011999999990
 20
-137.070494000000000
 40
0.500000000000000
 50
270.000000000000000
 51
352.202150000000130
  0
LINE
  8
0
  6
CONTINUOUS
 62
256
 10
374.468011999999990
 20
-137.570494000000000
 11
374.366032000000020
 21
-137.570494000000000
  0
ARC
  8
0
  6
CONTINUOUS
 62
256
 10
374.366032000000020
 20
-138.070494000000000
 40
0.500000000000000
 50
90.000000000000000
 51
164.122298000001760
  0
ARC
  8
0
  6
CONTINUOUS
 62
256
 10
367.537746000000030
 20
-153.787349000000010
 40
1.000000000000017
 50
148.884247000001180
 51
267.000000000000910
  0
ARC
  8
0
  6
CONTINUOUS
 62
256
 10
367.471927999999990
 20
-153.883292000000010
 40
0.999999999999996
 50
92.999999999999091
 51
142.214197000000180
  0
ARC
  8
0
  6
CONTINUOUS
 62
256
 10
323.388095000000020
 20
-123.570494000000000
 40
52.500000000000000
 50
336.336295000000010
 51
336.863111000000000
  0
LINE
  8
0
  6
CONTINUOUS
 62
256
 10
359.479460000000020
 20
-151.769136000000000
 11
369.512186999999980
 21
-162.911608000000000
  0
LINE
  8
0
  6
CONTINUOUS
 62
256
 10
351.586737000000030
 20
-159.661858999999990
 11
362.729209000000030
 21
-169.694585999999990
  0
ARC
  8
0
  6
CONTINUOUS
 62
256
 10
288.565717000000010
 20
-166.971531000000000
 40
0.999999999999997
 50
3.000000000000716
 51
131.999999999999940
  0
LINE
  8
0
  6
CONTINUOUS
 62
256
 10
289.564347000000000
 20
-166.919195000000000
 11
289.889466000000030
 21
-173.122829999999990
  0
ARC
  8
0
  6
CONTINUOUS
 62
256
 10
323.388095000000020
 20
-123.570494000000000
 40
61.500000000000028
 50
221.401105999999970
 51
228.598894000000000
  0
ARC
  8
0
  6
CONTINUOUS
 62
256
 10
283.377851000000020
 20
-168.951440999999990
 40
0.999999999999988
 50
228.598894000001170
 51
311.999999999999940
  0
ARC
  8
0
  6
CONTINUOUS
 62
256
 10
279.987058999999990
 20
-158.392872000000010
 40
0.999999999999987
 50
317.999999999998980
 51
87.000000000000909
  0
LINE
  8
0
  6
CONTINUOUS
 62
256
 10
280.039395000000010
 20
-157.394241999999990
 11
273.835759000000000
 21
-157.069123999999990
  0
ARC
  8
0
  6
CONTINUOUS
 62
256
 10
278.007147999999970
 20
-163.580738000000000
 40
0.999999999999987
 50
137.999999999999010
 51
221.401106000000030
  0
ARC
  8
0
  6
CONTINUOUS
 62
256
 10
293.075296999999980
 20
-167.654326999999990
 40
0.999999999999997
 50
3.000000000000716
 51
55.486921000000805
  0
ARC
  8
0
  6
CONTINUOUS
 62
256
 10
293.171240000000010
 20
-167.720145000000000
 40
1.000000000000002
 50
55.611524000000401
 51
176.999999999999290
  0
LINE
  8
0
  6
CONTINUOUS
 62
256
 10
300.943902999999980
 20
-172.531808000000010
 11
300.886725000000010
 21
-173.622829999999990
  0
ARC
  8
0
  6
CONTINUOUS
 62
256
 10
301.942532000000030
 20
-172.584144000000010
 40
1.000000000000003
 50
66.368570000001014
 51
176.999999999999290
  0
ARC
  8
0
  6
CONTINUOUS
 62
256
 10
299.888095000000020
 20
-173.570494000000000
 40
0.999999999999997
 50
183.000000000000710
 51
356.999999999999260
  0
ARC
  8
0
  6
CONTINUOUS
 62
256
 10
297.725149999999990
 20
-170.513686000000010
 40
0.999999999999997
 50
3.000000000000716
 51
61.335416000001402
  0
LINE
  8
0
  6
CONTINUOUS
 62
256
 10
298.723779999999980
 20
-170.461350000000010
 11
298.889466000000030
 21
-173.622829999999990
  0
ARC
  8
0
  6
CONTINUOUS
 62
256
 10
297.555909999999980
 20
-170.420768000000010
 40
0.999999999999988
 50
61.128648000000545
 51
176.999999999999290
  0
LINE
  8
0
  6
CONTINUOUS
 62
256
 10
296.557280999999990
 20
-170.368433000000010
 11
296.386725000000010
 21
-173.622829999999990
  0
LINE
  8
0
  6
CONTINUOUS
 62
256
 10
294.073927000000030
 20
-167.601991000000000
 11
294.389466000000030
 21
-173.622829999999990
  0
LINE
  8
0
  6
CONTINUOUS
 62
256
 10
292.172610000000020
 20
-167.667809000000010
 11
291.886725000000010
 21
-173.122829999999990
  0
ARC
  8
0
  6
CONTINUOUS
 62
256
 10
295.388095000000020
 20
-173.570494000000000
 40
0.999999999999997
 50
183.000000000000710
 51
356.999999999999260
  0
ARC
  8
0
  6
CONTINUOUS
 62
256
 10
290.888095000000020
 20
-173.070494000000000
 40
0.999999999999997
 50
183.000000000000710
 51
356.999999999999260
  0
ARC
  8
0
  6
CONTINUOUS
 62
256
 10
323.388095000000020
 20
-123.570494000000000
 40
52.500000000000000
 50
241.026550999999960
 51
241.437165999999990
  0
ARC
  8
0
  6
CONTINUOUS
 62
256
 10
323.388095000000020
 20
-123.570494000000000
 40
52.500000000000000
 50
241.026550999999960
 51
241.437165999999990
  0
ARC
  8
0
  6
CONTINUOUS
 62
256
 10
323.388095000000020
 20
-123.570494000000000
 40
52.500000000000000
 50
246.336295000000040
 51
246.888398000000000
  0
ARC
  8
0
  6
CONTINUOUS
 62
256
 10
302.388095000000020
 20
-172.776692999999990
 40
1.000000000000000
 50
0.000000000000000
 51
66.888398000001317
  0
ARC
  8
0
  6
CONTINUOUS
 62
256
 10
323.388095000000020
 20
-123.570494000000000
 40
52.499999999999986
 50
246.304919000000040
 51
246.888398000000000
  0
LINE
  8
0
  6
CONTINUOUS
 62
256
 10
303.388095000000020
 20
-176.370494000000010
 11
303.388095000000020
 21
-172.776692999999990
  0
ARC
  8
0
  6
CONTINUOUS
 62
256
 10
304.088095000000010
 20
-176.370494000000010
 40
0.699999999999989
 50
180.000000000000000
 51
270.000000000000000
  0
LINE
  8
0
  6
CONTINUOUS
 62
256
 10
304.088095000000010
 20
-177.070494000000000
 11
323.388095000000020
 21
-177.070494000000000
  0
LINE
  8
0
  6
CONTINUOUS
 62
256
 10
279.356599000000020
 20
-152.884661999999990
 11
273.335759000000000
 21
-152.569123999999990
  0
LINE
  8
0
  6
CONTINUOUS
 62
256
 10
279.290780999999980
 20
-154.785979000000000
 11
273.835759000000000
 21
-155.071865000000000
  0
ARC
  8
0
  6
CONTINUOUS
 62
256
 10
273.888095000000020
 20
-156.070494000000000
 40
0.999999999999996
 50
92.999999999999091
 51
267.000000000000910
  0
LINE
  8
0
  6
CONTINUOUS
 62
256
 10
276.590156999999980
 20
-150.401309000000000
 11
273.335759000000000
 21
-150.571865000000000
  0
ARC
  8
0
  6
CONTINUOUS
 62
256
 10
273.388095000000020
 20
-151.570494000000000
 40
0.999999999999996
 50
92.999999999999091
 51
267.000000000000910
  0
LINE
  8
0
  6
CONTINUOUS
 62
256
 10
274.426782000000000
 20
-146.014686000000010
 11
273.335759000000000
 21
-146.071865000000000
  0
ARC
  8
0
  6
CONTINUOUS
 62
256
 10
273.388095000000020
 20
-142.570494000000000
 40
1.000000000000005
 50
110.070332000000090
 51
267.000000000000910
  0
LINE
  8
0
  6
CONTINUOUS
 62
256
 10
274.253617000000020
 20
-143.617225999999990
 11
273.335759000000000
 21
-143.569123999999990
  0
ARC
  8
0
  6
CONTINUOUS
 62
256
 10
274.201280999999990
 20
-144.615856000000010
 40
0.999999999999977
 50
23.164432000000296
 51
87.000000000000909
  0
ARC
  8
0
  6
CONTINUOUS
 62
256
 10
272.701749000000010
 20
-140.691949999999990
 40
1.000000000000005
 50
290.070332000000060
 51
18.664571000000766
  0
ARC
  8
0
  6
CONTINUOUS
 62
256
 10
274.374445999999980
 20
-145.016056999999990
 40
0.999999999999996
 50
272.999999999999090
 51
23.631430000001135
  0
ARC
  8
0
  6
CONTINUOUS
 62
256
 10
276.444904000000010
 20
-149.233439000000000
 40
1.000000000000009
 50
28.664584000000026
 51
87.000000000000909
  0
LINE
  8
0
  6
CONTINUOUS
 62
256
 10
276.497239999999980
 20
-148.234810000000010
 11
273.335759000000000
 21
-148.069123999999990
  0
ARC
  8
0
  6
CONTINUOUS
 62
256
 10
276.537821000000010
 20
-149.402679000000010
 40
0.999999999999996
 50
272.999999999999090
 51
28.871351999999455
  0
ARC
  8
0
  6
CONTINUOUS
 62
256
 10
273.388095000000020
 20
-147.070494000000000
 40
0.999999999999996
 50
92.999999999999091
 51
267.000000000000910
  0
ARC
  8
0
  6
CONTINUOUS
 62
256
 10
323.388095000000020
 20
-123.570494000000000
 40
52.500000000000014
 50
208.562833999999980
 51
208.973449000000020
  0
ARC
  8
0
  6
CONTINUOUS
 62
256
 10
323.388095000000020
 20
-123.570494000000000
 40
52.500000000000021
 50
195.877701999999970
 51
198.664571000000000
  0
ARC
  8
0
  6
CONTINUOUS
 62
256
 10
370.888095000000020
 20
-123.570494000000000
 40
100.000000000000000
 50
180.000000000000000
 51
187.797850000000010
  0
ARC
  8
0
  6
CONTINUOUS
 62
256
 10
272.308178000000000
 20
-137.070494000000000
 40
0.499999999999976
 50
187.797849999999870
 51
270.000000000000000
  0
LINE
  8
0
  6
CONTINUOUS
 62
256
 10
272.308178000000000
 20
-137.570494000000000
 11
272.410159000000020
 21
-137.570494000000000
  0
ARC
  8
0
  6
CONTINUOUS
 62
256
 10
272.410159000000020
 20
-138.070494000000000
 40
0.500000000000011
 50
15.877701999998253
 51
90.000000000000000
  0
ARC
  8
0
  6
CONTINUOUS
 62
256
 10
279.238445000000010
 20
-153.787349000000010
 40
0.999999999999996
 50
272.999999999999090
 51
31.115752999998847
  0
ARC
  8
0
  6
CONTINUOUS
 62
256
 10
279.304262999999990
 20
-153.883292000000010
 40
0.999999999999989
 50
37.785802999999802
 51
87.000000000000909
  0
ARC
  8
0
  6
CONTINUOUS
 62
256
 10
323.388095000000020
 20
-123.570494000000000
 40
52.500000000000014
 50
203.136889000000000
 51
203.663704999999960
  0
LINE
  8
0
  6
CONTINUOUS
 62
256
 10
287.296730000000030
 20
-151.769136000000000
 11
277.264003000000000
 21
-162.911608000000000
  0
LINE
  8
0
  6
CONTINUOUS
 62
256
 10
295.189454000000010
 20
-159.661858999999990
 11
284.046982000000010
 21
-169.694585999999990
  0
LINE
  8
0
  6
CONTINUOUS
 62
256
 10
304.638095000000020
 20
-69.570493999999997
 11
304.638095000000020
 21
-70.070493999999997
  0
LINE
  8
0
  6
CONTINUOUS
 62
256
 10
342.138095000000020
 20
-69.570493999999997
 11
342.138095000000020
 21
-70.070493999999997
  0
LINE
  8
0
  6
CONTINUOUS
 62
256
 10
293.388095000000020
 20
-66.070493999999997
 11
293.388095000000020
 21
-42.631725000000003
  0
LINE
  8
0
  6
CONTINUOUS
 62
256
 10
353.388095000000020
 20
-66.070493999999997
 11
353.388095000000020
 21
-42.631725000000003
  0
ARC
  8
0
  6
CONTINUOUS
 62
256
 10
298.388095000000020
 20
-42.631725000000003
 40
5.000000000000003
 50
94.861405000000062
 51
180.000000000000000
  0
ARC
  8
0
  6
CONTINUOUS
 62
256
 10
348.388095000000020
 20
-42.631725000000003
 40
5.000000000000000
 50
0.000000000000000
 51
85.138594999999953
  0
INSERT
  8
0
  2
ZU_SYM_3
 10
283.790116000000010
 20
-83.972514000000004
 50
90.000000000000000
  0
INSERT
  8
0
  2
ZU_SYM_4
 10
283.790116000000010
 20
-163.168474000000000
 41
-1.000000000000000
 50
90.000000000000000
  0
INSERT
  8
0
  2
ZU_SYM_5
 10
362.986075000000030
 20
-163.168474000000000
 50
270.000000000000000
  0
INSERT
  8
0
  2
ZU_SYM_6
 10
362.986075000000030
 20
-83.972514000000004
 41
-1.000000000000000
 50
270.000000000000000
  0
LINE
  8
0
  6
DASHDOT
 62
256
 10
-171.086845000000010
 20
-110.570494000000000
 11
-142.476113000000000
 21
-110.570494000000000
  0
ARC
  8
0
  6
CONTINUOUS
 62
256
 10
-157.130412000000010
 20
-110.570494000000000
 40
11.000000000000004
 50
105.826619999999990
 51
74.173380000000009
  0
CIRCLE
  8
0
  6
CONTINUOUS
 62
256
 10
-79.871303999999995
 20
-173.570494000000000
 40
4.000000000000000
  0
CIRCLE
  8
0
  6
CONTINUOUS
 62
256
 10
-79.871303999999995
 20
-173.570494000000000
 40
3.323499999999996
  0
CIRCLE
  8
0
  6
CONTINUOUS
 62
256
 10
38.128695999999998
 20
-173.570494000000000
 40
4.000000000000000
  0
CIRCLE
  8
0
  6
CONTINUOUS
 62
256
 10
38.128695999999998
 20
-173.570494000000000
 40
3.323500000000003
  0
CIRCLE
  8
0
  6
CONTINUOUS
 62
256
 10
38.128695999999998
 20
-68.570493999999997
 40
4.000000000000000
  0
CIRCLE
  8
0
  6
CONTINUOUS
 62
256
 10
38.128695999999998
 20
-68.570493999999997
 40
3.323500000000003
  0
LINE
  8
0
  6
CONTINUOUS
 62
256
 10
78.128696000000005
 20
-70.070493999999997
 11
78.128696000000005
 21
-123.570494000000000
  0
LINE
  8
0
  6
CONTINUOUS
 62
256
 10
78.128696000000005
 20
-177.070494000000000
 11
78.128696000000005
 21
-123.570494000000000
  0
LINE
  8
0
  6
CONTINUOUS
 62
256
 10
78.128696000000005
 20
-70.070493999999997
 11
78.128696000000005
 21
-123.570494000000000
  0
LINE
  8
0
  6
CONTINUOUS
 62
256
 10
78.128696000000005
 20
-177.070494000000000
 11
78.128696000000005
 21
-123.570494000000000
  0
LINE
  8
0
  6
CONTINUOUS
 62
256
 10
73.128696000000005
 20
-76.070493999999997
 11
73.128696000000005
 21
-73.036040999999997
  0
LINE
  8
0
  6
CONTINUOUS
 62
256
 10
70.128696000000005
 20
-79.070493999999997
 11
65.128696000000005
 21
-79.070493999999997
  0
LINE
  8
0
  6
CONTINUOUS
 62
256
 10
71.128696000000005
 20
-82.140842000000006
 11
65.128696000000005
 21
-82.140842000000006
  0
LINE
  8
0
  6
CONTINUOUS
 62
256
 10
60.128695999999998
 20
-86.678327999999993
 11
60.128695999999998
 21
-84.070493999999997
  0
LINE
  8
0
  6
CONTINUOUS
 62
256
 10
63.128695999999998
 20
-89.678327999999993
 11
70.128696000000005
 21
-89.678327999999993
  0
LINE
  8
0
  6
CONTINUOUS
 62
256
 10
73.128696000000005
 20
-103.570494000000000
 11
78.128696000000005
 21
-103.570494000000000
  0
LINE
  8
0
  6
CONTINUOUS
 62
256
 10
73.128696000000005
 20
-123.570494000000000
 11
73.128696000000005
 21
-84.140842000000006
  0
LINE
  8
0
  6
CONTINUOUS
 62
256
 10
73.128696000000005
 20
-143.570494000000000
 11
78.128696000000005
 21
-143.570494000000000
  0
LINE
  8
0
  6
CONTINUOUS
 62
256
 10
60.128695999999998
 20
-160.462660000000000
 11
60.128695999999998
 21
-163.070494000000000
  0
LINE
  8
0
  6
CONTINUOUS
 62
256
 10
63.128695999999998
 20
-157.462660000000000
 11
70.128696000000005
 21
-157.462660000000000
  0
LINE
  8
0
  6
CONTINUOUS
 62
256
 10
73.128696000000005
 20
-123.570494000000000
 11
73.128696000000005
 21
-163.000146000000000
  0
LINE
  8
0
  6
CONTINUOUS
 62
256
 10
70.128696000000005
 20
-168.070494000000000
 11
65.128696000000005
 21
-168.070494000000000
  0
LINE
  8
0
  6
CONTINUOUS
 62
256
 10
71.128696000000005
 20
-165.000146000000000
 11
65.128696000000005
 21
-165.000146000000000
  0
LINE
  8
0
  6
CONTINUOUS
 62
256
 10
73.128696000000005
 20
-171.070494000000000
 11
73.128696000000005
 21
-174.104947000000010
  0
ARC
  8
0
  6
CONTINUOUS
 62
256
 10
76.128696000000005
 20
-73.036040999999997
 40
2.999999999999997
 50
89.000000000000128
 51
180.000000000000000
  0
ARC
  8
0
  6
CONTINUOUS
 62
256
 10
76.128696000000005
 20
-174.104947000000010
 40
3.000000000000000
 50
180.000000000000000
 51
270.999999999999890
  0
ARC
  8
0
  6
CONTINUOUS
 62
256
 10
70.128696000000005
 20
-92.678327999999993
 40
3.000000000000000
 50
0.000000000000000
 51
90.000000000000000
  0
ARC
  8
0
  6
CONTINUOUS
 62
256
 10
70.128696000000005
 20
-76.070493999999997
 40
3.000000000000000
 50
270.000000000000000
 51
0.000000000000000
  0
ARC
  8
0
  6
CONTINUOUS
 62
256
 10
71.128696000000005
 20
-84.140842000000006
 40
2.000000000000000
 50
0.000000000000000
 51
90.000000000000000
  0
ARC
  8
0
  6
CONTINUOUS
 62
256
 10
65.128696000000005
 20
-87.140842000000006
 40
5.000000000000000
 50
90.000000000000000
 51
180.000000000000000
  0
ARC
  8
0
  6
CONTINUOUS
 62
256
 10
65.128696000000005
 20
-84.070493999999997
 40
5.000000000000000
 50
90.000000000000000
 51
180.000000000000000
  0
ARC
  8
0
  6
CONTINUOUS
 62
256
 10
70.128696000000005
 20
-154.462660000000000
 40
3.000000000000000
 50
270.000000000000000
 51
0.000000000000000
  0
ARC
  8
0
  6
CONTINUOUS
 62
256
 10
65.128696000000005
 20
-160.000146000000000
 40
5.000000000000000
 50
180.000000000000000
 51
270.000000000000000
  0
ARC
  8
0
  6
CONTINUOUS
 62
256
 10
65.128696000000005
 20
-163.070494000000000
 40
5.000000000000000
 50
180.000000000000000
 51
270.000000000000000
  0
ARC
  8
0
  6
CONTINUOUS
 62
256
 10
70.128696000000005
 20
-171.070494000000000
 40
3.000000000000000
 50
0.000000000000000
 51
90.000000000000000
  0
ARC
  8
0
  6
CONTINUOUS
 62
256
 10
71.128696000000005
 20
-163.000146000000000
 40
2.000000000000000
 50
270.000000000000000
 51
0.000000000000000
  0
LINE
  8
0
  6
CONTINUOUS
 62
256
 10
60.128695999999998
 20
-72.809124999999995
 11
60.128695999999998
 21
-123.570494000000000
  0
LINE
  8
0
  6
CONTINUOUS
 62
256
 10
60.128695999999998
 20
-174.331863000000000
 11
60.128695999999998
 21
-123.570494000000000
  0
ARC
  8
0
  6
CONTINUOUS
 62
256
 10
63.128695999999998
 20
-174.331863000000000
 40
3.000000000000000
 50
180.000000000000000
 51
271.000000000000000
  0
ARC
  8
0
  6
CONTINUOUS
 62
256
 10
63.128695999999998
 20
-72.809124999999995
 40
2.999999999999997
 50
88.999999999999986
 51
180.000000000000000
  0
ARC
  8
0
  6
CONTINUOUS
 62
256
 10
63.128695999999998
 20
-154.462660000000000
 40
3.000000000000000
 50
180.000000000000000
 51
270.000000000000000
  0
ARC
  8
0
  6
CONTINUOUS
 62
256
 10
63.128695999999998
 20
-92.678327999999993
 40
3.000000000000000
 50
90.000000000000000
 51
180.000000000000000
  0
ARC
  8
0
  6
CONTINUOUS
 62
256
 10
-37.871304000000002
 20
-110.570494000000000
 40
41.500000000000000
 50
270.000000000000000
 51
180.000000000000000
  0
ARC
  8
0
  6
CONTINUOUS
 62
256
 10
63.128695999999998
 20
-154.462660000000000
 40
3.000000000000000
 50
180.000000000000000
 51
270.000000000000000
  0
ARC
  8
0
  6
CONTINUOUS
 62
256
 10
63.128695999999998
 20
-92.678327999999993
 40
3.000000000000000
 50
90.000000000000000
 51
180.000000000000000
  0
ARC
  8
0
  6
CONTINUOUS
 62
256
 10
63.128695999999998
 20
-174.331863000000000
 40
3.000000000000000
 50
180.000000000000000
 51
271.000000000000000
  0
ARC
  8
0
  6
CONTINUOUS
 62
256
 10
63.128695999999998
 20
-72.809124999999995
 40
2.999999999999997
 50
88.999999999999986
 51
180.000000000000000
  0
LINE
  8
0
  6
CONTINUOUS
 62
256
 10
60.128695999999998
 20
-72.809124999999995
 11
60.128695999999998
 21
-123.570494000000000
  0
LINE
  8
0
  6
CONTINUOUS
 62
256
 10
60.128695999999998
 20
-174.331863000000000
 11
60.128695999999998
 21
-123.570494000000000
  0
LINE
  8
0
  6
CONTINUOUS
 62
256
 10
52.632986000000002
 20
-177.515523000000000
 11
78.128696000000005
 21
-177.070494000000000
  0
LINE
  8
0
  6
CONTINUOUS
 62
256
 10
52.972312000000002
 20
-69.631388000000001
 11
78.128696000000005
 21
-70.070493999999997
  0
ARC
  8
0
  6
CONTINUOUS
 62
256
 10
53.024670000000000
 20
-66.631844999999998
 40
2.999999999999996
 50
188.271555999999890
 51
268.999999999999940
  0
ARC
  8
0
  6
CONTINUOUS
 62
256
 10
-37.871304000000002
 20
-110.570494000000000
 40
43.999999999999993
 50
98.645864000000003
 51
180.000000000000000
  0
LINE
  8
0
  6
CONTINUOUS
 62
256
 10
-44.485681999999997
 20
-67.070493999999997
 11
-62.989361000000002
 21
-67.070493999999997
  0
ARC
  8
0
  6
CONTINUOUS
 62
256
 10
-37.871304000000002
 20
-110.570494000000000
 40
37.500000000000007
 50
180.000000000000000
 51
90.000000000000000
  0
LINE
  8
0
  6
CONTINUOUS
 62
256
 10
50.128695999999998
 20
-177.570494000000000
 11
50.128695999999998
 21
-64.570493999999997
  0
ARC
  8
0
  6
CONTINUOUS
 62
256
 10
-83.871303999999995
 20
-64.570493999999997
 40
5.500000000000000
 50
90.000000000000000
 51
180.000000000000000
  0
ARC
  8
0
  6
CONTINUOUS
 62
256
 10
-83.871303999999995
 20
-177.570494000000000
 40
5.500000000000000
 50
180.000000000000000
 51
270.000000000000000
  0
ARC
  8
0
  6
CONTINUOUS
 62
256
 10
43.128695999999998
 20
-177.570494000000000
 40
5.500000000000000
 50
270.000000000000000
 51
0.000000000000000
  0
ARC
  8
0
  6
CONTINUOUS
 62
256
 10
43.128695999999998
 20
-64.570493999999997
 40
5.500000000000000
 50
0.000000000000000
 51
90.000000000000000
  0
ARC
  8
0
  6
CONTINUOUS
 62
256
 10
71.128696000000005
 20
-84.140842000000006
 40
2.000000000000000
 50
0.000000000000000
 51
90.000000000000000
  0
ARC
  8
0
  6
CONTINUOUS
 62
256
 10
70.128696000000005
 20
-76.070493999999997
 40
3.000000000000000
 50
270.000000000000000
 51
0.000000000000000
  0
ARC
  8
0
  6
CONTINUOUS
 62
256
 10
65.128696000000005
 20
-84.070493999999997
 40
5.000000000000000
 50
90.000000000000000
 51
180.000000000000000
  0
ARC
  8
0
  6
CONTINUOUS
 62
256
 10
65.128696000000005
 20
-87.140842000000006
 40
5.000000000000000
 50
90.000000000000000
 51
180.000000000000000
  0
ARC
  8
0
  6
CONTINUOUS
 62
256
 10
70.128696000000005
 20
-92.678327999999993
 40
3.000000000000000
 50
0.000000000000000
 51
90.000000000000000
  0
ARC
  8
0
  6
CONTINUOUS
 62
256
 10
65.128696000000005
 20
-163.070494000000000
 40
5.000000000000000
 50
180.000000000000000
 51
270.000000000000000
  0
ARC
  8
0
  6
CONTINUOUS
 62
256
 10
65.128696000000005
 20
-160.000146000000000
 40
5.000000000000000
 50
180.000000000000000
 51
270.000000000000000
  0
ARC
  8
0
  6
CONTINUOUS
 62
256
 10
71.128696000000005
 20
-163.000146000000000
 40
2.000000000000000
 50
270.000000000000000
 51
0.000000000000000
  0
ARC
  8
0
  6
CONTINUOUS
 62
256
 10
70.128696000000005
 20
-171.070494000000000
 40
3.000000000000000
 50
0.000000000000000
 51
90.000000000000000
  0
ARC
  8
0
  6
CONTINUOUS
 62
256
 10
70.128696000000005
 20
-154.462660000000000
 40
3.000000000000000
 50
270.000000000000000
 51
0.000000000000000
  0
ARC
  8
0
  6
CONTINUOUS
 62
256
 10
43.128695999999998
 20
-177.570494000000000
 40
7.000000000000000
 50
270.000000000000000
 51
0.000000000000000
  0
ARC
  8
0
  6
CONTINUOUS
 62
256
 10
-83.871303999999995
 20
-64.570493999999997
 40
7.000000000000000
 50
90.000000000000000
 51
180.000000000000000
  0
ARC
  8
0
  6
CONTINUOUS
 62
256
 10
-83.871303999999995
 20
-177.570494000000000
 40
7.000000000000000
 50
180.000000000000000
 51
270.000000000000000
  0
ARC
  8
0
  6
CONTINUOUS
 62
256
 10
-37.871304000000002
 20
-110.570494000000000
 40
37.500000000000000
 50
90.000000000000000
 51
180.000000000000000
  0
CIRCLE
  8
0
  6
CONTINUOUS
 62
256
 10
-37.871304000000002
 20
-110.570494000000000
 40
25.000000000000000
  0
ARC
  8
0
  6
CONTINUOUS
 62
256
 10
43.128695999999998
 20
-64.570493999999997
 40
7.000000000000000
 50
0.000000000000000
 51
90.000000000000000
  0
ARC
  8
0
  6
CONTINUOUS
 62
256
 10
76.128696000000005
 20
-73.036040999999997
 40
2.999999999999997
 50
89.000000000000128
 51
180.000000000000000
  0
ARC
  8
0
  6
CONTINUOUS
 62
256
 10
76.128696000000005
 20
-174.104947000000010
 40
3.000000000000000
 50
180.000000000000000
 51
270.999999999999890
  0
ARC
  8
0
  6
CONTINUOUS
 62
256
 10
21.246752999999998
 20
-70.570493999999997
 40
6.000000000000001
 50
6.756327000000019
 51
90.000000000000000
  0
ARC
  8
0
  6
CONTINUOUS
 62
256
 10
38.128695999999998
 20
-68.570493999999997
 40
11.000000000000002
 50
186.756326999999970
 51
266.627713000000030
  0
ARC
  8
0
  6
CONTINUOUS
 62
256
 10
37.128695999999998
 20
-85.541056999999995
 40
6.000000000000000
 50
0.000000000000000
 51
86.627713000000014
  0
ARC
  8
0
  6
CONTINUOUS
 62
256
 10
-62.989361000000002
 20
-70.570493999999997
 40
6.000000000000000
 50
90.000000000000000
 51
173.243672999999970
  0
ARC
  8
0
  6
CONTINUOUS
 62
256
 10
-79.871303999999995
 20
-68.570493999999997
 40
11.000000000000000
 50
273.372286999999970
 51
353.243673000000000
  0
ARC
  8
0
  6
CONTINUOUS
 62
256
 10
-78.871303999999995
 20
-85.541056999999995
 40
6.000000000000006
 50
93.372287000000000
 51
180.000000000000000
  0
ARC
  8
0
  6
CONTINUOUS
 62
256
 10
-78.871303999999995
 20
-156.599931000000000
 40
6.000000000000000
 50
180.000000000000000
 51
266.627712999999970
  0
ARC
  8
0
  6
CONTINUOUS
 62
256
 10
-79.871303999999995
 20
-173.570494000000000
 40
11.000000000000002
 50
6.756326999999983
 51
86.627712999999986
  0
ARC
  8
0
  6
CONTINUOUS
 62
256
 10
-62.989361000000002
 20
-171.570494000000000
 40
5.999999999999996
 50
186.756326999999890
 51
270.000000000000000
  0
ARC
  8
0
  6
CONTINUOUS
 62
256
 10
21.246752999999998
 20
-171.570494000000000
 40
6.000000000000000
 50
270.000000000000000
 51
353.243673000000110
  0
ARC
  8
0
  6
CONTINUOUS
 62
256
 10
38.128695999999998
 20
-173.570494000000000
 40
11.000000000000000
 50
93.372286999999986
 51
173.243673000000030
  0
ARC
  8
0
  6
CONTINUOUS
 62
256
 10
37.128695999999998
 20
-156.599931000000000
 40
5.999999999999992
 50
273.372286999999970
 51
0.000000000000000
  0
ARC
  8
0
  6
CONTINUOUS
 62
256
 10
37.128695999999998
 20
-85.541056999999995
 40
3.500000000000000
 50
0.000000000000000
 51
86.627713000000043
  0
ARC
  8
0
  6
CONTINUOUS
 62
256
 10
38.128695999999998
 20
-68.570493999999997
 40
13.500000000000002
 50
186.756327000000000
 51
266.627713000000030
  0
ARC
  8
0
  6
CONTINUOUS
 62
256
 10
21.246752999999998
 20
-70.570493999999997
 40
3.499999999999998
 50
6.756326999999966
 51
90.000000000000000
  0
ARC
  8
0
  6
CONTINUOUS
 62
256
 10
-62.989361000000002
 20
-70.570493999999997
 40
3.500000000000000
 50
90.000000000000000
 51
173.243673000000030
  0
ARC
  8
0
  6
CONTINUOUS
 62
256
 10
-79.871303999999995
 20
-68.570493999999997
 40
13.500000000000004
 50
273.372286999999970
 51
353.243673000000000
  0
ARC
  8
0
  6
CONTINUOUS
 62
256
 10
-78.871303999999995
 20
-85.541056999999995
 40
3.500000000000003
 50
93.372286999999972
 51
180.000000000000000
  0
ARC
  8
0
  6
CONTINUOUS
 62
256
 10
-78.871303999999995
 20
-156.599931000000000
 40
3.500000000000000
 50
180.000000000000000
 51
266.627713000000030
  0
ARC
  8
0
  6
CONTINUOUS
 62
256
 10
-79.871303999999995
 20
-173.570494000000000
 40
13.500000000000005
 50
6.756327000000003
 51
86.627712999999972
  0
ARC
  8
0
  6
CONTINUOUS
 62
256
 10
37.128695999999998
 20
-156.599931000000000
 40
3.500000000000003
 50
273.372286999999970
 51
0.000000000000000
  0
ARC
  8
0
  6
CONTINUOUS
 62
256
 10
38.128695999999998
 20
-173.570494000000000
 40
13.499999999999989
 50
93.372287000000000
 51
173.243673000000000
  0
ARC
  8
0
  6
CONTINUOUS
 62
256
 10
21.246752999999998
 20
-171.570494000000000
 40
3.500000000000000
 50
270.000000000000000
 51
353.243672999999830
  0
ARC
  8
0
  6
CONTINUOUS
 62
256
 10
-62.989361000000002
 20
-171.570494000000000
 40
3.499999999999996
 50
186.756327000000200
 51
270.000000000000000
  0
ARC
  8
0
  6
CONTINUOUS
 62
256
 10
-37.871304000000002
 20
-110.570494000000000
 40
44.000000000000007
 50
180.000000000000000
 51
81.354135999999997
  0
ARC
  8
0
  6
CONTINUOUS
 62
256
 10
-37.871304000000002
 20
-110.570494000000000
 40
41.500000000000007
 50
180.000000000000000
 51
270.000000000000000
  0
LINE
  8
0
  6
CONTINUOUS
 62
256
 10
-83.871303999999995
 20
-183.070494000000000
 11
-37.871304000000002
 21
-183.070494000000000
  0
LINE
  8
0
  6
CONTINUOUS
 62
256
 10
-37.871304000000002
 20
-183.070494000000000
 11
43.128695999999998
 21
-183.070494000000000
  0
LINE
  8
0
  6
CONTINUOUS
 62
256
 10
-89.371303999999995
 20
-110.570494000000000
 11
-89.371303999999995
 21
-177.570494000000000
  0
LINE
  8
0
  6
CONTINUOUS
 62
256
 10
-89.371303999999995
 20
-64.570493999999997
 11
-89.371303999999995
 21
-110.570494000000000
  0
LINE
  8
0
  6
CONTINUOUS
 62
256
 10
-37.871304000000002
 20
-59.070493999999997
 11
-83.871303999999995
 21
-59.070493999999997
  0
LINE
  8
0
  6
CONTINUOUS
 62
256
 10
43.128695999999998
 20
-59.070493999999997
 11
-37.871302999999997
 21
-59.070493999999997
  0
LINE
  8
0
  6
DASHDOT
 62
256
 10
-37.871304000000002
 20
-186.165626000000000
 11
-37.871304000000002
 21
-60.244621000000002
  0
LINE
  8
0
  6
CONTINUOUS
 62
256
 10
48.628695999999998
 20
-177.570494000000000
 11
48.628695999999998
 21
-64.570493999999997
  0
LINE
  8
0
  6
CONTINUOUS
 62
256
 10
73.128696000000005
 20
-76.070493999999997
 11
73.128696000000005
 21
-73.036040999999997
  0
LINE
  8
0
  6
CONTINUOUS
 62
256
 10
71.128696000000005
 20
-82.140842000000006
 11
65.128696000000005
 21
-82.140842000000006
  0
LINE
  8
0
  6
CONTINUOUS
 62
256
 10
70.128696000000005
 20
-79.070493999999997
 11
65.128696000000005
 21
-79.070493999999997
  0
LINE
  8
0
  6
CONTINUOUS
 62
256
 10
73.128696000000005
 20
-123.570494000000000
 11
73.128696000000005
 21
-84.140842000000006
  0
LINE
  8
0
  6
CONTINUOUS
 62
256
 10
63.128695999999998
 20
-89.678327999999993
 11
70.128696000000005
 21
-89.678327999999993
  0
LINE
  8
0
  6
CONTINUOUS
 62
256
 10
60.128695999999998
 20
-86.678327999999993
 11
60.128695999999998
 21
-84.070493999999997
  0
LINE
  8
0
  6
CONTINUOUS
 62
256
 10
73.128696000000005
 20
-103.570494000000000
 11
78.128696000000005
 21
-103.570494000000000
  0
LINE
  8
0
  6
CONTINUOUS
 62
256
 10
73.128696000000005
 20
-123.570494000000000
 11
73.128696000000005
 21
-163.000146000000000
  0
LINE
  8
0
  6
CONTINUOUS
 62
256
 10
73.128696000000005
 20
-143.570494000000000
 11
78.128696000000005
 21
-143.570494000000000
  0
LINE
  8
0
  6
CONTINUOUS
 62
256
 10
63.128695999999998
 20
-157.462660000000000
 11
70.128696000000005
 21
-157.462660000000000
  0
LINE
  8
0
  6
CONTINUOUS
 62
256
 10
60.128695999999998
 20
-160.462660000000000
 11
60.128695999999998
 21
-163.070494000000000
  0
LINE
  8
0
  6
CONTINUOUS
 62
256
 10
71.128696000000005
 20
-165.000146000000000
 11
65.128696000000005
 21
-165.000146000000000
  0
LINE
  8
0
  6
CONTINUOUS
 62
256
 10
70.128696000000005
 20
-168.070494000000000
 11
65.128696000000005
 21
-168.070494000000000
  0
LINE
  8
0
  6
CONTINUOUS
 62
256
 10
73.128696000000005
 20
-171.070494000000000
 11
73.128696000000005
 21
-174.104947000000010
  0
LINE
  8
0
  6
CONTINUOUS
 62
256
 10
43.128695999999998
 20
-57.570493999999997
 11
-83.871303999999995
 21
-57.570493999999997
  0
LINE
  8
0
  6
CONTINUOUS
 62
256
 10
-90.871303999999995
 20
-64.570493999999997
 11
-90.871303999999995
 21
-177.570494000000000
  0
LINE
  8
0
  6
CONTINUOUS
 62
256
 10
-83.871303999999995
 20
-184.570494000000000
 11
43.128695999999998
 21
-184.570494000000000
  0
LINE
  8
0
  6
DASHDOT
 62
256
 10
38.128695999999998
 20
-164.340011000000000
 11
38.128695999999998
 21
-182.322211000000010
  0
LINE
  8
0
  6
DASHDOT
 62
256
 10
29.129802000000002
 20
-173.570494000000000
 11
47.025153000000003
 21
-173.570494000000000
  0
LINE
  8
0
  6
DASHDOT
 62
256
 10
-79.871303999999995
 20
-164.718583999999990
 11
-79.871303999999995
 21
-182.277663999999990
  0
LINE
  8
0
  6
DASHDOT
 62
256
 10
-88.227710999999999
 20
-173.570494000000000
 11
-70.974846999999997
 21
-173.570494000000000
  0
LINE
  8
0
  6
DASHDOT
 62
256
 10
-79.871303999999995
 20
-59.475394999999999
 11
-79.871303999999995
 21
-77.277664000000001
  0
LINE
  8
0
  6
DASHDOT
 62
256
 10
-88.416998000000007
 20
-68.570493999999997
 11
-70.974846999999997
 21
-68.570493999999997
  0
LINE
  8
0
  6
DASHDOT
 62
256
 10
29.697661000000000
 20
-68.570493999999997
 11
47.025153000000003
 21
-68.570493999999997
  0
LINE
  8
0
  6
DASHDOT
 62
256
 10
38.128695999999998
 20
-59.853966999999997
 11
38.128695999999998
 21
-77.277664000000001
  0
LINE
  8
0
  6
DASHDOT
 62
256
 10
8.470997000000001
 20
-110.570494000000000
 11
-87.480722999999998
 21
-110.570494000000000
  0
LINE
  8
0
  6
CONTINUOUS
 62
256
 10
-67.216234999999998
 20
-81.225562999999994
 11
-67.257285999999993
 21
-81.266614000000004
  0
LINE
  8
0
  6
CONTINUOUS
 62
256
 10
21.246752999999998
 20
-64.570493999999997
 11
-62.989361000000002
 21
-64.570493999999997
  0
LINE
  8
0
  6
CONTINUOUS
 62
256
 10
-84.871303999999995
 20
-85.541056999999995
 11
-84.871303999999995
 21
-156.599931000000000
  0
LINE
  8
0
  6
CONTINUOUS
 62
256
 10
21.246752999999998
 20
-177.570494000000000
 11
-62.989361000000002
 21
-177.570494000000000
  0
LINE
  8
0
  6
CONTINUOUS
 62
256
 10
43.128695999999998
 20
-156.599931000000000
 11
43.128695999999998
 21
-85.541056999999995
  0
LINE
  8
0
  6
CONTINUOUS
 62
256
 10
21.246752999999998
 20
-67.070493999999997
 11
-31.256924999999999
 21
-67.070493999999997
  0
LINE
  8
0
  6
CONTINUOUS
 62
256
 10
-82.371303999999995
 20
-85.541056999999995
 11
-82.371303999999995
 21
-156.599931000000000
  0
LINE
  8
0
  6
CONTINUOUS
 62
256
 10
21.246752999999998
 20
-175.070494000000000
 11
-62.989361000000002
 21
-175.070494000000000
  0
LINE
  8
0
  6
CONTINUOUS
 62
256
 10
40.628695999999998
 20
-156.599931000000000
 11
40.628695999999998
 21
-85.541056999999995
  0
ARC
  8
0
  6
CONTINUOUS
 62
256
 10
-37.871304000000002
 20
-110.570494000000000
 40
11.000000000000004
 50
105.826619999999990
 51
74.173380000000009
  0
CIRCLE
  8
0
  6
CONTINUOUS
 62
256
 10
-37.871304000000002
 20
-110.570494000000000
 40
3.500000000000000
  0
CIRCLE
  8
0
  6
CONTINUOUS
 62
256
 10
-37.871304000000002
 20
-110.570494000000000
 40
4.000000000000000
  0
LINE
  8
0
  6
CONTINUOUS
 62
256
 10
-40.871304000000002
 20
-97.070493999999997
 11
-40.871304000000002
 21
-103.070494000000000
  0
LINE
  8
0
  6
CONTINUOUS
 62
256
 10
-40.871304000000002
 20
-97.070493999999997
 11
-34.871304000000002
 21
-97.070493999999997
  0
LINE
  8
0
  6
CONTINUOUS
 62
256
 10
-40.871304000000002
 20
-103.070494000000000
 11
-34.871304000000002
 21
-103.070494000000000
  0
LINE
  8
0
  6
CONTINUOUS
 62
256
 10
-34.871304000000002
 20
-97.070493999999997
 11
-34.871304000000002
 21
-103.070494000000000
  0
LINE
  8
0
  6
CONTINUOUS
 62
256
 10
78.128696000000005
 20
-177.070494000000000
 11
177.128695999999990
 21
-177.070494000000000
  0
LINE
  8
0
  6
CONTINUOUS
 62
256
 10
177.128695999999990
 20
-137.570494000000000
 11
78.128696000000005
 21
-137.570494000000000
  0
LINE
  8
0
  6
CONTINUOUS
 62
256
 10
177.128695999999990
 20
-143.198529000000010
 11
78.128696000000005
 21
-143.198529000000010
  0
LINE
  8
0
  6
CONTINUOUS
 62
256
 10
177.128695999999990
 20
-141.956608999999990
 11
78.128696000000005
 21
-141.956608999999990
  0
LINE
  8
0
  6
CONTINUOUS
 62
256
 10
177.128695999999990
 20
-146.408734000000010
 11
78.128696000000005
 21
-146.408734000000010
  0
LINE
  8
0
  6
CONTINUOUS
 62
256
 10
177.128695999999990
 20
-147.755135000000000
 11
78.128696000000005
 21
-147.755135000000000
  0
LINE
  8
0
  6
CONTINUOUS
 62
256
 10
177.128695999999990
 20
-150.847866000000010
 11
78.128696000000005
 21
-150.847866000000010
  0
LINE
  8
0
  6
CONTINUOUS
 62
256
 10
177.128695999999990
 20
-152.326889999999990
 11
78.128696000000005
 21
-152.326889999999990
  0
LINE
  8
0
  6
CONTINUOUS
 62
256
 10
177.128695999999990
 20
-155.284885000000000
 11
78.128696000000005
 21
-155.284885000000000
  0
LINE
  8
0
  6
CONTINUOUS
 62
256
 10
177.128695999999990
 20
-156.874095000000010
 11
78.128696000000005
 21
-156.874095000000010
  0
LINE
  8
0
  6
CONTINUOUS
 62
256
 10
177.128695999999990
 20
-164.612407999999990
 11
78.128696000000005
 21
-164.612407999999990
  0
LINE
  8
0
  6
CONTINUOUS
 62
256
 10
177.128695999999990
 20
-169.703577000000000
 11
78.128696000000005
 21
-169.703577000000000
  0
LINE
  8
0
  6
CONTINUOUS
 62
256
 10
177.128695999999990
 20
-174.070494000000000
 11
78.128696000000005
 21
-174.070494000000000
  0
LINE
  8
0
  6
CONTINUOUS
 62
256
 10
177.128695999999990
 20
-174.570494000000000
 11
78.128696000000005
 21
-174.570494000000000
  0
LINE
  8
0
  6
CONTINUOUS
 62
256
 10
177.628695999999990
 20
-168.668474000000000
 11
177.628695999999990
 21
-159.818893000000000
  0
LINE
  8
0
  6
CONTINUOUS
 62
256
 10
177.128695999999990
 20
-159.818893000000000
 11
177.628695999999990
 21
-159.818893000000000
  0
LINE
  8
0
  6
CONTINUOUS
 62
256
 10
177.628695999999990
 20
-166.909894000000010
 11
177.128695999999990
 21
-166.909894000000010
  0
LINE
  8
0
  6
CONTINUOUS
 62
256
 10
183.628695999999990
 20
-123.570494000000000
 11
183.628695999999990
 21
-143.070494000000000
  0
ARC
  8
0
  6
CONTINUOUS
 62
256
 10
183.128695999999990
 20
-143.070494000000000
 40
0.499999999999995
 50
315.115137999999770
 51
0.000000000000000
  0
ARC
  8
0
  6
CONTINUOUS
 62
256
 10
183.837222999999990
 20
-143.776177999999990
 40
0.499999999999995
 50
135.115137999999720
 51
178.347092999999010
  0
LINE
  8
0
  6
CONTINUOUS
 62
256
 10
177.628695999999990
 20
-168.668474000000000
 11
181.628695999999990
 21
-168.668474000000000
  0
ARC
  8
0
  6
CONTINUOUS
 62
256
 10
181.628695999999990
 20
-168.168474000000000
 40
0.500000000000000
 50
270.000000000000000
 51
0.000000000000000
  0
LINE
  8
0
  6
CONTINUOUS
 62
256
 10
182.128695999999990
 20
-168.168474000000000
 11
182.128695999999990
 21
-152.769136000000000
  0
ARC
  8
0
  6
CONTINUOUS
 62
256
 10
182.087898000000000
 20
-151.061288999999990
 40
1.000000000000005
 50
301.359036000000630
 51
357.746046999999980
  0
ARC
  8
0
  6
CONTINUOUS
 62
256
 10
192.128695999999990
 20
-169.698035000000000
 40
9.999999999999993
 50
176.274962999999960
 51
180.000000000000000
  0
ARC
  8
0
  6
CONTINUOUS
 62
256
 10
183.128695999999990
 20
-152.769136000000000
 40
1.000000000000005
 50
121.359036000000670
 51
180.000000000000000
  0
LINE
  8
0
  6
DASHDOT
 62
256
 10
174.071294999999990
 20
-163.168474000000000
 11
188.702460000000000
 21
-163.168474000000000
  0
ARC
  8
0
  6
CONTINUOUS
 62
256
 10
-516.371304000000010
 20
-123.570494000000000
 40
700.000000000000000
 50
357.134181000000070
 51
358.347092999999970
  0
ARC
  8
0
  6
CONTINUOUS
 62
256
 10
-516.371304000000010
 20
-123.570494000000000
 40
700.000000000000000
 50
355.768744000000030
 51
356.379937999999980
  0
ARC
  8
0
  6
CONTINUOUS
 62
256
 10
179.726211000000010
 20
-175.070494000000000
 40
2.000000000000000
 50
270.000000000000000
 51
355.768743999999800
  0
LINE
  8
0
  6
CONTINUOUS
 62
256
 10
177.128695999999990
 20
-177.070494000000000
 11
179.726211000000010
 21
-177.070494000000000
  0
LINE
  8
0
  6
CONTINUOUS
 62
256
 10
177.128695999999990
 20
-123.570494000000000
 11
177.128695999999990
 21
-177.070494000000000
  0
LINE
  8
0
  6
CONTINUOUS
 62
256
 10
78.128696000000005
 20
-177.070494000000000
 11
78.128696000000005
 21
-123.570494000000000
  0
LINE
  8
0
  6
CONTINUOUS
 62
256
 10
177.628695999999990
 20
-78.472514000000004
 11
177.628695999999990
 21
-87.322095000000004
  0
LINE
  8
0
  6
CONTINUOUS
 62
256
 10
177.128695999999990
 20
-87.322095000000004
 11
177.628695999999990
 21
-87.322095000000004
  0
LINE
  8
0
  6
CONTINUOUS
 62
256
 10
177.628695999999990
 20
-80.231094999999996
 11
177.128695999999990
 21
-80.231094999999996
  0
LINE
  8
0
  6
CONTINUOUS
 62
256
 10
183.628695999999990
 20
-123.570494000000000
 11
183.628695999999990
 21
-104.070494000000000
  0
ARC
  8
0
  6
CONTINUOUS
 62
256
 10
183.128695999999990
 20
-104.070494000000000
 40
0.500000000000000
 50
0.000000000000000
 51
44.884862000000268
  0
ARC
  8
0
  6
CONTINUOUS
 62
256
 10
183.837222999999990
 20
-103.364810000000010
 40
0.499999999999994
 50
181.652906999999350
 51
224.884862000000280
  0
LINE
  8
0
  6
CONTINUOUS
 62
256
 10
177.628695999999990
 20
-78.472514000000004
 11
181.628695999999990
 21
-78.472514000000004
  0
ARC
  8
0
  6
CONTINUOUS
 62
256
 10
181.628695999999990
 20
-78.972514000000004
 40
0.500000000000000
 50
0.000000000000000
 51
90.000000000000000
  0
LINE
  8
0
  6
CONTINUOUS
 62
256
 10
182.128695999999990
 20
-78.972514000000004
 11
182.128695999999990
 21
-94.371853000000002
  0
ARC
  8
0
  6
CONTINUOUS
 62
256
 10
182.087898000000000
 20
-96.079699000000005
 40
1.000000000000004
 50
2.253953000000067
 51
58.640963999999322
  0
ARC
  8
0
  6
CONTINUOUS
 62
256
 10
192.128695999999990
 20
-77.442954000000000
 40
10.000000000000000
 50
180.000000000000000
 51
183.725036999999960
  0
ARC
  8
0
  6
CONTINUOUS
 62
256
 10
183.128695999999990
 20
-94.371853000000002
 40
1.000000000000000
 50
180.000000000000000
 51
238.640963999999340
  0
LINE
  8
0
  6
DASHDOT
 62
256
 10
174.071294999999990
 20
-83.972514000000004
 11
188.702460000000000
 21
-83.972514000000004
  0
ARC
  8
0
  6
CONTINUOUS
 62
256
 10
-516.371304000000010
 20
-123.570494000000000
 40
700.000000000000000
 50
1.652907000000000
 51
2.865819000000000
  0
ARC
  8
0
  6
CONTINUOUS
 62
256
 10
-516.371304000000010
 20
-123.570494000000000
 40
700.000000000000000
 50
3.620061999999999
 51
4.231255999999999
  0
ARC
  8
0
  6
CONTINUOUS
 62
256
 10
179.726211000000010
 20
-72.070493999999997
 40
1.999999999999991
 50
4.231256000000149
 51
90.000000000000000
  0
LINE
  8
0
  6
CONTINUOUS
 62
256
 10
177.128695999999990
 20
-70.070493999999997
 11
179.726211000000010
 21
-70.070493999999997
  0
LINE
  8
0
  6
CONTINUOUS
 62
256
 10
177.128695999999990
 20
-72.570493999999997
 11
78.128696000000005
 21
-72.570493999999997
  0
LINE
  8
0
  6
CONTINUOUS
 62
256
 10
177.128695999999990
 20
-73.070493999999997
 11
78.128696000000005
 21
-73.070493999999997
  0
LINE
  8
0
  6
CONTINUOUS
 62
256
 10
177.128695999999990
 20
-77.437410999999997
 11
78.128696000000005
 21
-77.437410999999997
  0
LINE
  8
0
  6
CONTINUOUS
 62
256
 10
177.128695999999990
 20
-82.528580000000005
 11
78.128696000000005
 21
-82.528580000000005
  0
LINE
  8
0
  6
CONTINUOUS
 62
256
 10
177.128695999999990
 20
-90.266892999999996
 11
78.128696000000005
 21
-90.266892999999996
  0
LINE
  8
0
  6
CONTINUOUS
 62
256
 10
177.128695999999990
 20
-91.856103000000004
 11
78.128696000000005
 21
-91.856103000000004
  0
LINE
  8
0
  6
CONTINUOUS
 62
256
 10
177.128695999999990
 20
-94.814098999999999
 11
78.128696000000005
 21
-94.814098999999999
  0
LINE
  8
0
  6
CONTINUOUS
 62
256
 10
177.128695999999990
 20
-96.293121999999997
 11
78.128696000000005
 21
-96.293121999999997
  0
LINE
  8
0
  6
CONTINUOUS
 62
256
 10
177.128695999999990
 20
-99.385852999999997
 11
78.128696000000005
 21
-99.385852999999997
  0
LINE
  8
0
  6
CONTINUOUS
 62
256
 10
177.128695999999990
 20
-100.732254000000000
 11
78.128696000000005
 21
-100.732254000000000
  0
LINE
  8
0
  6
CONTINUOUS
 62
256
 10
177.128695999999990
 20
-103.942459000000000
 11
78.128696000000005
 21
-103.942459000000000
  0
LINE
  8
0
  6
CONTINUOUS
 62
256
 10
177.128695999999990
 20
-105.184379000000010
 11
78.128696000000005
 21
-105.184379000000010
  0
LINE
  8
0
  6
CONTINUOUS
 62
256
 10
177.128695999999990
 20
-109.570494000000000
 11
78.128696000000005
 21
-109.570494000000000
  0
LINE
  8
0
  6
CONTINUOUS
 62
256
 10
170.128695999999990
 20
-70.070493999999997
 11
177.128695999999990
 21
-70.070493999999997
  0
LINE
  8
0
  6
CONTINUOUS
 62
256
 10
78.128696000000005
 20
-70.070493999999997
 11
95.128696000000005
 21
-70.070493999999997
  0
LINE
  8
0
  6
CONTINUOUS
 62
256
 10
111.128696000000010
 20
-36.070493999999997
 11
111.128696000000010
 21
-36.570493999999997
  0
LINE
  8
0
  6
CONTINUOUS
 62
256
 10
103.128696000000010
 20
-36.070493999999997
 11
103.128696000000010
 21
-36.570493999999997
  0
ARC
  8
0
  6
CONTINUOUS
 62
256
 10
97.128696000000005
 20
-37.570493999999997
 40
1.000000000000000
 50
90.000000000000000
 51
180.000000000000000
  0
ARC
  8
0
  6
CONTINUOUS
 62
256
 10
168.128695999999990
 20
-37.570493999999997
 40
1.000000000000000
 50
0.000000000000000
 51
90.000000000000000
  0
LINE
  8
0
  6
CONTINUOUS
 62
256
 10
169.128695999999990
 20
-37.570493999999997
 11
169.128695999999990
 21
-66.070493999999997
  0
LINE
  8
0
  6
CONTINUOUS
 62
256
 10
96.128696000000005
 20
-37.570493999999997
 11
96.128696000000005
 21
-66.070493999999997
  0
LINE
  8
0
  6
CONTINUOUS
 62
256
 10
97.128696000000005
 20
-36.570493999999997
 11
168.128695999999990
 21
-36.570493999999997
  0
LINE
  8
0
  6
CONTINUOUS
 62
256
 10
95.128696000000005
 20
-66.070493999999997
 11
95.128696000000005
 21
-71.070493999999997
  0
LINE
  8
0
  6
CONTINUOUS
 62
256
 10
170.128695999999990
 20
-66.070493999999997
 11
170.128695999999990
 21
-71.070493999999997
  0
LINE
  8
0
  6
CONTINUOUS
 62
256
 10
170.128695999999990
 20
-66.070493999999997
 11
95.128696000000005
 21
-66.070493999999997
  0
LINE
  8
0
  6
CONTINUOUS
 62
256
 10
95.128696000000005
 20
-71.070493999999997
 11
170.128695999999990
 21
-71.070493999999997
  0
LINE
  8
0
  6
DASHDOT
 62
256
 10
37.144272000000001
 20
-123.570494000000000
 11
189.089153000000010
 21
-123.570494000000000
  0
LINE
  8
0
  6
CONTINUOUS
 62
256
 10
78.128696000000005
 20
-70.070493999999997
 11
78.128696000000005
 21
-123.570494000000000
  0
LINE
  8
0
  6
CONTINUOUS
 62
256
 10
177.128695999999990
 20
-123.570494000000000
 11
177.128695999999990
 21
-70.070493999999997
  0
LINE
  8
0
  6
CONTINUOUS
 62
256
 10
103.128696000000010
 20
-36.070493999999997
 11
111.128696000000010
 21
-36.070493999999997
  0
CIRCLE
  8
0
  6
CONTINUOUS
 62
256
 10
-79.871303999999995
 20
-68.570493999999997
 40
3.323499999999996
  0
CIRCLE
  8
0
  6
CONTINUOUS
 62
256
 10
-79.871303999999995
 20
-68.570493999999997
 40
4.000000000000000
  0
INSERT
  8
0
  2
ZU_SYM_7
 10
182.128694000000000
 20
-163.168474000000000
 50
180.000000000000000
  0
INSERT
  8
0
  2
ZU_SYM_8
 10
182.128694000000000
 20
-83.972514000000004
 41
-1.000000000000000
 50
0.000000000000007
  0
ARC
  8
0
  6
CONTINUOUS
 62
256
 10
52.685343000000003
 20
-180.515065999999990
 40
3.000000000000011
 50
91.000000000000014
 51
162.875006000000240
  0
ENDSEC
  0
EOF
