  0
SECTION
  2
HEADER
  9
$TEXTSIZE
 40
2.5
  9
$ACADVER
  1
AC1009
  9
$DIMASZ
 40
3.863703297614046
  9
$DIMEXE
 40
2.000000000000000
  9
$DIMEXO
 40
1.000000000000000
  9
$DIMLFAC
 40
1.000000000000000
  9
$DIMSCALE
 40
1.000000000000000
  9
$DIMTAD
 70
1
  9
$DIMTFAC
 40
0.625000000000000
  9
$DIMTXT
 40
3.200000047683716
  9
$LUPREC
 70
3
  9
$REGENMODE
 70
1
  9
$TEXTSTYLE
  7
STANDARD1
  0
ENDSEC
  0
SECTION
  2
TABLES
  0
TABLE
  2
LTYPE
 70
4
  0
LTYPE
  2
CONTINUOUS
 70
64
  3
Solid line
 72
65
 73
0
 40
0.0
  0
LTYPE
  2
DASHED
 70
64
  3
-- -- -- -- -- -- -- -- -- -- -- -- -- -- --
 72
65
 73
2
 40
0.75
 49
0.5
 49
-0.25
  0
LTYPE
  2
DASHDOT
 70
64
  3
__ . __ . __ . __ . __ . __ . __ . __ . __ . __
 72
65
 73
4
 40
1.0
 49
0.5
 49
-0.25
 49
0.0
 49
-0.25
  0
LTYPE
  2
DIVIDE
 70
64
  3
__ . . __ . . __ . . __ . . __ . . __ . . __
 72
65
 73
6
 40
1.25
 49
0.5
 49
-0.25
 49
0.0
 49
-0.25
 49
0.0
 49
-0.25
  0
ENDTAB
  0
TABLE
  2
LAYER
 70
2
  0
LAYER
  2
0
 70
64
 62
53
  6
CONTINUOUS
  0
LAYER
  2
1
 70
64
 62
102
  6
CONTINUOUS
  0
ENDTAB
  0
TABLE
  2
STYLE
 70
4
  0
STYLE
  2
STANDARD1
 70
64
 40
0.0
 41
1.0
 50
0.0
 71
0
 42
3.200000047683716
  3
MONOTXT
  4
BIGFONT
  0
STYLE
  2
STANDARD2
 70
68
 40
0.0
 41
1.0
 50
0.0
 71
0
 42
3.200000047683716
  3
MONOTXT
  4
BIGFONT
  0
STYLE
  2
STANDARD3
 70
64
 40
0.0
 41
1.0
 50
0.0
 71
0
 42
3.200000047683716
  3
MONOTXT
  4

  0
STYLE
  2
STANDARD4
 70
68
 40
0.0
 41
1.0
 50
0.0
 71
0
 42
3.200000047683716
  3
MONOTXT
  4

  0
ENDTAB
  0
TABLE
  2
VIEW
 70
0
  0
ENDTAB
  0
ENDSEC
  0
SECTION
  2
BLOCKS
  0
ENDSEC
  0
SECTION
  2
ENTITIES
  0
POINT
  8
0
  6
DASHED
 62
256
 10
-202.180746000000000
 20
-95.158631000000000
  0
CIRCLE
  8
0
  6
CONTINUOUS
 62
256
 10
-110.921638000000000
 20
-183.158631000000010
 40
4.188000000000002
  0
CIRCLE
  8
0
  6
CONTINUOUS
 62
256
 10
-110.921638000000000
 20
-183.158631000000010
 40
5.000000000000000
  0
CIRCLE
  8
0
  6
CONTINUOUS
 62
256
 10
23.078361999999998
 20
-183.158631000000010
 40
4.187999999999999
  0
CIRCLE
  8
0
  6
CONTINUOUS
 62
256
 10
23.078361999999998
 20
-183.158631000000010
 40
5.000000000000000
  0
CIRCLE
  8
0
  6
CONTINUOUS
 62
256
 10
23.078361999999998
 20
-61.158631000000000
 40
4.187999999999999
  0
CIRCLE
  8
0
  6
CONTINUOUS
 62
256
 10
23.078361999999998
 20
-61.158631000000000
 40
5.000000000000000
  0
ARC
  8
0
  6
CONTINUOUS
 62
256
 10
-202.180746000000000
 20
-109.158631000000000
 40
13.999999999999998
 50
106.601550000000000
 51
73.398450000000011
  0
LINE
  8
0
  6
CONTINUOUS
 62
256
 10
-198.180746000000000
 20
-92.158631000000000
 11
-198.180746000000000
 21
-99.158631000000000
  0
LINE
  8
0
  6
CONTINUOUS
 62
256
 10
-206.180746000000000
 20
-99.158631000000000
 11
-198.180746000000000
 21
-99.158631000000000
  0
LINE
  8
0
  6
CONTINUOUS
 62
256
 10
-206.180746000000000
 20
-92.158631000000000
 11
-206.180746000000000
 21
-99.158631000000000
  0
LINE
  8
0
  6
CONTINUOUS
 62
256
 10
-206.180746000000000
 20
-92.158631000000000
 11
-198.180746000000000
 21
-92.158631000000000
  0
LINE
  8
0
  6
DASHDOT
 62
256
 10
-202.180746000000000
 20
-130.206954000000000
 11
-202.180746000000000
 21
-88.475363000000002
  0
LINE
  8
0
  6
DASHDOT
 62
256
 10
-221.383676000000010
 20
-109.158631000000000
 11
-179.652085000000000
 21
-109.158631000000000
  0
CIRCLE
  8
0
  6
CONTINUOUS
 62
256
 10
-202.180746000000000
 20
-109.158631000000000
 40
3.500000000000000
  0
CIRCLE
  8
0
  6
CONTINUOUS
 62
256
 10
-202.180746000000000
 20
-109.158631000000000
 40
4.000000000000000
  0
LINE
  8
0
  6
DASHDOT
 62
256
 10
-269.144105000000020
 20
-109.158631000000000
 11
-436.290008000000000
 21
-109.158631000000000
  0
LINE
  8
0
  6
CONTINUOUS
 62
256
 10
-424.998743999999990
 20
-104.641176000000000
 11
-424.998743999999990
 21
-143.641176000000000
  0
LINE
  8
0
  6
CONTINUOUS
 62
256
 10
-318.998743999999990
 20
-143.641176000000000
 11
-318.998743999999990
 21
-104.641176000000000
  0
ARC
  8
0
  6
CONTINUOUS
 62
256
 10
-344.998743999999990
 20
-151.658631000000010
 40
25.000000000000000
 50
331.642362999999990
 51
354.269824999999970
  0
ARC
  8
0
  6
CONTINUOUS
 62
256
 10
-398.998743999999990
 20
-151.658631000000010
 40
24.999999999999979
 50
185.730174999999970
 51
208.357637000000040
  0
ARC
  8
0
  6
CONTINUOUS
 62
256
 10
-23.998743999999999
 20
-144.158631000000010
 40
400.000000000000000
 50
181.076859999999980
 51
181.431983999999970
  0
ARC
  8
0
  6
CONTINUOUS
 62
256
 10
-719.998743999999990
 20
-144.158631000000010
 40
400.000000000000000
 50
358.568016000000060
 51
358.849005999999970
  0
ARC
  8
0
  6
DASHED
 62
256
 10
-319.498743999999990
 20
-143.641176000000000
 40
0.500000000000000
 50
270.000000000000000
 51
0.000000000000000
  0
ARC
  8
0
  6
DASHED
 62
256
 10
-719.998743999999990
 20
-144.158631000000010
 40
400.000000000000000
 50
358.849005999999970
 51
359.928470000000000
  0
ARC
  8
0
  6
DASHED
 62
256
 10
-344.998743999999990
 20
-151.658631000000010
 40
25.000000000000011
 50
275.730175000000030
 51
331.642362999999990
  0
ARC
  8
0
  6
DASHED
 62
256
 10
-398.998743999999990
 20
-151.658631000000010
 40
25.000000000000000
 50
208.357637000000040
 51
264.269825000000080
  0
LINE
  8
0
  6
DASHED
 62
256
 10
-352.498743999999990
 20
-70.658631000000000
 11
-391.498743999999990
 21
-70.658631000000000
  0
ARC
  8
0
  6
DASHED
 62
256
 10
-352.498743999999990
 20
-471.658631000000010
 40
400.000000000000000
 50
89.140459000000007
 51
89.928470000000004
  0
ARC
  8
0
  6
DASHED
 62
256
 10
-344.998743999999990
 20
-96.658631000000000
 40
24.999999999999979
 50
5.730175000000014
 51
93.438649999999981
  0
ARC
  8
0
  6
DASHED
 62
256
 10
-352.498743999999990
 20
-71.158631000000000
 40
0.500000000000000
 50
0.000000000000000
 51
90.000000000000000
  0
ARC
  8
0
  6
DASHED
 62
256
 10
-351.498743999999990
 20
-71.158631000000000
 40
0.500000000000000
 50
180.000000000000000
 51
270.000000000000000
  0
ARC
  8
0
  6
DASHED
 62
256
 10
-719.998743999999990
 20
-104.158631000000000
 40
399.999999999999940
 50
0.053000000000000
 51
1.431984000000000
  0
ARC
  8
0
  6
DASHED
 62
256
 10
-319.498743999999990
 20
-103.658631000000000
 40
0.500000000000000
 50
180.000000000000000
 51
270.000000000000000
  0
ARC
  8
0
  6
DASHED
 62
256
 10
-319.498743999999990
 20
-144.658631000000010
 40
0.500000000000000
 50
90.000000000000000
 51
180.000000000000000
  0
ARC
  8
0
  6
DASHED
 62
256
 10
-352.498743999999990
 20
223.341368999999990
 40
400.000000000000000
 50
270.071530000000000
 51
271.431984000000000
  0
ARC
  8
0
  6
DASHED
 62
256
 10
-351.498743999999990
 20
-177.158631000000010
 40
0.500000000000000
 50
90.000000000000000
 51
180.000000000000000
  0
LINE
  8
0
  6
DASHED
 62
256
 10
-391.498743999999990
 20
-177.658631000000010
 11
-352.498743999999990
 21
-177.658631000000010
  0
ARC
  8
0
  6
DASHED
 62
256
 10
-352.498743999999990
 20
-177.158631000000010
 40
0.500000000000000
 50
270.000000000000000
 51
0.000000000000000
  0
ARC
  8
0
  6
DASHED
 62
256
 10
-391.498743999999990
 20
223.341368999999990
 40
400.000000000000000
 50
268.568016000000060
 51
269.928470000000000
  0
ARC
  8
0
  6
DASHED
 62
256
 10
-392.498743999999990
 20
-177.158631000000010
 40
0.500000000000000
 50
0.000000000000000
 51
90.000000000000000
  0
ARC
  8
0
  6
DASHED
 62
256
 10
-391.498743999999990
 20
-177.158631000000010
 40
0.500000000000000
 50
180.000000000000000
 51
270.000000000000000
  0
ARC
  8
0
  6
DASHED
 62
256
 10
-424.498743999999990
 20
-143.658631000000010
 40
0.500000000000000
 50
180.000000000000000
 51
270.000000000000000
  0
ARC
  8
0
  6
DASHED
 62
256
 10
-424.498743999999990
 20
-144.658631000000010
 40
0.500000000000000
 50
0.000000000000000
 51
90.000000000000000
  0
ARC
  8
0
  6
DASHED
 62
256
 10
-23.998743999999999
 20
-104.158631000000000
 40
400.000000000000000
 50
178.568016000000000
 51
179.928470000000000
  0
ARC
  8
0
  6
DASHED
 62
256
 10
-424.498743999999990
 20
-104.658631000000000
 40
0.500000000000000
 50
90.000000000000000
 51
180.000000000000000
  0
ARC
  8
0
  6
DASHED
 62
256
 10
-424.498743999999990
 20
-103.658631000000000
 40
0.500000000000000
 50
270.000000000000000
 51
0.000000000000000
  0
ARC
  8
0
  6
DASHED
 62
256
 10
-398.998743999999990
 20
-96.658631000000000
 40
24.999999999999993
 50
86.561350000000019
 51
174.269825000000000
  0
ARC
  8
0
  6
DASHED
 62
256
 10
-391.498743999999990
 20
-471.658631000000010
 40
400.000000000000000
 50
90.071529999999996
 51
90.859540999999993
  0
ARC
  8
0
  6
DASHED
 62
256
 10
-392.498743999999990
 20
-71.158631000000000
 40
0.500000000000000
 50
270.000000000000000
 51
0.000000000000000
  0
ARC
  8
0
  6
DASHED
 62
256
 10
-391.498743999999990
 20
-71.158631000000000
 40
0.500000000000000
 50
90.000000000000000
 51
180.000000000000000
  0
LINE
  8
0
  6
DASHDOT
 62
256
 10
-371.998743999999990
 20
-199.492809999999990
 11
-371.998743999999990
 21
-34.123638999999997
  0
LINE
  8
0
  6
DASHDOT
 62
256
 10
-363.000895000000010
 20
-124.158631000000000
 11
-382.988834999999990
 21
-124.158631000000000
  0
LINE
  8
0
  6
CONTINUOUS
 62
256
 10
-408.998743999999990
 20
-48.132449000000001
 11
-408.998743999999990
 21
-196.149903999999990
  0
LINE
  8
0
  6
CONTINUOUS
 62
256
 10
-424.998743999999990
 20
-151.658631000000010
 11
-420.998743999999990
 21
-151.658631000000010
  0
LINE
  8
0
  6
CONTINUOUS
 62
256
 10
-420.998743999999990
 20
-163.515517999999990
 11
-420.998743999999990
 21
-48.368091999999997
  0
LINE
  8
0
  6
CONTINUOUS
 62
256
 10
-322.998743999999990
 20
-163.515517999999990
 11
-322.998743999999990
 21
-49.476489000000001
  0
LINE
  8
0
  6
CONTINUOUS
 62
256
 10
-420.998743999999990
 20
-195.949170000000010
 11
-420.998743999999990
 21
-163.515517999999990
  0
LINE
  8
0
  6
CONTINUOUS
 62
256
 10
-424.998743999999990
 20
-66.658631000000000
 11
-424.998743999999990
 21
-151.658631000000010
  0
LINE
  8
0
  6
CONTINUOUS
 62
256
 10
-322.998743999999990
 20
-194.805864000000010
 11
-322.998743999999990
 21
-163.515517999999990
  0
LINE
  8
0
  6
CONTINUOUS
 62
256
 10
-408.998743999999990
 20
-196.149903999999990
 11
-332.998743999999990
 21
-194.805864000000010
  0
LINE
  8
0
  6
CONTINUOUS
 62
256
 10
-332.998743999999990
 20
-194.805864000000010
 11
-322.998743999999990
 21
-194.805864000000010
  0
LINE
  8
0
  6
CONTINUOUS
 62
256
 10
-332.998743999999990
 20
-49.476489000000001
 11
-322.998743999999990
 21
-49.476489000000001
  0
LINE
  8
0
  6
CONTINUOUS
 62
256
 10
-420.998743999999990
 20
-48.368091999999997
 11
-408.998743999999990
 21
-48.158631000000000
  0
LINE
  8
0
  6
CONTINUOUS
 62
256
 10
-408.998743999999990
 20
-48.132449000000001
 11
-332.998743999999990
 21
-49.476489000000001
  0
LINE
  8
0
  6
CONTINUOUS
 62
256
 10
-424.998743999999990
 20
-66.658631000000000
 11
-420.998743999999990
 21
-66.658631000000000
  0
LINE
  8
0
  6
CONTINUOUS
 62
256
 10
-408.998743999999990
 20
-196.158631000000010
 11
-420.998743999999990
 21
-195.949170000000010
  0
LINE
  8
0
  6
CONTINUOUS
 62
256
 10
-318.998743999999990
 20
-151.658631000000010
 11
-318.998743999999990
 21
-66.658631000000000
  0
LINE
  8
0
  6
CONTINUOUS
 62
256
 10
-322.998743999999990
 20
-66.658631000000000
 11
-318.998743999999990
 21
-66.658631000000000
  0
LINE
  8
0
  6
CONTINUOUS
 62
256
 10
-322.998743999999990
 20
-151.658631000000010
 11
-318.998743999999990
 21
-151.658631000000010
  0
ARC
  8
0
  6
DASHED
 62
256
 10
-23.998743999999999
 20
-144.158631000000010
 40
400.000000000000000
 50
180.071529999999970
 51
181.150993999999970
  0
ARC
  8
0
  6
CONTINUOUS
 62
256
 10
-346.998743999999990
 20
-43.219861999999999
 40
5.000000000000000
 50
0.000000000000000
 51
85.138594999999953
  0
ARC
  8
0
  6
CONTINUOUS
 62
256
 10
-396.998743999999990
 20
-43.219861999999999
 40
5.000000000000003
 50
94.861405000000062
 51
180.000000000000000
  0
LINE
  8
0
  6
CONTINUOUS
 62
256
 10
-341.998743999999990
 20
-49.334781000000000
 11
-341.998743999999990
 21
-43.219861999999999
  0
LINE
  8
0
  6
CONTINUOUS
 62
256
 10
-401.998743999999990
 20
-48.273696999999999
 11
-401.998743999999990
 21
-43.219861999999999
  0
ARC
  8
0
  6
CONTINUOUS
 62
256
 10
-371.998743999999990
 20
-337.158631000000010
 40
300.000000000000000
 50
85.138594999999995
 51
94.861405000000005
  0
LINE
  8
0
  6
CONTINUOUS
 62
256
 10
-374.498743999999990
 20
-37.169047999999997
 11
-374.498743999999990
 21
-36.658631000000000
  0
LINE
  8
0
  6
CONTINUOUS
 62
256
 10
-369.498743999999990
 20
-37.169047999999997
 11
-369.498743999999990
 21
-36.658631000000000
  0
LINE
  8
0
  6
CONTINUOUS
 62
256
 10
-369.498743999999990
 20
-36.658631000000000
 11
-374.498743999999990
 21
-36.658631000000000
  0
ARC
  8
0
  6
CONTINUOUS
 62
256
 10
-718.598744000000010
 20
-124.158631000000000
 40
400.600000000000020
 50
0.000000000000000
 51
0.069015999999999
  0
LINE
  8
0
  6
CONTINUOUS
 62
256
 10
-322.998743999999990
 20
-169.345254000000010
 11
-321.909892000000010
 21
-168.256403000000010
  0
ARC
  8
0
  6
CONTINUOUS
 62
256
 10
-718.598744000000010
 20
-124.158631000000000
 40
400.600000000000020
 50
354.256318000000020
 51
0.000000000000000
  0
ARC
  8
0
  6
CONTINUOUS
 62
256
 10
-326.576797000000000
 20
-163.589497999999990
 40
6.600000000000017
 50
315.000000000000170
 51
354.256318000000020
  0
ARC
  8
0
  6
CONTINUOUS
 62
256
 10
-25.398744000000001
 20
-124.158631000000000
 40
400.600000000000080
 50
175.950769000000010
 51
180.000000000000000
  0
LINE
  8
0
  6
CONTINUOUS
 62
256
 10
-420.998743999999990
 20
-169.345254000000010
 11
-422.087595000000020
 21
-168.256403000000010
  0
ARC
  8
0
  6
CONTINUOUS
 62
256
 10
-25.398744000000001
 20
-124.158631000000000
 40
400.600000000000020
 50
180.000000000000000
 51
185.743681999999980
  0
ARC
  8
0
  6
CONTINUOUS
 62
256
 10
-417.420690999999980
 20
-163.589497999999990
 40
6.599999999999971
 50
185.743681999999920
 51
224.999999999999830
  0
LINE
  8
0
  6
CONTINUOUS
 62
256
 10
-316.998743999999990
 20
-123.158631000000000
 11
-271.998743999999990
 21
-123.158631000000000
  0
LINE
  8
0
  6
CONTINUOUS
 62
256
 10
-316.998743999999990
 20
-109.158631000000000
 11
-316.998743999999990
 21
-123.658631000000000
  0
LINE
  8
0
  6
CONTINUOUS
 62
256
 10
-316.998743999999990
 20
-109.158631000000000
 11
-316.998743999999990
 21
-123.658631000000000
  0
LINE
  8
0
  6
CONTINUOUS
 62
256
 10
-316.998743999999990
 20
-95.158631000000000
 11
-271.998743999999990
 21
-95.158631000000000
  0
LINE
  8
0
  6
CONTINUOUS
 62
256
 10
-316.998743999999990
 20
-109.158631000000000
 11
-316.998743999999990
 21
-94.658631000000000
  0
LINE
  8
0
  6
CONTINUOUS
 62
256
 10
-316.998743999999990
 20
-109.158631000000000
 11
-316.998743999999990
 21
-94.658631000000000
  0
LINE
  8
0
  6
CONTINUOUS
 62
256
 10
-316.998743999999990
 20
-94.658631000000000
 11
-318.998743999999990
 21
-94.658631000000000
  0
LINE
  8
0
  6
CONTINUOUS
 62
256
 10
-316.998743999999990
 20
-123.658631000000000
 11
-318.998743999999990
 21
-123.658631000000000
  0
LINE
  8
0
  6
CONTINUOUS
 62
256
 10
-307.998743999999990
 20
-92.158631000000000
 11
-271.998743999999990
 21
-92.158631000000000
  0
LINE
  8
0
  6
CONTINUOUS
 62
256
 10
-307.998743999999990
 20
-95.158631000000000
 11
-307.998743999999990
 21
-92.158631000000000
  0
LINE
  8
0
  6
CONTINUOUS
 62
256
 10
-271.998743999999990
 20
-109.158631000000000
 11
-271.998743999999990
 21
-123.158631000000000
  0
LINE
  8
0
  6
CONTINUOUS
 62
256
 10
-271.998743999999990
 20
-109.158631000000000
 11
-271.998743999999990
 21
-92.158631000000000
  0
LINE
  8
0
  6
DASHDOT
 62
256
 10
-422.444827999999970
 20
-61.158631000000000
 11
-321.361613999999970
 21
-61.158631000000000
  0
LINE
  8
0
  6
DASHDOT
 62
256
 10
-422.444827999999970
 20
-183.158631000000010
 11
-321.361613999999970
 21
-183.158631000000010
  0
LINE
  8
0
  6
CONTINUOUS
 62
256
 10
64.578361999999998
 20
-124.158631000000000
 11
64.578361999999998
 21
-177.641176000000000
  0
LINE
  8
0
  6
CONTINUOUS
 62
256
 10
64.578361999999998
 20
-124.158631000000000
 11
64.578361999999998
 21
-70.676085999999998
  0
LINE
  8
0
  6
CONTINUOUS
 62
256
 10
-122.321637999999990
 20
-187.158631000000010
 11
-122.321637999999990
 21
-57.158631000000000
  0
ARC
  8
0
  6
CONTINUOUS
 62
256
 10
-114.921638000000000
 20
-57.158631000000000
 40
7.399999999999999
 50
90.000000000000000
 51
180.000000000000000
  0
LINE
  8
0
  6
CONTINUOUS
 62
256
 10
-114.921638000000000
 20
-49.758631000000001
 11
27.078361999999998
 21
-49.758631000000001
  0
ARC
  8
0
  6
CONTINUOUS
 62
256
 10
-114.921638000000000
 20
-187.158631000000010
 40
7.400000000000006
 50
180.000000000000000
 51
270.000000000000000
  0
LINE
  8
0
  6
CONTINUOUS
 62
256
 10
27.078361999999998
 20
-194.558630999999990
 11
-114.921638000000000
 21
-194.558630999999990
  0
ARC
  8
0
  6
CONTINUOUS
 62
256
 10
27.078361999999998
 20
-187.158631000000010
 40
7.400000000000006
 50
270.000000000000000
 51
0.000000000000000
  0
LINE
  8
0
  6
CONTINUOUS
 62
256
 10
34.478361999999997
 20
-57.158631000000000
 11
34.478361999999997
 21
-187.158631000000010
  0
ARC
  8
0
  6
CONTINUOUS
 62
256
 10
27.078361999999998
 20
-57.158631000000000
 40
7.399999999999999
 50
0.000000000000000
 51
90.000000000000000
  0
ARC
  8
0
  6
CONTINUOUS
 62
256
 10
49.578361999999998
 20
-82.658631000000000
 40
3.000000000000000
 50
90.000000000000000
 51
180.000000000000000
  0
ARC
  8
0
  6
CONTINUOUS
 62
256
 10
49.578361999999998
 20
-85.728980000000007
 40
3.000000000000000
 50
90.000000000000000
 51
180.000000000000000
  0
ARC
  8
0
  6
CONTINUOUS
 62
256
 10
49.578361999999998
 20
-165.658631000000010
 40
3.000000000000000
 50
180.000000000000000
 51
270.000000000000000
  0
ARC
  8
0
  6
CONTINUOUS
 62
256
 10
49.578361999999998
 20
-162.588282999999990
 40
3.000000000000000
 50
180.000000000000000
 51
270.000000000000000
  0
ARC
  8
0
  6
CONTINUOUS
 62
256
 10
49.578361999999998
 20
-174.885093000000010
 40
3.000000000000000
 50
180.000000000000000
 51
271.000000000000000
  0
ARC
  8
0
  6
CONTINUOUS
 62
256
 10
49.578361999999998
 20
-73.432169999999999
 40
2.999999999999997
 50
88.999999999999986
 51
180.000000000000000
  0
LINE
  8
0
  6
CONTINUOUS
 62
256
 10
46.578361999999998
 20
-73.432169999999999
 11
46.578361999999998
 21
-174.885093000000010
  0
CIRCLE
  8
0
  6
CONTINUOUS
 62
256
 10
-62.921638000000002
 20
-109.158631000000000
 40
47.000000000000000
  0
ARC
  8
0
  6
CONTINUOUS
 62
256
 10
-88.588926000000001
 20
-177.658631000000010
 40
9.999999999999996
 50
193.835224000000070
 51
270.000000000000000
  0
ARC
  8
0
  6
CONTINUOUS
 62
256
 10
-110.921638000000000
 20
-183.158631000000010
 40
13.000000000000002
 50
13.835223999999982
 51
76.164776000000032
  0
ARC
  8
0
  6
CONTINUOUS
 62
256
 10
-105.421638000000000
 20
-160.825920000000000
 40
10.000000000000000
 50
180.000000000000000
 51
256.164776000000020
  0
ARC
  8
0
  6
CONTINUOUS
 62
256
 10
-105.421638000000000
 20
-83.491343000000001
 40
10.000000000000005
 50
103.835223999999980
 51
180.000000000000000
  0
ARC
  8
0
  6
CONTINUOUS
 62
256
 10
-110.921638000000000
 20
-61.158631000000000
 40
13.000000000000002
 50
283.835223999999980
 51
346.164776000000020
  0
ARC
  8
0
  6
CONTINUOUS
 62
256
 10
-88.588926000000001
 20
-66.658631000000000
 40
10.000000000000000
 50
90.000000000000000
 51
166.164775999999990
  0
ARC
  8
0
  6
CONTINUOUS
 62
256
 10
0.745651000000000
 20
-177.658631000000010
 40
7.500000000000000
 50
270.000000000000000
 51
346.164776000000020
  0
ARC
  8
0
  6
CONTINUOUS
 62
256
 10
0.745651000000000
 20
-66.658631000000000
 40
7.500000000000001
 50
13.835224000000018
 51
90.000000000000000
  0
ARC
  8
0
  6
CONTINUOUS
 62
256
 10
-88.588926000000001
 20
-66.658631000000000
 40
7.500000000000000
 50
90.000000000000000
 51
166.164775999999990
  0
ARC
  8
0
  6
CONTINUOUS
 62
256
 10
-110.921638000000000
 20
-61.158631000000000
 40
15.500000000000004
 50
283.835223999999930
 51
346.164776000000020
  0
ARC
  8
0
  6
CONTINUOUS
 62
256
 10
-105.421638000000000
 20
-83.491343000000001
 40
7.500000000000005
 50
103.835224000000010
 51
180.000000000000000
  0
ARC
  8
0
  6
CONTINUOUS
 62
256
 10
-105.421638000000000
 20
-160.825920000000000
 40
7.500000000000000
 50
180.000000000000000
 51
256.164775999999960
  0
ARC
  8
0
  6
CONTINUOUS
 62
256
 10
-110.921638000000000
 20
-183.158631000000010
 40
15.500000000000005
 50
13.835224000000020
 51
76.164775999999975
  0
ARC
  8
0
  6
CONTINUOUS
 62
256
 10
-88.588926000000001
 20
-177.658631000000010
 40
7.500000000000005
 50
193.835224000000010
 51
270.000000000000000
  0
CIRCLE
  8
0
  6
CONTINUOUS
 62
256
 10
-62.921638000000002
 20
-109.158631000000000
 40
49.500000000000000
  0
CIRCLE
  8
0
  6
CONTINUOUS
 62
256
 10
-62.921638000000002
 20
-109.158631000000000
 40
30.000000000000000
  0
ARC
  8
0
  6
CONTINUOUS
 62
256
 10
-114.921638000000000
 20
-187.158631000000010
 40
9.000000000000000
 50
180.000000000000000
 51
270.000000000000000
  0
ARC
  8
0
  6
CONTINUOUS
 62
256
 10
-114.921638000000000
 20
-57.158631000000000
 40
9.000000000000000
 50
90.000000000000000
 51
180.000000000000000
  0
ARC
  8
0
  6
CONTINUOUS
 62
256
 10
23.078361999999998
 20
-61.158631000000000
 40
15.500000000000000
 50
193.835224000000010
 51
256.164776000000020
  0
ARC
  8
0
  6
CONTINUOUS
 62
256
 10
23.078361999999998
 20
-183.158631000000010
 40
15.499999999999991
 50
103.835224000000010
 51
166.164775999999960
  0
ARC
  8
0
  6
CONTINUOUS
 62
256
 10
0.745651000000000
 20
-177.658631000000010
 40
10.000000000000000
 50
270.000000000000000
 51
346.164775999999960
  0
ARC
  8
0
  6
CONTINUOUS
 62
256
 10
23.078361999999998
 20
-183.158631000000010
 40
13.000000000000002
 50
103.835224000000000
 51
166.164776000000020
  0
ARC
  8
0
  6
CONTINUOUS
 62
256
 10
23.078361999999998
 20
-61.158631000000000
 40
13.000000000000002
 50
193.835224000000040
 51
256.164776000000020
  0
ARC
  8
0
  6
CONTINUOUS
 62
256
 10
0.745651000000000
 20
-66.658631000000000
 40
9.999999999999998
 50
13.835223999999991
 51
90.000000000000000
  0
ARC
  8
0
  6
CONTINUOUS
 62
256
 10
56.578361999999998
 20
-171.658631000000010
 40
3.000000000000000
 50
0.000000000000000
 51
90.000000000000000
  0
ARC
  8
0
  6
CONTINUOUS
 62
256
 10
57.578361999999998
 20
-163.588282999999990
 40
2.000000000000000
 50
270.000000000000000
 51
0.000000000000000
  0
ARC
  8
0
  6
CONTINUOUS
 62
256
 10
56.578361999999998
 20
-155.050796999999990
 40
3.000000000000000
 50
270.000000000000000
 51
0.000000000000000
  0
ARC
  8
0
  6
CONTINUOUS
 62
256
 10
61.578361999999998
 20
-175.710691999999990
 40
2.000000000000000
 50
180.000000000000000
 51
270.999999999999940
  0
ARC
  8
0
  6
CONTINUOUS
 62
256
 10
56.578361999999998
 20
-93.266464999999997
 40
3.000000000000000
 50
0.000000000000000
 51
90.000000000000000
  0
ARC
  8
0
  6
CONTINUOUS
 62
256
 10
61.578361999999998
 20
-72.606571000000002
 40
1.999999999999998
 50
89.000000000000057
 51
180.000000000000000
  0
ARC
  8
0
  6
CONTINUOUS
 62
256
 10
56.578361999999998
 20
-76.658631000000000
 40
3.000000000000000
 50
270.000000000000000
 51
0.000000000000000
  0
ARC
  8
0
  6
CONTINUOUS
 62
256
 10
57.578361999999998
 20
-84.728980000000007
 40
2.000000000000000
 50
0.000000000000000
 51
90.000000000000000
  0
ARC
  8
0
  6
CONTINUOUS
 62
256
 10
27.078361999999998
 20
-187.158631000000010
 40
9.000000000000000
 50
270.000000000000000
 51
0.000000000000000
  0
ARC
  8
0
  6
CONTINUOUS
 62
256
 10
17.578361999999998
 20
-83.491343000000001
 40
7.500000000000000
 50
0.000000000000000
 51
76.164776000000032
  0
ARC
  8
0
  6
CONTINUOUS
 62
256
 10
17.578361999999998
 20
-160.825920000000000
 40
7.499999999999990
 50
283.835223999999980
 51
0.000000000000000
  0
ARC
  8
0
  6
CONTINUOUS
 62
256
 10
17.578361999999998
 20
-160.825920000000000
 40
10.000000000000005
 50
283.835223999999980
 51
0.000000000000000
  0
ARC
  8
0
  6
CONTINUOUS
 62
256
 10
17.578361999999998
 20
-83.491343000000001
 40
10.000000000000000
 50
0.000000000000000
 51
76.164776000000003
  0
ARC
  8
0
  6
CONTINUOUS
 62
256
 10
27.078361999999998
 20
-57.158631000000000
 40
9.000000000000000
 50
0.000000000000000
 51
90.000000000000000
  0
ARC
  8
0
  6
CONTINUOUS
 62
256
 10
39.078361999999998
 20
-67.247978000000003
 40
3.000000000000000
 50
180.000000000000000
 51
268.999999999999940
  0
ARC
  8
0
  6
CONTINUOUS
 62
256
 10
39.078361999999998
 20
-181.069285000000010
 40
3.000000000000011
 50
91.000000000000014
 51
180.000000000000000
  0
LINE
  8
0
  6
CONTINUOUS
 62
256
 10
36.078361999999998
 20
-57.158631000000000
 11
36.078361999999998
 21
-187.158631000000010
  0
LINE
  8
0
  6
CONTINUOUS
 62
256
 10
59.578361999999998
 20
-76.658631000000000
 11
59.578361999999998
 21
-72.606571000000002
  0
LINE
  8
0
  6
CONTINUOUS
 62
256
 10
64.578361999999998
 20
-70.641172999999995
 11
39.026004999999998
 21
-70.247521000000006
  0
LINE
  8
0
  6
CONTINUOUS
 62
256
 10
59.578361999999998
 20
-124.158631000000000
 11
59.578361999999998
 21
-84.728980000000007
  0
LINE
  8
0
  6
CONTINUOUS
 62
256
 10
51.513351000000000
 20
-90.266464999999997
 11
56.578361999999998
 21
-90.266464999999997
  0
LINE
  8
0
  6
CONTINUOUS
 62
256
 10
59.578361999999998
 20
-104.158631000000000
 11
64.578361999999998
 21
-104.158631000000000
  0
LINE
  8
0
  6
CONTINUOUS
 62
256
 10
59.578361999999998
 20
-144.158631000000010
 11
64.578361999999998
 21
-144.158631000000010
  0
LINE
  8
0
  6
CONTINUOUS
 62
256
 10
59.578361999999998
 20
-124.158631000000000
 11
59.578361999999998
 21
-163.588282999999990
  0
LINE
  8
0
  6
CONTINUOUS
 62
256
 10
51.273681000000003
 20
-158.050796999999990
 11
56.578361999999998
 21
-158.050796999999990
  0
LINE
  8
0
  6
CONTINUOUS
 62
256
 10
59.578361999999998
 20
-171.658631000000010
 11
59.578361999999998
 21
-175.710691999999990
  0
LINE
  8
0
  6
CONTINUOUS
 62
256
 10
64.578361999999998
 20
-177.676088999999990
 11
39.026004999999998
 21
-178.069741999999990
  0
LINE
  8
0
  6
CONTINUOUS
 62
256
 10
27.578361999999998
 20
-83.491343000000001
 11
27.578361999999998
 21
-160.825920000000000
  0
LINE
  8
0
  6
CONTINUOUS
 62
256
 10
-114.921638000000000
 20
-48.158631000000000
 11
27.078361999999998
 21
-48.158631000000000
  0
LINE
  8
0
  6
CONTINUOUS
 62
256
 10
-123.921638000000000
 20
-187.158631000000010
 11
-123.921638000000000
 21
-57.158631000000000
  0
LINE
  8
0
  6
CONTINUOUS
 62
256
 10
27.078361999999998
 20
-196.158631000000010
 11
-114.921638000000000
 21
-196.158631000000010
  0
LINE
  8
0
  6
DASHDOT
 62
256
 10
-127.380296000000000
 20
-109.158631000000000
 11
-4.231644000000000
 21
-109.158631000000000
  0
LINE
  8
0
  6
CONTINUOUS
 62
256
 10
-112.921638000000000
 20
-83.491343000000001
 11
-112.921638000000000
 21
-160.825920000000000
  0
LINE
  8
0
  6
CONTINUOUS
 62
256
 10
0.745651000000000
 20
-59.158631000000000
 11
-88.588926000000001
 21
-59.158631000000000
  0
LINE
  8
0
  6
CONTINUOUS
 62
256
 10
25.078361999999998
 20
-160.825920000000000
 11
25.078361999999998
 21
-83.491343000000001
  0
LINE
  8
0
  6
CONTINUOUS
 62
256
 10
-88.588926000000001
 20
-185.158631000000010
 11
0.745651000000000
 21
-185.158631000000010
  0
LINE
  8
0
  6
CONTINUOUS
 62
256
 10
-88.588926000000001
 20
-56.658631000000000
 11
0.745651000000000
 21
-56.658631000000000
  0
LINE
  8
0
  6
CONTINUOUS
 62
256
 10
-115.421638000000000
 20
-160.825920000000000
 11
-115.421638000000000
 21
-83.491343000000001
  0
LINE
  8
0
  6
CONTINUOUS
 62
256
 10
0.745651000000000
 20
-187.658631000000010
 11
-88.588926000000001
 21
-187.658631000000010
  0
LINE
  8
0
  6
DASHDOT
 62
256
 10
-62.921638000000002
 20
-45.763146999999996
 11
-62.921638000000002
 21
-200.628009999999990
  0
LINE
  8
0
  6
DASHDOT
 62
256
 10
13.578362000000000
 20
-183.158631000000010
 11
32.578361999999998
 21
-183.158631000000010
  0
LINE
  8
0
  6
DASHDOT
 62
256
 10
23.078361999999998
 20
-173.658631000000010
 11
23.078361999999998
 21
-192.658631000000010
  0
LINE
  8
0
  6
DASHDOT
 62
256
 10
13.578362000000000
 20
-61.158631000000000
 11
32.578361999999998
 21
-61.158631000000000
  0
LINE
  8
0
  6
DASHDOT
 62
256
 10
23.078361999999998
 20
-51.658631000000000
 11
23.078361999999998
 21
-70.658631000000000
  0
LINE
  8
0
  6
DASHDOT
 62
256
 10
-120.421638000000000
 20
-61.158631000000000
 11
-101.421638000000000
 21
-61.158631000000000
  0
LINE
  8
0
  6
DASHDOT
 62
256
 10
-110.921638000000000
 20
-51.658631000000000
 11
-110.921638000000000
 21
-70.658631000000000
  0
LINE
  8
0
  6
DASHDOT
 62
256
 10
-120.421638000000000
 20
-183.158631000000010
 11
-101.421638000000000
 21
-183.158631000000010
  0
LINE
  8
0
  6
DASHDOT
 62
256
 10
-110.921638000000000
 20
-173.658631000000010
 11
-110.921638000000000
 21
-192.658631000000010
  0
LINE
  8
0
  6
CONTINUOUS
 62
256
 10
56.578361999999998
 20
-79.658631000000000
 11
49.578361999999998
 21
-79.658631000000000
  0
LINE
  8
0
  6
CONTINUOUS
 62
256
 10
57.578361999999998
 20
-82.728980000000007
 11
49.578361999999998
 21
-82.728980000000007
  0
LINE
  8
0
  6
CONTINUOUS
 62
256
 10
57.578361999999998
 20
-165.588282999999990
 11
49.578361999999998
 21
-165.588282999999990
  0
LINE
  8
0
  6
CONTINUOUS
 62
256
 10
56.578361999999998
 20
-168.658631000000010
 11
49.578361999999998
 21
-168.658631000000010
  0
LINE
  8
0
  6
CONTINUOUS
 62
256
 10
-58.921638000000002
 20
-92.158631000000000
 11
-58.921638000000002
 21
-99.158631000000000
  0
LINE
  8
0
  6
CONTINUOUS
 62
256
 10
-66.921638000000002
 20
-92.158631000000000
 11
-66.921638000000002
 21
-99.158631000000000
  0
LINE
  8
0
  6
CONTINUOUS
 62
256
 10
-66.921638000000002
 20
-99.158631000000000
 11
-58.921638000000002
 21
-99.158631000000000
  0
LINE
  8
0
  6
CONTINUOUS
 62
256
 10
-66.921638000000002
 20
-92.158631000000000
 11
-58.921638000000002
 21
-92.158631000000000
  0
ARC
  8
0
  6
CONTINUOUS
 62
256
 10
-62.921638000000002
 20
-109.158631000000000
 40
13.999999999999998
 50
106.601550000000000
 51
73.398450000000011
  0
CIRCLE
  8
0
  6
CONTINUOUS
 62
256
 10
-62.921638000000002
 20
-109.158631000000000
 40
3.500000000000000
  0
CIRCLE
  8
0
  6
CONTINUOUS
 62
256
 10
-62.921638000000002
 20
-109.158631000000000
 40
4.000000000000000
  0
LINE
  8
0
  6
CONTINUOUS
 62
256
 10
198.578362000000000
 20
-172.002251000000000
 11
198.578362000000000
 21
-124.158631000000000
  0
LINE
  8
0
  6
CONTINUOUS
 62
256
 10
189.898881999999990
 20
-179.433163000000010
 11
197.469661000000000
 21
-174.132047000000000
  0
ARC
  8
0
  6
CONTINUOUS
 62
256
 10
195.978362000000000
 20
-172.002251000000000
 40
2.599999999999996
 50
305.000000000000230
 51
0.000000000000000
  0
ARC
  8
0
  6
CONTINUOUS
 62
256
 10
178.083206999999990
 20
-162.558630999999990
 40
20.599999999999994
 50
270.000000000000000
 51
305.000000000000000
  0
LINE
  8
0
  6
CONTINUOUS
 62
256
 10
198.578362000000000
 20
-76.315010999999998
 11
198.578362000000000
 21
-124.158631000000000
  0
LINE
  8
0
  6
CONTINUOUS
 62
256
 10
189.898881999999990
 20
-68.884099000000006
 11
197.469661000000000
 21
-74.185215999999997
  0
ARC
  8
0
  6
CONTINUOUS
 62
256
 10
195.978362000000000
 20
-76.315010999999998
 40
2.599999999999994
 50
0.000000000000000
 51
54.999999999999979
  0
ARC
  8
0
  6
CONTINUOUS
 62
256
 10
178.083206999999990
 20
-85.758630999999994
 40
20.600000000000001
 50
55.000000000000028
 51
90.000000000000000
  0
LINE
  8
0
  6
CONTINUOUS
 62
256
 10
148.578362000000000
 20
-183.158631000000010
 11
178.083206999999990
 21
-183.158631000000010
  0
LINE
  8
0
  6
CONTINUOUS
 62
256
 10
158.578362000000000
 20
-65.158631000000000
 11
178.083206999999990
 21
-65.158631000000000
  0
LINE
  8
0
  6
CONTINUOUS
 62
256
 10
156.578362000000000
 20
-66.658631000000000
 11
156.578362000000000
 21
-69.647362000000001
  0
LINE
  8
0
  6
CONTINUOUS
 62
256
 10
81.578361999999998
 20
-71.658631000000000
 11
148.811831000000010
 21
-71.658631000000000
  0
LINE
  8
0
  6
CONTINUOUS
 62
256
 10
148.578362000000000
 20
-73.158631000000000
 11
64.578361999999998
 21
-73.158631000000000
  0
LINE
  8
0
  6
CONTINUOUS
 62
256
 10
148.578362000000000
 20
-73.658631000000000
 11
64.578361999999998
 21
-73.658631000000000
  0
LINE
  8
0
  6
CONTINUOUS
 62
256
 10
148.578362000000000
 20
-78.025548999999998
 11
64.578361999999998
 21
-78.025548999999998
  0
LINE
  8
0
  6
CONTINUOUS
 62
256
 10
148.578362000000000
 20
-83.116716999999994
 11
64.578361999999998
 21
-83.116716999999994
  0
LINE
  8
0
  6
CONTINUOUS
 62
256
 10
148.578362000000000
 20
-92.444239999999994
 11
64.578361999999998
 21
-92.444239999999994
  0
LINE
  8
0
  6
CONTINUOUS
 62
256
 10
148.578362000000000
 20
-90.855029999999999
 11
64.578361999999998
 21
-90.855029999999999
  0
LINE
  8
0
  6
CONTINUOUS
 62
256
 10
148.578362000000000
 20
-95.402236000000002
 11
64.578361999999998
 21
-95.402236000000002
  0
LINE
  8
0
  6
CONTINUOUS
 62
256
 10
148.578362000000000
 20
-96.881259000000000
 11
64.578361999999998
 21
-96.881259000000000
  0
LINE
  8
0
  6
CONTINUOUS
 62
256
 10
148.578362000000000
 20
-99.973990000000001
 11
64.578361999999998
 21
-99.973990000000001
  0
LINE
  8
0
  6
CONTINUOUS
 62
256
 10
148.578362000000000
 20
-101.320392000000000
 11
64.578361999999998
 21
-101.320392000000000
  0
LINE
  8
0
  6
CONTINUOUS
 62
256
 10
148.578362000000000
 20
-104.530597000000000
 11
64.578361999999998
 21
-104.530597000000000
  0
LINE
  8
0
  6
CONTINUOUS
 62
256
 10
148.578362000000000
 20
-105.772516000000000
 11
64.578361999999998
 21
-105.772516000000000
  0
LINE
  8
0
  6
CONTINUOUS
 62
256
 10
148.578362000000000
 20
-110.158631000000000
 11
64.578361999999998
 21
-110.158631000000000
  0
LINE
  8
0
  6
CONTINUOUS
 62
256
 10
148.578362000000000
 20
-138.158631000000010
 11
64.578361999999998
 21
-138.158631000000010
  0
LINE
  8
0
  6
CONTINUOUS
 62
256
 10
148.578362000000000
 20
-142.544746000000000
 11
64.578361999999998
 21
-142.544746000000000
  0
LINE
  8
0
  6
CONTINUOUS
 62
256
 10
148.578362000000000
 20
-143.786666000000000
 11
64.578361999999998
 21
-143.786666000000000
  0
LINE
  8
0
  6
CONTINUOUS
 62
256
 10
148.578362000000000
 20
-146.996871000000000
 11
64.578361999999998
 21
-146.996871000000000
  0
LINE
  8
0
  6
CONTINUOUS
 62
256
 10
148.578362000000000
 20
-148.343273000000010
 11
64.578361999999998
 21
-148.343273000000010
  0
LINE
  8
0
  6
CONTINUOUS
 62
256
 10
148.578362000000000
 20
-151.436004000000000
 11
64.578361999999998
 21
-151.436004000000000
  0
LINE
  8
0
  6
CONTINUOUS
 62
256
 10
148.578362000000000
 20
-152.915027000000010
 11
64.578361999999998
 21
-152.915027000000010
  0
LINE
  8
0
  6
CONTINUOUS
 62
256
 10
148.578362000000000
 20
-155.873021999999990
 11
64.578361999999998
 21
-155.873021999999990
  0
LINE
  8
0
  6
CONTINUOUS
 62
256
 10
148.578362000000000
 20
-157.462232000000000
 11
64.578361999999998
 21
-157.462232000000000
  0
LINE
  8
0
  6
CONTINUOUS
 62
256
 10
148.578362000000000
 20
-165.200545000000010
 11
64.578361999999998
 21
-165.200545000000010
  0
LINE
  8
0
  6
CONTINUOUS
 62
256
 10
148.578362000000000
 20
-170.291714000000010
 11
64.578361999999998
 21
-170.291714000000010
  0
LINE
  8
0
  6
CONTINUOUS
 62
256
 10
148.578362000000000
 20
-174.658631000000010
 11
64.578361999999998
 21
-174.658631000000010
  0
LINE
  8
0
  6
CONTINUOUS
 62
256
 10
148.578362000000000
 20
-175.158631000000010
 11
64.578361999999998
 21
-175.158631000000010
  0
LINE
  8
0
  6
CONTINUOUS
 62
256
 10
64.578361999999998
 20
-177.658631000000010
 11
148.578362000000000
 21
-177.658631000000010
  0
LINE
  8
0
  6
CONTINUOUS
 62
256
 10
159.578362000000000
 20
-173.302551999999990
 11
161.578362000000000
 21
-171.649911000000000
  0
LINE
  8
0
  6
CONTINUOUS
 62
256
 10
157.578362000000000
 20
-174.478338000000010
 11
159.578362000000000
 21
-173.302551999999990
  0
LINE
  8
0
  6
CONTINUOUS
 62
256
 10
159.578362000000000
 20
-173.302551999999990
 11
157.578362000000000
 21
-171.649911000000000
  0
LINE
  8
0
  6
CONTINUOUS
 62
256
 10
161.578362000000000
 20
-174.478338000000010
 11
159.578362000000000
 21
-173.302551999999990
  0
POLYLINE
  8
0
  6
CONTINUOUS
 62
256
 66
1
 70
1
  0
VERTEX
  8
0
  6
CONTINUOUS
 62
256
 10
164.278361999999990
 20
-171.485962000000000
  0
VERTEX
  8
0
  6
CONTINUOUS
 62
256
 10
164.188052817895170
 20
-170.783005489441820
  0
VERTEX
  8
0
  6
CONTINUOUS
 62
256
 10
163.920595802803040
 20
-170.107063203361860
  0
VERTEX
  8
0
  6
CONTINUOUS
 62
256
 10
163.486269177821950
 20
-169.484111224741330
  0
VERTEX
  8
0
  6
CONTINUOUS
 62
256
 10
162.901763871576780
 20
-168.938089248763160
  0
VERTEX
  8
0
  6
CONTINUOUS
 62
256
 10
162.189542095192110
 20
-168.489980593751510
  0
VERTEX
  8
0
  6
CONTINUOUS
 62
256
 10
161.376974132115920
 20
-168.157005824016270
  0
VERTEX
  8
0
  6
CONTINUOUS
 62
256
 10
160.495286513475800
 20
-167.951960973223920
  0
VERTEX
  8
0
  6
CONTINUOUS
 62
256
 10
159.578362000000000
 20
-167.882725800000000
  0
VERTEX
  8
0
  6
CONTINUOUS
 62
256
 10
158.661437486524190
 20
-167.951960973223920
  0
VERTEX
  8
0
  6
CONTINUOUS
 62
256
 10
157.779749867884080
 20
-168.157005824016270
  0
VERTEX
  8
0
  6
CONTINUOUS
 62
256
 10
156.967181904807890
 20
-168.489980593751510
  0
VERTEX
  8
0
  6
CONTINUOUS
 62
256
 10
156.254960128423220
 20
-168.938089248763160
  0
VERTEX
  8
0
  6
CONTINUOUS
 62
256
 10
155.670454822178040
 20
-169.484111224741330
  0
VERTEX
  8
0
  6
CONTINUOUS
 62
256
 10
155.236128197196960
 20
-170.107063203361860
  0
VERTEX
  8
0
  6
CONTINUOUS
 62
256
 10
154.968671182104830
 20
-170.783005489441820
  0
VERTEX
  8
0
  6
CONTINUOUS
 62
256
 10
154.878362000000010
 20
-171.485962000000000
  0
VERTEX
  8
0
  6
CONTINUOUS
 62
256
 10
154.968671182104830
 20
-172.188918510558180
  0
VERTEX
  8
0
  6
CONTINUOUS
 62
256
 10
155.236128197196960
 20
-172.864860796638140
  0
VERTEX
  8
0
  6
CONTINUOUS
 62
256
 10
155.670454822178040
 20
-173.487812775258670
  0
VERTEX
  8
0
  6
CONTINUOUS
 62
256
 10
156.254960128423220
 20
-174.033834751236840
  0
VERTEX
  8
0
  6
CONTINUOUS
 62
256
 10
156.967181904807890
 20
-174.481943406248490
  0
VERTEX
  8
0
  6
CONTINUOUS
 62
256
 10
157.779749867884080
 20
-174.814918175983730
  0
VERTEX
  8
0
  6
CONTINUOUS
 62
256
 10
158.661437486524190
 20
-175.019963026776050
  0
VERTEX
  8
0
  6
CONTINUOUS
 62
256
 10
159.578362000000000
 20
-175.089198200000000
  0
VERTEX
  8
0
  6
CONTINUOUS
 62
256
 10
160.495286513475800
 20
-175.019963026776050
  0
VERTEX
  8
0
  6
CONTINUOUS
 62
256
 10
161.376974132115920
 20
-174.814918175983730
  0
VERTEX
  8
0
  6
CONTINUOUS
 62
256
 10
162.189542095192110
 20
-174.481943406248490
  0
VERTEX
  8
0
  6
CONTINUOUS
 62
256
 10
162.901763871576750
 20
-174.033834751236840
  0
VERTEX
  8
0
  6
CONTINUOUS
 62
256
 10
163.486269177821950
 20
-173.487812775258670
  0
VERTEX
  8
0
  6
CONTINUOUS
 62
256
 10
163.920595802803040
 20
-172.864860796638140
  0
VERTEX
  8
0
  6
CONTINUOUS
 62
256
 10
164.188052817895170
 20
-172.188918510558180
  0
SEQEND
  8
0
  6
CONTINUOUS
 62
256
  0
LINE
  8
0
  6
CONTINUOUS
 62
256
 10
148.578362000000000
 20
-183.158631000000010
 11
148.578362000000000
 21
-124.158631000000000
  0
LINE
  8
0
  6
CONTINUOUS
 62
256
 10
158.578362000000000
 20
-65.158631000000000
 11
158.578362000000000
 21
-66.818934999999996
  0
ARC
  8
0
  6
CONTINUOUS
 62
256
 10
155.578362000000000
 20
-66.818934999999996
 40
3.000000000000000
 50
270.000000000000000
 51
0.000000000000000
  0
LINE
  8
0
  6
CONTINUOUS
 62
256
 10
159.578362000000000
 20
-75.014709999999994
 11
161.578362000000000
 21
-76.667351999999994
  0
LINE
  8
0
  6
CONTINUOUS
 62
256
 10
157.578362000000000
 20
-73.838925000000003
 11
159.578362000000000
 21
-75.014709999999994
  0
LINE
  8
0
  6
CONTINUOUS
 62
256
 10
159.578362000000000
 20
-75.014709999999994
 11
157.578362000000000
 21
-76.667351999999994
  0
LINE
  8
0
  6
CONTINUOUS
 62
256
 10
161.578362000000000
 20
-73.838925000000003
 11
159.578362000000000
 21
-75.014709999999994
  0
POLYLINE
  8
0
  6
CONTINUOUS
 62
256
 66
1
 70
1
  0
VERTEX
  8
0
  6
CONTINUOUS
 62
256
 10
164.278361999999990
 20
-76.831299999999999
  0
VERTEX
  8
0
  6
CONTINUOUS
 62
256
 10
164.188052817895170
 20
-76.128343489441832
  0
VERTEX
  8
0
  6
CONTINUOUS
 62
256
 10
163.920595802803040
 20
-75.452401203361859
  0
VERTEX
  8
0
  6
CONTINUOUS
 62
256
 10
163.486269177821950
 20
-74.829449224741339
  0
VERTEX
  8
0
  6
CONTINUOUS
 62
256
 10
162.901763871576780
 20
-74.283427248763161
  0
VERTEX
  8
0
  6
CONTINUOUS
 62
256
 10
162.189542095192110
 20
-73.835318593751509
  0
VERTEX
  8
0
  6
CONTINUOUS
 62
256
 10
161.376974132115920
 20
-73.502343824016251
  0
VERTEX
  8
0
  6
CONTINUOUS
 62
256
 10
160.495286513475800
 20
-73.297298973223931
  0
VERTEX
  8
0
  6
CONTINUOUS
 62
256
 10
159.578362000000000
 20
-73.228063800000001
  0
VERTEX
  8
0
  6
CONTINUOUS
 62
256
 10
158.661437486524190
 20
-73.297298973223931
  0
VERTEX
  8
0
  6
CONTINUOUS
 62
256
 10
157.779749867884080
 20
-73.502343824016251
  0
VERTEX
  8
0
  6
CONTINUOUS
 62
256
 10
156.967181904807890
 20
-73.835318593751509
  0
VERTEX
  8
0
  6
CONTINUOUS
 62
256
 10
156.254960128423220
 20
-74.283427248763161
  0
VERTEX
  8
0
  6
CONTINUOUS
 62
256
 10
155.670454822178040
 20
-74.829449224741339
  0
VERTEX
  8
0
  6
CONTINUOUS
 62
256
 10
155.236128197196960
 20
-75.452401203361859
  0
VERTEX
  8
0
  6
CONTINUOUS
 62
256
 10
154.968671182104830
 20
-76.128343489441832
  0
VERTEX
  8
0
  6
CONTINUOUS
 62
256
 10
154.878362000000010
 20
-76.831299999999999
  0
VERTEX
  8
0
  6
CONTINUOUS
 62
256
 10
154.968671182104830
 20
-77.534256510558166
  0
VERTEX
  8
0
  6
CONTINUOUS
 62
256
 10
155.236128197196960
 20
-78.210198796638139
  0
VERTEX
  8
0
  6
CONTINUOUS
 62
256
 10
155.670454822178040
 20
-78.833150775258659
  0
VERTEX
  8
0
  6
CONTINUOUS
 62
256
 10
156.254960128423220
 20
-79.379172751236837
  0
VERTEX
  8
0
  6
CONTINUOUS
 62
256
 10
156.967181904807890
 20
-79.827281406248488
  0
VERTEX
  8
0
  6
CONTINUOUS
 62
256
 10
157.779749867884080
 20
-80.160256175983733
  0
VERTEX
  8
0
  6
CONTINUOUS
 62
256
 10
158.661437486524190
 20
-80.365301026776066
  0
VERTEX
  8
0
  6
CONTINUOUS
 62
256
 10
159.578362000000000
 20
-80.434536199999997
  0
VERTEX
  8
0
  6
CONTINUOUS
 62
256
 10
160.495286513475800
 20
-80.365301026776066
  0
VERTEX
  8
0
  6
CONTINUOUS
 62
256
 10
161.376974132115920
 20
-80.160256175983747
  0
VERTEX
  8
0
  6
CONTINUOUS
 62
256
 10
162.189542095192110
 20
-79.827281406248488
  0
VERTEX
  8
0
  6
CONTINUOUS
 62
256
 10
162.901763871576750
 20
-79.379172751236837
  0
VERTEX
  8
0
  6
CONTINUOUS
 62
256
 10
163.486269177821950
 20
-78.833150775258659
  0
VERTEX
  8
0
  6
CONTINUOUS
 62
256
 10
163.920595802803040
 20
-78.210198796638139
  0
VERTEX
  8
0
  6
CONTINUOUS
 62
256
 10
164.188052817895170
 20
-77.534256510558166
  0
SEQEND
  8
0
  6
CONTINUOUS
 62
256
  0
LINE
  8
0
  6
CONTINUOUS
 62
256
 10
155.578362000000000
 20
-69.818934999999996
 11
151.578362000000000
 21
-69.818934999999996
  0
ARC
  8
0
  6
CONTINUOUS
 62
256
 10
151.578362000000000
 20
-72.818934999999996
 40
3.000000000000000
 50
90.000000000000000
 51
180.000000000000000
  0
LINE
  8
0
  6
CONTINUOUS
 62
256
 10
148.578362000000000
 20
-72.818934999999996
 11
148.578362000000000
 21
-124.158631000000000
  0
LINE
  8
0
  6
CONTINUOUS
 62
256
 10
83.578361999999998
 20
-37.158631000000000
 11
154.578362000000000
 21
-37.158631000000000
  0
LINE
  8
0
  6
CONTINUOUS
 62
256
 10
97.578361999999998
 20
-36.658631000000000
 11
97.578361999999998
 21
-37.158631000000000
  0
LINE
  8
0
  6
CONTINUOUS
 62
256
 10
97.578361999999998
 20
-36.658631000000000
 11
89.578361999999998
 21
-36.658631000000000
  0
LINE
  8
0
  6
CONTINUOUS
 62
256
 10
89.578361999999998
 20
-36.658631000000000
 11
89.578361999999998
 21
-37.158631000000000
  0
LINE
  8
0
  6
CONTINUOUS
 62
256
 10
64.578361999999998
 20
-177.658631000000010
 11
64.578361999999998
 21
-124.158631000000000
  0
LINE
  8
0
  6
CONTINUOUS
 62
256
 10
64.578361999999998
 20
-70.658631000000000
 11
81.578361999999998
 21
-70.658631000000000
  0
ARC
  8
0
  6
CONTINUOUS
 62
256
 10
83.578361999999998
 20
-38.158631000000000
 40
1.000000000000000
 50
90.000000000000000
 51
180.000000000000000
  0
ARC
  8
0
  6
CONTINUOUS
 62
256
 10
154.578362000000000
 20
-38.158631000000000
 40
1.000000000000000
 50
0.000000000000000
 51
90.000000000000000
  0
LINE
  8
0
  6
CONTINUOUS
 62
256
 10
155.578362000000000
 20
-38.158631000000000
 11
155.578362000000000
 21
-66.658631000000000
  0
LINE
  8
0
  6
CONTINUOUS
 62
256
 10
82.578361999999998
 20
-38.158631000000000
 11
82.578361999999998
 21
-66.658631000000000
  0
LINE
  8
0
  6
CONTINUOUS
 62
256
 10
81.578361999999998
 20
-66.658631000000000
 11
81.578361999999998
 21
-71.658631000000000
  0
LINE
  8
0
  6
CONTINUOUS
 62
256
 10
156.578362000000000
 20
-66.658631000000000
 11
81.578361999999998
 21
-66.658631000000000
  0
LINE
  8
0
  6
CONTINUOUS
 62
256
 10
64.578361999999998
 20
-70.658631000000000
 11
64.578361999999998
 21
-124.158631000000000
  0
CIRCLE
  8
0
  6
CONTINUOUS
 62
256
 10
-110.921638000000000
 20
-61.158631000000000
 40
5.000000000000000
  0
CIRCLE
  8
0
  6
CONTINUOUS
 62
256
 10
-110.921638000000000
 20
-61.158631000000000
 40
4.188000000000002
  0
LINE
  8
0
  6
DASHDOT
 62
256
 10
84.770027999999996
 20
-52.158631000000000
 11
103.959069000000000
 21
-52.158631000000000
  0
LINE
  8
0
  6
DASHDOT
 62
256
 10
94.078361999999998
 20
-69.442482999999996
 11
94.078361999999998
 21
-41.463132999999999
  0
LINE
  8
0
  6
DASHED
 62
256
 10
87.078361999999998
 20
-66.658631000000000
 11
87.078361999999998
 21
-52.158631000000000
  0
LINE
  8
0
  6
DASHED
 62
256
 10
101.078362000000000
 20
-66.658631000000000
 11
101.078362000000000
 21
-52.158631000000000
  0
ARC
  8
0
  6
DASHED
 62
256
 10
94.078361999999998
 20
-52.158631000000000
 40
7.000000000000000
 50
0.000000000000000
 51
180.000000000000000
  0
CIRCLE
  8
0
  6
DASHED
 62
256
 10
94.078361999999998
 20
-52.158631000000000
 40
6.000000000000000
  0
LINE
  8
0
  6
DASHDOT
 62
256
 10
133.668063999999990
 20
-52.158631000000000
 11
154.042245000000010
 21
-52.158631000000000
  0
LINE
  8
0
  6
DASHDOT
 62
256
 10
144.078362000000000
 20
-69.442482999999996
 11
144.078362000000000
 21
-41.463132999999999
  0
LINE
  8
0
  6
DASHED
 62
256
 10
137.078362000000000
 20
-66.658631000000000
 11
137.078362000000000
 21
-52.158631000000000
  0
LINE
  8
0
  6
DASHED
 62
256
 10
151.078362000000000
 20
-66.658631000000000
 11
151.078362000000000
 21
-52.158631000000000
  0
ARC
  8
0
  6
DASHED
 62
256
 10
144.078362000000000
 20
-52.158631000000000
 40
7.000000000000000
 50
0.000000000000000
 51
180.000000000000000
  0
LINE
  8
0
  6
DASHDOT
 62
256
 10
-131.802957999999990
 20
126.438322000000000
 11
207.251867000000000
 21
126.438322000000000
  0
LINE
  8
0
  6
DASHDOT
 62
256
 10
17.349837000000001
 20
-124.158631000000000
 11
205.551638999999990
 21
-124.158631000000000
  0
LINE
  8
0
  6
DASHDOT
 62
256
 10
408.591494000000010
 20
-109.158631000000000
 11
246.659366000000010
 21
-109.158631000000000
  0
LINE
  8
0
  6
CONTINUOUS
 62
256
 10
295.795010999999990
 20
-123.658631000000000
 11
296.795300999999990
 21
-123.658631000000000
  0
LINE
  8
0
  6
CONTINUOUS
 62
256
 10
295.795010999999990
 20
-123.158631000000000
 11
250.795010999999990
 21
-123.158631000000000
  0
LINE
  8
0
  6
CONTINUOUS
 62
256
 10
295.795010999999990
 20
-95.158631000000000
 11
250.795010999999990
 21
-95.158631000000000
  0
LINE
  8
0
  6
CONTINUOUS
 62
256
 10
286.795010999999990
 20
-92.158631000000000
 11
250.795010999999990
 21
-92.158631000000000
  0
LINE
  8
0
  6
CONTINUOUS
 62
256
 10
286.795010999999990
 20
-95.158631000000000
 11
286.795010999999990
 21
-92.158631000000000
  0
LINE
  8
0
  6
CONTINUOUS
 62
256
 10
250.795010999999990
 20
-109.158631000000000
 11
250.795010999999990
 21
-123.158631000000000
  0
LINE
  8
0
  6
CONTINUOUS
 62
256
 10
250.795010999999990
 20
-109.158631000000000
 11
250.795010999999990
 21
-92.158631000000000
  0
LINE
  8
0
  6
CONTINUOUS
 62
256
 10
295.795010999999990
 20
-109.158631000000000
 11
295.795010999999990
 21
-94.658631000000000
  0
LINE
  8
0
  6
CONTINUOUS
 62
256
 10
295.795010999999990
 20
-109.158631000000000
 11
295.795010999999990
 21
-94.658631000000000
  0
LINE
  8
0
  6
CONTINUOUS
 62
256
 10
295.795010999999990
 20
-94.658631000000000
 11
297.795010999999990
 21
-94.658631000000000
  0
LINE
  8
0
  6
CONTINUOUS
 62
256
 10
295.795010999999990
 20
-109.158631000000000
 11
295.795010999999990
 21
-123.658631000000000
  0
LINE
  8
0
  6
CONTINUOUS
 62
256
 10
295.795010999999990
 20
-109.158631000000000
 11
295.795010999999990
 21
-123.658631000000000
  0
LINE
  8
0
  6
CONTINUOUS
 62
256
 10
320.795010999999990
 20
-49.317326000000001
 11
311.795010999999990
 21
-49.476489000000001
  0
LINE
  8
0
  6
CONTINUOUS
 62
256
 10
387.795010999999990
 20
-48.132449000000001
 11
380.795010999999990
 21
-48.256242000000000
  0
LINE
  8
0
  6
CONTINUOUS
 62
256
 10
301.795010999999990
 20
-78.954553000000004
 11
301.795010999999990
 21
-49.476489000000001
  0
LINE
  8
0
  6
CONTINUOUS
 62
256
 10
387.795010999999990
 20
-48.132449000000001
 11
387.795010999999990
 21
-68.590301999999994
  0
LINE
  8
0
  6
CONTINUOUS
 62
256
 10
399.795010999999990
 20
-78.954553000000004
 11
399.795010999999990
 21
-48.368091999999997
  0
LINE
  8
0
  6
CONTINUOUS
 62
256
 10
301.795010999999990
 20
-194.805864000000010
 11
301.795010999999990
 21
-169.327799000000000
  0
LINE
  8
0
  6
CONTINUOUS
 62
256
 10
387.795010999999990
 20
-179.692049999999990
 11
387.795010999999990
 21
-196.149903999999990
  0
LINE
  8
0
  6
CONTINUOUS
 62
256
 10
399.795010999999990
 20
-195.949170000000010
 11
399.795010999999990
 21
-169.327799000000000
  0
LINE
  8
0
  6
CONTINUOUS
 62
256
 10
297.795010999999990
 20
-95.853369999999998
 11
297.795010999999990
 21
-66.658631000000000
  0
LINE
  8
0
  6
CONTINUOUS
 62
256
 10
403.795010999999990
 20
-66.658631000000000
 11
403.795010999999990
 21
-95.853369999999998
  0
LINE
  8
0
  6
CONTINUOUS
 62
256
 10
387.795010999999990
 20
-196.158631000000010
 11
399.795010999999990
 21
-195.949170000000010
  0
LINE
  8
0
  6
CONTINUOUS
 62
256
 10
403.795010999999990
 20
-66.658631000000000
 11
399.795010999999990
 21
-66.658631000000000
  0
LINE
  8
0
  6
CONTINUOUS
 62
256
 10
399.795010999999990
 20
-48.368091999999997
 11
387.795010999999990
 21
-48.158631000000000
  0
LINE
  8
0
  6
CONTINUOUS
 62
256
 10
311.795010999999990
 20
-49.476489000000001
 11
301.795010999999990
 21
-49.476489000000001
  0
LINE
  8
0
  6
CONTINUOUS
 62
256
 10
301.795010999999990
 20
-66.658631000000000
 11
297.795010999999990
 21
-66.658631000000000
  0
LINE
  8
0
  6
CONTINUOUS
 62
256
 10
387.795010999999990
 20
-196.149903999999990
 11
311.795010999999990
 21
-194.805864000000010
  0
LINE
  8
0
  6
CONTINUOUS
 62
256
 10
311.795010999999990
 20
-194.805864000000010
 11
301.795010999999990
 21
-194.805864000000010
  0
LINE
  8
0
  6
DASHDOT
 62
256
 10
350.795010999999990
 20
-187.399117999999990
 11
350.795010999999990
 21
-28.905729000000001
  0
LINE
  8
0
  6
DASHDOT
 62
256
 10
412.518740999999980
 20
-124.158631000000000
 11
287.300782000000030
 21
-124.158631000000000
  0
ARC
  8
0
  6
CONTINUOUS
 62
256
 10
333.138567000000020
 20
-120.658631000000000
 40
1.000000000000000
 50
270.000000000000000
 51
348.787729000000300
  0
LINE
  8
0
  6
CONTINUOUS
 62
256
 10
330.088731999999990
 20
-121.658631000000000
 11
333.138567000000020
 21
-121.658631000000000
  0
ARC
  8
0
  6
CONTINUOUS
 62
256
 10
330.088731999999990
 20
-120.658631000000000
 40
0.999999999999978
 50
170.405932000000040
 51
270.000000000000000
  0
ARC
  8
0
  6
CONTINUOUS
 62
256
 10
324.527159999999980
 20
-120.658631000000000
 40
1.000000000000000
 50
270.000000000000000
 51
352.410458000000010
  0
LINE
  8
0
  6
CONTINUOUS
 62
256
 10
321.503374000000010
 20
-121.658631000000000
 11
324.527159999999980
 21
-121.658631000000000
  0
ARC
  8
0
  6
CONTINUOUS
 62
256
 10
321.503374000000010
 20
-120.658631000000000
 40
1.000000000000019
 50
173.186146000000240
 51
270.000000000000000
  0
ARC
  8
0
  6
CONTINUOUS
 62
256
 10
315.970451000000030
 20
-120.658631000000000
 40
1.000000000000000
 50
270.000000000000000
 51
354.260829999999540
  0
LINE
  8
0
  6
CONTINUOUS
 62
256
 10
312.956538000000020
 20
-121.658631000000000
 11
315.970451000000030
 21
-121.658631000000000
  0
ARC
  8
0
  6
CONTINUOUS
 62
256
 10
312.956538000000020
 20
-120.658631000000000
 40
1.000000000000027
 50
174.715267000000240
 51
270.000000000000000
  0
ARC
  8
0
  6
CONTINUOUS
 62
256
 10
333.118103000000020
 20
-100.541329000000000
 40
0.999999999999984
 50
30.000000000000544
 51
126.813854000000730
  0
LINE
  8
0
  6
CONTINUOUS
 62
256
 10
333.984129000000000
 20
-100.041329000000000
 11
335.496021999999980
 21
-102.660005000000000
  0
ARC
  8
0
  6
CONTINUOUS
 62
256
 10
334.629996000000010
 20
-103.160005000000000
 40
0.999999999999993
 50
307.589541999998800
 51
30.000000000000544
  0
ARC
  8
0
  6
CONTINUOUS
 62
256
 10
328.844686000000020
 20
-93.139553000000006
 40
0.999999999999984
 50
30.000000000000544
 51
125.284733000000970
  0
LINE
  8
0
  6
CONTINUOUS
 62
256
 10
329.710711000000000
 20
-92.639553000000006
 11
331.217667000000010
 21
-95.249677000000005
  0
ARC
  8
0
  6
CONTINUOUS
 62
256
 10
330.351642000000030
 20
-95.749677000000005
 40
0.999999999999998
 50
305.739170000000230
 51
30.000000000000544
  0
ARC
  8
0
  6
CONTINUOUS
 62
256
 10
343.348042000000020
 20
-118.260102000000000
 40
0.999999999999985
 50
321.618271999998970
 51
30.000000000000544
  0
LINE
  8
0
  6
CONTINUOUS
 62
256
 10
342.629947000000020
 20
-115.016326000000010
 11
344.214067000000000
 21
-117.760102000000000
  0
ARC
  8
0
  6
CONTINUOUS
 62
256
 10
338.935700000000000
 20
-110.617703000000010
 40
1.000000000000006
 50
311.212270999999760
 51
30.000000000000544
  0
LINE
  8
0
  6
CONTINUOUS
 62
256
 10
338.276808000000020
 20
-107.476467000000000
 11
339.801725999999970
 21
-110.117703000000010
  0
ARC
  8
0
  6
CONTINUOUS
 62
256
 10
337.410781999999980
 20
-107.976467000000000
 40
0.999999999999984
 50
30.000000000000544
 51
129.594067999999310
  0
ARC
  8
0
  6
CONTINUOUS
 62
256
 10
341.963250000000020
 20
-120.658631000000000
 40
1.000000000000000
 50
270.000000000000000
 51
338.381728000000520
  0
ARC
  8
0
  6
CONTINUOUS
 62
256
 10
350.795010999999990
 20
-124.158631000000000
 40
8.500000000000005
 50
141.618272000000020
 51
158.381728000000040
  0
ARC
  8
0
  6
CONTINUOUS
 62
256
 10
341.763921999999980
 20
-115.516326000000010
 40
0.999999999999984
 50
30.000000000000544
 51
136.260205000000240
  0
LINE
  8
0
  6
CONTINUOUS
 62
256
 10
338.795010999999990
 20
-121.658631000000000
 11
341.963250000000020
 21
-121.658631000000000
  0
ARC
  8
0
  6
CONTINUOUS
 62
256
 10
338.795010999999990
 20
-120.658631000000000
 40
0.999999999999976
 50
163.739794999999330
 51
270.000000000000000
  0
ARC
  8
0
  6
CONTINUOUS
 62
256
 10
350.795010999999990
 20
-124.158631000000000
 40
13.500000000000004
 50
136.260205000000010
 51
163.739794999999960
  0
ARC
  8
0
  6
CONTINUOUS
 62
256
 10
350.795010999999990
 20
-124.158631000000000
 40
17.000000000000014
 50
131.212271000000020
 51
168.787728999999980
  0
ARC
  8
0
  6
CONTINUOUS
 62
256
 10
350.795010999999990
 20
-124.158631000000000
 40
21.999999999999986
 50
129.594067999999940
 51
170.405931999999980
  0
ARC
  8
0
  6
CONTINUOUS
 62
256
 10
350.795010999999990
 20
-124.158631000000000
 40
30.499999999999982
 50
126.813853999999980
 51
173.186145999999980
  0
ARC
  8
0
  6
CONTINUOUS
 62
256
 10
350.795010999999990
 20
-124.158631000000000
 40
25.499999999999996
 50
127.589541999999970
 51
172.410458000000010
  0
ARC
  8
0
  6
CONTINUOUS
 62
256
 10
350.795010999999990
 20
-124.158631000000000
 40
34.000000000000007
 50
125.739170000000040
 51
174.260830000000000
  0
ARC
  8
0
  6
CONTINUOUS
 62
256
 10
350.795010999999990
 20
-124.158631000000000
 40
39.000000000000000
 50
125.284733000000000
 51
174.715267000000010
  0
ARC
  8
0
  6
CONTINUOUS
 62
256
 10
339.180280999999980
 20
-97.041329000000005
 40
1.000000000000000
 50
113.186146000000120
 51
210.000000000000510
  0
LINE
  8
0
  6
CONTINUOUS
 62
256
 10
338.314256000000000
 20
-97.541329000000005
 11
339.826148999999990
 21
-100.160005000000000
  0
ARC
  8
0
  6
CONTINUOUS
 62
256
 10
340.692174000000020
 20
-99.660004999999998
 40
0.999999999999984
 50
210.000000000000510
 51
292.410458000000400
  0
ARC
  8
0
  6
CONTINUOUS
 62
256
 10
334.906863999999980
 20
-89.639553000000006
 40
1.000000000000004
 50
114.715267000000150
 51
210.000000000000510
  0
LINE
  8
0
  6
CONTINUOUS
 62
256
 10
334.040838000000010
 20
-90.139553000000006
 11
335.547794000000010
 21
-92.749677000000005
  0
ARC
  8
0
  6
CONTINUOUS
 62
256
 10
336.413819999999990
 20
-92.249677000000005
 40
0.999999999999984
 50
210.000000000000510
 51
294.260829999998690
  0
ARC
  8
0
  6
CONTINUOUS
 62
256
 10
349.410218999999980
 20
-114.760102000000000
 40
0.999999999999984
 50
210.000000000000510
 51
278.381727999998870
  0
LINE
  8
0
  6
CONTINUOUS
 62
256
 10
346.960074000000020
 20
-112.516326000000010
 11
348.544194000000000
 21
-115.260102000000000
  0
ARC
  8
0
  6
CONTINUOUS
 62
256
 10
344.997878000000010
 20
-107.117703000000010
 40
0.999999999999984
 50
210.000000000000510
 51
288.787729000000750
  0
LINE
  8
0
  6
CONTINUOUS
 62
256
 10
342.606935000000020
 20
-104.976467000000000
 11
344.131852999999980
 21
-107.617703000000010
  0
ARC
  8
0
  6
CONTINUOUS
 62
256
 10
343.472960000000000
 20
-104.476467000000000
 40
0.999999999999993
 50
110.405931999999860
 51
210.000000000000510
  0
ARC
  8
0
  6
CONTINUOUS
 62
256
 10
352.179802000000000
 20
-114.760102000000000
 40
0.999999999999998
 50
261.618272000001130
 51
329.999999999999490
  0
ARC
  8
0
  6
CONTINUOUS
 62
256
 10
350.795010999999990
 20
-124.158631000000000
 40
8.500000000000002
 50
81.618271999999948
 51
98.381728000000052
  0
ARC
  8
0
  6
CONTINUOUS
 62
256
 10
347.826100000000000
 20
-112.016326000000010
 40
1.000000000000011
 50
103.739795000001280
 51
210.000000000000510
  0
LINE
  8
0
  6
CONTINUOUS
 62
256
 10
354.629947000000020
 20
-112.516326000000010
 11
353.045827999999970
 21
-115.260102000000000
  0
ARC
  8
0
  6
CONTINUOUS
 62
256
 10
353.763921999999980
 20
-112.016326000000010
 40
0.999999999999984
 50
329.999999999999490
 51
76.260204999998734
  0
ARC
  8
0
  6
CONTINUOUS
 62
256
 10
350.795010999999990
 20
-124.158631000000000
 40
13.499999999999989
 50
76.260205000000056
 51
103.739794999999940
  0
ARC
  8
0
  6
CONTINUOUS
 62
256
 10
356.592144000000020
 20
-107.117703000000010
 40
1.000000000000010
 50
251.212270999999220
 51
329.999999999999490
  0
LINE
  8
0
  6
CONTINUOUS
 62
256
 10
358.983087000000010
 20
-104.976467000000000
 11
357.458169000000000
 21
-107.617703000000010
  0
ARC
  8
0
  6
CONTINUOUS
 62
256
 10
350.795010999999990
 20
-124.158631000000000
 40
16.999999999999993
 50
71.212271000000044
 51
108.787728999999960
  0
ARC
  8
0
  6
CONTINUOUS
 62
256
 10
358.117061999999980
 20
-104.476467000000000
 40
0.999999999999984
 50
329.999999999999490
 51
69.594068000000149
  0
ARC
  8
0
  6
CONTINUOUS
 62
256
 10
360.897847000000010
 20
-99.660004999999998
 40
1.000000000000009
 50
247.589541999999540
 51
329.999999999999490
  0
ARC
  8
0
  6
CONTINUOUS
 62
256
 10
365.176201999999990
 20
-92.249677000000005
 40
0.999999999999992
 50
245.739170000001340
 51
329.999999999999490
  0
ARC
  8
0
  6
CONTINUOUS
 62
256
 10
350.795010999999990
 20
-124.158631000000000
 40
21.999999999999996
 50
69.594067999999993
 51
110.405932000000020
  0
LINE
  8
0
  6
CONTINUOUS
 62
256
 10
363.275765999999980
 20
-97.541329000000005
 11
361.763872999999990
 21
-100.160005000000000
  0
ARC
  8
0
  6
CONTINUOUS
 62
256
 10
362.409740000000000
 20
-97.041329000000005
 40
0.999999999999984
 50
329.999999999999490
 51
66.813853999999878
  0
ARC
  8
0
  6
CONTINUOUS
 62
256
 10
350.795010999999990
 20
-124.158631000000000
 40
30.499999999999996
 50
66.813853999999992
 51
113.186146000000020
  0
ARC
  8
0
  6
CONTINUOUS
 62
256
 10
350.795010999999990
 20
-124.158631000000000
 40
25.500000000000007
 50
67.589541999999966
 51
112.410458000000050
  0
ARC
  8
0
  6
CONTINUOUS
 62
256
 10
350.795010999999990
 20
-124.158631000000000
 40
34.000000000000000
 50
65.739169999999987
 51
114.260830000000010
  0
ARC
  8
0
  6
CONTINUOUS
 62
256
 10
350.795010999999990
 20
-124.158631000000000
 40
38.999999999999993
 50
65.284733000000031
 51
114.715266999999980
  0
LINE
  8
0
  6
CONTINUOUS
 62
256
 10
367.549184000000030
 20
-90.139553000000006
 11
366.042227000000030
 21
-92.749677000000005
  0
ARC
  8
0
  6
CONTINUOUS
 62
256
 10
366.683157999999990
 20
-89.639553000000006
 40
0.999999999999984
 50
329.999999999999490
 51
65.284732999999861
  0
CIRCLE
  8
0
  6
CONTINUOUS
 62
256
 10
350.795010999999990
 20
-124.158631000000000
 40
5.000000000000000
  0
ARC
  8
0
  6
CONTINUOUS
 62
256
 10
372.745336000000010
 20
-93.139553000000006
 40
1.000000000000016
 50
54.715266999999017
 51
149.999999999999460
  0
ARC
  8
0
  6
CONTINUOUS
 62
256
 10
371.238380000000010
 20
-95.749677000000005
 40
0.999999999999984
 50
149.999999999999460
 51
234.260829999999740
  0
ARC
  8
0
  6
CONTINUOUS
 62
256
 10
385.619571000000010
 20
-120.658631000000000
 40
0.999999999999978
 50
185.739170000000430
 51
270.000000000000000
  0
ARC
  8
0
  6
CONTINUOUS
 62
256
 10
388.633483000000010
 20
-120.658631000000000
 40
1.000000000000000
 50
270.000000000000000
 51
5.284732999999778
  0
ARC
  8
0
  6
CONTINUOUS
 62
256
 10
377.062862000000000
 20
-120.658631000000000
 40
0.999999999999990
 50
187.589541999999990
 51
270.000000000000000
  0
ARC
  8
0
  6
CONTINUOUS
 62
256
 10
368.471918000000020
 20
-100.541329000000000
 40
1.000000000000011
 50
53.186145999999269
 51
149.999999999999460
  0
ARC
  8
0
  6
CONTINUOUS
 62
256
 10
366.960024999999970
 20
-103.160005000000000
 40
0.999999999999984
 50
149.999999999999460
 51
232.410458000001200
  0
ARC
  8
0
  6
CONTINUOUS
 62
256
 10
380.086648000000030
 20
-120.658631000000000
 40
1.000000000000000
 50
270.000000000000000
 51
6.813853999999752
  0
ARC
  8
0
  6
CONTINUOUS
 62
256
 10
371.501289999999980
 20
-120.658631000000000
 40
1.000000000000000
 50
270.000000000000000
 51
9.594067999999961
  0
ARC
  8
0
  6
CONTINUOUS
 62
256
 10
368.451454000000010
 20
-120.658631000000000
 40
1.000000000000016
 50
191.212270999999730
 51
270.000000000000000
  0
ARC
  8
0
  6
CONTINUOUS
 62
256
 10
364.179239000000000
 20
-107.976467000000000
 40
0.999999999999988
 50
50.405932000000682
 51
149.999999999999460
  0
ARC
  8
0
  6
CONTINUOUS
 62
256
 10
362.654321999999980
 20
-110.617703000000010
 40
0.999999999999984
 50
149.999999999999460
 51
228.787729000000240
  0
ARC
  8
0
  6
CONTINUOUS
 62
256
 10
359.826100000000000
 20
-115.516326000000010
 40
1.000000000000005
 50
43.739794999999773
 51
149.999999999999460
  0
ARC
  8
0
  6
CONTINUOUS
 62
256
 10
362.795010999999990
 20
-120.658631000000000
 40
1.000000000000000
 50
270.000000000000000
 51
16.260205000000671
  0
ARC
  8
0
  6
CONTINUOUS
 62
256
 10
359.626772000000020
 20
-120.658631000000000
 40
1.000000000000013
 50
201.618271999999450
 51
270.000000000000000
  0
ARC
  8
0
  6
CONTINUOUS
 62
256
 10
358.241980000000010
 20
-118.260102000000000
 40
0.999999999999984
 50
149.999999999999460
 51
218.381728000001000
  0
ARC
  8
0
  6
CONTINUOUS
 62
256
 10
350.795010999999990
 20
-124.158631000000000
 40
38.999999999999986
 50
5.284733000000007
 51
54.715266999999990
  0
ARC
  8
0
  6
CONTINUOUS
 62
256
 10
350.795010999999990
 20
-124.158631000000000
 40
30.499999999999986
 50
6.813854000000005
 51
53.186146000000029
  0
ARC
  8
0
  6
CONTINUOUS
 62
256
 10
350.795010999999990
 20
-124.158631000000000
 40
33.999999999999972
 50
5.739170000000013
 51
54.260829999999984
  0
ARC
  8
0
  6
CONTINUOUS
 62
256
 10
350.795010999999990
 20
-124.158631000000000
 40
25.500000000000011
 50
7.589541999999985
 51
52.410458000000027
  0
ARC
  8
0
  6
CONTINUOUS
 62
256
 10
350.795010999999990
 20
-124.158631000000000
 40
21.999999999999979
 50
9.594068000000020
 51
50.405932000000064
  0
ARC
  8
0
  6
CONTINUOUS
 62
256
 10
350.795010999999990
 20
-124.158631000000000
 40
16.999999999999993
 50
11.212271000000010
 51
48.787728999999970
  0
ARC
  8
0
  6
CONTINUOUS
 62
256
 10
350.795010999999990
 20
-124.158631000000000
 40
13.499999999999989
 50
16.260205000000035
 51
43.739795000000001
  0
ARC
  8
0
  6
CONTINUOUS
 62
256
 10
350.795010999999990
 20
-124.158631000000000
 40
8.500000000000016
 50
21.618271999999980
 51
38.381727999999960
  0
LINE
  8
0
  6
CONTINUOUS
 62
256
 10
367.605892999999980
 20
-100.041329000000000
 11
366.093999999999990
 21
-102.660005000000000
  0
LINE
  8
0
  6
CONTINUOUS
 62
256
 10
388.633483000000010
 20
-121.658631000000000
 11
385.619571000000010
 21
-121.658631000000000
  0
LINE
  8
0
  6
CONTINUOUS
 62
256
 10
371.879310999999970
 20
-92.639553000000006
 11
370.372355000000030
 21
-95.249677000000005
  0
LINE
  8
0
  6
CONTINUOUS
 62
256
 10
363.313214000000020
 20
-107.476467000000000
 11
361.788296000000000
 21
-110.117703000000010
  0
LINE
  8
0
  6
CONTINUOUS
 62
256
 10
358.960074000000020
 20
-115.016326000000010
 11
357.375954999999980
 21
-117.760102000000000
  0
LINE
  8
0
  6
CONTINUOUS
 62
256
 10
362.795010999999990
 20
-121.658631000000000
 11
359.626772000000020
 21
-121.658631000000000
  0
LINE
  8
0
  6
CONTINUOUS
 62
256
 10
371.501289999999980
 20
-121.658631000000000
 11
368.451454000000010
 21
-121.658631000000000
  0
LINE
  8
0
  6
CONTINUOUS
 62
256
 10
380.086648000000030
 20
-121.658631000000000
 11
377.062862000000000
 21
-121.658631000000000
  0
ARC
  8
0
  6
CONTINUOUS
 62
256
 10
350.795010999999990
 20
-124.158631000000000
 40
39.000000000000000
 50
245.284732999999960
 51
294.715266999999980
  0
ARC
  8
0
  6
CONTINUOUS
 62
256
 10
350.795010999999990
 20
-124.158631000000000
 40
34.000000000000000
 50
245.739170000000000
 51
294.260830000000000
  0
ARC
  8
0
  6
CONTINUOUS
 62
256
 10
350.795010999999990
 20
-124.158631000000000
 40
25.499999999999993
 50
247.589541999999940
 51
292.410458000000010
  0
ARC
  8
0
  6
CONTINUOUS
 62
256
 10
350.795010999999990
 20
-124.158631000000000
 40
30.499999999999996
 50
246.813853999999990
 51
293.186146000000010
  0
ARC
  8
0
  6
CONTINUOUS
 62
256
 10
350.795010999999990
 20
-124.158631000000000
 40
21.999999999999996
 50
249.594067999999990
 51
290.405932000000010
  0
ARC
  8
0
  6
CONTINUOUS
 62
256
 10
350.795010999999990
 20
-124.158631000000000
 40
16.999999999999993
 50
251.212271000000040
 51
288.787728999999960
  0
ARC
  8
0
  6
CONTINUOUS
 62
256
 10
350.795010999999990
 20
-124.158631000000000
 40
13.499999999999989
 50
256.260205000000040
 51
283.739794999999960
  0
ARC
  8
0
  6
CONTINUOUS
 62
256
 10
347.826100000000000
 20
-136.300936000000010
 40
0.999999999999984
 50
149.999999999999460
 51
256.260204999998510
  0
ARC
  8
0
  6
CONTINUOUS
 62
256
 10
343.472960000000000
 20
-143.840795000000010
 40
0.999999999999984
 50
149.999999999999460
 51
249.594068000000160
  0
LINE
  8
0
  6
CONTINUOUS
 62
256
 10
342.606935000000020
 20
-143.340795000000010
 11
344.131852999999980
 21
-140.699559999999990
  0
ARC
  8
0
  6
CONTINUOUS
 62
256
 10
344.997878000000010
 20
-141.199559999999990
 40
1.000000000000010
 50
71.212270999999262
 51
149.999999999999460
  0
LINE
  8
0
  6
CONTINUOUS
 62
256
 10
346.960074000000020
 20
-135.800936000000010
 11
348.544194000000000
 21
-133.057160000000010
  0
ARC
  8
0
  6
CONTINUOUS
 62
256
 10
349.410218999999980
 20
-133.557160000000010
 40
0.999999999999984
 50
81.618272000000985
 51
149.999999999999460
  0
ARC
  8
0
  6
CONTINUOUS
 62
256
 10
336.413819999999990
 20
-156.067585000000010
 40
0.999999999999992
 50
65.739170000001337
 51
149.999999999999460
  0
LINE
  8
0
  6
CONTINUOUS
 62
256
 10
334.040838000000010
 20
-158.177709999999990
 11
335.547794000000010
 21
-155.567585000000010
  0
ARC
  8
0
  6
CONTINUOUS
 62
256
 10
334.906863999999980
 20
-158.677709999999990
 40
0.999999999999984
 50
149.999999999999460
 51
245.284732999999870
  0
ARC
  8
0
  6
CONTINUOUS
 62
256
 10
340.692174000000020
 20
-148.657258000000010
 40
1.000000000000009
 50
67.589541999999554
 51
149.999999999999460
  0
LINE
  8
0
  6
CONTINUOUS
 62
256
 10
338.314256000000000
 20
-150.775933000000010
 11
339.826148999999990
 21
-148.157258000000010
  0
ARC
  8
0
  6
CONTINUOUS
 62
256
 10
339.180280999999980
 20
-151.275933000000010
 40
0.999999999999984
 50
149.999999999999460
 51
246.813853999999880
  0
ARC
  8
0
  6
CONTINUOUS
 62
256
 10
350.795010999999990
 20
-124.158631000000000
 40
38.999999999999986
 50
185.284732999999990
 51
234.715266999999980
  0
ARC
  8
0
  6
CONTINUOUS
 62
256
 10
350.795010999999990
 20
-124.158631000000000
 40
33.999999999999972
 50
185.739169999999970
 51
234.260829999999970
  0
ARC
  8
0
  6
CONTINUOUS
 62
256
 10
350.795010999999990
 20
-124.158631000000000
 40
25.500000000000011
 50
187.589541999999990
 51
232.410458000000030
  0
ARC
  8
0
  6
CONTINUOUS
 62
256
 10
350.795010999999990
 20
-124.158631000000000
 40
30.499999999999986
 50
186.813853999999990
 51
233.186146000000040
  0
ARC
  8
0
  6
CONTINUOUS
 62
256
 10
350.795010999999990
 20
-124.158631000000000
 40
21.999999999999975
 50
189.594067999999960
 51
230.405932000000060
  0
ARC
  8
0
  6
CONTINUOUS
 62
256
 10
350.795010999999990
 20
-124.158631000000000
 40
16.999999999999989
 50
191.212270999999960
 51
228.787728999999960
  0
ARC
  8
0
  6
CONTINUOUS
 62
256
 10
350.795010999999990
 20
-124.158631000000000
 40
13.499999999999989
 50
196.260205000000010
 51
223.739794999999990
  0
ARC
  8
0
  6
CONTINUOUS
 62
256
 10
338.795010999999990
 20
-127.658631000000000
 40
1.000000000000000
 50
90.000000000000000
 51
196.260205000000670
  0
LINE
  8
0
  6
CONTINUOUS
 62
256
 10
338.795010999999990
 20
-126.658631000000000
 11
341.963250000000020
 21
-126.658631000000000
  0
ARC
  8
0
  6
CONTINUOUS
 62
256
 10
341.763921999999980
 20
-132.800936000000010
 40
0.999999999999995
 50
223.739794999999160
 51
329.999999999999490
  0
ARC
  8
0
  6
CONTINUOUS
 62
256
 10
350.795010999999990
 20
-124.158631000000000
 40
8.500000000000016
 50
201.618271999999960
 51
218.381727999999950
  0
ARC
  8
0
  6
CONTINUOUS
 62
256
 10
341.963250000000020
 20
-127.658631000000000
 40
1.000000000000013
 50
21.618271999999475
 51
90.000000000000000
  0
ARC
  8
0
  6
CONTINUOUS
 62
256
 10
337.410781999999980
 20
-140.340795000000010
 40
0.999999999999999
 50
230.405932000001170
 51
329.999999999999490
  0
LINE
  8
0
  6
CONTINUOUS
 62
256
 10
338.276808000000020
 20
-140.840795000000010
 11
339.801725999999970
 21
-138.199559999999990
  0
ARC
  8
0
  6
CONTINUOUS
 62
256
 10
338.935700000000000
 20
-137.699559999999990
 40
0.999999999999984
 50
329.999999999999490
 51
48.787729000000247
  0
LINE
  8
0
  6
CONTINUOUS
 62
256
 10
342.629947000000020
 20
-133.300936000000010
 11
344.214067000000000
 21
-130.557160000000010
  0
ARC
  8
0
  6
CONTINUOUS
 62
256
 10
343.348042000000020
 20
-130.057160000000010
 40
0.999999999999984
 50
329.999999999999490
 51
38.381728000001026
  0
ARC
  8
0
  6
CONTINUOUS
 62
256
 10
330.351642000000030
 20
-152.567585000000010
 40
0.999999999999984
 50
329.999999999999490
 51
54.260829999999778
  0
LINE
  8
0
  6
CONTINUOUS
 62
256
 10
329.710711000000000
 20
-155.677709999999990
 11
331.217667000000010
 21
-153.067585000000010
  0
ARC
  8
0
  6
CONTINUOUS
 62
256
 10
328.844686000000020
 20
-155.177709999999990
 40
1.000000000000016
 50
234.715266999999020
 51
329.999999999999490
  0
ARC
  8
0
  6
CONTINUOUS
 62
256
 10
334.629996000000010
 20
-145.157258000000010
 40
0.999999999999984
 50
329.999999999999490
 51
52.410458000001171
  0
LINE
  8
0
  6
CONTINUOUS
 62
256
 10
333.984129000000000
 20
-148.275933000000010
 11
335.496021999999980
 21
-145.657258000000010
  0
ARC
  8
0
  6
CONTINUOUS
 62
256
 10
333.118103000000020
 20
-147.775933000000010
 40
1.000000000000000
 50
233.186145999998760
 51
329.999999999999490
  0
ARC
  8
0
  6
CONTINUOUS
 62
256
 10
312.956538000000020
 20
-127.658631000000000
 40
1.000000000000000
 50
90.000000000000000
 51
185.284732999999760
  0
LINE
  8
0
  6
CONTINUOUS
 62
256
 10
312.956538000000020
 20
-126.658631000000000
 11
315.970451000000030
 21
-126.658631000000000
  0
ARC
  8
0
  6
CONTINUOUS
 62
256
 10
315.970451000000030
 20
-127.658631000000000
 40
0.999999999999978
 50
5.739170000000447
 51
90.000000000000000
  0
ARC
  8
0
  6
CONTINUOUS
 62
256
 10
321.503374000000010
 20
-127.658631000000000
 40
1.000000000000000
 50
90.000000000000000
 51
186.813853999999760
  0
LINE
  8
0
  6
CONTINUOUS
 62
256
 10
321.503374000000010
 20
-126.658631000000000
 11
324.527159999999980
 21
-126.658631000000000
  0
ARC
  8
0
  6
CONTINUOUS
 62
256
 10
324.527159999999980
 20
-127.658631000000000
 40
0.999999999999990
 50
7.589541999999997
 51
90.000000000000000
  0
ARC
  8
0
  6
CONTINUOUS
 62
256
 10
330.088731999999990
 20
-127.658631000000000
 40
1.000000000000000
 50
90.000000000000000
 51
189.594067999999960
  0
LINE
  8
0
  6
CONTINUOUS
 62
256
 10
330.088731999999990
 20
-126.658631000000000
 11
333.138567000000020
 21
-126.658631000000000
  0
ARC
  8
0
  6
CONTINUOUS
 62
256
 10
333.138567000000020
 20
-127.658631000000000
 40
1.000000000000016
 50
11.212270999999729
 51
90.000000000000000
  0
ARC
  8
0
  6
CONTINUOUS
 62
256
 10
353.763921999999980
 20
-136.300936000000010
 40
0.999999999999997
 50
283.739795000001440
 51
30.000000000000544
  0
LINE
  8
0
  6
CONTINUOUS
 62
256
 10
354.629947000000020
 20
-135.800936000000010
 11
353.045827999999970
 21
-133.057160000000010
  0
ARC
  8
0
  6
CONTINUOUS
 62
256
 10
350.795010999999990
 20
-124.158631000000000
 40
8.500000000000002
 50
261.618271999999930
 51
278.381728000000070
  0
ARC
  8
0
  6
CONTINUOUS
 62
256
 10
352.179802000000000
 20
-133.557160000000010
 40
0.999999999999984
 50
30.000000000000544
 51
98.381727999999029
  0
LINE
  8
0
  6
CONTINUOUS
 62
256
 10
380.086648000000030
 20
-126.658631000000000
 11
377.062862000000000
 21
-126.658631000000000
  0
LINE
  8
0
  6
CONTINUOUS
 62
256
 10
371.501289999999980
 20
-126.658631000000000
 11
368.451454000000010
 21
-126.658631000000000
  0
LINE
  8
0
  6
CONTINUOUS
 62
256
 10
362.795010999999990
 20
-126.658631000000000
 11
359.626772000000020
 21
-126.658631000000000
  0
LINE
  8
0
  6
CONTINUOUS
 62
256
 10
358.960074000000020
 20
-133.300936000000010
 11
357.375954999999980
 21
-130.557160000000010
  0
LINE
  8
0
  6
CONTINUOUS
 62
256
 10
363.313214000000020
 20
-140.840795000000010
 11
361.788296000000000
 21
-138.199559999999990
  0
LINE
  8
0
  6
CONTINUOUS
 62
256
 10
371.879310999999970
 20
-155.677709999999990
 11
370.372355000000030
 21
-153.067585000000010
  0
LINE
  8
0
  6
CONTINUOUS
 62
256
 10
367.605892999999980
 20
-148.275933000000010
 11
366.093999999999990
 21
-145.657258000000010
  0
ARC
  8
0
  6
CONTINUOUS
 62
256
 10
350.795010999999990
 20
-124.158631000000000
 40
8.500000000000005
 50
321.618272000000050
 51
338.381728000000010
  0
ARC
  8
0
  6
CONTINUOUS
 62
256
 10
350.795010999999990
 20
-124.158631000000000
 40
13.500000000000004
 50
316.260204999999980
 51
343.739794999999960
  0
ARC
  8
0
  6
CONTINUOUS
 62
256
 10
350.795010999999990
 20
-124.158631000000000
 40
17.000000000000000
 50
311.212271000000040
 51
348.787729000000010
  0
ARC
  8
0
  6
CONTINUOUS
 62
256
 10
350.795010999999990
 20
-124.158631000000000
 40
21.999999999999986
 50
309.594067999999940
 51
350.405932000000010
  0
ARC
  8
0
  6
CONTINUOUS
 62
256
 10
350.795010999999990
 20
-124.158631000000000
 40
25.499999999999996
 50
307.589541999999990
 51
352.410458000000010
  0
ARC
  8
0
  6
CONTINUOUS
 62
256
 10
350.795010999999990
 20
-124.158631000000000
 40
33.999999999999986
 50
305.739169999999940
 51
354.260830000000000
  0
ARC
  8
0
  6
CONTINUOUS
 62
256
 10
350.795010999999990
 20
-124.158631000000000
 40
30.499999999999982
 50
306.813853999999990
 51
353.186146000000010
  0
ARC
  8
0
  6
CONTINUOUS
 62
256
 10
350.795010999999990
 20
-124.158631000000000
 40
39.000000000000014
 50
305.284733000000020
 51
354.715266999999980
  0
ARC
  8
0
  6
CONTINUOUS
 62
256
 10
358.241980000000010
 20
-130.057160000000010
 40
0.999999999999985
 50
141.618271999999000
 51
210.000000000000510
  0
ARC
  8
0
  6
CONTINUOUS
 62
256
 10
359.626772000000020
 20
-127.658631000000000
 40
1.000000000000000
 50
90.000000000000000
 51
158.381728000000550
  0
ARC
  8
0
  6
CONTINUOUS
 62
256
 10
362.795010999999990
 20
-127.658631000000000
 40
0.999999999999976
 50
343.739794999999330
 51
90.000000000000000
  0
ARC
  8
0
  6
CONTINUOUS
 62
256
 10
359.826100000000000
 20
-132.800936000000010
 40
0.999999999999984
 50
210.000000000000510
 51
316.260205000000780
  0
ARC
  8
0
  6
CONTINUOUS
 62
256
 10
362.654321999999980
 20
-137.699559999999990
 40
1.000000000000006
 50
131.212270999999760
 51
210.000000000000510
  0
ARC
  8
0
  6
CONTINUOUS
 62
256
 10
364.179239000000000
 20
-140.340795000000010
 40
0.999999999999984
 50
210.000000000000510
 51
309.594067999998800
  0
ARC
  8
0
  6
CONTINUOUS
 62
256
 10
368.451454000000010
 20
-127.658631000000000
 40
1.000000000000000
 50
90.000000000000000
 51
168.787729000000270
  0
ARC
  8
0
  6
CONTINUOUS
 62
256
 10
371.501289999999980
 20
-127.658631000000000
 40
0.999999999999978
 50
350.405932000000010
 51
90.000000000000000
  0
ARC
  8
0
  6
CONTINUOUS
 62
256
 10
366.960024999999970
 20
-145.157258000000010
 40
0.999999999999993
 50
127.589541999998830
 51
210.000000000000510
  0
ARC
  8
0
  6
CONTINUOUS
 62
256
 10
368.471918000000020
 20
-147.775933000000010
 40
0.999999999999984
 50
210.000000000000510
 51
306.813854000001190
  0
ARC
  8
0
  6
CONTINUOUS
 62
256
 10
377.062862000000000
 20
-127.658631000000000
 40
1.000000000000000
 50
90.000000000000000
 51
172.410458000000010
  0
ARC
  8
0
  6
CONTINUOUS
 62
256
 10
371.238380000000010
 20
-152.567585000000010
 40
0.999999999999998
 50
125.739170000000210
 51
210.000000000000510
  0
ARC
  8
0
  6
CONTINUOUS
 62
256
 10
372.745336000000010
 20
-155.177709999999990
 40
0.999999999999984
 50
210.000000000000510
 51
305.284733000000980
  0
ARC
  8
0
  6
CONTINUOUS
 62
256
 10
366.683157999999990
 20
-158.677709999999990
 40
1.000000000000004
 50
294.715267000000150
 51
30.000000000000544
  0
LINE
  8
0
  6
CONTINUOUS
 62
256
 10
367.549184000000030
 20
-158.177709999999990
 11
366.042227000000030
 21
-155.567585000000010
  0
ARC
  8
0
  6
CONTINUOUS
 62
256
 10
362.409740000000000
 20
-151.275933000000010
 40
1.000000000000000
 50
293.186146000000120
 51
30.000000000000544
  0
LINE
  8
0
  6
CONTINUOUS
 62
256
 10
363.275765999999980
 20
-150.775933000000010
 11
361.763872999999990
 21
-148.157258000000010
  0
ARC
  8
0
  6
CONTINUOUS
 62
256
 10
365.176201999999990
 20
-156.067585000000010
 40
0.999999999999984
 50
30.000000000000544
 51
114.260829999998650
  0
ARC
  8
0
  6
CONTINUOUS
 62
256
 10
360.897847000000010
 20
-148.657258000000010
 40
0.999999999999984
 50
30.000000000000544
 51
112.410458000000460
  0
ARC
  8
0
  6
CONTINUOUS
 62
256
 10
358.117061999999980
 20
-143.840795000000010
 40
0.999999999999993
 50
290.405931999999840
 51
30.000000000000544
  0
LINE
  8
0
  6
CONTINUOUS
 62
256
 10
358.983087000000010
 20
-143.340795000000010
 11
357.458169000000000
 21
-140.699559999999990
  0
ARC
  8
0
  6
CONTINUOUS
 62
256
 10
356.592144000000020
 20
-141.199559999999990
 40
0.999999999999984
 50
30.000000000000544
 51
108.787729000000750
  0
LINE
  8
0
  6
CONTINUOUS
 62
256
 10
388.633483000000010
 20
-126.658631000000000
 11
385.619571000000010
 21
-126.658631000000000
  0
ARC
  8
0
  6
CONTINUOUS
 62
256
 10
380.086648000000030
 20
-127.658631000000000
 40
1.000000000000019
 50
353.186146000000240
 51
90.000000000000000
  0
ARC
  8
0
  6
CONTINUOUS
 62
256
 10
388.633483000000010
 20
-127.658631000000000
 40
1.000000000000027
 50
354.715267000000210
 51
90.000000000000000
  0
ARC
  8
0
  6
CONTINUOUS
 62
256
 10
385.619571000000010
 20
-127.658631000000000
 40
1.000000000000000
 50
90.000000000000000
 51
174.260829999999570
  0
ARC
  8
0
  6
CONTINUOUS
 62
256
 10
697.395010999999950
 20
-124.158631000000000
 40
400.600000000000080
 50
174.256317999999990
 51
180.000000000000000
  0
ARC
  8
0
  6
CONTINUOUS
 62
256
 10
305.373064000000000
 20
-84.727763999999993
 40
6.600000000000017
 50
135.000000000000170
 51
174.256317999999940
  0
ARC
  8
0
  6
CONTINUOUS
 62
256
 10
697.395010999999950
 20
-124.158631000000000
 40
390.797000000000030
 50
174.582035999999990
 51
180.000000000000000
  0
ARC
  8
0
  6
CONTINUOUS
 62
256
 10
311.330529000000010
 20
-87.542665999999997
 40
3.000000000000014
 50
135.000000000000200
 51
174.582036000000070
  0
ARC
  8
0
  6
CONTINUOUS
 62
256
 10
390.259493000000020
 20
-87.542665999999997
 40
2.999999999999996
 50
5.417963999999932
 51
44.999999999999808
  0
ARC
  8
0
  6
CONTINUOUS
 62
256
 10
4.195011000000000
 20
-124.158631000000000
 40
390.797000000000030
 50
0.000000000000000
 51
5.417964000000000
  0
ARC
  8
0
  6
CONTINUOUS
 62
256
 10
374.334809000000010
 20
-96.786741000000006
 40
20.797000000000008
 50
44.999999999999972
 51
84.998349999999959
  0
LINE
  8
0
  6
CONTINUOUS
 62
256
 10
389.040507999999990
 20
-82.081040999999999
 11
392.380812999999990
 21
-85.421346000000000
  0
ARC
  8
0
  6
CONTINUOUS
 62
256
 10
350.795010999999990
 20
-365.758630999999980
 40
290.797000000000030
 50
84.998350000000002
 51
90.000000000000000
  0
ARC
  8
0
  6
CONTINUOUS
 62
256
 10
390.259493000000020
 20
-160.774596000000000
 40
3.000000000000004
 50
315.000000000000340
 51
354.582035999999790
  0
ARC
  8
0
  6
CONTINUOUS
 62
256
 10
4.195011000000000
 20
-124.158631000000000
 40
390.797000000000030
 50
354.582036000000020
 51
0.000000000000000
  0
ARC
  8
0
  6
CONTINUOUS
 62
256
 10
374.334809000000010
 20
-151.530521999999990
 40
20.797000000000018
 50
275.001650000000040
 51
315.000000000000000
  0
LINE
  8
0
  6
CONTINUOUS
 62
256
 10
389.040507999999990
 20
-166.236222000000000
 11
392.380812999999990
 21
-162.895916000000000
  0
ARC
  8
0
  6
CONTINUOUS
 62
256
 10
350.795010999999990
 20
117.441368999999990
 40
290.797000000000030
 50
270.000000000000000
 51
275.001649999999980
  0
ARC
  8
0
  6
CONTINUOUS
 62
256
 10
311.330529000000010
 20
-160.774596000000000
 40
2.999999999999998
 50
185.417964000000180
 51
224.999999999999630
  0
ARC
  8
0
  6
CONTINUOUS
 62
256
 10
697.395010999999950
 20
-124.158631000000000
 40
390.797000000000030
 50
180.000000000000000
 51
185.417964000000010
  0
ARC
  8
0
  6
CONTINUOUS
 62
256
 10
327.255213000000030
 20
-151.530521999999990
 40
20.797000000000015
 50
225.000000000000000
 51
264.998350000000070
  0
LINE
  8
0
  6
CONTINUOUS
 62
256
 10
312.549512999999990
 20
-166.236222000000000
 11
309.209207999999990
 21
-162.895916000000000
  0
ARC
  8
0
  6
CONTINUOUS
 62
256
 10
350.795010999999990
 20
117.441368999999990
 40
290.797000000000030
 50
264.998350000000070
 51
270.000000000000000
  0
ARC
  8
0
  6
CONTINUOUS
 62
256
 10
375.795010999999990
 20
-43.219861999999999
 40
5.000000000000000
 50
0.000000000000000
 51
85.138594999999953
  0
ARC
  8
0
  6
CONTINUOUS
 62
256
 10
325.795010999999990
 20
-43.219861999999999
 40
5.000000000000003
 50
94.861405000000062
 51
180.000000000000000
  0
LINE
  8
0
  6
CONTINUOUS
 62
256
 10
380.795010999999990
 20
-66.658631000000000
 11
380.795010999999990
 21
-43.219861999999999
  0
LINE
  8
0
  6
CONTINUOUS
 62
256
 10
320.795010999999990
 20
-66.658631000000000
 11
320.795010999999990
 21
-43.219861999999999
  0
ARC
  8
0
  6
CONTINUOUS
 62
256
 10
350.795010999999990
 20
-337.158631000000010
 40
300.000000000000000
 50
85.138594999999995
 51
94.861405000000005
  0
LINE
  8
0
  6
CONTINUOUS
 62
256
 10
348.295010999999990
 20
-37.169047999999997
 11
348.295010999999990
 21
-36.658631000000000
  0
LINE
  8
0
  6
CONTINUOUS
 62
256
 10
353.295010999999990
 20
-37.169047999999997
 11
353.295010999999990
 21
-36.658631000000000
  0
LINE
  8
0
  6
CONTINUOUS
 62
256
 10
353.295010999999990
 20
-36.658631000000000
 11
348.295010999999990
 21
-36.658631000000000
  0
ARC
  8
0
  6
CONTINUOUS
 62
256
 10
322.731253999999980
 20
-87.168564000000003
 40
20.600000000000009
 50
95.752283000000077
 51
134.999999999999970
  0
LINE
  8
0
  6
CONTINUOUS
 62
256
 10
308.164854999999990
 20
-72.602164000000002
 11
300.706159000000010
 21
-80.060858999999994
  0
ARC
  8
0
  6
CONTINUOUS
 62
256
 10
350.795010999999990
 20
-365.758630999999980
 40
300.600000000000020
 50
90.000000000000000
 51
95.752283000000006
  0
LINE
  8
0
  6
CONTINUOUS
 62
256
 10
319.295010999999990
 20
-66.857181999999995
 11
319.295010999999990
 21
-66.658631000000000
  0
LINE
  8
0
  6
CONTINUOUS
 62
256
 10
320.802511999999980
 20
-66.658631000000000
 11
319.295010999999990
 21
-66.658631000000000
  0
ARC
  8
0
  6
CONTINUOUS
 62
256
 10
322.731253999999980
 20
-87.168564000000003
 40
10.797000000000002
 50
95.752283000000034
 51
135.000000000000060
  0
LINE
  8
0
  6
CONTINUOUS
 62
256
 10
315.096622000000020
 20
-79.533931999999993
 11
309.209207999999990
 21
-85.421346000000000
  0
ARC
  8
0
  6
CONTINUOUS
 62
256
 10
350.795010999999990
 20
-365.758630999999980
 40
290.797000000000030
 50
90.000000000000000
 51
95.752283000000006
  0
ARC
  8
0
  6
CONTINUOUS
 62
256
 10
350.795010999999990
 20
-365.758630999999980
 40
300.600000000000020
 50
84.247716999999994
 51
90.000000000000000
  0
LINE
  8
0
  6
CONTINUOUS
 62
256
 10
393.425166999999990
 20
-72.602164000000002
 11
400.883862000000020
 21
-80.060858999999994
  0
ARC
  8
0
  6
CONTINUOUS
 62
256
 10
378.858767000000000
 20
-87.168564000000003
 40
20.599999999999991
 50
45.000000000000000
 51
84.247716999999938
  0
ARC
  8
0
  6
CONTINUOUS
 62
256
 10
4.195011000000000
 20
-124.158631000000000
 40
400.600000000000020
 50
0.000000000000000
 51
5.743682000000000
  0
ARC
  8
0
  6
CONTINUOUS
 62
256
 10
396.216957999999980
 20
-84.727763999999993
 40
6.599999999999973
 50
5.743682000000063
 51
44.999999999999829
  0
ARC
  8
0
  6
CONTINUOUS
 62
256
 10
350.795010999999990
 20
117.441368999999990
 40
300.600000000000020
 50
270.000000000000000
 51
275.752282999999980
  0
LINE
  8
0
  6
CONTINUOUS
 62
256
 10
393.425166999999990
 20
-175.715098000000010
 11
400.883862000000020
 21
-168.256403000000010
  0
ARC
  8
0
  6
CONTINUOUS
 62
256
 10
378.858767000000000
 20
-161.148698000000000
 40
20.599999999999991
 50
275.752282999999860
 51
315.000000000000000
  0
ARC
  8
0
  6
CONTINUOUS
 62
256
 10
4.195011000000000
 20
-124.158631000000000
 40
400.600000000000020
 50
354.256318000000020
 51
0.000000000000000
  0
ARC
  8
0
  6
CONTINUOUS
 62
256
 10
396.216957999999980
 20
-163.589497999999990
 40
6.600000000000017
 50
315.000000000000170
 51
354.256318000000020
  0
ARC
  8
0
  6
CONTINUOUS
 62
256
 10
350.795010999999990
 20
117.441368999999990
 40
300.600000000000020
 50
264.247717000000020
 51
270.000000000000000
  0
LINE
  8
0
  6
CONTINUOUS
 62
256
 10
308.164854999999990
 20
-175.715098000000010
 11
300.706159000000010
 21
-168.256403000000010
  0
ARC
  8
0
  6
CONTINUOUS
 62
256
 10
322.731253999999980
 20
-161.148698000000000
 40
20.599999999999991
 50
225.000000000000000
 51
264.247716999999910
  0
ARC
  8
0
  6
CONTINUOUS
 62
256
 10
697.395010999999950
 20
-124.158631000000000
 40
400.600000000000020
 50
180.000000000000000
 51
185.743681999999980
  0
ARC
  8
0
  6
CONTINUOUS
 62
256
 10
305.373064000000000
 20
-163.589497999999990
 40
6.599999999999971
 50
185.743681999999920
 51
224.999999999999830
  0
LINE
  8
0
  6
CONTINUOUS
 62
256
 10
382.295010999999990
 20
-66.658631000000000
 11
380.782997000000020
 21
-66.658631000000000
  0
LINE
  8
0
  6
CONTINUOUS
 62
256
 10
382.295010999999990
 20
-66.857181999999995
 11
382.295010999999990
 21
-66.658631000000000
  0
TEXT
  8
0
  6
CONTINUOUS
 62
256
 10
450.780426025390620
 20
-234.646423339843750
 40
3.299999952316284
  1
1/1
 50
0.000002504478167
 41
0.850909097352304
  7
STANDARD1
  0
TEXT
  8
0
  6
CONTINUOUS
 62
256
 10
448.362426757812500
 20
-234.646423339843750
 40
3.299999952316284
  1
 
 50
0.000002504478167
 41
1.733333298293026
  7
STANDARD1
  0
TEXT
  8
0
  6
CONTINUOUS
 62
256
 10
435.311798095703120
 20
-234.646423339843750
 40
3.299999952316284
  1
SCALE
 50
0.000002504478167
 41
0.821052645401140
  7
STANDARD1
  0
TEXT
  8
0
  6
CONTINUOUS
 62
256
 10
432.060424804687500
 20
-234.646423339843750
 40
3.299999952316284
  1
 
 50
0.000002504478167
 41
1.733333298293026
  7
STANDARD1
  0
TEXT
  8
0
  6
CONTINUOUS
 62
256
 10
446.914581298828120
 20
-229.346420288085940
 40
3.299999952316284
  1
1/240
 50
0.000002504478167
 41
0.821052645401140
  7
STANDARD1
  0
TEXT
  8
0
  6
CONTINUOUS
 62
256
 10
443.132598876953120
 20
-229.346420288085940
 40
3.299999952316284
  1
ü`
 50
0.000002504478167
 41
1.176000019651471
  7
STANDARD1
  0
TEXT
  8
0
  6
CONTINUOUS
 62
256
 10
432.060424804687500
 20
-229.346420288085940
 40
3.299999952316284
  1
1/80
 50
0.000002504478167
 41
0.832000075658163
  7
STANDARD1
  0
TEXT
  8
0
  6
CONTINUOUS
 62
256
 10
432.060424804687500
 20
-224.046417236328120
 40
3.299999952316284
  1
GM-SHYM-RL
 50
0.000002504478167
 41
0.799999980493025
  7
STANDARD1
  0
TEXT
  8
0
  6
CONTINUOUS
 62
256
 10
437.885803222656250
 20
-218.746429443359370
 40
3.299999952316284
  1
0.2kW
 50
0.000002504478167
 41
0.821052645401140
  7
STANDARD1
  0
TEXT
  8
0
  6
CONTINUOUS
 62
256
 10
432.060424804687500
 20
-218.746429443359370
 40
3.299999952316284
  1
  
 50
0.000002504478167
 41
1.485714400175845
  7
STANDARD1
  0
TEXT
  8
0
  6
CONTINUOUS
 62
256
 10
437.879913330078120
 20
-213.446426391601560
 40
3.299999952316284
  1
SHY023
 50
0.000002504478167
 41
0.813913121261144
  7
STANDARD1
  0
TEXT
  8
0
  6
CONTINUOUS
 62
256
 10
432.060424804687500
 20
-213.446426391601560
 40
3.299999952316284
  1
  
 50
0.000002504478167
 41
1.485714400175845
  7
STANDARD1
  0
LINE
  8
0
  6
CONTINUOUS
 62
256
 10
156.578362000000000
 20
126.438322000000000
 11
156.578362000000000
 21
96.938321999999999
  0
LINE
  8
0
  6
CONTINUOUS
 62
256
 10
81.578361999999998
 20
126.438322000000000
 11
81.578361999999998
 21
96.938321999999999
  0
LINE
  8
0
  6
CONTINUOUS
 62
256
 10
83.578361999999998
 20
94.938321999999999
 11
154.578362000000000
 21
94.938321999999999
  0
ARC
  8
0
  6
CONTINUOUS
 62
256
 10
83.578361999999998
 20
96.938321999999999
 40
2.000000000000000
 50
180.000000000000000
 51
270.000000000000000
  0
ARC
  8
0
  6
CONTINUOUS
 62
256
 10
154.578362000000000
 20
96.938321999999999
 40
2.000000000000000
 50
270.000000000000000
 51
0.000000000000000
  0
LINE
  8
0
  6
CONTINUOUS
 62
256
 10
81.578361999999998
 20
106.438322000000000
 11
64.578361999999998
 21
106.438322000000000
  0
LINE
  8
0
  6
CONTINUOUS
 62
256
 10
81.578361999999998
 20
103.600082000000000
 11
64.578361999999998
 21
103.600082000000000
  0
LINE
  8
0
  6
CONTINUOUS
 62
256
 10
81.578361999999998
 20
102.253681000000000
 11
64.578361999999998
 21
102.253681000000000
  0
LINE
  8
0
  6
CONTINUOUS
 62
256
 10
81.578361999999998
 20
99.160950000000000
 11
64.578361999999998
 21
99.160950000000000
  0
LINE
  8
0
  6
CONTINUOUS
 62
256
 10
81.578361999999998
 20
97.681927000000002
 11
64.578361999999998
 21
97.681927000000002
  0
LINE
  8
0
  6
CONTINUOUS
 62
256
 10
83.578361999999998
 20
96.438321999999999
 11
154.578362000000000
 21
96.438321999999999
  0
ARC
  8
0
  6
CONTINUOUS
 62
256
 10
154.578362000000000
 20
97.438321999999999
 40
1.000000000000000
 50
270.000000000000000
 51
0.000000000000000
  0
ARC
  8
0
  6
CONTINUOUS
 62
256
 10
83.578361999999998
 20
97.438321999999999
 40
1.000000000000000
 50
180.000000000000000
 51
270.000000000000000
  0
LINE
  8
0
  6
CONTINUOUS
 62
256
 10
158.578362000000000
 20
126.438322000000000
 11
158.578362000000000
 21
91.438321999999999
  0
LINE
  8
0
  6
CONTINUOUS
 62
256
 10
151.578362000000000
 20
88.438321999999999
 11
155.578362000000000
 21
88.438321999999999
  0
ARC
  8
0
  6
CONTINUOUS
 62
256
 10
155.578362000000000
 20
91.438321999999999
 40
3.000000000000000
 50
270.000000000000000
 51
0.000000000000000
  0
LINE
  8
0
  6
CONTINUOUS
 62
256
 10
148.578362000000000
 20
72.438321999999999
 11
148.578362000000000
 21
85.438321999999999
  0
ARC
  8
0
  6
CONTINUOUS
 62
256
 10
151.578362000000000
 20
85.438321999999999
 40
3.000000000000000
 50
90.000000000000000
 51
180.000000000000000
  0
POLYLINE
  8
0
  6
CONTINUOUS
 62
256
 66
1
 70
1
  0
VERTEX
  8
0
  6
CONTINUOUS
 62
256
 10
164.278361999999990
 20
79.110990999999999
  0
VERTEX
  8
0
  6
CONTINUOUS
 62
256
 10
164.188052817895170
 20
79.813947510558165
  0
VERTEX
  8
0
  6
CONTINUOUS
 62
256
 10
163.920595802803040
 20
80.489889796638138
  0
VERTEX
  8
0
  6
CONTINUOUS
 62
256
 10
163.486269177821950
 20
81.112841775258659
  0
VERTEX
  8
0
  6
CONTINUOUS
 62
256
 10
162.901763871576780
 20
81.658863751236851
  0
VERTEX
  8
0
  6
CONTINUOUS
 62
256
 10
162.189542095192110
 20
82.106972406248488
  0
VERTEX
  8
0
  6
CONTINUOUS
 62
256
 10
161.376974132115920
 20
82.439947175983747
  0
VERTEX
  8
0
  6
CONTINUOUS
 62
256
 10
160.495286513475800
 20
82.644992026776066
  0
VERTEX
  8
0
  6
CONTINUOUS
 62
256
 10
159.578362000000000
 20
82.714227199999996
  0
VERTEX
  8
0
  6
CONTINUOUS
 62
256
 10
158.661437486524190
 20
82.644992026776066
  0
VERTEX
  8
0
  6
CONTINUOUS
 62
256
 10
157.779749867884080
 20
82.439947175983747
  0
VERTEX
  8
0
  6
CONTINUOUS
 62
256
 10
156.967181904807890
 20
82.106972406248488
  0
VERTEX
  8
0
  6
CONTINUOUS
 62
256
 10
156.254960128423220
 20
81.658863751236851
  0
VERTEX
  8
0
  6
CONTINUOUS
 62
256
 10
155.670454822178040
 20
81.112841775258659
  0
VERTEX
  8
0
  6
CONTINUOUS
 62
256
 10
155.236128197196960
 20
80.489889796638138
  0
VERTEX
  8
0
  6
CONTINUOUS
 62
256
 10
154.968671182104830
 20
79.813947510558165
  0
VERTEX
  8
0
  6
CONTINUOUS
 62
256
 10
154.878362000000010
 20
79.110990999999999
  0
VERTEX
  8
0
  6
CONTINUOUS
 62
256
 10
154.968671182104830
 20
78.408034489441832
  0
VERTEX
  8
0
  6
CONTINUOUS
 62
256
 10
155.236128197196960
 20
77.732092203361859
  0
VERTEX
  8
0
  6
CONTINUOUS
 62
256
 10
155.670454822178040
 20
77.109140224741338
  0
VERTEX
  8
0
  6
CONTINUOUS
 62
256
 10
156.254960128423220
 20
76.563118248763161
  0
VERTEX
  8
0
  6
CONTINUOUS
 62
256
 10
156.967181904807890
 20
76.115009593751509
  0
VERTEX
  8
0
  6
CONTINUOUS
 62
256
 10
157.779749867884080
 20
75.782034824016250
  0
VERTEX
  8
0
  6
CONTINUOUS
 62
256
 10
158.661437486524190
 20
75.576989973223931
  0
VERTEX
  8
0
  6
CONTINUOUS
 62
256
 10
159.578362000000000
 20
75.507754800000001
  0
VERTEX
  8
0
  6
CONTINUOUS
 62
256
 10
160.495286513475800
 20
75.576989973223931
  0
VERTEX
  8
0
  6
CONTINUOUS
 62
256
 10
161.376974132115920
 20
75.782034824016250
  0
VERTEX
  8
0
  6
CONTINUOUS
 62
256
 10
162.189542095192110
 20
76.115009593751509
  0
VERTEX
  8
0
  6
CONTINUOUS
 62
256
 10
162.901763871576750
 20
76.563118248763146
  0
VERTEX
  8
0
  6
CONTINUOUS
 62
256
 10
163.486269177821950
 20
77.109140224741338
  0
VERTEX
  8
0
  6
CONTINUOUS
 62
256
 10
163.920595802803040
 20
77.732092203361859
  0
VERTEX
  8
0
  6
CONTINUOUS
 62
256
 10
164.188052817895170
 20
78.408034489441832
  0
SEQEND
  8
0
  6
CONTINUOUS
 62
256
  0
LINE
  8
0
  6
CONTINUOUS
 62
256
 10
161.578362000000000
 20
76.118616000000003
 11
159.578362000000000
 21
77.294400999999993
  0
LINE
  8
0
  6
CONTINUOUS
 62
256
 10
159.578362000000000
 20
77.294400999999993
 11
157.578362000000000
 21
78.947042999999994
  0
LINE
  8
0
  6
CONTINUOUS
 62
256
 10
157.578362000000000
 20
76.118616000000003
 11
159.578362000000000
 21
77.294400999999993
  0
LINE
  8
0
  6
CONTINUOUS
 62
256
 10
159.578362000000000
 20
77.294400999999993
 11
161.578362000000000
 21
78.947042999999994
  0
LINE
  8
0
  6
CONTINUOUS
 62
256
 10
64.578361999999998
 20
73.938321999999999
 11
148.578362000000000
 21
73.938321999999999
  0
LINE
  8
0
  6
CONTINUOUS
 62
256
 10
148.578362000000000
 20
75.938321999999999
 11
64.578361999999998
 21
75.938321999999999
  0
LINE
  8
0
  6
CONTINUOUS
 62
256
 10
148.578362000000000
 20
75.438321999999999
 11
64.578361999999998
 21
75.438321999999999
  0
LINE
  8
0
  6
CONTINUOUS
 62
256
 10
148.578362000000000
 20
80.305239999999998
 11
64.578361999999998
 21
80.305239999999998
  0
LINE
  8
0
  6
CONTINUOUS
 62
256
 10
148.578362000000000
 20
81.933667000000000
 11
64.578361999999998
 21
81.933667000000000
  0
LINE
  8
0
  6
CONTINUOUS
 62
256
 10
148.578362000000000
 20
85.396407999999994
 11
64.578361999999998
 21
85.396407999999994
  0
LINE
  8
0
  6
CONTINUOUS
 62
256
 10
148.735963000000000
 20
86.397886999999997
 11
64.578361999999998
 21
86.397886999999997
  0
LINE
  8
0
  6
CONTINUOUS
 62
256
 10
158.578362000000000
 20
93.134720999999999
 11
64.578361999999998
 21
93.134720999999999
  0
LINE
  8
0
  6
CONTINUOUS
 62
256
 10
158.578362000000000
 20
94.723930999999993
 11
64.578361999999998
 21
94.723930999999993
  0
LINE
  8
0
  6
CONTINUOUS
 62
256
 10
158.578362000000000
 20
97.681927000000002
 11
156.578362000000000
 21
97.681927000000002
  0
LINE
  8
0
  6
CONTINUOUS
 62
256
 10
158.578362000000000
 20
99.160950000000000
 11
156.578362000000000
 21
99.160950000000000
  0
LINE
  8
0
  6
CONTINUOUS
 62
256
 10
158.578362000000000
 20
102.253681000000000
 11
156.578362000000000
 21
102.253681000000000
  0
LINE
  8
0
  6
CONTINUOUS
 62
256
 10
158.578362000000000
 20
103.600082000000000
 11
156.578362000000000
 21
103.600082000000000
  0
LINE
  8
0
  6
CONTINUOUS
 62
256
 10
158.578362000000000
 20
106.438322000000000
 11
156.578362000000000
 21
106.438322000000000
  0
LINE
  8
0
  6
CONTINUOUS
 62
256
 10
148.578362000000000
 20
72.438321999999999
 11
178.083206999999990
 21
72.438321999999999
  0
ARC
  8
0
  6
CONTINUOUS
 62
256
 10
178.083206999999990
 20
93.038321999999994
 40
20.599999999999994
 50
270.000000000000000
 51
304.999999999999940
  0
ARC
  8
0
  6
CONTINUOUS
 62
256
 10
195.978362000000000
 20
83.594701999999998
 40
2.600000000000007
 50
305.000000000000000
 51
0.000000000000000
  0
LINE
  8
0
  6
CONTINUOUS
 62
256
 10
198.578362000000000
 20
83.594701999999998
 11
198.578362000000000
 21
126.438322000000000
  0
LINE
  8
0
  6
CONTINUOUS
 62
256
 10
189.898881999999990
 20
76.163790000000006
 11
197.469661000000000
 21
81.464906999999997
  0
LINE
  8
0
  6
CONTINUOUS
 62
256
 10
155.578362000000000
 20
126.438322000000000
 11
155.578362000000000
 21
97.438321999999999
  0
LINE
  8
0
  6
CONTINUOUS
 62
256
 10
82.578361999999998
 20
97.438321999999999
 11
82.578361999999998
 21
126.438322000000000
  0
LINE
  8
0
  6
CONTINUOUS
 62
256
 10
158.578362000000000
 20
126.438322000000000
 11
158.578362000000000
 21
161.438322000000000
  0
LINE
  8
0
  6
CONTINUOUS
 62
256
 10
151.578362000000000
 20
164.438322000000000
 11
155.578362000000000
 21
164.438322000000000
  0
ARC
  8
0
  6
CONTINUOUS
 62
256
 10
155.578362000000000
 20
161.438322000000000
 40
3.000000000000000
 50
0.000000000000000
 51
90.000000000000000
  0
LINE
  8
0
  6
CONTINUOUS
 62
256
 10
148.578362000000000
 20
180.438322000000000
 11
148.578362000000000
 21
167.438322000000000
  0
ARC
  8
0
  6
CONTINUOUS
 62
256
 10
151.578362000000000
 20
167.438322000000000
 40
3.000000000000000
 50
180.000000000000000
 51
270.000000000000000
  0
POLYLINE
  8
0
  6
CONTINUOUS
 62
256
 66
1
 70
1
  0
VERTEX
  8
0
  6
CONTINUOUS
 62
256
 10
164.278361999999990
 20
173.765652999999990
  0
VERTEX
  8
0
  6
CONTINUOUS
 62
256
 10
164.188052817895170
 20
174.468609510558170
  0
VERTEX
  8
0
  6
CONTINUOUS
 62
256
 10
163.920595802803040
 20
175.144551796638130
  0
VERTEX
  8
0
  6
CONTINUOUS
 62
256
 10
163.486269177821950
 20
175.767503775258660
  0
VERTEX
  8
0
  6
CONTINUOUS
 62
256
 10
162.901763871576780
 20
176.313525751236820
  0
VERTEX
  8
0
  6
CONTINUOUS
 62
256
 10
162.189542095192110
 20
176.761634406248480
  0
VERTEX
  8
0
  6
CONTINUOUS
 62
256
 10
161.376974132115920
 20
177.094609175983720
  0
VERTEX
  8
0
  6
CONTINUOUS
 62
256
 10
160.495286513475800
 20
177.299654026776070
  0
VERTEX
  8
0
  6
CONTINUOUS
 62
256
 10
159.578362000000000
 20
177.368889199999980
  0
VERTEX
  8
0
  6
CONTINUOUS
 62
256
 10
158.661437486524190
 20
177.299654026776070
  0
VERTEX
  8
0
  6
CONTINUOUS
 62
256
 10
157.779749867884080
 20
177.094609175983720
  0
VERTEX
  8
0
  6
CONTINUOUS
 62
256
 10
156.967181904807890
 20
176.761634406248480
  0
VERTEX
  8
0
  6
CONTINUOUS
 62
256
 10
156.254960128423220
 20
176.313525751236820
  0
VERTEX
  8
0
  6
CONTINUOUS
 62
256
 10
155.670454822178040
 20
175.767503775258660
  0
VERTEX
  8
0
  6
CONTINUOUS
 62
256
 10
155.236128197196960
 20
175.144551796638130
  0
VERTEX
  8
0
  6
CONTINUOUS
 62
256
 10
154.968671182104830
 20
174.468609510558170
  0
VERTEX
  8
0
  6
CONTINUOUS
 62
256
 10
154.878362000000010
 20
173.765652999999990
  0
VERTEX
  8
0
  6
CONTINUOUS
 62
256
 10
154.968671182104830
 20
173.062696489441810
  0
VERTEX
  8
0
  6
CONTINUOUS
 62
256
 10
155.236128197196960
 20
172.386754203361850
  0
VERTEX
  8
0
  6
CONTINUOUS
 62
256
 10
155.670454822178040
 20
171.763802224741310
  0
VERTEX
  8
0
  6
CONTINUOUS
 62
256
 10
156.254960128423220
 20
171.217780248763150
  0
VERTEX
  8
0
  6
CONTINUOUS
 62
256
 10
156.967181904807890
 20
170.769671593751500
  0
VERTEX
  8
0
  6
CONTINUOUS
 62
256
 10
157.779749867884080
 20
170.436696824016250
  0
VERTEX
  8
0
  6
CONTINUOUS
 62
256
 10
158.661437486524190
 20
170.231651973223930
  0
VERTEX
  8
0
  6
CONTINUOUS
 62
256
 10
159.578362000000000
 20
170.162416799999990
  0
VERTEX
  8
0
  6
CONTINUOUS
 62
256
 10
160.495286513475800
 20
170.231651973223930
  0
VERTEX
  8
0
  6
CONTINUOUS
 62
256
 10
161.376974132115920
 20
170.436696824016250
  0
VERTEX
  8
0
  6
CONTINUOUS
 62
256
 10
162.189542095192110
 20
170.769671593751500
  0
VERTEX
  8
0
  6
CONTINUOUS
 62
256
 10
162.901763871576750
 20
171.217780248763150
  0
VERTEX
  8
0
  6
CONTINUOUS
 62
256
 10
163.486269177821950
 20
171.763802224741310
  0
VERTEX
  8
0
  6
CONTINUOUS
 62
256
 10
163.920595802803040
 20
172.386754203361850
  0
VERTEX
  8
0
  6
CONTINUOUS
 62
256
 10
164.188052817895170
 20
173.062696489441810
  0
SEQEND
  8
0
  6
CONTINUOUS
 62
256
  0
LINE
  8
0
  6
CONTINUOUS
 62
256
 10
161.578362000000000
 20
176.758028999999990
 11
159.578362000000000
 21
175.582243000000010
  0
LINE
  8
0
  6
CONTINUOUS
 62
256
 10
159.578362000000000
 20
175.582243000000010
 11
157.578362000000000
 21
173.929601999999990
  0
LINE
  8
0
  6
CONTINUOUS
 62
256
 10
157.578362000000000
 20
176.758028999999990
 11
159.578362000000000
 21
175.582243000000010
  0
LINE
  8
0
  6
CONTINUOUS
 62
256
 10
159.578362000000000
 20
175.582243000000010
 11
161.578362000000000
 21
173.929601999999990
  0
ARC
  8
0
  6
CONTINUOUS
 62
256
 10
178.083206999999990
 20
159.838322000000010
 40
20.599999999999991
 50
55.000000000000007
 51
90.000000000000000
  0
ARC
  8
0
  6
CONTINUOUS
 62
256
 10
195.978362000000000
 20
169.281941999999990
 40
2.599999999999994
 50
0.000000000000000
 51
54.999999999999801
  0
LINE
  8
0
  6
CONTINUOUS
 62
256
 10
198.578362000000000
 20
169.281941999999990
 11
198.578362000000000
 21
126.438322000000000
  0
LINE
  8
0
  6
CONTINUOUS
 62
256
 10
189.898881999999990
 20
176.712853999999990
 11
197.469661000000000
 21
171.411738000000010
  0
LINE
  8
0
  6
CONTINUOUS
 62
256
 10
148.578362000000000
 20
180.438322000000000
 11
178.083206999999990
 21
180.438322000000000
  0
LINE
  8
0
  6
CONTINUOUS
 62
256
 10
64.578361999999998
 20
178.938322000000000
 11
148.578362000000000
 21
178.938322000000000
  0
LINE
  8
0
  6
CONTINUOUS
 62
256
 10
156.578362000000000
 20
126.438322000000000
 11
156.578362000000000
 21
155.938322000000000
  0
LINE
  8
0
  6
CONTINUOUS
 62
256
 10
81.578361999999998
 20
126.438322000000000
 11
81.578361999999998
 21
155.938322000000000
  0
LINE
  8
0
  6
CONTINUOUS
 62
256
 10
83.578361999999998
 20
157.938322000000000
 11
154.578362000000000
 21
157.938322000000000
  0
ARC
  8
0
  6
CONTINUOUS
 62
256
 10
83.578361999999998
 20
155.938322000000000
 40
2.000000000000000
 50
90.000000000000000
 51
180.000000000000000
  0
ARC
  8
0
  6
CONTINUOUS
 62
256
 10
154.578362000000000
 20
155.938322000000000
 40
2.000000000000000
 50
0.000000000000000
 51
90.000000000000000
  0
LINE
  8
0
  6
CONTINUOUS
 62
256
 10
148.578362000000000
 20
176.938322000000000
 11
64.578361999999998
 21
176.938322000000000
  0
LINE
  8
0
  6
CONTINUOUS
 62
256
 10
148.578362000000000
 20
177.438322000000000
 11
64.578361999999998
 21
177.438322000000000
  0
LINE
  8
0
  6
CONTINUOUS
 62
256
 10
148.578362000000000
 20
172.571405000000000
 11
64.578361999999998
 21
172.571405000000000
  0
LINE
  8
0
  6
CONTINUOUS
 62
256
 10
148.578362000000000
 20
167.480235999999990
 11
64.578361999999998
 21
167.480235999999990
  0
LINE
  8
0
  6
CONTINUOUS
 62
256
 10
158.578362000000000
 20
146.438322000000000
 11
156.578362000000000
 21
146.438322000000000
  0
LINE
  8
0
  6
CONTINUOUS
 62
256
 10
158.578362000000000
 20
159.741923000000010
 11
64.578361999999998
 21
159.741923000000010
  0
LINE
  8
0
  6
CONTINUOUS
 62
256
 10
158.578362000000000
 20
158.152713000000010
 11
64.578361999999998
 21
158.152713000000010
  0
LINE
  8
0
  6
CONTINUOUS
 62
256
 10
158.578362000000000
 20
155.194717999999990
 11
156.578362000000000
 21
155.194717999999990
  0
LINE
  8
0
  6
CONTINUOUS
 62
256
 10
158.578362000000000
 20
153.715695000000010
 11
156.578362000000000
 21
153.715695000000010
  0
LINE
  8
0
  6
CONTINUOUS
 62
256
 10
158.578362000000000
 20
150.622964000000000
 11
156.578362000000000
 21
150.622964000000000
  0
LINE
  8
0
  6
CONTINUOUS
 62
256
 10
158.578362000000000
 20
149.276562000000010
 11
156.578362000000000
 21
149.276562000000010
  0
LINE
  8
0
  6
CONTINUOUS
 62
256
 10
148.578362000000000
 20
170.942978000000010
 11
64.578361999999998
 21
170.942978000000010
  0
LINE
  8
0
  6
CONTINUOUS
 62
256
 10
148.735963000000000
 20
166.478758000000000
 11
64.578361999999998
 21
166.478758000000000
  0
LINE
  8
0
  6
CONTINUOUS
 62
256
 10
81.578361999999998
 20
146.438322000000000
 11
64.578361999999998
 21
146.438322000000000
  0
LINE
  8
0
  6
CONTINUOUS
 62
256
 10
81.578361999999998
 20
149.276562000000010
 11
64.578361999999998
 21
149.276562000000010
  0
LINE
  8
0
  6
CONTINUOUS
 62
256
 10
81.578361999999998
 20
150.622964000000000
 11
64.578361999999998
 21
150.622964000000000
  0
LINE
  8
0
  6
CONTINUOUS
 62
256
 10
81.578361999999998
 20
153.715695000000010
 11
64.578361999999998
 21
153.715695000000010
  0
LINE
  8
0
  6
CONTINUOUS
 62
256
 10
81.578361999999998
 20
155.194717999999990
 11
64.578361999999998
 21
155.194717999999990
  0
LINE
  8
0
  6
CONTINUOUS
 62
256
 10
83.578361999999998
 20
156.438322000000000
 11
154.578362000000000
 21
156.438322000000000
  0
LINE
  8
0
  6
CONTINUOUS
 62
256
 10
155.578362000000000
 20
126.438322000000000
 11
155.578362000000000
 21
155.438322000000000
  0
LINE
  8
0
  6
CONTINUOUS
 62
256
 10
82.578361999999998
 20
155.438322000000000
 11
82.578361999999998
 21
126.438322000000000
  0
ARC
  8
0
  6
CONTINUOUS
 62
256
 10
154.578362000000000
 20
155.438322000000000
 40
1.000000000000000
 50
0.000000000000000
 51
90.000000000000000
  0
ARC
  8
0
  6
CONTINUOUS
 62
256
 10
83.578361999999998
 20
155.438322000000000
 40
1.000000000000000
 50
90.000000000000000
 51
180.000000000000000
  0
LINE
  8
0
  6
CONTINUOUS
 62
256
 10
64.578361999999998
 20
126.438322000000000
 11
64.578361999999998
 21
179.938322000000000
  0
LINE
  8
0
  6
CONTINUOUS
 62
256
 10
64.578361999999998
 20
126.438322000000000
 11
64.578361999999998
 21
178.938322000000000
  0
LINE
  8
0
  6
CONTINUOUS
 62
256
 10
64.578361999999998
 20
126.438322000000000
 11
64.578361999999998
 21
72.938321999999999
  0
LINE
  8
0
  6
CONTINUOUS
 62
256
 10
64.578361999999998
 20
126.438322000000000
 11
64.578361999999998
 21
73.938321999999999
  0
LINE
  8
0
  6
CONTINUOUS
 62
256
 10
-48.421638000000002
 20
71.438321999999999
 11
-48.421638000000002
 21
73.438321999999999
  0
LINE
  8
0
  6
CONTINUOUS
 62
256
 10
-62.921638000000002
 20
71.438321999999999
 11
-48.421638000000002
 21
71.438321999999999
  0
LINE
  8
0
  6
CONTINUOUS
 62
256
 10
-62.921638000000002
 20
71.438321999999999
 11
-48.421638000000002
 21
71.438321999999999
  0
LINE
  8
0
  6
CONTINUOUS
 62
256
 10
-77.421638000000002
 20
71.438321999999999
 11
-77.421638000000002
 21
73.438321999999999
  0
LINE
  8
0
  6
CONTINUOUS
 62
256
 10
-62.921638000000002
 20
71.438321999999999
 11
-77.421638000000002
 21
71.438321999999999
  0
LINE
  8
0
  6
CONTINUOUS
 62
256
 10
-62.921638000000002
 20
71.438321999999999
 11
-77.421638000000002
 21
71.438321999999999
  0
LINE
  8
0
  6
CONTINUOUS
 62
256
 10
-76.921638000000002
 20
71.438321999999999
 11
-76.921638000000002
 21
26.438321999999999
  0
LINE
  8
0
  6
CONTINUOUS
 62
256
 10
-48.921638000000002
 20
71.438321999999999
 11
-48.921638000000002
 21
26.438321999999999
  0
ARC
  8
0
  6
CONTINUOUS
 62
256
 10
-62.921638000000002
 20
62.438321999999999
 40
4.000000000000000
 50
0.000000000000000
 51
180.000000000000000
  0
LINE
  8
0
  6
DASHDOT
 62
256
 10
-62.921638000000002
 20
18.160118000000001
 11
-62.921638000000002
 21
188.611216000000010
  0
LINE
  8
0
  6
CONTINUOUS
 62
256
 10
64.578361999999998
 20
72.938319000000007
 11
49.630719999999997
 21
72.677407000000002
  0
LINE
  8
0
  6
CONTINUOUS
 62
256
 10
64.578361999999998
 20
179.973234999999990
 11
49.630719999999997
 21
180.234147000000010
  0
LINE
  8
0
  6
CONTINUOUS
 62
256
 10
36.935056000000003
 20
86.938321999999999
 11
43.578361999999998
 21
86.938321999999999
  0
ARC
  8
0
  6
CONTINUOUS
 62
256
 10
49.578361999999998
 20
177.234603999999990
 40
3.000000000000011
 50
89.000000000000000
 51
180.000000000000000
  0
ARC
  8
0
  6
CONTINUOUS
 62
256
 10
49.578361999999998
 20
75.676950000000005
 40
3.000000000000000
 50
180.000000000000000
 51
271.000000000000060
  0
ARC
  8
0
  6
CONTINUOUS
 62
256
 10
36.935056000000003
 20
84.938321999999999
 40
2.000000000000000
 50
90.000000000000000
 51
180.000000000000000
  0
ARC
  8
0
  6
CONTINUOUS
 62
256
 10
38.270673000000002
 20
163.438322000000000
 40
1.999999999999998
 50
178.999999999999860
 51
270.000000000000000
  0
LINE
  8
0
  6
CONTINUOUS
 62
256
 10
-20.421638000000002
 20
73.438321999999999
 11
-105.421638000000000
 21
73.438321999999999
  0
LINE
  8
0
  6
CONTINUOUS
 62
256
 10
-20.421638000000002
 20
77.438321999999999
 11
-20.421638000000002
 21
73.438321999999999
  0
LINE
  8
0
  6
CONTINUOUS
 62
256
 10
-105.421638000000000
 20
179.438322000000000
 11
-105.421638000000000
 21
175.438322000000000
  0
LINE
  8
0
  6
CONTINUOUS
 62
256
 10
-105.421638000000000
 20
77.438321999999999
 11
-105.421638000000000
 21
73.438321999999999
  0
LINE
  8
0
  6
CONTINUOUS
 62
256
 10
-123.712177000000000
 20
163.438322000000000
 11
36.279096000000003
 21
163.438322000000000
  0
LINE
  8
0
  6
CONTINUOUS
 62
256
 10
-20.421638000000002
 20
179.438322000000000
 11
-20.421638000000002
 21
175.438322000000000
  0
LINE
  8
0
  6
CONTINUOUS
 62
256
 10
-8.329107000000001
 20
175.438322000000000
 11
-123.476533000000000
 21
175.438322000000000
  0
LINE
  8
0
  6
CONTINUOUS
 62
256
 10
-8.329107000000001
 20
77.438321999999999
 11
-122.368137000000000
 21
77.438321999999999
  0
LINE
  8
0
  6
CONTINUOUS
 62
256
 10
36.078361999999998
 20
175.438322000000000
 11
-8.329107000000001
 21
175.438322000000000
  0
LINE
  8
0
  6
CONTINUOUS
 62
256
 10
-105.421638000000000
 20
179.438322000000000
 11
-20.421638000000002
 21
179.438322000000000
  0
LINE
  8
0
  6
CONTINUOUS
 62
256
 10
34.935056000000003
 20
77.438321999999999
 11
-8.329107000000001
 21
77.438321999999999
  0
LINE
  8
0
  6
CONTINUOUS
 62
256
 10
36.279096000000003
 20
163.438322000000000
 11
34.935056000000003
 21
87.438321999999999
  0
LINE
  8
0
  6
CONTINUOUS
 62
256
 10
34.935056000000003
 20
87.438321999999999
 11
34.935056000000003
 21
77.438321999999999
  0
LINE
  8
0
  6
CONTINUOUS
 62
256
 10
-122.368137000000000
 20
87.438321999999999
 11
-122.368137000000000
 21
77.438321999999999
  0
LINE
  8
0
  6
CONTINUOUS
 62
256
 10
-123.476533000000000
 20
175.438322000000000
 11
-123.685993999999990
 21
163.438322000000000
  0
LINE
  8
0
  6
CONTINUOUS
 62
256
 10
-123.712177000000000
 20
163.438322000000000
 11
-122.368137000000000
 21
87.438321999999999
  0
LINE
  8
0
  6
CONTINUOUS
 62
256
 10
36.287823000000003
 20
163.438322000000000
 11
36.078361999999998
 21
175.438322000000000
  0
LINE
  8
0
  6
CONTINUOUS
 62
256
 10
59.578361999999998
 20
78.955776999999998
 11
59.578361999999998
 21
74.903717000000000
  0
ARC
  8
0
  6
CONTINUOUS
 62
256
 10
61.578361999999998
 20
74.903717000000000
 40
2.000000000000000
 50
180.000000000000000
 51
270.999999999999940
  0
ARC
  8
0
  6
CONTINUOUS
 62
256
 10
56.578361999999998
 20
78.955776999999998
 40
3.000000000000000
 50
0.000000000000000
 51
90.000000000000000
  0
LINE
  8
0
  6
CONTINUOUS
 62
256
 10
59.578361999999998
 20
126.455777000000000
 11
59.578361999999998
 21
87.026126000000005
  0
ARC
  8
0
  6
CONTINUOUS
 62
256
 10
57.578361999999998
 20
87.026126000000005
 40
2.000000000000000
 50
270.000000000000000
 51
0.000000000000000
  0
ARC
  8
0
  6
CONTINUOUS
 62
256
 10
56.578361999999998
 20
95.563610999999995
 40
3.000000000000000
 50
270.000000000000000
 51
0.000000000000000
  0
LINE
  8
0
  6
CONTINUOUS
 62
256
 10
51.513351000000000
 20
92.563610999999995
 11
56.578361999999998
 21
92.563610999999995
  0
LINE
  8
0
  6
CONTINUOUS
 62
256
 10
56.578361999999998
 20
81.955776999999998
 11
49.578361999999998
 21
81.955776999999998
  0
LINE
  8
0
  6
CONTINUOUS
 62
256
 10
57.578361999999998
 20
85.026126000000005
 11
49.578361999999998
 21
85.026126000000005
  0
ARC
  8
0
  6
CONTINUOUS
 62
256
 10
49.578361999999998
 20
84.955776999999998
 40
3.000000000000000
 50
180.000000000000000
 51
270.000000000000000
  0
ARC
  8
0
  6
CONTINUOUS
 62
256
 10
49.578361999999998
 20
88.026126000000005
 40
3.000000000000000
 50
180.000000000000000
 51
270.000000000000000
  0
LINE
  8
0
  6
CONTINUOUS
 62
256
 10
46.578361999999998
 20
75.676950000000005
 11
46.578361999999998
 21
177.234603999999990
  0
LINE
  8
0
  6
CONTINUOUS
 62
256
 10
59.578361999999998
 20
126.455777000000000
 11
59.578361999999998
 21
165.885428999999990
  0
LINE
  8
0
  6
CONTINUOUS
 62
256
 10
59.578361999999998
 20
146.455777000000010
 11
64.578361999999998
 21
146.455777000000010
  0
ARC
  8
0
  6
CONTINUOUS
 62
256
 10
56.578361999999998
 20
173.955777000000010
 40
3.000000000000000
 50
270.000000000000000
 51
0.000000000000000
  0
LINE
  8
0
  6
CONTINUOUS
 62
256
 10
51.273681000000003
 20
160.347942999999990
 11
56.578361999999998
 21
160.347942999999990
  0
ARC
  8
0
  6
CONTINUOUS
 62
256
 10
57.578361999999998
 20
165.885428999999990
 40
2.000000000000000
 50
0.000000000000000
 51
90.000000000000000
  0
ARC
  8
0
  6
CONTINUOUS
 62
256
 10
56.578361999999998
 20
157.347942999999990
 40
3.000000000000000
 50
0.000000000000000
 51
90.000000000000000
  0
LINE
  8
0
  6
CONTINUOUS
 62
256
 10
59.578361999999998
 20
173.955777000000010
 11
59.578361999999998
 21
178.007837999999990
  0
ARC
  8
0
  6
CONTINUOUS
 62
256
 10
61.578361999999998
 20
178.007837999999990
 40
1.999999999999998
 50
89.000000000000057
 51
180.000000000000000
  0
LINE
  8
0
  6
CONTINUOUS
 62
256
 10
57.578361999999998
 20
167.885428999999990
 11
49.578361999999998
 21
167.885428999999990
  0
LINE
  8
0
  6
CONTINUOUS
 62
256
 10
56.578361999999998
 20
170.955777000000010
 11
49.578361999999998
 21
170.955777000000010
  0
ARC
  8
0
  6
CONTINUOUS
 62
256
 10
49.578361999999998
 20
167.955777000000010
 40
3.000000000000000
 50
90.000000000000000
 51
180.000000000000000
  0
ARC
  8
0
  6
CONTINUOUS
 62
256
 10
49.578361999999998
 20
164.885428999999990
 40
3.000000000000000
 50
90.000000000000000
 51
180.000000000000000
  0
ARC
  8
0
  6
CONTINUOUS
 62
256
 10
43.578361999999998
 20
164.438322000000000
 40
3.000000000000000
 50
270.000000000000000
 51
0.000000000000000
  0
LINE
  8
0
  6
CONTINUOUS
 62
256
 10
43.578361999999998
 20
161.438322000000000
 11
38.270673000000002
 21
161.438322000000000
  0
ARC
  8
0
  6
CONTINUOUS
 62
256
 10
43.578361999999998
 20
83.938321999999999
 40
3.000000000000000
 50
0.000000000000000
 51
90.000000000000000
  0
LINE
  8
0
  6
CONTINUOUS
 62
256
 10
64.578361999999998
 20
126.455777000000000
 11
64.578361999999998
 21
72.955776999999998
  0
LINE
  8
0
  6
CONTINUOUS
 62
256
 10
64.578361999999998
 20
126.455777000000000
 11
64.578361999999998
 21
179.955777000000010
  0
LINE
  8
0
  6
CONTINUOUS
 62
256
 10
-58.921638000000002
 20
62.438321999999999
 11
-58.921638000000002
 21
26.438321999999999
  0
LINE
  8
0
  6
CONTINUOUS
 62
256
 10
-66.921638000000002
 20
62.438321999999999
 11
-66.921638000000002
 21
26.438321999999999
  0
LINE
  8
0
  6
CONTINUOUS
 62
256
 10
-48.921638000000002
 20
26.438321999999999
 11
-76.921638000000002
 21
26.438321999999999
  0
LINE
  8
0
  6
CONTINUOUS
 62
256
 10
-66.921638000000002
 20
62.438321999999999
 11
-58.921638000000002
 21
62.438321999999999
  0
ARC
  8
0
  6
DASHED
 62
256
 10
-319.498743999999990
 20
-104.641176000000000
 40
0.500000000000000
 50
0.000000000000000
 51
90.000000000000000
  0
LINE
  8
0
  6
CONTINUOUS
 62
256
 10
59.578361999999998
 20
106.420867000000000
 11
64.578361999999998
 21
106.420867000000000
  0
ENDSEC
  0
EOF
