  0
SECTION
  2
HEADER
  9
$TEXTSIZE
 40
2.5
  9
$ACADVER
  1
AC1009
  9
$DIMASZ
 40
3.863703297614046
  9
$DIMEXE
 40
2.000000000000000
  9
$DIMEXO
 40
1.000000000000000
  9
$DIMLFAC
 40
1.000000000000000
  9
$DIMSCALE
 40
1.000000000000000
  9
$DIMTAD
 70
1
  9
$DIMTFAC
 40
0.625000000000000
  9
$DIMTXT
 40
3.200000047683716
  9
$LUPREC
 70
3
  9
$REGENMODE
 70
1
  9
$TEXTSTYLE
  7
STANDARD1
  0
ENDSEC
  0
SECTION
  2
TABLES
  0
TABLE
  2
LTYPE
 70
4
  0
LTYPE
  2
CONTINUOUS
 70
64
  3
Solid line
 72
65
 73
0
 40
0.0
  0
LTYPE
  2
DASHED
 70
64
  3
-- -- -- -- -- -- -- -- -- -- -- -- -- -- --
 72
65
 73
2
 40
0.75
 49
0.5
 49
-0.25
  0
LTYPE
  2
DASHDOT
 70
64
  3
__ . __ . __ . __ . __ . __ . __ . __ . __ . __
 72
65
 73
4
 40
1.0
 49
0.5
 49
-0.25
 49
0.0
 49
-0.25
  0
LTYPE
  2
DIVIDE
 70
64
  3
__ . . __ . . __ . . __ . . __ . . __ . . __
 72
65
 73
6
 40
1.25
 49
0.5
 49
-0.25
 49
0.0
 49
-0.25
 49
0.0
 49
-0.25
  0
ENDTAB
  0
TABLE
  2
LAYER
 70
2
  0
LAYER
  2
0
 70
64
 62
53
  6
CONTINUOUS
  0
LAYER
  2
1
 70
64
 62
102
  6
CONTINUOUS
  0
ENDTAB
  0
TABLE
  2
STYLE
 70
4
  0
STYLE
  2
STANDARD1
 70
64
 40
0.0
 41
1.0
 50
0.0
 71
0
 42
3.200000047683716
  3
MONOTXT
  4
BIGFONT
  0
STYLE
  2
STANDARD2
 70
68
 40
0.0
 41
1.0
 50
0.0
 71
0
 42
3.200000047683716
  3
MONOTXT
  4
BIGFONT
  0
STYLE
  2
STANDARD3
 70
64
 40
0.0
 41
1.0
 50
0.0
 71
0
 42
3.200000047683716
  3
MONOTXT
  4

  0
STYLE
  2
STANDARD4
 70
68
 40
0.0
 41
1.0
 50
0.0
 71
0
 42
3.200000047683716
  3
MONOTXT
  4

  0
ENDTAB
  0
TABLE
  2
VIEW
 70
0
  0
ENDTAB
  0
ENDSEC
  0
SECTION
  2
BLOCKS
  0
ENDSEC
  0
SECTION
  2
ENTITIES
  0
LINE
  8
0
  6
CONTINUOUS
 62
256
 10
346.652660000000030
 20
-46.051765000000003
 11
337.652660000000030
 21
-46.210928000000003
  0
LINE
  8
0
  6
CONTINUOUS
 62
256
 10
413.652660000000030
 20
-44.866888000000003
 11
406.652660000000030
 21
-44.990681000000002
  0
LINE
  8
0
  6
CONTINUOUS
 62
256
 10
433.652660000000030
 20
-84.875614999999996
 11
433.652660000000030
 21
-86.512895999999998
  0
ARC
  8
0
  6
CONTINUOUS
 62
256
 10
432.652660000000030
 20
-84.875614999999996
 40
1.000000000000000
 50
0.000000000000000
 51
49.553541000000891
  0
LINE
  8
0
  6
CONTINUOUS
 62
256
 10
341.535943999999970
 20
-191.608977000000010
 11
337.652660000000030
 21
-191.540302999999990
  0
LINE
  8
0
  6
CONTINUOUS
 62
256
 10
413.652660000000030
 20
-192.884343000000000
 11
403.214785000000010
 21
-192.699751999999990
  0
LINE
  8
0
  6
CONTINUOUS
 62
256
 10
413.652660000000030
 20
-191.081418000000010
 11
413.652660000000030
 21
-192.884343000000000
  0
LINE
  8
0
  6
CONTINUOUS
 62
256
 10
425.652660000000030
 20
-192.666154000000010
 11
425.652660000000030
 21
-183.254626000000000
  0
LINE
  8
0
  6
CONTINUOUS
 62
256
 10
429.652660000000030
 20
-63.375615000000003
 11
429.652660000000030
 21
-78.496604000000005
  0
LINE
  8
0
  6
CONTINUOUS
 62
256
 10
425.652660000000030
 20
-74.496604000000005
 11
425.652660000000030
 21
-45.085076000000001
  0
LINE
  8
0
  6
CONTINUOUS
 62
256
 10
413.652660000000030
 20
-44.866888000000003
 11
413.652660000000030
 21
-66.669811999999993
  0
LINE
  8
0
  6
CONTINUOUS
 62
256
 10
413.652660000000030
 20
-192.875615000000010
 11
425.652660000000030
 21
-192.666154000000010
  0
LINE
  8
0
  6
CONTINUOUS
 62
256
 10
429.652660000000030
 20
-63.375615000000003
 11
425.652660000000030
 21
-63.375615000000003
  0
LINE
  8
0
  6
CONTINUOUS
 62
256
 10
425.652660000000030
 20
-45.085076000000001
 11
413.652660000000030
 21
-44.875615000000003
  0
ARC
  8
0
  6
CONTINUOUS
 62
256
 10
136.052660000000000
 20
-128.875615000000010
 40
289.396999999999990
 50
352.102011000000000
 51
360.000000000000000
  0
ARC
  8
0
  6
CONTINUOUS
 62
256
 10
416.761437000000000
 20
-167.817133000000010
 40
5.999999999999989
 50
314.999999999999770
 51
352.102010999999950
  0
LINE
  8
0
  6
CONTINUOUS
 62
256
 10
421.004077999999990
 20
-172.059774000000000
 11
416.428013000000020
 21
-176.635839000000000
  0
ARC
  8
0
  6
CONTINUOUS
 62
256
 10
405.540689999999980
 20
-165.748516000000000
 40
15.397000000000000
 50
276.051984999999890
 51
314.999999999999940
  0
ARC
  8
0
  6
CONTINUOUS
 62
256
 10
376.652660000000030
 20
106.724385000000000
 40
289.396999999999990
 50
270.000000000000000
 51
276.051985000000000
  0
ARC
  8
0
  6
CONTINUOUS
 62
256
 10
136.052660000000000
 20
-128.875615000000010
 40
289.396999999999990
 50
0.000000000000000
 51
7.897989000000000
  0
ARC
  8
0
  6
CONTINUOUS
 62
256
 10
416.761437000000000
 20
-89.934096999999994
 40
5.999999999999990
 50
7.897989000000010
 51
45.000000000000192
  0
LINE
  8
0
  6
CONTINUOUS
 62
256
 10
421.004077999999990
 20
-85.691456000000002
 11
416.428013000000020
 21
-81.115391000000002
  0
ARC
  8
0
  6
CONTINUOUS
 62
256
 10
405.540689999999980
 20
-92.002713999999997
 40
15.397000000000016
 50
44.999999999999929
 51
83.948015000000069
  0
ARC
  8
0
  6
CONTINUOUS
 62
256
 10
376.652660000000030
 20
-364.475615000000000
 40
289.396999999999990
 50
83.948014999999998
 51
90.000000000000000
  0
ARC
  8
0
  6
CONTINUOUS
 62
256
 10
347.764630000000010
 20
-92.002713999999997
 40
15.397000000000000
 50
96.051984999999931
 51
135.000000000000090
  0
ARC
  8
0
  6
CONTINUOUS
 62
256
 10
376.652660000000030
 20
-364.475615000000000
 40
289.396999999999990
 50
90.000000000000000
 51
96.051985000000002
  0
ARC
  8
0
  6
CONTINUOUS
 62
256
 10
347.764630000000010
 20
-165.748516000000000
 40
15.397000000000016
 50
224.999999999999910
 51
263.948015000000110
  0
ARC
  8
0
  6
CONTINUOUS
 62
256
 10
405.540689999999980
 20
-92.002713999999997
 40
26.600000000000016
 50
44.999999999999957
 51
83.948015000000026
  0
ARC
  8
0
  6
CONTINUOUS
 62
256
 10
405.540689999999980
 20
-165.748516000000000
 40
26.600000000000009
 50
276.051984999999950
 51
315.000000000000060
  0
LINE
  8
0
  6
DASHDOT
 62
256
 10
376.652660000000030
 20
-200.103127000000000
 11
376.652660000000030
 21
-28.318926000000001
  0
ARC
  8
0
  6
CONTINUOUS
 62
256
 10
426.749274000000010
 20
-172.824203000000010
 40
6.600000000000017
 50
315.000000000000170
 51
351.402917999999940
  0
ARC
  8
0
  6
CONTINUOUS
 62
256
 10
136.052660000000000
 20
-128.875615000000010
 40
300.600000000000020
 50
351.402918000000000
 51
0.000000000000000
  0
ARC
  8
0
  6
CONTINUOUS
 62
256
 10
426.749274000000010
 20
-84.927028000000007
 40
6.600000000000019
 50
8.597081999999919
 51
44.999999999999829
  0
LINE
  8
0
  6
CONTINUOUS
 62
256
 10
431.416179000000000
 20
-80.260122999999993
 11
424.349730000000020
 21
-73.193674000000001
  0
ARC
  8
0
  6
CONTINUOUS
 62
256
 10
376.652660000000030
 20
-364.475615000000000
 40
300.600000000000020
 50
83.948014999999998
 51
96.051985000000002
  0
ARC
  8
0
  6
CONTINUOUS
 62
256
 10
136.052660000000000
 20
-128.875615000000010
 40
300.600000000000020
 50
0.000000000000000
 51
8.597081999999999
  0
ARC
  8
0
  6
CONTINUOUS
 62
256
 10
376.652660000000030
 20
106.724385000000000
 40
300.600000000000020
 50
263.948015000000000
 51
276.051985000000000
  0
LINE
  8
0
  6
CONTINUOUS
 62
256
 10
431.416179000000000
 20
-177.491107000000000
 11
424.349730000000020
 21
-184.557556000000010
  0
ARC
  8
0
  6
CONTINUOUS
 62
256
 10
376.652660000000030
 20
-128.875615000000010
 40
17.999999999999989
 50
131.837003999999920
 51
168.162995999999990
  0
ARC
  8
0
  6
CONTINUOUS
 62
256
 10
376.652660000000030
 20
-128.875615000000010
 40
27.499999999999986
 50
187.928142000000010
 51
232.071858000000050
  0
LINE
  8
0
  6
CONTINUOUS
 62
256
 10
355.341773999999990
 20
-96.964078999999998
 11
353.834206999999990
 21
-94.352895000000004
  0
LINE
  8
0
  6
CONTINUOUS
 62
256
 10
344.903643999999990
 20
-126.375615000000000
 11
347.929847000000000
 21
-126.375615000000000
  0
ARC
  8
0
  6
CONTINUOUS
 62
256
 10
344.903643999999990
 20
-124.875615000000000
 40
1.500000000000028
 50
172.819243999999910
 51
270.000000000000000
  0
ARC
  8
0
  6
CONTINUOUS
 62
256
 10
338.361016000000010
 20
-124.875615000000000
 40
1.500000000000000
 50
270.000000000000000
 51
354.036430000000220
  0
ARC
  8
0
  6
CONTINUOUS
 62
256
 10
352.535169000000000
 20
-95.102895000000004
 40
1.500000000000025
 50
29.999999999999456
 51
125.531071999999480
  0
ARC
  8
0
  6
CONTINUOUS
 62
256
 10
359.463371999999990
 20
-91.102895000000004
 40
1.500000000000002
 50
114.468927999999780
 51
210.000000000000510
  0
LINE
  8
0
  6
CONTINUOUS
 62
256
 10
359.671900999999990
 20
-94.464078999999998
 11
358.164334000000000
 21
-91.852895000000004
  0
ARC
  8
0
  6
CONTINUOUS
 62
256
 10
360.970939999999980
 20
-93.714078999999998
 40
1.499999999999975
 50
210.000000000000510
 51
294.036429999999600
  0
ARC
  8
0
  6
CONTINUOUS
 62
256
 10
376.652660000000030
 20
-128.875615000000010
 40
37.000000000000000
 50
65.963570000000033
 51
114.036429999999970
  0
ARC
  8
0
  6
CONTINUOUS
 62
256
 10
376.652660000000030
 20
-128.875615000000010
 40
43.000000000000007
 50
65.531071999999980
 51
114.468928000000030
  0
ARC
  8
0
  6
CONTINUOUS
 62
256
 10
393.841948000000000
 20
-91.102895000000004
 40
1.499999999999975
 50
329.999999999999490
 51
65.531072000000222
  0
LINE
  8
0
  6
CONTINUOUS
 62
256
 10
395.140986000000000
 20
-91.852895000000004
 11
393.633418000000010
 21
-94.464078999999998
  0
ARC
  8
0
  6
CONTINUOUS
 62
256
 10
392.334380000000010
 20
-93.714078999999998
 40
1.499999999999999
 50
245.963570000000350
 51
329.999999999999490
  0
ARC
  8
0
  6
CONTINUOUS
 62
256
 10
400.770151000000000
 20
-95.102895000000004
 40
1.499999999999989
 50
54.468928000000517
 51
149.999999999999460
  0
LINE
  8
0
  6
CONTINUOUS
 62
256
 10
399.471113000000000
 20
-94.352895000000004
 11
397.963545000000010
 21
-96.964078999999998
  0
ARC
  8
0
  6
CONTINUOUS
 62
256
 10
338.361016000000010
 20
-132.875615000000010
 40
1.500000000000012
 50
5.963569999999792
 51
90.000000000000000
  0
LINE
  8
0
  6
CONTINUOUS
 62
256
 10
344.903643999999990
 20
-131.375615000000010
 11
347.929847000000000
 21
-131.375615000000010
  0
ARC
  8
0
  6
CONTINUOUS
 62
256
 10
344.903643999999990
 20
-132.875615000000010
 40
1.500000000000000
 50
90.000000000000000
 51
187.180755999999550
  0
ARC
  8
0
  6
CONTINUOUS
 62
256
 10
376.652660000000030
 20
-128.875615000000010
 40
23.999999999999993
 50
190.240347999999980
 51
229.759652000000020
  0
ARC
  8
0
  6
CONTINUOUS
 62
256
 10
362.117763000000020
 20
-146.050794000000000
 40
1.499999999999991
 50
229.759652000000220
 51
329.999999999999490
  0
LINE
  8
0
  6
CONTINUOUS
 62
256
 10
364.944929000000000
 20
-144.154000000000000
 11
363.416801000000020
 21
-146.800794000000000
  0
ARC
  8
0
  6
CONTINUOUS
 62
256
 10
363.645891000000010
 20
-143.404000000000000
 40
1.499999999999975
 50
329.999999999999490
 51
48.162996000000220
  0
ARC
  8
0
  6
CONTINUOUS
 62
256
 10
376.652660000000030
 20
-128.875615000000010
 40
17.999999999999972
 50
191.837003999999980
 51
228.162996000000080
  0
ARC
  8
0
  6
CONTINUOUS
 62
256
 10
357.567324999999980
 20
-132.875615000000010
 40
1.500000000000000
 50
11.837004000000336
 51
90.000000000000000
  0
LINE
  8
0
  6
CONTINUOUS
 62
256
 10
354.511070000000020
 20
-131.375615000000010
 11
357.567324999999980
 21
-131.375615000000010
  0
ARC
  8
0
  6
CONTINUOUS
 62
256
 10
354.511070000000020
 20
-132.875615000000010
 40
1.500000000000000
 50
90.000000000000000
 51
190.240348000000240
  0
ARC
  8
0
  6
CONTINUOUS
 62
256
 10
376.652660000000030
 20
-128.875615000000010
 40
14.500000000000011
 50
197.920212999999930
 51
222.079786999999930
  0
ARC
  8
0
  6
CONTINUOUS
 62
256
 10
367.003899999999990
 20
-137.587758000000010
 40
1.500000000000003
 50
222.079787000000580
 51
329.999999999999490
  0
LINE
  8
0
  6
CONTINUOUS
 62
256
 10
369.905020999999980
 20
-135.562869000000010
 11
368.302937999999980
 21
-138.337758000000010
  0
ARC
  8
0
  6
CONTINUOUS
 62
256
 10
368.605982999999980
 20
-134.812869000000010
 40
1.499999999999975
 50
329.999999999999490
 51
36.421822000000404
  0
ARC
  8
0
  6
CONTINUOUS
 62
256
 10
376.652660000000030
 20
-128.875615000000010
 40
8.499999999999991
 50
203.578178000000070
 51
216.421822000000050
  0
ARC
  8
0
  6
CONTINUOUS
 62
256
 10
367.487508999999990
 20
-132.875615000000010
 40
1.499999999999979
 50
23.578177999999905
 51
90.000000000000000
  0
LINE
  8
0
  6
CONTINUOUS
 62
256
 10
364.283343000000000
 20
-131.375615000000010
 11
367.487508999999990
 21
-131.375615000000010
  0
ARC
  8
0
  6
CONTINUOUS
 62
256
 10
364.283343000000000
 20
-132.875615000000010
 40
1.500000000000000
 50
90.000000000000000
 51
197.920212999999960
  0
ARC
  8
0
  6
CONTINUOUS
 62
256
 10
376.652660000000030
 20
-128.875615000000010
 40
23.999999999999993
 50
10.240347999999988
 51
49.759652000000010
  0
ARC
  8
0
  6
CONTINUOUS
 62
256
 10
398.794249999999980
 20
-124.875615000000000
 40
1.500000000000000
 50
270.000000000000000
 51
10.240347999999715
  0
LINE
  8
0
  6
CONTINUOUS
 62
256
 10
395.737995000000010
 20
-126.375615000000000
 11
398.794249999999980
 21
-126.375615000000000
  0
ARC
  8
0
  6
CONTINUOUS
 62
256
 10
395.737995000000010
 20
-124.875615000000000
 40
1.499999999999997
 50
191.837003999999810
 51
270.000000000000000
  0
ARC
  8
0
  6
CONTINUOUS
 62
256
 10
376.652660000000030
 20
-128.875615000000010
 40
17.999999999999975
 50
11.837004000000027
 51
48.162996000000071
  0
ARC
  8
0
  6
CONTINUOUS
 62
256
 10
389.659428999999990
 20
-114.347230000000000
 40
1.499999999999975
 50
149.999999999999460
 51
228.162996000000190
  0
LINE
  8
0
  6
CONTINUOUS
 62
256
 10
389.888517999999980
 20
-110.950436000000000
 11
388.360390999999990
 21
-113.597230000000000
  0
ARC
  8
0
  6
CONTINUOUS
 62
256
 10
391.187555999999970
 20
-111.700436000000000
 40
1.499999999999991
 50
49.759652000000230
 51
150.000000000000540
  0
ARC
  8
0
  6
CONTINUOUS
 62
256
 10
376.652660000000030
 20
-128.875615000000010
 40
14.500000000000014
 50
17.920213000000000
 51
42.079786999999946
  0
ARC
  8
0
  6
CONTINUOUS
 62
256
 10
389.021976999999990
 20
-124.875615000000000
 40
1.500000000000000
 50
270.000000000000000
 51
17.920212999999450
  0
LINE
  8
0
  6
CONTINUOUS
 62
256
 10
385.817811000000010
 20
-126.375615000000000
 11
389.021976999999990
 21
-126.375615000000000
  0
ARC
  8
0
  6
CONTINUOUS
 62
256
 10
385.817811000000010
 20
-124.875615000000000
 40
1.499999999999984
 50
203.578178000000380
 51
270.000000000000000
  0
ARC
  8
0
  6
CONTINUOUS
 62
256
 10
376.652660000000030
 20
-128.875615000000010
 40
8.499999999999991
 50
23.578178000000058
 51
36.421822000000063
  0
ARC
  8
0
  6
CONTINUOUS
 62
256
 10
384.699337000000010
 20
-122.938361000000000
 40
1.500000000000025
 50
150.000000000000540
 51
216.421821999999960
  0
LINE
  8
0
  6
CONTINUOUS
 62
256
 10
385.002382000000010
 20
-119.413472000000000
 11
383.400299000000020
 21
-122.188361000000000
  0
ARC
  8
0
  6
CONTINUOUS
 62
256
 10
386.301420000000010
 20
-120.163472000000000
 40
1.499999999999994
 50
42.079787000000181
 51
150.000000000000540
  0
ARC
  8
0
  6
CONTINUOUS
 62
256
 10
376.652660000000030
 20
-128.875615000000010
 40
24.000000000000004
 50
310.240347999999980
 51
349.759652000000020
  0
ARC
  8
0
  6
CONTINUOUS
 62
256
 10
398.794249999999980
 20
-132.875615000000010
 40
1.500000000000012
 50
349.759651999999790
 51
90.000000000000000
  0
LINE
  8
0
  6
CONTINUOUS
 62
256
 10
395.737995000000010
 20
-131.375615000000010
 11
398.794249999999980
 21
-131.375615000000010
  0
ARC
  8
0
  6
CONTINUOUS
 62
256
 10
395.737995000000010
 20
-132.875615000000010
 40
1.500000000000000
 50
90.000000000000000
 51
168.162995999999680
  0
ARC
  8
0
  6
CONTINUOUS
 62
256
 10
376.652660000000030
 20
-128.875615000000010
 40
17.999999999999989
 50
311.837003999999920
 51
348.162996000000020
  0
ARC
  8
0
  6
CONTINUOUS
 62
256
 10
389.659428999999990
 20
-143.404000000000000
 40
1.499999999999989
 50
131.837003999999810
 51
210.000000000000510
  0
LINE
  8
0
  6
CONTINUOUS
 62
256
 10
389.888517999999980
 20
-146.800794000000000
 11
388.360390999999990
 21
-144.154000000000000
  0
ARC
  8
0
  6
CONTINUOUS
 62
256
 10
391.187555999999970
 20
-146.050794000000000
 40
1.499999999999975
 50
210.000000000000510
 51
310.240347999999810
  0
ARC
  8
0
  6
CONTINUOUS
 62
256
 10
376.652660000000030
 20
-128.875615000000010
 40
14.500000000000012
 50
317.920213000000050
 51
342.079787000000070
  0
ARC
  8
0
  6
CONTINUOUS
 62
256
 10
389.021976999999990
 20
-132.875615000000010
 40
1.500000000000028
 50
342.079787000000070
 51
90.000000000000000
  0
LINE
  8
0
  6
CONTINUOUS
 62
256
 10
385.817811000000010
 20
-131.375615000000010
 11
389.021976999999990
 21
-131.375615000000010
  0
ARC
  8
0
  6
CONTINUOUS
 62
256
 10
385.817811000000010
 20
-132.875615000000010
 40
1.500000000000000
 50
90.000000000000000
 51
156.421822000000110
  0
ARC
  8
0
  6
CONTINUOUS
 62
256
 10
376.652660000000030
 20
-128.875615000000010
 40
8.499999999999989
 50
323.578177999999920
 51
336.421821999999910
  0
ARC
  8
0
  6
CONTINUOUS
 62
256
 10
384.699337000000010
 20
-134.812869000000010
 40
1.500000000000009
 50
143.578177999999610
 51
210.000000000000510
  0
LINE
  8
0
  6
CONTINUOUS
 62
256
 10
385.002382000000010
 20
-138.337758000000010
 11
383.400299000000020
 21
-135.562869000000010
  0
ARC
  8
0
  6
CONTINUOUS
 62
256
 10
386.301420000000010
 20
-137.587758000000010
 40
1.499999999999975
 50
210.000000000000510
 51
317.920212999999420
  0
ARC
  8
0
  6
CONTINUOUS
 62
256
 10
376.652660000000030
 20
-128.875615000000010
 40
23.999999999999993
 50
250.240348000000010
 51
289.759652000000020
  0
ARC
  8
0
  6
CONTINUOUS
 62
256
 10
369.045967000000020
 20
-150.050794000000000
 40
1.500000000000025
 50
150.000000000000540
 51
250.240347999999300
  0
LINE
  8
0
  6
CONTINUOUS
 62
256
 10
369.275056000000010
 20
-146.654000000000000
 11
367.746929000000020
 21
-149.300794000000000
  0
ARC
  8
0
  6
CONTINUOUS
 62
256
 10
370.574094000000000
 20
-147.404000000000000
 40
1.500000000000007
 50
71.837003999999709
 51
149.999999999999460
  0
ARC
  8
0
  6
CONTINUOUS
 62
256
 10
376.652660000000030
 20
-128.875615000000010
 40
17.999999999999996
 50
251.837003999999980
 51
288.162995999999960
  0
ARC
  8
0
  6
CONTINUOUS
 62
256
 10
382.731225999999990
 20
-147.404000000000000
 40
1.500000000000025
 50
29.999999999999456
 51
108.162996000000290
  0
LINE
  8
0
  6
CONTINUOUS
 62
256
 10
385.558390999999970
 20
-149.300794000000000
 11
384.030263999999990
 21
-146.654000000000000
  0
ARC
  8
0
  6
CONTINUOUS
 62
256
 10
384.259352999999980
 20
-150.050794000000000
 40
1.500000000000012
 50
289.759652000000640
 51
30.000000000000544
  0
ARC
  8
0
  6
CONTINUOUS
 62
256
 10
376.652660000000030
 20
-128.875615000000010
 40
14.499999999999986
 50
257.920212999999990
 51
282.079786999999950
  0
ARC
  8
0
  6
CONTINUOUS
 62
256
 10
373.932102999999980
 20
-141.587758000000010
 40
1.500000000000025
 50
150.000000000000540
 51
257.920213000000730
  0
LINE
  8
0
  6
CONTINUOUS
 62
256
 10
374.235147999999980
 20
-138.062869000000010
 11
372.633064999999990
 21
-140.837758000000010
  0
ARC
  8
0
  6
CONTINUOUS
 62
256
 10
375.534185999999980
 20
-138.812869000000010
 40
1.500000000000001
 50
83.578178000000747
 51
150.000000000000540
  0
ARC
  8
0
  6
CONTINUOUS
 62
256
 10
376.652660000000030
 20
-128.875615000000010
 40
8.500000000000007
 50
263.578177999999980
 51
276.421822000000020
  0
ARC
  8
0
  6
CONTINUOUS
 62
256
 10
377.771134000000020
 20
-138.812869000000010
 40
1.499999999999975
 50
30.000000000000544
 51
96.421821999999253
  0
LINE
  8
0
  6
CONTINUOUS
 62
256
 10
380.672255000000010
 20
-140.837758000000010
 11
379.070172000000010
 21
-138.062869000000010
  0
ARC
  8
0
  6
CONTINUOUS
 62
256
 10
379.373217000000010
 20
-141.587758000000010
 40
1.499999999999989
 50
282.079786999999270
 51
30.000000000000544
  0
ARC
  8
0
  6
CONTINUOUS
 62
256
 10
376.652660000000030
 20
-128.875615000000010
 40
23.999999999999993
 50
70.240348000000012
 51
109.759651999999990
  0
ARC
  8
0
  6
CONTINUOUS
 62
256
 10
369.045967000000020
 20
-107.700436000000000
 40
1.500000000000012
 50
109.759652000000680
 51
210.000000000000510
  0
LINE
  8
0
  6
CONTINUOUS
 62
256
 10
369.275056000000010
 20
-111.097230000000000
 11
367.746929000000020
 21
-108.450436000000000
  0
ARC
  8
0
  6
CONTINUOUS
 62
256
 10
370.574094000000000
 20
-110.347230000000000
 40
1.499999999999975
 50
210.000000000000510
 51
288.162996000000310
  0
ARC
  8
0
  6
CONTINUOUS
 62
256
 10
376.652660000000030
 20
-128.875615000000010
 40
17.999999999999996
 50
71.837004000000007
 51
108.162996000000010
  0
ARC
  8
0
  6
CONTINUOUS
 62
256
 10
382.731225999999990
 20
-110.347230000000000
 40
1.500000000000007
 50
251.837003999999720
 51
329.999999999999490
  0
LINE
  8
0
  6
CONTINUOUS
 62
256
 10
385.558390999999970
 20
-108.450436000000000
 11
384.030263999999990
 21
-111.097230000000000
  0
ARC
  8
0
  6
CONTINUOUS
 62
256
 10
384.259352999999980
 20
-107.700436000000000
 40
1.499999999999975
 50
329.999999999999490
 51
70.240347999999329
  0
ARC
  8
0
  6
CONTINUOUS
 62
256
 10
376.652660000000030
 20
-128.875615000000010
 40
14.500000000000002
 50
77.920213000000032
 51
102.079786999999980
  0
ARC
  8
0
  6
CONTINUOUS
 62
256
 10
373.932102999999980
 20
-116.163472000000000
 40
1.500000000000002
 50
102.079786999999110
 51
210.000000000000510
  0
LINE
  8
0
  6
CONTINUOUS
 62
256
 10
374.235147999999980
 20
-119.688361000000000
 11
372.633064999999990
 21
-116.913472000000000
  0
ARC
  8
0
  6
CONTINUOUS
 62
256
 10
375.534185999999980
 20
-118.938361000000000
 40
1.499999999999975
 50
210.000000000000510
 51
276.421821999999220
  0
ARC
  8
0
  6
CONTINUOUS
 62
256
 10
376.652660000000030
 20
-128.875615000000010
 40
8.500000000000007
 50
83.578177999999994
 51
96.421822000000020
  0
ARC
  8
0
  6
CONTINUOUS
 62
256
 10
377.771134000000020
 20
-118.938361000000000
 40
1.500000000000001
 50
263.578178000000780
 51
329.999999999999490
  0
LINE
  8
0
  6
CONTINUOUS
 62
256
 10
380.672255000000010
 20
-116.913472000000000
 11
379.070172000000010
 21
-119.688361000000000
  0
ARC
  8
0
  6
CONTINUOUS
 62
256
 10
379.373217000000010
 20
-116.163472000000000
 40
1.499999999999975
 50
329.999999999999490
 51
77.920213000000885
  0
ARC
  8
0
  6
CONTINUOUS
 62
256
 10
376.652660000000030
 20
-128.875615000000010
 40
8.499999999999989
 50
143.578177999999950
 51
156.421821999999930
  0
ARC
  8
0
  6
CONTINUOUS
 62
256
 10
376.652660000000030
 20
-128.875615000000010
 40
24.000000000000004
 50
130.240347999999980
 51
169.759651999999960
  0
LINE
  8
0
  6
CONTINUOUS
 62
256
 10
369.905020999999980
 20
-122.188361000000000
 11
368.302937999999980
 21
-119.413472000000000
  0
LINE
  8
0
  6
CONTINUOUS
 62
256
 10
354.511070000000020
 20
-126.375615000000000
 11
357.567324999999980
 21
-126.375615000000000
  0
LINE
  8
0
  6
CONTINUOUS
 62
256
 10
364.283343000000000
 20
-126.375615000000000
 11
367.487508999999990
 21
-126.375615000000000
  0
ARC
  8
0
  6
CONTINUOUS
 62
256
 10
376.652660000000030
 20
-128.875615000000010
 40
14.500000000000012
 50
137.920213000000070
 51
162.079787000000070
  0
LINE
  8
0
  6
CONTINUOUS
 62
256
 10
364.944929000000000
 20
-113.597230000000000
 11
363.416801000000020
 21
-110.950436000000000
  0
ARC
  8
0
  6
CONTINUOUS
 62
256
 10
367.003899999999990
 20
-120.163472000000000
 40
1.499999999999975
 50
30.000000000000544
 51
137.920212999999820
  0
ARC
  8
0
  6
CONTINUOUS
 62
256
 10
354.511070000000020
 20
-124.875615000000000
 40
1.500000000000009
 50
169.759652000000300
 51
270.000000000000000
  0
ARC
  8
0
  6
CONTINUOUS
 62
256
 10
363.645891000000010
 20
-114.347230000000000
 40
1.499999999999989
 50
311.837003999999810
 51
29.999999999999456
  0
ARC
  8
0
  6
CONTINUOUS
 62
256
 10
357.567324999999980
 20
-124.875615000000000
 40
1.500000000000000
 50
270.000000000000000
 51
348.162996000000190
  0
ARC
  8
0
  6
CONTINUOUS
 62
256
 10
364.283343000000000
 20
-124.875615000000000
 40
1.500000000000024
 50
162.079787000000550
 51
270.000000000000000
  0
ARC
  8
0
  6
CONTINUOUS
 62
256
 10
362.117763000000020
 20
-111.700436000000000
 40
1.499999999999975
 50
30.000000000000544
 51
130.240347999999780
  0
ARC
  8
0
  6
CONTINUOUS
 62
256
 10
367.487508999999990
 20
-124.875615000000000
 40
1.500000000000000
 50
270.000000000000000
 51
336.421821999999620
  0
ARC
  8
0
  6
CONTINUOUS
 62
256
 10
368.605982999999980
 20
-122.938361000000000
 40
1.500000000000000
 50
323.578178000000040
 51
30.000000000000544
  0
CIRCLE
  8
0
  6
CONTINUOUS
 62
256
 10
376.652660000000030
 20
-128.875615000000010
 40
5.000000000000000
  0
ARC
  8
0
  6
CONTINUOUS
 62
256
 10
358.827152000000010
 20
-106.000929000000000
 40
1.500000000000018
 50
307.928142000000720
 51
30.000000000000544
  0
LINE
  8
0
  6
CONTINUOUS
 62
256
 10
360.126190000000010
 20
-105.250929000000000
 11
358.613089000000000
 21
-102.630161000000000
  0
ARC
  8
0
  6
CONTINUOUS
 62
256
 10
347.929847000000000
 20
-124.875615000000000
 40
1.500000000000000
 50
270.000000000000000
 51
352.071857999999850
  0
ARC
  8
0
  6
CONTINUOUS
 62
256
 10
376.652660000000030
 20
-128.875615000000010
 40
27.500000000000004
 50
127.928141999999990
 51
172.071857999999990
  0
ARC
  8
0
  6
CONTINUOUS
 62
256
 10
357.314050000000010
 20
-103.380161000000000
 40
1.499999999999975
 50
30.000000000000544
 51
127.180756000000090
  0
ARC
  8
0
  6
CONTINUOUS
 62
256
 10
354.042735999999990
 20
-97.714078999999998
 40
1.500000000000007
 50
305.963570000000860
 51
29.999999999999456
  0
ARC
  8
0
  6
CONTINUOUS
 62
256
 10
376.652660000000030
 20
-128.875615000000010
 40
37.000000000000000
 50
125.963569999999990
 51
174.036430000000000
  0
ARC
  8
0
  6
CONTINUOUS
 62
256
 10
376.652660000000030
 20
-128.875615000000010
 40
33.500000000000007
 50
127.180756000000020
 51
172.819244000000000
  0
LINE
  8
0
  6
CONTINUOUS
 62
256
 10
364.456317000000010
 20
-102.750929000000000
 11
362.943216000000010
 21
-100.130161000000000
  0
ARC
  8
0
  6
CONTINUOUS
 62
256
 10
364.242254000000000
 20
-99.380161000000001
 40
1.499999999999989
 50
112.819243999999050
 51
210.000000000000510
  0
ARC
  8
0
  6
CONTINUOUS
 62
256
 10
365.755355000000010
 20
-102.000929000000000
 40
1.499999999999975
 50
210.000000000000510
 51
292.071857999999110
  0
ARC
  8
0
  6
CONTINUOUS
 62
256
 10
376.652660000000030
 20
-128.875615000000010
 40
27.499999999999989
 50
67.928142000000008
 51
112.071857999999980
  0
ARC
  8
0
  6
CONTINUOUS
 62
256
 10
376.652660000000030
 20
-128.875615000000010
 40
33.500000000000000
 50
67.180756000000002
 51
112.819244000000000
  0
ARC
  8
0
  6
CONTINUOUS
 62
256
 10
387.549964999999990
 20
-102.000929000000000
 40
1.499999999999998
 50
247.928142000000830
 51
329.999999999999490
  0
LINE
  8
0
  6
CONTINUOUS
 62
256
 10
390.362103999999990
 20
-100.130161000000000
 11
388.849002999999980
 21
-102.750929000000000
  0
ARC
  8
0
  6
CONTINUOUS
 62
256
 10
389.063065999999990
 20
-99.380161000000001
 40
1.499999999999975
 50
329.999999999999490
 51
67.180756000000954
  0
ARC
  8
0
  6
CONTINUOUS
 62
256
 10
417.959438999999970
 20
-124.875615000000000
 40
1.500000000000000
 50
270.000000000000000
 51
5.531072000000276
  0
LINE
  8
0
  6
CONTINUOUS
 62
256
 10
414.944303999999990
 20
-126.375615000000000
 11
417.959438999999970
 21
-126.375615000000000
  0
LINE
  8
0
  6
CONTINUOUS
 62
256
 10
405.375473000000000
 20
-126.375615000000000
 11
408.401676000000010
 21
-126.375615000000000
  0
ARC
  8
0
  6
CONTINUOUS
 62
256
 10
414.944303999999990
 20
-124.875615000000000
 40
1.500000000000012
 50
185.963569999999780
 51
270.000000000000000
  0
ARC
  8
0
  6
CONTINUOUS
 62
256
 10
408.401676000000010
 20
-124.875615000000000
 40
1.500000000000000
 50
270.000000000000000
 51
7.180756000000089
  0
ARC
  8
0
  6
CONTINUOUS
 62
256
 10
405.375473000000000
 20
-124.875615000000000
 40
1.500000000000004
 50
187.928142000000150
 51
270.000000000000000
  0
ARC
  8
0
  6
CONTINUOUS
 62
256
 10
376.652660000000030
 20
-128.875615000000010
 40
27.499999999999986
 50
7.928141999999994
 51
52.071858000000006
  0
ARC
  8
0
  6
CONTINUOUS
 62
256
 10
376.652660000000030
 20
-128.875615000000010
 40
36.999999999999979
 50
5.963570000000011
 51
54.036430000000010
  0
ARC
  8
0
  6
CONTINUOUS
 62
256
 10
376.652660000000030
 20
-128.875615000000010
 40
42.999999999999979
 50
5.531071999999997
 51
54.468927999999977
  0
ARC
  8
0
  6
CONTINUOUS
 62
256
 10
376.652660000000030
 20
-128.875615000000010
 40
33.500000000000007
 50
7.180755999999994
 51
52.819243999999983
  0
ARC
  8
0
  6
CONTINUOUS
 62
256
 10
394.478167999999980
 20
-106.000929000000000
 40
1.500000000000025
 50
150.000000000000540
 51
232.071857999999280
  0
ARC
  8
0
  6
CONTINUOUS
 62
256
 10
399.262584000000000
 20
-97.714078999999998
 40
1.499999999999975
 50
149.999999999999460
 51
234.036429999999170
  0
LINE
  8
0
  6
CONTINUOUS
 62
256
 10
394.692230999999990
 20
-102.630161000000000
 11
393.179129999999990
 21
-105.250929000000000
  0
ARC
  8
0
  6
CONTINUOUS
 62
256
 10
395.991268999999990
 20
-103.380161000000000
 40
1.499999999999994
 50
52.819243999999927
 51
150.000000000000540
  0
ARC
  8
0
  6
CONTINUOUS
 62
256
 10
417.959438999999970
 20
-132.875615000000010
 40
1.499999999999977
 50
354.468928000000290
 51
90.000000000000000
  0
LINE
  8
0
  6
CONTINUOUS
 62
256
 10
414.944303999999990
 20
-131.375615000000010
 11
417.959438999999970
 21
-131.375615000000010
  0
LINE
  8
0
  6
CONTINUOUS
 62
256
 10
405.375473000000000
 20
-131.375615000000010
 11
408.401676000000010
 21
-131.375615000000010
  0
ARC
  8
0
  6
CONTINUOUS
 62
256
 10
414.944303999999990
 20
-132.875615000000010
 40
1.500000000000000
 50
90.000000000000000
 51
174.036430000000220
  0
ARC
  8
0
  6
CONTINUOUS
 62
256
 10
408.401676000000010
 20
-132.875615000000010
 40
1.500000000000026
 50
352.819244000000480
 51
90.000000000000000
  0
ARC
  8
0
  6
CONTINUOUS
 62
256
 10
405.375473000000000
 20
-132.875615000000010
 40
1.500000000000000
 50
90.000000000000000
 51
172.071857999999850
  0
ARC
  8
0
  6
CONTINUOUS
 62
256
 10
376.652660000000030
 20
-128.875615000000010
 40
27.500000000000014
 50
307.928141999999980
 51
352.071858000000020
  0
ARC
  8
0
  6
CONTINUOUS
 62
256
 10
376.652660000000030
 20
-128.875615000000010
 40
36.999999999999993
 50
305.963570000000000
 51
354.036429999999940
  0
ARC
  8
0
  6
CONTINUOUS
 62
256
 10
376.652660000000030
 20
-128.875615000000010
 40
43.000000000000021
 50
305.531071999999990
 51
354.468928000000010
  0
ARC
  8
0
  6
CONTINUOUS
 62
256
 10
376.652660000000030
 20
-128.875615000000010
 40
33.500000000000000
 50
307.180755999999920
 51
352.819244000000030
  0
ARC
  8
0
  6
CONTINUOUS
 62
256
 10
394.478167999999980
 20
-151.750301000000010
 40
1.500000000000018
 50
127.928142000000730
 51
210.000000000000510
  0
ARC
  8
0
  6
CONTINUOUS
 62
256
 10
400.770151000000000
 20
-162.648335000000000
 40
1.499999999999975
 50
210.000000000000510
 51
305.531071999999480
  0
LINE
  8
0
  6
CONTINUOUS
 62
256
 10
399.471113000000000
 20
-163.398335000000000
 11
397.963545000000010
 21
-160.787151999999990
  0
ARC
  8
0
  6
CONTINUOUS
 62
256
 10
399.262584000000000
 20
-160.037151999999990
 40
1.500000000000007
 50
125.963570000000810
 51
210.000000000000510
  0
LINE
  8
0
  6
CONTINUOUS
 62
256
 10
394.692230999999990
 20
-155.121069000000010
 11
393.179129999999990
 21
-152.500301000000010
  0
ARC
  8
0
  6
CONTINUOUS
 62
256
 10
395.991268999999990
 20
-154.371069000000010
 40
1.499999999999975
 50
210.000000000000510
 51
307.180756000000090
  0
ARC
  8
0
  6
CONTINUOUS
 62
256
 10
359.463371999999990
 20
-166.648335000000000
 40
1.499999999999975
 50
149.999999999999460
 51
245.531072000000020
  0
LINE
  8
0
  6
CONTINUOUS
 62
256
 10
359.671900999999990
 20
-163.287151999999990
 11
358.164334000000000
 21
-165.898335000000000
  0
LINE
  8
0
  6
CONTINUOUS
 62
256
 10
364.456317000000010
 20
-155.000301000000010
 11
362.943216000000010
 21
-157.621069000000010
  0
ARC
  8
0
  6
CONTINUOUS
 62
256
 10
360.970939999999980
 20
-164.037151999999990
 40
1.499999999999986
 50
65.963570000000146
 51
149.999999999999460
  0
ARC
  8
0
  6
CONTINUOUS
 62
256
 10
364.242254000000000
 20
-158.371069000000010
 40
1.500000000000025
 50
150.000000000000540
 51
247.180756000001140
  0
ARC
  8
0
  6
CONTINUOUS
 62
256
 10
365.755355000000010
 20
-155.750301000000010
 40
1.499999999999998
 50
67.928142000000889
 51
150.000000000000540
  0
ARC
  8
0
  6
CONTINUOUS
 62
256
 10
376.652660000000030
 20
-128.875615000000010
 40
27.499999999999989
 50
247.928142000000040
 51
292.071857999999960
  0
ARC
  8
0
  6
CONTINUOUS
 62
256
 10
376.652660000000030
 20
-128.875615000000010
 40
37.000000000000000
 50
245.963569999999950
 51
294.036429999999940
  0
ARC
  8
0
  6
CONTINUOUS
 62
256
 10
376.652660000000030
 20
-128.875615000000010
 40
42.999999999999993
 50
245.531071999999970
 51
294.468927999999950
  0
ARC
  8
0
  6
CONTINUOUS
 62
256
 10
376.652660000000030
 20
-128.875615000000010
 40
33.500000000000007
 50
247.180756000000030
 51
292.819244000000030
  0
ARC
  8
0
  6
CONTINUOUS
 62
256
 10
387.549964999999990
 20
-155.750301000000010
 40
1.499999999999975
 50
30.000000000000544
 51
112.071857999999120
  0
ARC
  8
0
  6
CONTINUOUS
 62
256
 10
393.841948000000000
 20
-166.648335000000000
 40
1.499999999999989
 50
294.468928000000010
 51
29.999999999999456
  0
LINE
  8
0
  6
CONTINUOUS
 62
256
 10
395.140986000000000
 20
-165.898335000000000
 11
393.633418000000010
 21
-163.287151999999990
  0
ARC
  8
0
  6
CONTINUOUS
 62
256
 10
392.334380000000010
 20
-164.037151999999990
 40
1.500000000000025
 50
29.999999999999456
 51
114.036429999999850
  0
LINE
  8
0
  6
CONTINUOUS
 62
256
 10
390.362103999999990
 20
-157.621069000000010
 11
388.849002999999980
 21
-155.000301000000010
  0
ARC
  8
0
  6
CONTINUOUS
 62
256
 10
389.063065999999990
 20
-158.371069000000010
 40
1.499999999999976
 50
292.819243999999230
 51
30.000000000000544
  0
ARC
  8
0
  6
CONTINUOUS
 62
256
 10
352.535169000000000
 20
-162.648335000000000
 40
1.499999999999989
 50
234.468928000000520
 51
329.999999999999490
  0
LINE
  8
0
  6
CONTINUOUS
 62
256
 10
355.341773999999990
 20
-160.787151999999990
 11
353.834206999999990
 21
-163.398335000000000
  0
LINE
  8
0
  6
CONTINUOUS
 62
256
 10
360.126190000000010
 20
-152.500301000000010
 11
358.613089000000000
 21
-155.121069000000010
  0
ARC
  8
0
  6
CONTINUOUS
 62
256
 10
354.042735999999990
 20
-160.037151999999990
 40
1.499999999999975
 50
329.999999999999490
 51
54.036429999999186
  0
ARC
  8
0
  6
CONTINUOUS
 62
256
 10
357.314050000000010
 20
-154.371069000000010
 40
1.499999999999994
 50
232.819243999999940
 51
329.999999999999490
  0
ARC
  8
0
  6
CONTINUOUS
 62
256
 10
358.827152000000010
 20
-151.750301000000010
 40
1.499999999999975
 50
329.999999999999490
 51
52.071857999999288
  0
ARC
  8
0
  6
CONTINUOUS
 62
256
 10
376.652660000000030
 20
-128.875615000000010
 40
36.999999999999979
 50
185.963569999999980
 51
234.036429999999970
  0
ARC
  8
0
  6
CONTINUOUS
 62
256
 10
376.652660000000030
 20
-128.875615000000010
 40
33.500000000000000
 50
187.180755999999970
 51
232.819244000000000
  0
ARC
  8
0
  6
CONTINUOUS
 62
256
 10
347.929847000000000
 20
-132.875615000000010
 40
1.500000000000004
 50
7.928142000000149
 51
90.000000000000000
  0
ARC
  8
0
  6
CONTINUOUS
 62
256
 10
376.652660000000030
 20
-335.875614999999980
 40
300.000000000000000
 50
85.138594999999995
 51
90.000000000000000
  0
LINE
  8
0
  6
CONTINUOUS
 62
256
 10
406.652660000000030
 20
-41.936846000000003
 11
406.652660000000030
 21
-65.375614999999996
  0
ARC
  8
0
  6
CONTINUOUS
 62
256
 10
401.652660000000030
 20
-41.936846000000003
 40
5.000000000000000
 50
0.000000000000000
 51
85.138594999999953
  0
ARC
  8
0
  6
CONTINUOUS
 62
256
 10
351.652660000000030
 20
-41.936846000000003
 40
5.000000000000003
 50
94.861405000000062
 51
180.000000000000000
  0
ARC
  8
0
  6
CONTINUOUS
 62
256
 10
376.652660000000030
 20
-335.875614999999980
 40
300.000000000000000
 50
90.000000000000000
 51
94.861405000000005
  0
LINE
  8
0
  6
CONTINUOUS
 62
256
 10
374.152660000000030
 20
-35.375615000000003
 11
374.152660000000030
 21
-35.886032000000000
  0
LINE
  8
0
  6
CONTINUOUS
 62
256
 10
379.152660000000030
 20
-35.375615000000003
 11
379.152660000000030
 21
-35.886032000000000
  0
LINE
  8
0
  6
CONTINUOUS
 62
256
 10
379.152660000000030
 20
-35.375615000000003
 11
374.152660000000030
 21
-35.375615000000003
  0
LINE
  8
0
  6
CONTINUOUS
 62
256
 10
345.152660000000030
 20
-65.530619999999999
 11
345.152660000000030
 21
-65.375614999999996
  0
LINE
  8
0
  6
CONTINUOUS
 62
256
 10
346.652660000000030
 20
-41.936846000000003
 11
346.652660000000030
 21
-65.376367000000002
  0
LINE
  8
0
  6
CONTINUOUS
 62
256
 10
408.152660000000030
 20
-65.375614999999996
 11
406.645158999999980
 21
-65.375614999999996
  0
LINE
  8
0
  6
CONTINUOUS
 62
256
 10
346.660161000000020
 20
-65.375614999999996
 11
345.152660000000030
 21
-65.375614999999996
  0
LINE
  8
0
  6
CONTINUOUS
 62
256
 10
408.152660000000030
 20
-65.530619999999999
 11
408.152660000000030
 21
-65.375614999999996
  0
ARC
  8
0
  6
CONTINUOUS
 62
256
 10
376.652660000000030
 20
106.724385000000000
 40
289.397000000000050
 50
263.948015000000000
 51
270.000000000000000
  0
TEXT
  8
0
  6
CONTINUOUS
 62
256
 10
508.200897216796870
 20
-242.955718994140620
 40
3.299999952316284
  1
1/1
 50
0.000002504478167
 41
0.850909097352304
  7
STANDARD1
  0
TEXT
  8
0
  6
CONTINUOUS
 62
256
 10
505.782897949218750
 20
-242.955718994140620
 40
3.299999952316284
  1
 
 50
0.000002504478167
 41
1.733333298293026
  7
STANDARD1
  0
TEXT
  8
0
  6
CONTINUOUS
 62
256
 10
492.732269287109370
 20
-242.955718994140620
 40
3.299999952316284
  1
SCALE
 50
0.000002504478167
 41
0.821052645401140
  7
STANDARD1
  0
TEXT
  8
0
  6
CONTINUOUS
 62
256
 10
489.480895996093750
 20
-242.955718994140620
 40
3.299999952316284
  1
 
 50
0.000002504478167
 41
1.733333298293026
  7
STANDARD1
  0
TEXT
  8
0
  6
CONTINUOUS
 62
256
 10
504.344085693359370
 20
-237.655715942382810
 40
3.299999952316284
  1
1/60
 50
0.000002504478167
 41
0.832000075658163
  7
STANDARD1
  0
TEXT
  8
0
  6
CONTINUOUS
 62
256
 10
500.553070068359370
 20
-237.655715942382810
 40
3.299999952316284
  1
ü`
 50
0.000002504478167
 41
1.176000019651471
  7
STANDARD1
  0
TEXT
  8
0
  6
CONTINUOUS
 62
256
 10
492.756896972656250
 20
-237.655715942382810
 40
3.299999952316284
  1
1/5
 50
0.000002504478167
 41
0.850909097352304
  7
STANDARD1
  0
TEXT
  8
0
  6
CONTINUOUS
 62
256
 10
489.480895996093750
 20
-237.655715942382810
 40
3.299999952316284
  1
 
 50
0.000002504478167
 41
1.733333298293026
  7
STANDARD1
  0
TEXT
  8
0
  6
CONTINUOUS
 62
256
 10
492.714904785156250
 20
-232.355712890625000
 40
3.299999952316284
  1
GM-SHYM-RL
 50
0.000002504478167
 41
0.799999980493025
  7
STANDARD1
  0
TEXT
  8
0
  6
CONTINUOUS
 62
256
 10
489.480895996093750
 20
-232.355712890625000
 40
3.299999952316284
  1
 
 50
0.000002504478167
 41
1.733333298293026
  7
STANDARD1
  0
TEXT
  8
0
  6
CONTINUOUS
 62
256
 10
495.306274414062500
 20
-227.055725097656250
 40
3.299999952316284
  1
0.4kW
 50
0.000002504478167
 41
0.821052645401140
  7
STANDARD1
  0
TEXT
  8
0
  6
CONTINUOUS
 62
256
 10
489.480895996093750
 20
-227.055725097656250
 40
3.299999952316284
  1
  
 50
0.000002504478167
 41
1.485714400175845
  7
STANDARD1
  0
TEXT
  8
0
  6
CONTINUOUS
 62
256
 10
495.300384521484370
 20
-221.755722045898440
 40
3.299999952316284
  1
SHY024
 50
0.000002504478167
 41
0.813913121261144
  7
STANDARD1
  0
TEXT
  8
0
  6
CONTINUOUS
 62
256
 10
489.480895996093750
 20
-221.755722045898440
 40
3.299999952316284
  1
  
 50
0.000002504478167
 41
1.485714400175845
  7
STANDARD1
  0
LINE
  8
0
  6
DASHDOT
 62
256
 10
-55.960872999999999
 20
10.418456000000001
 11
-55.960872999999999
 21
177.081407000000010
  0
ARC
  8
0
  6
CONTINUOUS
 62
256
 10
66.039126999999993
 20
58.464793000000000
 40
3.000000000000000
 50
0.000000000000000
 51
90.000000000000000
  0
LINE
  8
0
  6
CONTINUOUS
 62
256
 10
76.039126999999993
 20
113.561100000000000
 11
76.039126999999993
 21
54.061100000000003
  0
LINE
  8
0
  6
CONTINUOUS
 62
256
 10
55.539127000000001
 20
54.061100000000003
 11
76.039126999999993
 21
54.061100000000003
  0
ARC
  8
0
  6
CONTINUOUS
 62
256
 10
55.539127000000001
 20
57.061100000000003
 40
3.000000000000000
 50
180.000000000000000
 51
270.000000000000000
  0
LINE
  8
0
  6
CONTINUOUS
 62
256
 10
69.039126999999993
 20
133.561100000000010
 11
76.039126999999993
 21
133.561100000000010
  0
ARC
  8
0
  6
CONTINUOUS
 62
256
 10
55.539127000000001
 20
170.061100000000010
 40
3.000000000000000
 50
90.000000000000000
 51
180.000000000000000
  0
LINE
  8
0
  6
CONTINUOUS
 62
256
 10
76.039126999999993
 20
113.561100000000000
 11
76.039126999999993
 21
173.061100000000010
  0
LINE
  8
0
  6
CONTINUOUS
 62
256
 10
55.539127000000001
 20
173.061100000000010
 11
76.039126999999993
 21
173.061100000000010
  0
LINE
  8
0
  6
DASHED
 62
256
 10
52.539127000000001
 20
94.100549999999998
 11
52.539127000000001
 21
113.561100000000000
  0
LINE
  8
0
  6
DASHED
 62
256
 10
52.539127000000001
 20
94.100549999999998
 11
52.539127000000001
 21
113.561100000000000
  0
LINE
  8
0
  6
CONTINUOUS
 62
256
 10
52.539127000000001
 20
57.061100000000003
 11
52.539127000000001
 21
170.061100000000010
  0
LINE
  8
0
  6
CONTINUOUS
 62
256
 10
49.539127000000001
 20
148.561100000000010
 11
46.039127000000001
 21
148.561100000000010
  0
ARC
  8
0
  6
CONTINUOUS
 62
256
 10
49.539127000000001
 20
151.561100000000010
 40
3.000000000000000
 50
270.000000000000000
 51
0.000000000000000
  0
LINE
  8
0
  6
CONTINUOUS
 62
256
 10
43.913276000000003
 20
75.561099999999996
 11
49.539127000000001
 21
75.561099999999996
  0
ARC
  8
0
  6
CONTINUOUS
 62
256
 10
49.539127000000001
 20
72.561099999999996
 40
3.000000000000000
 50
0.000000000000000
 51
90.000000000000000
  0
ARC
  8
0
  6
CONTINUOUS
 62
256
 10
46.039127000000001
 20
151.561100000000010
 40
2.999999999999995
 50
199.471220999999870
 51
270.000000000000000
  0
ARC
  8
0
  6
CONTINUOUS
 62
256
 10
43.913276000000003
 20
73.561099999999996
 40
2.000000000000000
 50
90.000000000000000
 51
180.000000000000000
  0
LINE
  8
0
  6
CONTINUOUS
 62
256
 10
-53.170333999999997
 20
150.561100000000010
 11
-117.179061000000000
 21
150.561100000000010
  0
LINE
  8
0
  6
CONTINUOUS
 62
256
 10
43.248587999999998
 20
150.561100000000010
 11
-53.170333999999997
 21
150.561100000000010
  0
LINE
  8
0
  6
CONTINUOUS
 62
256
 10
-99.033484999999999
 20
64.561099999999996
 11
41.913276000000003
 21
64.561099999999996
  0
LINE
  8
0
  6
CONTINUOUS
 62
256
 10
-99.033484999999999
 20
162.561100000000010
 11
43.039127000000001
 21
162.561100000000010
  0
LINE
  8
0
  6
CONTINUOUS
 62
256
 10
-117.179061000000000
 20
150.561100000000010
 11
-115.835021000000000
 21
74.561099999999996
  0
LINE
  8
0
  6
CONTINUOUS
 62
256
 10
-115.835021000000000
 20
74.561099999999996
 11
-115.835021000000000
 21
64.561099999999996
  0
LINE
  8
0
  6
CONTINUOUS
 62
256
 10
-115.835021000000000
 20
64.561099999999996
 11
-99.033484999999999
 21
64.561099999999996
  0
LINE
  8
0
  6
CONTINUOUS
 62
256
 10
-117.170334000000000
 20
150.561100000000010
 11
-116.960873000000010
 21
162.561100000000010
  0
LINE
  8
0
  6
CONTINUOUS
 62
256
 10
-78.960873000000007
 20
60.561100000000003
 11
-13.460872999999999
 21
60.561100000000003
  0
LINE
  8
0
  6
CONTINUOUS
 62
256
 10
-13.460872999999999
 20
64.561099999999996
 11
-13.460872999999999
 21
60.561100000000003
  0
LINE
  8
0
  6
CONTINUOUS
 62
256
 10
41.913276000000003
 20
74.561099999999996
 11
41.913276000000003
 21
64.561099999999996
  0
LINE
  8
0
  6
CONTINUOUS
 62
256
 10
43.257316000000003
 20
150.561100000000010
 11
41.913276000000003
 21
74.561099999999996
  0
LINE
  8
0
  6
CONTINUOUS
 62
256
 10
-98.460873000000007
 20
64.561099999999996
 11
-98.460873000000007
 21
60.561100000000003
  0
LINE
  8
0
  6
CONTINUOUS
 62
256
 10
-78.960873000000007
 20
60.561100000000003
 11
-98.460873000000007
 21
60.561100000000003
  0
LINE
  8
0
  6
CONTINUOUS
 62
256
 10
-98.460873000000007
 20
166.561100000000010
 11
-78.960873000000007
 21
166.561100000000010
  0
LINE
  8
0
  6
CONTINUOUS
 62
256
 10
-13.460872999999999
 20
166.561100000000010
 11
-78.960873000000007
 21
166.561100000000010
  0
LINE
  8
0
  6
CONTINUOUS
 62
256
 10
-98.460873000000007
 20
166.561100000000010
 11
-98.460873000000007
 21
162.561100000000010
  0
LINE
  8
0
  6
CONTINUOUS
 62
256
 10
-116.960873000000010
 20
162.561100000000010
 11
-99.033484999999999
 21
162.561100000000010
  0
LINE
  8
0
  6
CONTINUOUS
 62
256
 10
-13.460872999999999
 20
166.561100000000010
 11
-13.460872999999999
 21
162.561100000000010
  0
LINE
  8
0
  6
CONTINUOUS
 62
256
 10
43.039127000000001
 20
162.561100000000010
 11
43.248587999999998
 21
150.561100000000010
  0
ARC
  8
0
  6
CONTINUOUS
 62
256
 10
72.039126999999993
 20
57.061100000000003
 40
3.000000000000000
 50
180.000000000000000
 51
270.000000000000000
  0
ARC
  8
0
  6
CONTINUOUS
 62
256
 10
66.039126999999993
 20
71.376368999999997
 40
3.000000000000000
 50
270.000000000000000
 51
0.000000000000000
  0
ARC
  8
0
  6
CONTINUOUS
 62
256
 10
66.039126999999993
 20
77.559832999999998
 40
3.000000000000000
 50
270.000000000000000
 51
0.000000000000000
  0
LINE
  8
0
  6
CONTINUOUS
 62
256
 10
69.039126999999993
 20
58.061100000000003
 11
69.039126999999993
 21
57.061100000000003
  0
LINE
  8
0
  6
CONTINUOUS
 62
256
 10
66.039126999999993
 20
74.559832999999998
 11
61.039127000000001
 21
74.559832999999998
  0
LINE
  8
0
  6
CONTINUOUS
 62
256
 10
69.039126999999993
 20
71.376368999999997
 11
69.039126999999993
 21
113.561100000000000
  0
LINE
  8
0
  6
CONTINUOUS
 62
256
 10
69.039126999999993
 20
58.061100000000003
 11
69.039126999999993
 21
58.464793000000000
  0
LINE
  8
0
  6
CONTINUOUS
 62
256
 10
66.039126999999993
 20
61.464793000000000
 11
61.039127000000001
 21
61.464793000000000
  0
LINE
  8
0
  6
CONTINUOUS
 62
256
 10
66.039126999999993
 20
68.376368999999997
 11
61.039127000000001
 21
68.376368999999997
  0
ARC
  8
0
  6
CONTINUOUS
 62
256
 10
51.039127000000001
 20
73.012313000000006
 40
5.000000000000000
 50
0.000000000000000
 51
72.542397000000022
  0
ARC
  8
0
  6
CONTINUOUS
 62
256
 10
51.039127000000001
 20
66.464793000000000
 40
5.000000000000000
 50
0.000000000000000
 51
72.542397000000022
  0
ARC
  8
0
  6
CONTINUOUS
 62
256
 10
61.039127000000001
 20
73.376368999999997
 40
5.000000000000000
 50
180.000000000000000
 51
270.000000000000000
  0
ARC
  8
0
  6
CONTINUOUS
 62
256
 10
61.039127000000001
 20
66.464793000000000
 40
5.000000000000000
 50
180.000000000000000
 51
270.000000000000000
  0
ARC
  8
0
  6
CONTINUOUS
 62
256
 10
72.039126999999993
 20
170.061100000000010
 40
3.000000000000000
 50
90.000000000000000
 51
180.000000000000000
  0
ARC
  8
0
  6
CONTINUOUS
 62
256
 10
66.039126999999993
 20
155.745831000000010
 40
3.000000000000000
 50
0.000000000000000
 51
90.000000000000000
  0
ARC
  8
0
  6
CONTINUOUS
 62
256
 10
66.039126999999993
 20
168.657408000000000
 40
3.000000000000000
 50
270.000000000000000
 51
0.000000000000000
  0
ARC
  8
0
  6
CONTINUOUS
 62
256
 10
66.039126999999993
 20
149.562366999999990
 40
3.000000000000000
 50
0.000000000000000
 51
90.000000000000000
  0
LINE
  8
0
  6
CONTINUOUS
 62
256
 10
69.039126999999993
 20
169.061100000000010
 11
69.039126999999993
 21
170.061100000000010
  0
LINE
  8
0
  6
CONTINUOUS
 62
256
 10
69.039126999999993
 20
169.061100000000010
 11
69.039126999999993
 21
168.657408000000000
  0
LINE
  8
0
  6
CONTINUOUS
 62
256
 10
69.039126999999993
 20
169.061100000000010
 11
69.039126999999993
 21
168.657408000000000
  0
LINE
  8
0
  6
CONTINUOUS
 62
256
 10
66.039126999999993
 20
152.562366999999990
 11
61.039127000000001
 21
152.562366999999990
  0
LINE
  8
0
  6
CONTINUOUS
 62
256
 10
69.039126999999993
 20
155.745831000000010
 11
69.039126999999993
 21
113.561100000000000
  0
LINE
  8
0
  6
CONTINUOUS
 62
256
 10
66.039126999999993
 20
165.657408000000000
 11
61.039127000000001
 21
165.657408000000000
  0
LINE
  8
0
  6
CONTINUOUS
 62
256
 10
66.039126999999993
 20
158.745831000000010
 11
61.039127000000001
 21
158.745831000000010
  0
ARC
  8
0
  6
CONTINUOUS
 62
256
 10
51.039127000000001
 20
160.657408000000000
 40
5.000000000000004
 50
287.457603000000010
 51
0.000000000000000
  0
ARC
  8
0
  6
CONTINUOUS
 62
256
 10
51.039127000000001
 20
154.109886999999990
 40
5.000000000000004
 50
287.457603000000010
 51
0.000000000000000
  0
ARC
  8
0
  6
CONTINUOUS
 62
256
 10
61.039127000000001
 20
160.657408000000000
 40
5.000000000000000
 50
90.000000000000000
 51
180.000000000000000
  0
ARC
  8
0
  6
CONTINUOUS
 62
256
 10
61.039127000000001
 20
153.745831000000010
 40
5.000000000000000
 50
90.000000000000000
 51
180.000000000000000
  0
LINE
  8
0
  6
CONTINUOUS
 62
256
 10
-41.960872999999999
 20
13.561100000000000
 11
-69.960873000000007
 21
13.561100000000000
  0
LINE
  8
0
  6
CONTINUOUS
 62
256
 10
-59.960872999999999
 20
49.561100000000003
 11
-51.960872999999999
 21
49.561100000000003
  0
LINE
  8
0
  6
CONTINUOUS
 62
256
 10
-69.960873000000007
 20
58.561100000000003
 11
-69.960873000000007
 21
13.561100000000000
  0
LINE
  8
0
  6
CONTINUOUS
 62
256
 10
-55.960872999999999
 20
58.561100000000003
 11
-70.460873000000007
 21
58.561100000000003
  0
LINE
  8
0
  6
CONTINUOUS
 62
256
 10
-55.960872999999999
 20
58.561100000000003
 11
-70.460873000000007
 21
58.561100000000003
  0
LINE
  8
0
  6
CONTINUOUS
 62
256
 10
-70.460873000000007
 20
58.561100000000003
 11
-70.460873000000007
 21
60.561100000000003
  0
LINE
  8
0
  6
CONTINUOUS
 62
256
 10
-41.960872999999999
 20
58.561100000000003
 11
-41.960872999999999
 21
13.561100000000000
  0
LINE
  8
0
  6
CONTINUOUS
 62
256
 10
-55.960872999999999
 20
58.561100000000003
 11
-41.460872999999999
 21
58.561100000000003
  0
LINE
  8
0
  6
CONTINUOUS
 62
256
 10
-55.960872999999999
 20
58.561100000000003
 11
-41.460872999999999
 21
58.561100000000003
  0
LINE
  8
0
  6
CONTINUOUS
 62
256
 10
-41.460872999999999
 20
58.561100000000003
 11
-41.460872999999999
 21
60.561100000000003
  0
LINE
  8
0
  6
CONTINUOUS
 62
256
 10
-59.960872999999999
 20
49.561100000000003
 11
-59.960872999999999
 21
13.561100000000000
  0
LINE
  8
0
  6
CONTINUOUS
 62
256
 10
-51.960872999999999
 20
49.561100000000003
 11
-51.960872999999999
 21
13.561100000000000
  0
ARC
  8
0
  6
CONTINUOUS
 62
256
 10
-55.960872999999999
 20
49.561100000000003
 40
4.000000000000000
 50
0.000000000000000
 51
180.000000000000000
  0
LINE
  8
0
  6
CONTINUOUS
 62
256
 10
180.039127000000010
 20
142.561100000000010
 11
180.039127000000010
 21
113.561100000000000
  0
LINE
  8
0
  6
CONTINUOUS
 62
256
 10
107.039126999999990
 20
142.561100000000010
 11
107.039126999999990
 21
113.561100000000000
  0
LINE
  8
0
  6
CONTINUOUS
 62
256
 10
106.198530000000010
 20
143.843535000000000
 11
76.039126999999993
 21
143.843535000000000
  0
LINE
  8
0
  6
CONTINUOUS
 62
256
 10
183.039127000000010
 20
143.843535000000000
 11
180.879724000000010
 21
143.843535000000000
  0
LINE
  8
0
  6
CONTINUOUS
 62
256
 10
106.039126999999990
 20
138.391154000000000
 11
76.039126999999993
 21
138.391154000000000
  0
LINE
  8
0
  6
CONTINUOUS
 62
256
 10
183.039127000000010
 20
138.391154000000000
 11
181.039127000000010
 21
138.391154000000000
  0
LINE
  8
0
  6
CONTINUOUS
 62
256
 10
106.039126999999990
 20
139.753034000000010
 11
76.039126999999993
 21
139.753034000000010
  0
LINE
  8
0
  6
CONTINUOUS
 62
256
 10
183.039127000000010
 20
139.753034000000010
 11
181.039127000000010
 21
139.753034000000010
  0
LINE
  8
0
  6
CONTINUOUS
 62
256
 10
106.039126999999990
 20
133.561100000000010
 11
76.039126999999993
 21
133.561100000000010
  0
LINE
  8
0
  6
CONTINUOUS
 62
256
 10
183.039127000000010
 20
133.561100000000010
 11
181.039127000000010
 21
133.561100000000010
  0
LINE
  8
0
  6
CONTINUOUS
 62
256
 10
173.039127000000010
 20
170.561100000000010
 11
76.039126999999993
 21
170.561100000000010
  0
LINE
  8
0
  6
CONTINUOUS
 62
256
 10
173.039127000000010
 20
171.061100000000010
 11
76.039126999999993
 21
171.061100000000010
  0
LINE
  8
0
  6
CONTINUOUS
 62
256
 10
173.039127000000010
 20
169.561100000000010
 11
76.039126999999993
 21
169.561100000000010
  0
LINE
  8
0
  6
CONTINUOUS
 62
256
 10
173.039127000000010
 20
168.561100000000010
 11
76.039126999999993
 21
168.561100000000010
  0
LINE
  8
0
  6
CONTINUOUS
 62
256
 10
173.039127000000010
 20
163.876634000000000
 11
76.039126999999993
 21
163.876634000000000
  0
LINE
  8
0
  6
CONTINUOUS
 62
256
 10
173.039127000000010
 20
158.926886999999990
 11
76.039126999999993
 21
158.926886999999990
  0
LINE
  8
0
  6
CONTINUOUS
 62
256
 10
181.942119999999990
 20
150.880284999999990
 11
76.039126999999993
 21
150.880284999999990
  0
LINE
  8
0
  6
CONTINUOUS
 62
256
 10
182.952790999999990
 20
149.275636999999990
 11
76.039126999999993
 21
149.275636999999990
  0
LINE
  8
0
  6
CONTINUOUS
 62
256
 10
183.039127000000010
 20
145.311892000000000
 11
76.039126999999993
 21
145.311892000000000
  0
LINE
  8
0
  6
CONTINUOUS
 62
256
 10
108.039126999999990
 20
143.561100000000010
 11
179.039127000000010
 21
143.561100000000010
  0
ARC
  8
0
  6
CONTINUOUS
 62
256
 10
179.039127000000010
 20
142.561100000000010
 40
1.000000000000000
 50
0.000000000000000
 51
90.000000000000000
  0
ARC
  8
0
  6
CONTINUOUS
 62
256
 10
108.039126999999990
 20
142.561100000000010
 40
1.000000000000000
 50
90.000000000000000
 51
180.000000000000000
  0
ARC
  8
0
  6
CONTINUOUS
 62
256
 10
108.039126999999990
 20
143.061100000000010
 40
2.000000000000000
 50
90.000000000000000
 51
180.000000000000000
  0
LINE
  8
0
  6
CONTINUOUS
 62
256
 10
106.039126999999990
 20
113.561100000000000
 11
106.039126999999990
 21
143.061100000000010
  0
LINE
  8
0
  6
CONTINUOUS
 62
256
 10
181.039127000000010
 20
113.561100000000000
 11
181.039127000000010
 21
143.061100000000010
  0
ARC
  8
0
  6
CONTINUOUS
 62
256
 10
179.039127000000010
 20
143.061100000000010
 40
2.000000000000000
 50
0.000000000000000
 51
90.000000000000000
  0
LINE
  8
0
  6
CONTINUOUS
 62
256
 10
108.039126999999990
 20
145.061100000000010
 11
179.039127000000010
 21
145.061100000000010
  0
LINE
  8
0
  6
CONTINUOUS
 62
256
 10
173.039127000000010
 20
154.561100000000010
 11
173.039127000000010
 21
173.561100000000010
  0
ARC
  8
0
  6
CONTINUOUS
 62
256
 10
180.039127000000010
 20
148.561100000000010
 40
3.000000000000000
 50
0.000000000000000
 51
90.000000000000000
  0
LINE
  8
0
  6
CONTINUOUS
 62
256
 10
176.039127000000010
 20
151.561100000000010
 11
180.039127000000010
 21
151.561100000000010
  0
ARC
  8
0
  6
CONTINUOUS
 62
256
 10
176.039127000000010
 20
154.561100000000010
 40
3.000000000000000
 50
180.000000000000000
 51
270.000000000000000
  0
LINE
  8
0
  6
CONTINUOUS
 62
256
 10
183.039127000000010
 20
148.561100000000010
 11
183.039127000000010
 21
113.561100000000000
  0
LINE
  8
0
  6
CONTINUOUS
 62
256
 10
76.039126999999993
 20
172.061100000000010
 11
173.039127000000010
 21
172.061100000000010
  0
LINE
  8
0
  6
CONTINUOUS
 62
256
 10
173.039127000000010
 20
173.561100000000010
 11
201.733150999999990
 21
173.561100000000010
  0
LINE
  8
0
  6
CONTINUOUS
 62
256
 10
224.039127000000010
 20
113.561100000000000
 11
224.039127000000010
 21
161.004304999999990
  0
ARC
  8
0
  6
CONTINUOUS
 62
256
 10
201.733150999999990
 20
153.561100000000010
 40
20.000000000000004
 50
55.000000000000050
 51
90.000000000000000
  0
LINE
  8
0
  6
CONTINUOUS
 62
256
 10
213.204680000000000
 20
169.944141000000000
 11
222.930426000000010
 21
163.134100999999990
  0
ARC
  8
0
  6
CONTINUOUS
 62
256
 10
221.439127000000010
 20
161.004304999999990
 40
2.599999999999994
 50
0.000000000000000
 51
54.999999999999801
  0
LINE
  8
0
  6
CONTINUOUS
 62
256
 10
180.039127000000010
 20
84.561099999999996
 11
180.039127000000010
 21
113.561100000000000
  0
LINE
  8
0
  6
CONTINUOUS
 62
256
 10
107.039126999999990
 20
84.561099999999996
 11
107.039126999999990
 21
113.561100000000000
  0
LINE
  8
0
  6
CONTINUOUS
 62
256
 10
106.198530000000010
 20
83.278666000000001
 11
76.039126999999993
 21
83.278666000000001
  0
LINE
  8
0
  6
CONTINUOUS
 62
256
 10
183.039127000000010
 20
83.278666000000001
 11
180.879724000000010
 21
83.278666000000001
  0
LINE
  8
0
  6
CONTINUOUS
 62
256
 10
106.039126999999990
 20
88.731047000000004
 11
76.039126999999993
 21
88.731047000000004
  0
LINE
  8
0
  6
CONTINUOUS
 62
256
 10
183.039127000000010
 20
88.731047000000004
 11
181.039127000000010
 21
88.731047000000004
  0
LINE
  8
0
  6
CONTINUOUS
 62
256
 10
106.039126999999990
 20
87.369166000000007
 11
76.039126999999993
 21
87.369166000000007
  0
LINE
  8
0
  6
CONTINUOUS
 62
256
 10
183.039127000000010
 20
87.369166000000007
 11
181.039127000000010
 21
87.369166000000007
  0
LINE
  8
0
  6
CONTINUOUS
 62
256
 10
106.039126999999990
 20
93.561099999999996
 11
76.039126999999993
 21
93.561099999999996
  0
LINE
  8
0
  6
CONTINUOUS
 62
256
 10
183.039127000000010
 20
93.561099999999996
 11
181.039127000000010
 21
93.561099999999996
  0
LINE
  8
0
  6
CONTINUOUS
 62
256
 10
173.039127000000010
 20
56.561100000000003
 11
76.039126999999993
 21
56.561100000000003
  0
LINE
  8
0
  6
CONTINUOUS
 62
256
 10
173.039127000000010
 20
56.061100000000003
 11
76.039126999999993
 21
56.061100000000003
  0
LINE
  8
0
  6
CONTINUOUS
 62
256
 10
173.039127000000010
 20
57.561100000000003
 11
76.039126999999993
 21
57.561100000000003
  0
LINE
  8
0
  6
CONTINUOUS
 62
256
 10
173.039127000000010
 20
58.561100000000003
 11
76.039126999999993
 21
58.561100000000003
  0
LINE
  8
0
  6
CONTINUOUS
 62
256
 10
173.039127000000010
 20
63.245565999999997
 11
76.039126999999993
 21
63.245565999999997
  0
LINE
  8
0
  6
CONTINUOUS
 62
256
 10
173.039127000000010
 20
68.195312999999999
 11
76.039126999999993
 21
68.195312999999999
  0
LINE
  8
0
  6
CONTINUOUS
 62
256
 10
181.942119999999990
 20
76.241915000000006
 11
76.039126999999993
 21
76.241915000000006
  0
LINE
  8
0
  6
CONTINUOUS
 62
256
 10
182.952790999999990
 20
77.846563000000003
 11
76.039126999999993
 21
77.846563000000003
  0
LINE
  8
0
  6
CONTINUOUS
 62
256
 10
183.039127000000010
 20
81.810308000000006
 11
76.039126999999993
 21
81.810308000000006
  0
LINE
  8
0
  6
CONTINUOUS
 62
256
 10
108.039126999999990
 20
83.561099999999996
 11
179.039127000000010
 21
83.561099999999996
  0
ARC
  8
0
  6
CONTINUOUS
 62
256
 10
179.039127000000010
 20
84.561099999999996
 40
1.000000000000000
 50
270.000000000000000
 51
0.000000000000000
  0
ARC
  8
0
  6
CONTINUOUS
 62
256
 10
108.039126999999990
 20
84.561099999999996
 40
1.000000000000000
 50
180.000000000000000
 51
270.000000000000000
  0
ARC
  8
0
  6
CONTINUOUS
 62
256
 10
108.039126999999990
 20
84.061099999999996
 40
2.000000000000000
 50
180.000000000000000
 51
270.000000000000000
  0
LINE
  8
0
  6
CONTINUOUS
 62
256
 10
106.039126999999990
 20
113.561100000000000
 11
106.039126999999990
 21
84.061099999999996
  0
LINE
  8
0
  6
CONTINUOUS
 62
256
 10
181.039127000000010
 20
113.561100000000000
 11
181.039127000000010
 21
84.061099999999996
  0
ARC
  8
0
  6
CONTINUOUS
 62
256
 10
179.039127000000010
 20
84.061099999999996
 40
2.000000000000000
 50
270.000000000000000
 51
0.000000000000000
  0
LINE
  8
0
  6
CONTINUOUS
 62
256
 10
108.039126999999990
 20
82.061099999999996
 11
179.039127000000010
 21
82.061099999999996
  0
LINE
  8
0
  6
CONTINUOUS
 62
256
 10
173.039127000000010
 20
72.561099999999996
 11
173.039127000000010
 21
53.561100000000003
  0
ARC
  8
0
  6
CONTINUOUS
 62
256
 10
180.039127000000010
 20
78.561099999999996
 40
3.000000000000000
 50
270.000000000000000
 51
0.000000000000000
  0
LINE
  8
0
  6
CONTINUOUS
 62
256
 10
176.039127000000010
 20
75.561099999999996
 11
180.039127000000010
 21
75.561099999999996
  0
ARC
  8
0
  6
CONTINUOUS
 62
256
 10
176.039127000000010
 20
72.561099999999996
 40
3.000000000000000
 50
90.000000000000000
 51
180.000000000000000
  0
LINE
  8
0
  6
CONTINUOUS
 62
256
 10
183.039127000000010
 20
78.561099999999996
 11
183.039127000000010
 21
113.561100000000000
  0
LINE
  8
0
  6
CONTINUOUS
 62
256
 10
76.039126999999993
 20
55.061100000000003
 11
173.039127000000010
 21
55.061100000000003
  0
LINE
  8
0
  6
CONTINUOUS
 62
256
 10
173.039127000000010
 20
53.561100000000003
 11
201.733150999999990
 21
53.561100000000003
  0
LINE
  8
0
  6
CONTINUOUS
 62
256
 10
224.039127000000010
 20
113.561100000000000
 11
224.039127000000010
 21
66.117895000000004
  0
ARC
  8
0
  6
CONTINUOUS
 62
256
 10
201.733150999999990
 20
73.561099999999996
 40
20.000000000000000
 50
270.000000000000000
 51
304.999999999999940
  0
LINE
  8
0
  6
CONTINUOUS
 62
256
 10
213.204680000000000
 20
57.178058999999998
 11
222.930426000000010
 21
63.988100000000003
  0
ARC
  8
0
  6
CONTINUOUS
 62
256
 10
221.439127000000010
 20
66.117895000000004
 40
2.600000000000001
 50
305.000000000000110
 51
0.000000000000000
  0
POLYLINE
  8
0
  6
CONTINUOUS
 62
256
 66
1
 70
1
  0
VERTEX
  8
0
  6
CONTINUOUS
 62
256
 10
188.739127000000000
 20
165.484624999999990
  0
VERTEX
  8
0
  6
CONTINUOUS
 62
256
 10
188.648817817895180
 20
166.187581510558180
  0
VERTEX
  8
0
  6
CONTINUOUS
 62
256
 10
188.381360802803040
 20
166.863523796638130
  0
VERTEX
  8
0
  6
CONTINUOUS
 62
256
 10
187.947034177821960
 20
167.486475775258670
  0
VERTEX
  8
0
  6
CONTINUOUS
 62
256
 10
187.362528871576790
 20
168.032497751236830
  0
VERTEX
  8
0
  6
CONTINUOUS
 62
256
 10
186.650307095192120
 20
168.480606406248480
  0
VERTEX
  8
0
  6
CONTINUOUS
 62
256
 10
185.837739132115930
 20
168.813581175983730
  0
VERTEX
  8
0
  6
CONTINUOUS
 62
256
 10
184.956051513475810
 20
169.018626026776080
  0
VERTEX
  8
0
  6
CONTINUOUS
 62
256
 10
184.039127000000010
 20
169.087861199999990
  0
VERTEX
  8
0
  6
CONTINUOUS
 62
256
 10
183.122202486524200
 20
169.018626026776080
  0
VERTEX
  8
0
  6
CONTINUOUS
 62
256
 10
182.240514867884090
 20
168.813581175983730
  0
VERTEX
  8
0
  6
CONTINUOUS
 62
256
 10
181.427946904807900
 20
168.480606406248480
  0
VERTEX
  8
0
  6
CONTINUOUS
 62
256
 10
180.715725128423230
 20
168.032497751236830
  0
VERTEX
  8
0
  6
CONTINUOUS
 62
256
 10
180.131219822178050
 20
167.486475775258670
  0
VERTEX
  8
0
  6
CONTINUOUS
 62
256
 10
179.696893197196970
 20
166.863523796638130
  0
VERTEX
  8
0
  6
CONTINUOUS
 62
256
 10
179.429436182104840
 20
166.187581510558180
  0
VERTEX
  8
0
  6
CONTINUOUS
 62
256
 10
179.339127000000020
 20
165.484624999999990
  0
VERTEX
  8
0
  6
CONTINUOUS
 62
256
 10
179.429436182104840
 20
164.781668489441810
  0
VERTEX
  8
0
  6
CONTINUOUS
 62
256
 10
179.696893197196970
 20
164.105726203361850
  0
VERTEX
  8
0
  6
CONTINUOUS
 62
256
 10
180.131219822178050
 20
163.482774224741320
  0
VERTEX
  8
0
  6
CONTINUOUS
 62
256
 10
180.715725128423230
 20
162.936752248763160
  0
VERTEX
  8
0
  6
CONTINUOUS
 62
256
 10
181.427946904807900
 20
162.488643593751500
  0
VERTEX
  8
0
  6
CONTINUOUS
 62
256
 10
182.240514867884090
 20
162.155668824016260
  0
VERTEX
  8
0
  6
CONTINUOUS
 62
256
 10
183.122202486524200
 20
161.950623973223940
  0
VERTEX
  8
0
  6
CONTINUOUS
 62
256
 10
184.039127000000010
 20
161.881388800000000
  0
VERTEX
  8
0
  6
CONTINUOUS
 62
256
 10
184.956051513475810
 20
161.950623973223940
  0
VERTEX
  8
0
  6
CONTINUOUS
 62
256
 10
185.837739132115930
 20
162.155668824016260
  0
VERTEX
  8
0
  6
CONTINUOUS
 62
256
 10
186.650307095192120
 20
162.488643593751500
  0
VERTEX
  8
0
  6
CONTINUOUS
 62
256
 10
187.362528871576760
 20
162.936752248763160
  0
VERTEX
  8
0
  6
CONTINUOUS
 62
256
 10
187.947034177821960
 20
163.482774224741320
  0
VERTEX
  8
0
  6
CONTINUOUS
 62
256
 10
188.381360802803040
 20
164.105726203361850
  0
VERTEX
  8
0
  6
CONTINUOUS
 62
256
 10
188.648817817895180
 20
164.781668489441810
  0
SEQEND
  8
0
  6
CONTINUOUS
 62
256
  0
LINE
  8
0
  6
CONTINUOUS
 62
256
 10
186.039127000000010
 20
168.477001000000000
 11
184.039127000000010
 21
167.301215000000010
  0
LINE
  8
0
  6
CONTINUOUS
 62
256
 10
184.039127000000010
 20
167.301215000000010
 11
182.039127000000010
 21
165.648574000000000
  0
LINE
  8
0
  6
CONTINUOUS
 62
256
 10
182.039127000000010
 20
168.477001000000000
 11
184.039127000000010
 21
167.301215000000010
  0
LINE
  8
0
  6
CONTINUOUS
 62
256
 10
184.039127000000010
 20
167.301215000000010
 11
186.039127000000010
 21
165.648574000000000
  0
POLYLINE
  8
0
  6
CONTINUOUS
 62
256
 66
1
 70
1
  0
VERTEX
  8
0
  6
CONTINUOUS
 62
256
 10
188.739127000000000
 20
61.637574999999998
  0
VERTEX
  8
0
  6
CONTINUOUS
 62
256
 10
188.648817817895180
 20
62.340531510558165
  0
VERTEX
  8
0
  6
CONTINUOUS
 62
256
 10
188.381360802803040
 20
63.016473796638138
  0
VERTEX
  8
0
  6
CONTINUOUS
 62
256
 10
187.947034177821960
 20
63.639425775258665
  0
VERTEX
  8
0
  6
CONTINUOUS
 62
256
 10
187.362528871576790
 20
64.185447751236836
  0
VERTEX
  8
0
  6
CONTINUOUS
 62
256
 10
186.650307095192120
 20
64.633556406248488
  0
VERTEX
  8
0
  6
CONTINUOUS
 62
256
 10
185.837739132115930
 20
64.966531175983746
  0
VERTEX
  8
0
  6
CONTINUOUS
 62
256
 10
184.956051513475810
 20
65.171576026776066
  0
VERTEX
  8
0
  6
CONTINUOUS
 62
256
 10
184.039127000000010
 20
65.240811199999996
  0
VERTEX
  8
0
  6
CONTINUOUS
 62
256
 10
183.122202486524200
 20
65.171576026776066
  0
VERTEX
  8
0
  6
CONTINUOUS
 62
256
 10
182.240514867884090
 20
64.966531175983746
  0
VERTEX
  8
0
  6
CONTINUOUS
 62
256
 10
181.427946904807900
 20
64.633556406248488
  0
VERTEX
  8
0
  6
CONTINUOUS
 62
256
 10
180.715725128423230
 20
64.185447751236836
  0
VERTEX
  8
0
  6
CONTINUOUS
 62
256
 10
180.131219822178050
 20
63.639425775258665
  0
VERTEX
  8
0
  6
CONTINUOUS
 62
256
 10
179.696893197196970
 20
63.016473796638138
  0
VERTEX
  8
0
  6
CONTINUOUS
 62
256
 10
179.429436182104840
 20
62.340531510558172
  0
VERTEX
  8
0
  6
CONTINUOUS
 62
256
 10
179.339127000000020
 20
61.637574999999998
  0
VERTEX
  8
0
  6
CONTINUOUS
 62
256
 10
179.429436182104840
 20
60.934618489441831
  0
VERTEX
  8
0
  6
CONTINUOUS
 62
256
 10
179.696893197196970
 20
60.258676203361858
  0
VERTEX
  8
0
  6
CONTINUOUS
 62
256
 10
180.131219822178050
 20
59.635724224741338
  0
VERTEX
  8
0
  6
CONTINUOUS
 62
256
 10
180.715725128423230
 20
59.089702248763153
  0
VERTEX
  8
0
  6
CONTINUOUS
 62
256
 10
181.427946904807900
 20
58.641593593751509
  0
VERTEX
  8
0
  6
CONTINUOUS
 62
256
 10
182.240514867884090
 20
58.308618824016257
  0
VERTEX
  8
0
  6
CONTINUOUS
 62
256
 10
183.122202486524200
 20
58.103573973223931
  0
VERTEX
  8
0
  6
CONTINUOUS
 62
256
 10
184.039127000000010
 20
58.034338800000000
  0
VERTEX
  8
0
  6
CONTINUOUS
 62
256
 10
184.956051513475810
 20
58.103573973223931
  0
VERTEX
  8
0
  6
CONTINUOUS
 62
256
 10
185.837739132115930
 20
58.308618824016257
  0
VERTEX
  8
0
  6
CONTINUOUS
 62
256
 10
186.650307095192120
 20
58.641593593751502
  0
VERTEX
  8
0
  6
CONTINUOUS
 62
256
 10
187.362528871576760
 20
59.089702248763153
  0
VERTEX
  8
0
  6
CONTINUOUS
 62
256
 10
187.947034177821960
 20
59.635724224741331
  0
VERTEX
  8
0
  6
CONTINUOUS
 62
256
 10
188.381360802803040
 20
60.258676203361858
  0
VERTEX
  8
0
  6
CONTINUOUS
 62
256
 10
188.648817817895180
 20
60.934618489441824
  0
SEQEND
  8
0
  6
CONTINUOUS
 62
256
  0
LINE
  8
0
  6
CONTINUOUS
 62
256
 10
186.039127000000010
 20
58.645200000000003
 11
184.039127000000010
 21
59.820985000000000
  0
LINE
  8
0
  6
CONTINUOUS
 62
256
 10
184.039127000000010
 20
59.820985000000000
 11
182.039127000000010
 21
61.473627000000000
  0
LINE
  8
0
  6
CONTINUOUS
 62
256
 10
182.039127000000010
 20
58.645200000000003
 11
184.039127000000010
 21
59.820985000000000
  0
LINE
  8
0
  6
CONTINUOUS
 62
256
 10
184.039127000000010
 20
59.820985000000000
 11
186.039127000000010
 21
61.473627000000000
  0
LINE
  8
0
  6
DASHDOT
 62
256
 10
-126.489317000000000
 20
113.561100000000000
 11
231.607164000000010
 21
113.561100000000000
  0
LINE
  8
0
  6
CONTINUOUS
 62
256
 10
76.039126999999993
 20
172.061100000000010
 11
76.039126999999993
 21
113.561100000000000
  0
LINE
  8
0
  6
CONTINUOUS
 62
256
 10
76.039126999999993
 20
55.061100000000003
 11
76.039126999999993
 21
113.561100000000000
  0
LINE
  8
0
  6
CONTINUOUS
 62
256
 10
316.787420999999990
 20
-119.875615000000000
 11
276.652660000000030
 21
-119.875615000000000
  0
LINE
  8
0
  6
CONTINUOUS
 62
256
 10
318.938463000000010
 20
-91.875614999999996
 11
276.652660000000030
 21
-91.875614999999996
  0
LINE
  8
0
  6
DASHDOT
 62
256
 10
273.164438000000020
 20
-105.875615000000000
 11
440.397081000000010
 21
-105.875615000000000
  0
LINE
  8
0
  6
CONTINUOUS
 62
256
 10
276.652660000000030
 20
-105.875615000000000
 11
276.652660000000030
 21
-88.875614999999996
  0
LINE
  8
0
  6
CONTINUOUS
 62
256
 10
312.652660000000030
 20
-88.875614999999996
 11
276.652660000000030
 21
-88.875614999999996
  0
LINE
  8
0
  6
CONTINUOUS
 62
256
 10
276.652660000000030
 20
-105.875615000000000
 11
276.652660000000030
 21
-119.875615000000000
  0
LINE
  8
0
  6
CONTINUOUS
 62
256
 10
312.652660000000030
 20
-91.875614999999996
 11
312.652660000000030
 21
-88.875614999999996
  0
CIRCLE
  8
0
  6
DASHED
 62
256
 10
118.539126999999990
 20
-50.875615000000003
 40
6.000000000000000
  0
ARC
  8
0
  6
DASHED
 62
256
 10
118.539126999999990
 20
-50.875615000000003
 40
7.000000000000000
 50
0.000000000000000
 51
180.000000000000000
  0
LINE
  8
0
  6
DASHED
 62
256
 10
125.539126999999990
 20
-65.375614999999996
 11
125.539126999999990
 21
-50.875615000000003
  0
LINE
  8
0
  6
DASHED
 62
256
 10
111.539126999999990
 20
-65.375614999999996
 11
111.539126999999990
 21
-50.875615000000003
  0
LINE
  8
0
  6
DASHDOT
 62
256
 10
118.539126999999990
 20
-68.159467000000006
 11
118.539126999999990
 21
-40.180117000000003
  0
LINE
  8
0
  6
DASHDOT
 62
256
 10
109.230793000000010
 20
-50.875615000000003
 11
128.419833000000010
 21
-50.875615000000003
  0
ARC
  8
0
  6
DASHED
 62
256
 10
168.539127000000010
 20
-50.875615000000003
 40
7.000000000000000
 50
0.000000000000000
 51
180.000000000000000
  0
LINE
  8
0
  6
DASHED
 62
256
 10
161.539127000000010
 20
-65.375614999999996
 11
161.539127000000010
 21
-50.875615000000003
  0
LINE
  8
0
  6
DASHDOT
 62
256
 10
168.539127000000010
 20
-68.159467000000006
 11
168.539127000000010
 21
-40.180117000000003
  0
LINE
  8
0
  6
DASHDOT
 62
256
 10
158.128829000000000
 20
-50.875615000000003
 11
178.503009999999990
 21
-50.875615000000003
  0
LINE
  8
0
  6
DASHED
 62
256
 10
175.539127000000010
 20
-65.375614999999996
 11
175.539127000000010
 21
-50.875615000000003
  0
LINE
  8
0
  6
CONTINUOUS
 62
256
 10
319.652660000000030
 20
-84.875614999999996
 11
319.652660000000030
 21
-86.512895999999998
  0
ARC
  8
0
  6
CONTINUOUS
 62
256
 10
320.652660000000030
 20
-84.875614999999996
 40
0.999999999999997
 50
130.251785000000070
 51
180.000000000000000
  0
LINE
  8
0
  6
CONTINUOUS
 62
256
 10
327.652660000000030
 20
-191.540302999999990
 11
327.652660000000030
 21
-183.157383000000010
  0
LINE
  8
0
  6
CONTINUOUS
 62
256
 10
327.652660000000030
 20
-74.496604000000005
 11
327.652660000000030
 21
-46.210928000000003
  0
LINE
  8
0
  6
CONTINUOUS
 62
256
 10
323.652660000000030
 20
-78.496604000000005
 11
323.652660000000030
 21
-63.375615000000003
  0
LINE
  8
0
  6
CONTINUOUS
 62
256
 10
337.652660000000030
 20
-191.540302999999990
 11
327.652660000000030
 21
-191.540302999999990
  0
LINE
  8
0
  6
CONTINUOUS
 62
256
 10
327.652660000000030
 20
-63.375615000000003
 11
323.652660000000030
 21
-63.375615000000003
  0
LINE
  8
0
  6
CONTINUOUS
 62
256
 10
337.652660000000030
 20
-46.210928000000003
 11
327.652660000000030
 21
-46.210928000000003
  0
ARC
  8
0
  6
CONTINUOUS
 62
256
 10
617.252659999999990
 20
-128.875615000000010
 40
289.396999999999990
 50
172.102011000000030
 51
180.000000000000000
  0
ARC
  8
0
  6
CONTINUOUS
 62
256
 10
336.543882000000000
 20
-89.934096999999994
 40
5.999999999999989
 50
134.999999999999830
 51
172.102011000000000
  0
LINE
  8
0
  6
CONTINUOUS
 62
256
 10
332.301242000000000
 20
-85.691456000000002
 11
336.877306999999970
 21
-81.115391000000002
  0
ARC
  8
0
  6
CONTINUOUS
 62
256
 10
347.764630000000010
 20
-165.748516000000000
 40
26.600000000000016
 50
224.999999999999940
 51
263.948015000000050
  0
ARC
  8
0
  6
CONTINUOUS
 62
256
 10
347.764630000000010
 20
-92.002713999999997
 40
26.599999999999994
 50
96.051984999999974
 51
134.999999999999970
  0
LINE
  8
0
  6
DASHDOT
 62
256
 10
442.657943999999990
 20
-128.875615000000010
 11
311.823432000000030
 21
-128.875615000000010
  0
LINE
  8
0
  6
CONTINUOUS
 62
256
 10
321.889141000000000
 20
-177.491107000000000
 11
328.955589999999970
 21
-184.557556000000010
  0
ARC
  8
0
  6
CONTINUOUS
 62
256
 10
617.252659999999990
 20
-128.875615000000010
 40
300.600000000000020
 50
171.402918000000000
 51
180.000000000000000
  0
ARC
  8
0
  6
CONTINUOUS
 62
256
 10
326.556044999999980
 20
-84.927028000000007
 40
6.600000000000017
 50
135.000000000000170
 51
171.402918000000080
  0
ARC
  8
0
  6
CONTINUOUS
 62
256
 10
617.252659999999990
 20
-128.875615000000010
 40
300.600000000000020
 50
180.000000000000000
 51
188.597082000000000
  0
LINE
  8
0
  6
CONTINUOUS
 62
256
 10
321.889141000000000
 20
-80.260122999999993
 11
328.955589999999970
 21
-73.193674000000001
  0
ARC
  8
0
  6
CONTINUOUS
 62
256
 10
335.345881000000020
 20
-124.875615000000000
 40
1.499999999999979
 50
174.468927999999720
 51
270.000000000000000
  0
ARC
  8
0
  6
CONTINUOUS
 62
256
 10
335.345881000000020
 20
-132.875615000000010
 40
1.500000000000000
 50
90.000000000000000
 51
185.531071999999710
  0
LINE
  8
0
  6
CONTINUOUS
 62
256
 10
335.345881000000020
 20
-126.375615000000000
 11
338.361016000000010
 21
-126.375615000000000
  0
ARC
  8
0
  6
CONTINUOUS
 62
256
 10
376.652660000000030
 20
-128.875615000000010
 40
43.000000000000014
 50
125.531072000000020
 51
174.468928000000010
  0
LINE
  8
0
  6
CONTINUOUS
 62
256
 10
335.345881000000020
 20
-131.375615000000010
 11
338.361016000000010
 21
-131.375615000000010
  0
ARC
  8
0
  6
CONTINUOUS
 62
256
 10
376.652660000000030
 20
-128.875615000000010
 40
42.999999999999979
 50
185.531071999999990
 51
234.468927999999950
  0
ARC
  8
0
  6
CONTINUOUS
 62
256
 10
326.556044999999980
 20
-172.824203000000010
 40
6.600000000000022
 50
188.597082000000030
 51
224.999999999999830
  0
LINE
  8
0
  6
CONTINUOUS
 62
256
 10
332.301242000000000
 20
-172.059774000000000
 11
336.877306999999970
 21
-176.635839000000000
  0
ARC
  8
0
  6
CONTINUOUS
 62
256
 10
336.543882000000000
 20
-167.817133000000010
 40
5.999999999999990
 50
187.897989000000000
 51
225.000000000000170
  0
ARC
  8
0
  6
CONTINUOUS
 62
256
 10
617.252659999999990
 20
-128.875615000000010
 40
289.396999999999990
 50
180.000000000000000
 51
187.897989000000000
  0
CIRCLE
  8
0
  6
CONTINUOUS
 62
256
 10
-103.960873000000010
 20
-179.875615000000010
 40
5.000000000000000
  0
CIRCLE
  8
0
  6
CONTINUOUS
 62
256
 10
-103.960873000000010
 20
-179.875615000000010
 40
4.188000000000002
  0
CIRCLE
  8
0
  6
CONTINUOUS
 62
256
 10
30.039127000000001
 20
-179.875615000000010
 40
5.000000000000000
  0
CIRCLE
  8
0
  6
CONTINUOUS
 62
256
 10
30.039127000000001
 20
-179.875615000000010
 40
4.188000000000002
  0
CIRCLE
  8
0
  6
CONTINUOUS
 62
256
 10
30.039127000000001
 20
-57.875615000000003
 40
5.000000000000000
  0
CIRCLE
  8
0
  6
CONTINUOUS
 62
256
 10
30.039127000000001
 20
-57.875615000000003
 40
4.188000000000002
  0
LINE
  8
0
  6
CONTINUOUS
 62
256
 10
76.039126999999993
 20
-148.875615000000010
 11
69.039126999999993
 21
-148.875615000000010
  0
LINE
  8
0
  6
CONTINUOUS
 62
256
 10
76.039126999999993
 20
-108.875615000000000
 11
69.039126999999993
 21
-108.875615000000000
  0
LINE
  8
0
  6
CONTINUOUS
 62
256
 10
-115.960873000000010
 20
-53.875615000000003
 11
-115.960873000000010
 21
-183.875615000000010
  0
LINE
  8
0
  6
CONTINUOUS
 62
256
 10
-116.960873000000010
 20
-183.875615000000010
 11
-116.960873000000010
 21
-53.875615000000003
  0
LINE
  8
0
  6
CONTINUOUS
 62
256
 10
76.039126999999993
 20
-186.130063000000010
 11
76.039126999999993
 21
-128.875615000000010
  0
LINE
  8
0
  6
CONTINUOUS
 62
256
 10
76.039126999999993
 20
-188.375615000000010
 11
76.039126999999993
 21
-185.125615000000010
  0
LINE
  8
0
  6
CONTINUOUS
 62
256
 10
69.039126999999993
 20
-171.060346000000010
 11
69.039126999999993
 21
-128.875615000000010
  0
LINE
  8
0
  6
CONTINUOUS
 62
256
 10
66.039126999999993
 20
-167.876881999999990
 11
61.039127000000001
 21
-167.876881999999990
  0
LINE
  8
0
  6
CONTINUOUS
 62
256
 10
66.039126999999993
 20
-174.060346000000010
 11
61.039127000000001
 21
-174.060346000000010
  0
LINE
  8
0
  6
CONTINUOUS
 62
256
 10
66.039126999999993
 20
-180.971923000000000
 11
61.039127000000001
 21
-180.971923000000000
  0
LINE
  8
0
  6
CONTINUOUS
 62
256
 10
69.039126999999993
 20
-184.375615000000010
 11
69.039126999999993
 21
-183.971923000000000
  0
LINE
  8
0
  6
CONTINUOUS
 62
256
 10
69.039126999999993
 20
-184.375615000000010
 11
69.039126999999993
 21
-183.971923000000000
  0
LINE
  8
0
  6
CONTINUOUS
 62
256
 10
69.039126999999993
 20
-184.375615000000010
 11
69.039126999999993
 21
-185.375615000000010
  0
LINE
  8
0
  6
CONTINUOUS
 62
256
 10
76.039126999999993
 20
-128.875615000000010
 11
76.039126999999993
 21
-69.375614999999996
  0
LINE
  8
0
  6
CONTINUOUS
 62
256
 10
66.039126999999993
 20
-83.690883999999997
 11
61.039127000000001
 21
-83.690883999999997
  0
LINE
  8
0
  6
CONTINUOUS
 62
256
 10
69.039126999999993
 20
-73.375614999999996
 11
69.039126999999993
 21
-73.779308000000000
  0
LINE
  8
0
  6
CONTINUOUS
 62
256
 10
66.039126999999993
 20
-76.779308000000000
 11
61.039127000000001
 21
-76.779308000000000
  0
LINE
  8
0
  6
CONTINUOUS
 62
256
 10
69.039126999999993
 20
-86.690883999999997
 11
69.039126999999993
 21
-128.875615000000010
  0
LINE
  8
0
  6
CONTINUOUS
 62
256
 10
66.039126999999993
 20
-89.874347999999998
 11
61.039127000000001
 21
-89.874347999999998
  0
LINE
  8
0
  6
CONTINUOUS
 62
256
 10
69.039126999999993
 20
-73.375614999999996
 11
69.039126999999993
 21
-72.375614999999996
  0
ARC
  8
0
  6
CONTINUOUS
 62
256
 10
66.039126999999993
 20
-164.876881999999990
 40
3.000000000000000
 50
270.000000000000000
 51
0.000000000000000
  0
ARC
  8
0
  6
CONTINUOUS
 62
256
 10
66.039126999999993
 20
-183.971923000000000
 40
3.000000000000000
 50
0.000000000000000
 51
90.000000000000000
  0
ARC
  8
0
  6
CONTINUOUS
 62
256
 10
66.039126999999993
 20
-171.060346000000010
 40
3.000000000000000
 50
270.000000000000000
 51
0.000000000000000
  0
ARC
  8
0
  6
CONTINUOUS
 62
256
 10
72.039126999999993
 20
-185.375615000000010
 40
3.000000000000000
 50
180.000000000000000
 51
270.000000000000000
  0
ARC
  8
0
  6
CONTINUOUS
 62
256
 10
61.039127000000001
 20
-169.060346000000010
 40
5.000000000000000
 50
180.000000000000000
 51
270.000000000000000
  0
ARC
  8
0
  6
CONTINUOUS
 62
256
 10
61.039127000000001
 20
-175.971923000000000
 40
5.000000000000000
 50
180.000000000000000
 51
270.000000000000000
  0
ARC
  8
0
  6
CONTINUOUS
 62
256
 10
66.039126999999993
 20
-92.874347999999998
 40
3.000000000000000
 50
0.000000000000000
 51
90.000000000000000
  0
ARC
  8
0
  6
CONTINUOUS
 62
256
 10
66.039126999999993
 20
-86.690883999999997
 40
3.000000000000000
 50
0.000000000000000
 51
90.000000000000000
  0
ARC
  8
0
  6
CONTINUOUS
 62
256
 10
66.039126999999993
 20
-73.779308000000000
 40
3.000000000000000
 50
270.000000000000000
 51
0.000000000000000
  0
ARC
  8
0
  6
CONTINUOUS
 62
256
 10
72.039126999999993
 20
-72.375614999999996
 40
3.000000000000000
 50
90.000000000000000
 51
180.000000000000000
  0
ARC
  8
0
  6
CONTINUOUS
 62
256
 10
61.039127000000001
 20
-81.779308000000000
 40
5.000000000000000
 50
90.000000000000000
 51
180.000000000000000
  0
ARC
  8
0
  6
CONTINUOUS
 62
256
 10
61.039127000000001
 20
-88.690883999999997
 40
5.000000000000000
 50
90.000000000000000
 51
180.000000000000000
  0
LINE
  8
0
  6
CONTINUOUS
 62
256
 10
106.039126999999990
 20
-188.375615000000010
 11
76.039126999999993
 21
-188.375615000000010
  0
LINE
  8
0
  6
CONTINUOUS
 62
256
 10
173.039127000000010
 20
-185.875615000000010
 11
76.039126999999993
 21
-185.875615000000010
  0
LINE
  8
0
  6
CONTINUOUS
 62
256
 10
173.039127000000010
 20
-184.875615000000010
 11
76.039126999999993
 21
-184.875615000000010
  0
LINE
  8
0
  6
CONTINUOUS
 62
256
 10
173.039127000000010
 20
-183.875615000000010
 11
76.039126999999993
 21
-183.875615000000010
  0
LINE
  8
0
  6
CONTINUOUS
 62
256
 10
173.039127000000010
 20
-179.191149000000000
 11
76.039126999999993
 21
-179.191149000000000
  0
LINE
  8
0
  6
CONTINUOUS
 62
256
 10
173.039127000000010
 20
-174.241401999999990
 11
76.039126999999993
 21
-174.241401999999990
  0
LINE
  8
0
  6
CONTINUOUS
 62
256
 10
173.039127000000010
 20
-143.875615000000010
 11
76.039126999999993
 21
-143.875615000000010
  0
LINE
  8
0
  6
CONTINUOUS
 62
256
 10
173.039127000000010
 20
-148.248876999999990
 11
76.039126999999993
 21
-148.248876999999990
  0
LINE
  8
0
  6
CONTINUOUS
 62
256
 10
173.039127000000010
 20
-149.515115000000010
 11
76.039126999999993
 21
-149.515115000000010
  0
LINE
  8
0
  6
CONTINUOUS
 62
256
 10
173.039127000000010
 20
-153.705669000000000
 11
76.039126999999993
 21
-153.705669000000000
  0
LINE
  8
0
  6
CONTINUOUS
 62
256
 10
173.039127000000010
 20
-155.067549000000010
 11
76.039126999999993
 21
-155.067549000000010
  0
LINE
  8
0
  6
CONTINUOUS
 62
256
 10
173.039127000000010
 20
-159.158049000000010
 11
76.039126999999993
 21
-159.158049000000010
  0
LINE
  8
0
  6
CONTINUOUS
 62
256
 10
173.039127000000010
 20
-160.626407000000000
 11
76.039126999999993
 21
-160.626407000000000
  0
LINE
  8
0
  6
CONTINUOUS
 62
256
 10
173.039127000000010
 20
-164.590151999999990
 11
76.039126999999993
 21
-164.590151999999990
  0
LINE
  8
0
  6
CONTINUOUS
 62
256
 10
173.039127000000010
 20
-166.194799999999990
 11
76.039126999999993
 21
-166.194799999999990
  0
LINE
  8
0
  6
CONTINUOUS
 62
256
 10
173.039127000000010
 20
-113.875615000000000
 11
76.039126999999993
 21
-113.875615000000000
  0
LINE
  8
0
  6
CONTINUOUS
 62
256
 10
173.039127000000010
 20
-109.502353000000000
 11
76.039126999999993
 21
-109.502353000000000
  0
LINE
  8
0
  6
CONTINUOUS
 62
256
 10
173.039127000000010
 20
-108.236115000000000
 11
76.039126999999993
 21
-108.236115000000000
  0
LINE
  8
0
  6
CONTINUOUS
 62
256
 10
173.039127000000010
 20
-104.045562000000000
 11
76.039126999999993
 21
-104.045562000000000
  0
LINE
  8
0
  6
CONTINUOUS
 62
256
 10
173.039127000000010
 20
-102.683681000000010
 11
76.039126999999993
 21
-102.683681000000010
  0
LINE
  8
0
  6
CONTINUOUS
 62
256
 10
173.039127000000010
 20
-98.593181000000001
 11
76.039126999999993
 21
-98.593181000000001
  0
LINE
  8
0
  6
CONTINUOUS
 62
256
 10
173.039127000000010
 20
-97.124823000000006
 11
76.039126999999993
 21
-97.124823000000006
  0
LINE
  8
0
  6
CONTINUOUS
 62
256
 10
173.039127000000010
 20
-93.161078000000003
 11
76.039126999999993
 21
-93.161078000000003
  0
LINE
  8
0
  6
CONTINUOUS
 62
256
 10
173.039127000000010
 20
-91.556430000000006
 11
76.039126999999993
 21
-91.556430000000006
  0
LINE
  8
0
  6
CONTINUOUS
 62
256
 10
173.039127000000010
 20
-83.509827999999999
 11
76.039126999999993
 21
-83.509827999999999
  0
LINE
  8
0
  6
CONTINUOUS
 62
256
 10
173.039127000000010
 20
-78.560080999999997
 11
76.039126999999993
 21
-78.560080999999997
  0
LINE
  8
0
  6
CONTINUOUS
 62
256
 10
173.039127000000010
 20
-73.875614999999996
 11
76.039126999999993
 21
-73.875614999999996
  0
LINE
  8
0
  6
CONTINUOUS
 62
256
 10
173.039127000000010
 20
-72.875614999999996
 11
76.039126999999993
 21
-72.875614999999996
  0
LINE
  8
0
  6
CONTINUOUS
 62
256
 10
173.039127000000010
 20
-71.875614999999996
 11
76.039126999999993
 21
-71.875614999999996
  0
LINE
  8
0
  6
CONTINUOUS
 62
256
 10
106.039126999999990
 20
-69.375614999999996
 11
76.039126999999993
 21
-69.375614999999996
  0
LINE
  8
0
  6
CONTINUOUS
 62
256
 10
173.039127000000010
 20
-188.375615000000010
 11
76.039126999999993
 21
-188.375615000000010
  0
ARC
  8
0
  6
CONTINUOUS
 62
256
 10
180.039127000000010
 20
-64.256394000000000
 40
3.000000000000000
 50
270.000000000000000
 51
0.000000000000000
  0
ARC
  8
0
  6
CONTINUOUS
 62
256
 10
176.039127000000010
 20
-70.256394000000000
 40
3.000000000000000
 50
90.000000000000000
 51
180.000000000000000
  0
LINE
  8
0
  6
CONTINUOUS
 62
256
 10
183.039127000000010
 20
-63.875615000000003
 11
183.039127000000010
 21
-64.256394000000000
  0
LINE
  8
0
  6
CONTINUOUS
 62
256
 10
180.039127000000010
 20
-67.256394000000000
 11
176.039127000000010
 21
-67.256394000000000
  0
LINE
  8
0
  6
CONTINUOUS
 62
256
 10
106.039126999999990
 20
-65.375614999999996
 11
106.039126999999990
 21
-70.375614999999996
  0
LINE
  8
0
  6
CONTINUOUS
 62
256
 10
114.039126999999990
 20
-35.375615000000003
 11
122.039126999999990
 21
-35.375615000000003
  0
LINE
  8
0
  6
CONTINUOUS
 62
256
 10
122.039126999999990
 20
-35.875615000000003
 11
122.039126999999990
 21
-35.375615000000003
  0
LINE
  8
0
  6
CONTINUOUS
 62
256
 10
116.539126999999990
 20
-35.875615000000003
 11
116.539126999999990
 21
-35.375615000000003
  0
LINE
  8
0
  6
CONTINUOUS
 62
256
 10
114.039126999999990
 20
-35.875615000000003
 11
114.039126999999990
 21
-35.375615000000003
  0
LINE
  8
0
  6
CONTINUOUS
 62
256
 10
108.039126999999990
 20
-35.875615000000003
 11
179.039127000000010
 21
-35.875615000000003
  0
ARC
  8
0
  6
CONTINUOUS
 62
256
 10
179.039127000000010
 20
-36.875615000000003
 40
1.000000000000000
 50
0.000000000000000
 51
90.000000000000000
  0
ARC
  8
0
  6
CONTINUOUS
 62
256
 10
108.039126999999990
 20
-36.875615000000003
 40
1.000000000000000
 50
90.000000000000000
 51
180.000000000000000
  0
LINE
  8
0
  6
CONTINUOUS
 62
256
 10
107.039126999999990
 20
-36.875615000000003
 11
107.039126999999990
 21
-65.375614999999996
  0
LINE
  8
0
  6
CONTINUOUS
 62
256
 10
180.039127000000010
 20
-36.875615000000003
 11
180.039127000000010
 21
-65.375614999999996
  0
LINE
  8
0
  6
CONTINUOUS
 62
256
 10
106.039126999999990
 20
-65.375614999999996
 11
181.039127000000010
 21
-65.375614999999996
  0
LINE
  8
0
  6
CONTINUOUS
 62
256
 10
106.039126999999990
 20
-70.375614999999996
 11
173.039127000000010
 21
-70.375614999999996
  0
LINE
  8
0
  6
CONTINUOUS
 62
256
 10
181.039127000000010
 20
-65.375614999999996
 11
181.039127000000010
 21
-67.084821000000005
  0
ARC
  8
0
  6
CONTINUOUS
 62
256
 10
201.733150999999990
 20
-83.875614999999996
 40
19.999999999999993
 50
55.000000000000028
 51
90.000000000000000
  0
LINE
  8
0
  6
CONTINUOUS
 62
256
 10
183.039127000000010
 20
-63.875615000000003
 11
201.733150999999990
 21
-63.875615000000003
  0
ARC
  8
0
  6
CONTINUOUS
 62
256
 10
221.439127000000010
 20
-76.432410000000004
 40
2.599999999999994
 50
0.000000000000000
 51
54.999999999999979
  0
LINE
  8
0
  6
CONTINUOUS
 62
256
 10
213.204680000000000
 20
-67.492574000000005
 11
222.930426000000010
 21
-74.302615000000003
  0
LINE
  8
0
  6
CONTINUOUS
 62
256
 10
224.039127000000010
 20
-128.875615000000010
 11
224.039127000000010
 21
-76.432410000000004
  0
LINE
  8
0
  6
CONTINUOUS
 62
256
 10
76.039126999999993
 20
-69.375614999999996
 11
76.039126999999993
 21
-128.875615000000010
  0
LINE
  8
0
  6
CONTINUOUS
 62
256
 10
173.039127000000010
 20
-128.875615000000010
 11
173.039127000000010
 21
-70.256394000000000
  0
ARC
  8
0
  6
CONTINUOUS
 62
256
 10
221.439127000000010
 20
-181.318819999999990
 40
2.599999999999996
 50
305.000000000000230
 51
0.000000000000000
  0
LINE
  8
0
  6
CONTINUOUS
 62
256
 10
213.204680000000000
 20
-190.258656000000000
 11
222.930426000000010
 21
-183.448614999999990
  0
ARC
  8
0
  6
CONTINUOUS
 62
256
 10
201.733150999999990
 20
-173.875615000000010
 40
20.000000000000000
 50
270.000000000000000
 51
305.000000000000000
  0
LINE
  8
0
  6
CONTINUOUS
 62
256
 10
224.039127000000010
 20
-128.875615000000010
 11
224.039127000000010
 21
-181.318819999999990
  0
LINE
  8
0
  6
CONTINUOUS
 62
256
 10
173.039127000000010
 20
-193.875615000000010
 11
201.733150999999990
 21
-193.875615000000010
  0
LINE
  8
0
  6
CONTINUOUS
 62
256
 10
76.039126999999993
 20
-188.375615000000010
 11
76.039126999999993
 21
-128.875615000000010
  0
LINE
  8
0
  6
CONTINUOUS
 62
256
 10
173.039127000000010
 20
-128.875615000000010
 11
173.039127000000010
 21
-193.875615000000010
  0
LINE
  8
0
  6
CONTINUOUS
 62
256
 10
184.039127000000010
 20
-182.615730000000010
 11
186.039127000000010
 21
-180.963089000000000
  0
LINE
  8
0
  6
CONTINUOUS
 62
256
 10
182.039127000000010
 20
-183.791516000000000
 11
184.039127000000010
 21
-182.615730000000010
  0
LINE
  8
0
  6
CONTINUOUS
 62
256
 10
184.039127000000010
 20
-182.615730000000010
 11
182.039127000000010
 21
-180.963089000000000
  0
LINE
  8
0
  6
CONTINUOUS
 62
256
 10
186.039127000000010
 20
-183.791516000000000
 11
184.039127000000010
 21
-182.615730000000010
  0
POLYLINE
  8
0
  6
CONTINUOUS
 62
256
 66
1
 70
1
  0
VERTEX
  8
0
  6
CONTINUOUS
 62
256
 10
188.739127000000000
 20
-180.799139999999990
  0
VERTEX
  8
0
  6
CONTINUOUS
 62
256
 10
188.648817817895180
 20
-180.096183489441810
  0
VERTEX
  8
0
  6
CONTINUOUS
 62
256
 10
188.381360802803040
 20
-179.420241203361850
  0
VERTEX
  8
0
  6
CONTINUOUS
 62
256
 10
187.947034177821960
 20
-178.797289224741320
  0
VERTEX
  8
0
  6
CONTINUOUS
 62
256
 10
187.362528871576790
 20
-178.251267248763160
  0
VERTEX
  8
0
  6
CONTINUOUS
 62
256
 10
186.650307095192120
 20
-177.803158593751500
  0
VERTEX
  8
0
  6
CONTINUOUS
 62
256
 10
185.837739132115930
 20
-177.470183824016260
  0
VERTEX
  8
0
  6
CONTINUOUS
 62
256
 10
184.956051513475810
 20
-177.265138973223910
  0
VERTEX
  8
0
  6
CONTINUOUS
 62
256
 10
184.039127000000010
 20
-177.195903800000000
  0
VERTEX
  8
0
  6
CONTINUOUS
 62
256
 10
183.122202486524200
 20
-177.265138973223910
  0
VERTEX
  8
0
  6
CONTINUOUS
 62
256
 10
182.240514867884090
 20
-177.470183824016260
  0
VERTEX
  8
0
  6
CONTINUOUS
 62
256
 10
181.427946904807900
 20
-177.803158593751500
  0
VERTEX
  8
0
  6
CONTINUOUS
 62
256
 10
180.715725128423230
 20
-178.251267248763160
  0
VERTEX
  8
0
  6
CONTINUOUS
 62
256
 10
180.131219822178050
 20
-178.797289224741320
  0
VERTEX
  8
0
  6
CONTINUOUS
 62
256
 10
179.696893197196970
 20
-179.420241203361850
  0
VERTEX
  8
0
  6
CONTINUOUS
 62
256
 10
179.429436182104840
 20
-180.096183489441810
  0
VERTEX
  8
0
  6
CONTINUOUS
 62
256
 10
179.339127000000020
 20
-180.799139999999990
  0
VERTEX
  8
0
  6
CONTINUOUS
 62
256
 10
179.429436182104840
 20
-181.502096510558180
  0
VERTEX
  8
0
  6
CONTINUOUS
 62
256
 10
179.696893197196970
 20
-182.178038796638130
  0
VERTEX
  8
0
  6
CONTINUOUS
 62
256
 10
180.131219822178050
 20
-182.800990775258670
  0
VERTEX
  8
0
  6
CONTINUOUS
 62
256
 10
180.715725128423230
 20
-183.347012751236830
  0
VERTEX
  8
0
  6
CONTINUOUS
 62
256
 10
181.427946904807900
 20
-183.795121406248480
  0
VERTEX
  8
0
  6
CONTINUOUS
 62
256
 10
182.240514867884090
 20
-184.128096175983730
  0
VERTEX
  8
0
  6
CONTINUOUS
 62
256
 10
183.122202486524200
 20
-184.333141026776050
  0
VERTEX
  8
0
  6
CONTINUOUS
 62
256
 10
184.039127000000010
 20
-184.402376199999990
  0
VERTEX
  8
0
  6
CONTINUOUS
 62
256
 10
184.956051513475810
 20
-184.333141026776050
  0
VERTEX
  8
0
  6
CONTINUOUS
 62
256
 10
185.837739132115930
 20
-184.128096175983730
  0
VERTEX
  8
0
  6
CONTINUOUS
 62
256
 10
186.650307095192120
 20
-183.795121406248480
  0
VERTEX
  8
0
  6
CONTINUOUS
 62
256
 10
187.362528871576760
 20
-183.347012751236830
  0
VERTEX
  8
0
  6
CONTINUOUS
 62
256
 10
187.947034177821960
 20
-182.800990775258670
  0
VERTEX
  8
0
  6
CONTINUOUS
 62
256
 10
188.381360802803040
 20
-182.178038796638130
  0
VERTEX
  8
0
  6
CONTINUOUS
 62
256
 10
188.648817817895180
 20
-181.502096510558180
  0
SEQEND
  8
0
  6
CONTINUOUS
 62
256
  0
LINE
  8
0
  6
CONTINUOUS
 62
256
 10
184.039127000000010
 20
-75.135499999999993
 11
186.039127000000010
 21
-76.788141999999993
  0
LINE
  8
0
  6
CONTINUOUS
 62
256
 10
182.039127000000010
 20
-73.959714000000005
 11
184.039127000000010
 21
-75.135499999999993
  0
LINE
  8
0
  6
CONTINUOUS
 62
256
 10
184.039127000000010
 20
-75.135499999999993
 11
182.039127000000010
 21
-76.788141999999993
  0
LINE
  8
0
  6
CONTINUOUS
 62
256
 10
186.039127000000010
 20
-73.959714000000005
 11
184.039127000000010
 21
-75.135499999999993
  0
POLYLINE
  8
0
  6
CONTINUOUS
 62
256
 66
1
 70
1
  0
VERTEX
  8
0
  6
CONTINUOUS
 62
256
 10
188.739127000000000
 20
-76.952089999999998
  0
VERTEX
  8
0
  6
CONTINUOUS
 62
256
 10
188.648817817895180
 20
-76.249133489441832
  0
VERTEX
  8
0
  6
CONTINUOUS
 62
256
 10
188.381360802803040
 20
-75.573191203361858
  0
VERTEX
  8
0
  6
CONTINUOUS
 62
256
 10
187.947034177821960
 20
-74.950239224741338
  0
VERTEX
  8
0
  6
CONTINUOUS
 62
256
 10
187.362528871576790
 20
-74.404217248763160
  0
VERTEX
  8
0
  6
CONTINUOUS
 62
256
 10
186.650307095192120
 20
-73.956108593751509
  0
VERTEX
  8
0
  6
CONTINUOUS
 62
256
 10
185.837739132115930
 20
-73.623133824016250
  0
VERTEX
  8
0
  6
CONTINUOUS
 62
256
 10
184.956051513475810
 20
-73.418088973223931
  0
VERTEX
  8
0
  6
CONTINUOUS
 62
256
 10
184.039127000000010
 20
-73.348853800000001
  0
VERTEX
  8
0
  6
CONTINUOUS
 62
256
 10
183.122202486524200
 20
-73.418088973223931
  0
VERTEX
  8
0
  6
CONTINUOUS
 62
256
 10
182.240514867884090
 20
-73.623133824016250
  0
VERTEX
  8
0
  6
CONTINUOUS
 62
256
 10
181.427946904807900
 20
-73.956108593751509
  0
VERTEX
  8
0
  6
CONTINUOUS
 62
256
 10
180.715725128423230
 20
-74.404217248763160
  0
VERTEX
  8
0
  6
CONTINUOUS
 62
256
 10
180.131219822178050
 20
-74.950239224741338
  0
VERTEX
  8
0
  6
CONTINUOUS
 62
256
 10
179.696893197196970
 20
-75.573191203361858
  0
VERTEX
  8
0
  6
CONTINUOUS
 62
256
 10
179.429436182104840
 20
-76.249133489441832
  0
VERTEX
  8
0
  6
CONTINUOUS
 62
256
 10
179.339127000000020
 20
-76.952089999999998
  0
VERTEX
  8
0
  6
CONTINUOUS
 62
256
 10
179.429436182104840
 20
-77.655046510558165
  0
VERTEX
  8
0
  6
CONTINUOUS
 62
256
 10
179.696893197196970
 20
-78.330988796638138
  0
VERTEX
  8
0
  6
CONTINUOUS
 62
256
 10
180.131219822178050
 20
-78.953940775258658
  0
VERTEX
  8
0
  6
CONTINUOUS
 62
256
 10
180.715725128423230
 20
-79.499962751236836
  0
VERTEX
  8
0
  6
CONTINUOUS
 62
256
 10
181.427946904807900
 20
-79.948071406248488
  0
VERTEX
  8
0
  6
CONTINUOUS
 62
256
 10
182.240514867884090
 20
-80.281046175983732
  0
VERTEX
  8
0
  6
CONTINUOUS
 62
256
 10
183.122202486524200
 20
-80.486091026776066
  0
VERTEX
  8
0
  6
CONTINUOUS
 62
256
 10
184.039127000000010
 20
-80.555326199999996
  0
VERTEX
  8
0
  6
CONTINUOUS
 62
256
 10
184.956051513475810
 20
-80.486091026776066
  0
VERTEX
  8
0
  6
CONTINUOUS
 62
256
 10
185.837739132115930
 20
-80.281046175983747
  0
VERTEX
  8
0
  6
CONTINUOUS
 62
256
 10
186.650307095192120
 20
-79.948071406248488
  0
VERTEX
  8
0
  6
CONTINUOUS
 62
256
 10
187.362528871576760
 20
-79.499962751236836
  0
VERTEX
  8
0
  6
CONTINUOUS
 62
256
 10
187.947034177821960
 20
-78.953940775258658
  0
VERTEX
  8
0
  6
CONTINUOUS
 62
256
 10
188.381360802803040
 20
-78.330988796638138
  0
VERTEX
  8
0
  6
CONTINUOUS
 62
256
 10
188.648817817895180
 20
-77.655046510558165
  0
SEQEND
  8
0
  6
CONTINUOUS
 62
256
  0
LINE
  8
0
  6
DASHDOT
 62
256
 10
68.063130000000001
 20
-128.875615000000010
 11
233.968340000000010
 21
-128.875615000000010
  0
CIRCLE
  8
0
  6
CONTINUOUS
 62
256
 10
-55.960872999999999
 20
-105.875615000000000
 40
42.500000000000000
  0
CIRCLE
  8
0
  6
CONTINUOUS
 62
256
 10
-55.960872999999999
 20
-105.875615000000000
 40
30.000000000000000
  0
LINE
  8
0
  6
DASHDOT
 62
256
 10
-55.960872999999999
 20
-42.480131000000000
 11
-55.960872999999999
 21
-197.344994000000010
  0
LINE
  8
0
  6
DASHDOT
 62
256
 10
-120.419532000000000
 20
-105.875615000000000
 11
2.729120000000000
 21
-105.875615000000000
  0
LINE
  8
0
  6
DASHDOT
 62
256
 10
-103.960873000000010
 20
-168.039966999999990
 11
-103.960873000000010
 21
-189.375615000000010
  0
LINE
  8
0
  6
DASHDOT
 62
256
 10
-103.960873000000010
 20
-48.375615000000003
 11
-103.960873000000010
 21
-68.750916000000004
  0
LINE
  8
0
  6
DASHDOT
 62
256
 10
-113.460873000000010
 20
-57.875615000000003
 11
-92.658753000000004
 21
-57.875615000000003
  0
LINE
  8
0
  6
DASHDOT
 62
256
 10
19.085913000000001
 20
-57.875615000000003
 11
39.539127000000001
 21
-57.875615000000003
  0
LINE
  8
0
  6
DASHDOT
 62
256
 10
30.039127000000001
 20
-48.375615000000003
 11
30.039127000000001
 21
-69.106791000000001
  0
LINE
  8
0
  6
DASHDOT
 62
256
 10
18.206997000000001
 20
-179.875615000000010
 11
39.539127000000001
 21
-179.875615000000010
  0
LINE
  8
0
  6
DASHDOT
 62
256
 10
30.039127000000001
 20
-168.143920000000010
 11
30.039127000000001
 21
-189.375615000000010
  0
LINE
  8
0
  6
DASHDOT
 62
256
 10
-113.460873000000010
 20
-179.875615000000010
 11
-92.748189999999994
 21
-179.875615000000010
  0
ARC
  8
0
  6
CONTINUOUS
 62
256
 10
51.039127000000001
 20
-175.971923000000000
 40
5.000000000000000
 50
0.000000000000000
 51
72.542397000000022
  0
ARC
  8
0
  6
CONTINUOUS
 62
256
 10
51.039127000000001
 20
-169.424401999999990
 40
5.000000000000000
 50
0.000000000000000
 51
72.542397000000022
  0
ARC
  8
0
  6
CONTINUOUS
 62
256
 10
51.039127000000001
 20
-88.326828000000006
 40
5.000000000000004
 50
287.457603000000010
 51
0.000000000000000
  0
ARC
  8
0
  6
CONTINUOUS
 62
256
 10
51.039127000000001
 20
-81.779308000000000
 40
5.000000000000004
 50
287.457603000000010
 51
0.000000000000000
  0
ARC
  8
0
  6
CONTINUOUS
 62
256
 10
55.539127000000001
 20
-72.375614999999996
 40
3.000000000000000
 50
90.000000000000000
 51
180.000000000000000
  0
ARC
  8
0
  6
CONTINUOUS
 62
256
 10
55.539127000000001
 20
-185.375615000000010
 40
3.000000000000000
 50
180.000000000000000
 51
270.000000000000000
  0
ARC
  8
0
  6
CONTINUOUS
 62
256
 10
34.039127000000001
 20
-53.875615000000003
 40
9.000000000000000
 50
0.000000000000000
 51
90.000000000000000
  0
ARC
  8
0
  6
CONTINUOUS
 62
256
 10
-107.960873000000010
 20
-53.875615000000003
 40
9.000000000000000
 50
90.000000000000000
 51
180.000000000000000
  0
ARC
  8
0
  6
CONTINUOUS
 62
256
 10
34.039127000000001
 20
-183.875615000000010
 40
9.000000000000000
 50
270.000000000000000
 51
0.000000000000000
  0
ARC
  8
0
  6
CONTINUOUS
 62
256
 10
-107.960873000000010
 20
-183.875615000000010
 40
9.000000000000000
 50
180.000000000000000
 51
270.000000000000000
  0
CIRCLE
  8
0
  6
CONTINUOUS
 62
256
 10
-55.960872999999999
 20
-105.875615000000000
 40
49.500000000000000
  0
ARC
  8
0
  6
CONTINUOUS
 62
256
 10
-81.628161000000006
 20
-174.375615000000010
 40
7.500000000000005
 50
193.835224000000010
 51
270.000000000000000
  0
ARC
  8
0
  6
CONTINUOUS
 62
256
 10
-103.960873000000010
 20
-179.875615000000010
 40
15.500000000000005
 50
13.835224000000020
 51
76.164775999999975
  0
ARC
  8
0
  6
CONTINUOUS
 62
256
 10
-98.460873000000007
 20
-157.542903999999990
 40
7.500000000000000
 50
180.000000000000000
 51
256.164775999999960
  0
ARC
  8
0
  6
CONTINUOUS
 62
256
 10
-98.460873000000007
 20
-80.208326999999997
 40
7.500000000000005
 50
103.835224000000010
 51
180.000000000000000
  0
ARC
  8
0
  6
CONTINUOUS
 62
256
 10
-103.960873000000010
 20
-57.875615000000003
 40
15.499999999999995
 50
283.835223999999980
 51
346.164776000000020
  0
ARC
  8
0
  6
CONTINUOUS
 62
256
 10
-81.628161000000006
 20
-63.375615000000003
 40
7.500000000000000
 50
90.000000000000000
 51
166.164775999999990
  0
ARC
  8
0
  6
CONTINUOUS
 62
256
 10
7.706416000000000
 20
-63.375615000000003
 40
7.499999999999999
 50
13.835224000000020
 51
90.000000000000000
  0
ARC
  8
0
  6
CONTINUOUS
 62
256
 10
30.039127000000001
 20
-57.875615000000003
 40
15.500000000000000
 50
193.835224000000010
 51
256.164776000000020
  0
ARC
  8
0
  6
CONTINUOUS
 62
256
 10
24.539127000000001
 20
-80.208326999999997
 40
7.500000000000000
 50
0.000000000000000
 51
76.164776000000032
  0
ARC
  8
0
  6
CONTINUOUS
 62
256
 10
24.539127000000001
 20
-157.542903999999990
 40
7.499999999999990
 50
283.835223999999980
 51
0.000000000000000
  0
ARC
  8
0
  6
CONTINUOUS
 62
256
 10
30.039127000000001
 20
-179.875615000000010
 40
15.499999999999991
 50
103.835224000000010
 51
166.164775999999960
  0
ARC
  8
0
  6
CONTINUOUS
 62
256
 10
7.706416000000000
 20
-174.375615000000010
 40
7.500000000000000
 50
270.000000000000000
 51
346.164776000000020
  0
ARC
  8
0
  6
CONTINUOUS
 62
256
 10
-81.628161000000006
 20
-63.375615000000003
 40
10.000000000000000
 50
90.000000000000000
 51
166.164776000000020
  0
ARC
  8
0
  6
CONTINUOUS
 62
256
 10
-103.960873000000010
 20
-57.875615000000003
 40
12.999999999999996
 50
283.835223999999980
 51
346.164776000000020
  0
ARC
  8
0
  6
CONTINUOUS
 62
256
 10
-98.460873000000007
 20
-80.208326999999997
 40
10.000000000000005
 50
103.835223999999980
 51
180.000000000000000
  0
ARC
  8
0
  6
CONTINUOUS
 62
256
 10
-98.460873000000007
 20
-157.542903999999990
 40
10.000000000000000
 50
180.000000000000000
 51
256.164776000000020
  0
ARC
  8
0
  6
CONTINUOUS
 62
256
 10
-103.960873000000010
 20
-179.875615000000010
 40
13.000000000000002
 50
13.835223999999982
 51
76.164776000000032
  0
ARC
  8
0
  6
CONTINUOUS
 62
256
 10
-81.628161000000006
 20
-174.375615000000010
 40
10.000000000000009
 50
193.835224000000040
 51
270.000000000000000
  0
ARC
  8
0
  6
CONTINUOUS
 62
256
 10
7.706416000000000
 20
-174.375615000000010
 40
10.000000000000000
 50
270.000000000000000
 51
346.164775999999960
  0
ARC
  8
0
  6
CONTINUOUS
 62
256
 10
30.039127000000001
 20
-179.875615000000010
 40
13.000000000000002
 50
103.835224000000000
 51
166.164776000000020
  0
ARC
  8
0
  6
CONTINUOUS
 62
256
 10
24.539127000000001
 20
-157.542903999999990
 40
10.000000000000005
 50
283.835223999999980
 51
0.000000000000000
  0
ARC
  8
0
  6
CONTINUOUS
 62
256
 10
24.539127000000001
 20
-80.208326999999997
 40
10.000000000000000
 50
0.000000000000000
 51
76.164776000000003
  0
ARC
  8
0
  6
CONTINUOUS
 62
256
 10
30.039127000000001
 20
-57.875615000000003
 40
13.000000000000000
 50
193.835224000000010
 51
256.164776000000020
  0
ARC
  8
0
  6
CONTINUOUS
 62
256
 10
7.706416000000000
 20
-63.375615000000003
 40
9.999999999999998
 50
13.835223999999991
 51
90.000000000000000
  0
CIRCLE
  8
0
  6
CONTINUOUS
 62
256
 10
-55.960872999999999
 20
-105.875615000000000
 40
47.000000000000000
  0
ARC
  8
0
  6
CONTINUOUS
 62
256
 10
46.039127000000001
 20
-66.375614999999996
 40
3.000000000000000
 50
180.000000000000000
 51
270.000000000000000
  0
ARC
  8
0
  6
CONTINUOUS
 62
256
 10
43.406624000000001
 20
-191.375615000000010
 40
3.000000000000000
 50
90.000000000000000
 51
141.317813000000140
  0
ARC
  8
0
  6
CONTINUOUS
 62
256
 10
34.039127000000001
 20
-183.875615000000010
 40
8.000000000000000
 50
270.000000000000000
 51
0.000000000000000
  0
ARC
  8
0
  6
CONTINUOUS
 62
256
 10
34.039127000000001
 20
-53.875615000000003
 40
8.000000000000000
 50
0.000000000000000
 51
90.000000000000000
  0
ARC
  8
0
  6
CONTINUOUS
 62
256
 10
-107.960873000000010
 20
-53.875615000000003
 40
8.000000000000000
 50
90.000000000000000
 51
180.000000000000000
  0
ARC
  8
0
  6
CONTINUOUS
 62
256
 10
-107.960873000000010
 20
-183.875615000000010
 40
8.000000000000000
 50
180.000000000000000
 51
270.000000000000000
  0
LINE
  8
0
  6
CONTINUOUS
 62
256
 10
46.039127000000001
 20
-69.375614999999996
 11
76.039126999999993
 21
-69.375614999999996
  0
LINE
  8
0
  6
CONTINUOUS
 62
256
 10
43.406624000000001
 20
-188.375615000000010
 11
76.039126999999993
 21
-188.375615000000010
  0
LINE
  8
0
  6
CONTINUOUS
 62
256
 10
52.539127000000001
 20
-185.375615000000010
 11
52.539127000000001
 21
-72.375614999999996
  0
LINE
  8
0
  6
CONTINUOUS
 62
256
 10
-107.960873000000010
 20
-44.875615000000003
 11
34.039127000000001
 21
-44.875615000000003
  0
LINE
  8
0
  6
CONTINUOUS
 62
256
 10
34.039127000000001
 20
-192.875615000000010
 11
-107.960873000000010
 21
-192.875615000000010
  0
LINE
  8
0
  6
CONTINUOUS
 62
256
 10
43.039127000000001
 20
-53.875615000000003
 11
43.039127000000001
 21
-183.875615000000010
  0
LINE
  8
0
  6
DASHED
 62
256
 10
43.039127000000001
 20
-118.375615000000000
 11
43.039127000000001
 21
-136.375615000000010
  0
LINE
  8
0
  6
DASHED
 62
256
 10
43.039127000000001
 20
-117.375615000000000
 11
43.039127000000001
 21
-118.375615000000000
  0
LINE
  8
0
  6
DASHED
 62
256
 10
43.039127000000001
 20
-136.375615000000010
 11
43.039127000000001
 21
-137.375615000000010
  0
LINE
  8
0
  6
CONTINUOUS
 62
256
 10
-105.960873000000010
 20
-80.208326999999997
 11
-105.960873000000010
 21
-157.542903999999990
  0
LINE
  8
0
  6
CONTINUOUS
 62
256
 10
7.706416000000000
 20
-55.875615000000003
 11
-81.628161000000006
 21
-55.875615000000003
  0
LINE
  8
0
  6
CONTINUOUS
 62
256
 10
32.039127000000001
 20
-157.542903999999990
 11
32.039127000000001
 21
-80.208326999999997
  0
LINE
  8
0
  6
CONTINUOUS
 62
256
 10
-81.628161000000006
 20
-181.875615000000010
 11
7.706416000000000
 21
-181.875615000000010
  0
LINE
  8
0
  6
CONTINUOUS
 62
256
 10
-81.628161000000006
 20
-53.375615000000003
 11
7.706416000000000
 21
-53.375615000000003
  0
LINE
  8
0
  6
CONTINUOUS
 62
256
 10
-108.460873000000010
 20
-157.542903999999990
 11
-108.460873000000010
 21
-80.208326999999997
  0
LINE
  8
0
  6
CONTINUOUS
 62
256
 10
7.706416000000000
 20
-184.375615000000010
 11
-81.628161000000006
 21
-184.375615000000010
  0
LINE
  8
0
  6
CONTINUOUS
 62
256
 10
34.539127000000001
 20
-80.208326999999997
 11
34.539127000000001
 21
-157.542903999999990
  0
LINE
  8
0
  6
DASHDOT
 62
256
 10
89.580466000000001
 20
-128.875615000000010
 11
29.310196000000001
 21
-128.875615000000010
  0
LINE
  8
0
  6
CONTINUOUS
 62
256
 10
42.039127000000001
 20
-183.875615000000010
 11
42.039127000000001
 21
-53.875615000000003
  0
LINE
  8
0
  6
CONTINUOUS
 62
256
 10
34.039127000000001
 20
-45.875615000000003
 11
-107.960873000000010
 21
-45.875615000000003
  0
LINE
  8
0
  6
CONTINUOUS
 62
256
 10
-107.960873000000010
 20
-191.875615000000010
 11
34.039127000000001
 21
-191.875615000000010
  0
CIRCLE
  8
0
  6
CONTINUOUS
 62
256
 10
-55.960872999999999
 20
-105.875615000000000
 40
4.000000000000000
  0
CIRCLE
  8
0
  6
CONTINUOUS
 62
256
 10
-55.960872999999999
 20
-105.875615000000000
 40
3.500000000000000
  0
LINE
  8
0
  6
CONTINUOUS
 62
256
 10
-59.960872999999999
 20
-88.875614999999996
 11
-51.960872999999999
 21
-88.875614999999996
  0
LINE
  8
0
  6
CONTINUOUS
 62
256
 10
-59.960872999999999
 20
-95.875614999999996
 11
-51.960872999999999
 21
-95.875614999999996
  0
LINE
  8
0
  6
CONTINUOUS
 62
256
 10
-51.960872999999999
 20
-88.875614999999996
 11
-51.960872999999999
 21
-95.875614999999996
  0
LINE
  8
0
  6
CONTINUOUS
 62
256
 10
-59.960872999999999
 20
-88.875614999999996
 11
-59.960872999999999
 21
-95.875614999999996
  0
ARC
  8
0
  6
CONTINUOUS
 62
256
 10
-55.960872999999999
 20
-105.875615000000000
 40
13.999999999999998
 50
106.601550000000000
 51
73.398450000000011
  0
CIRCLE
  8
0
  6
CONTINUOUS
 62
256
 10
-103.960873000000010
 20
-57.875615000000003
 40
5.000000000000000
  0
CIRCLE
  8
0
  6
CONTINUOUS
 62
256
 10
-103.960873000000010
 20
-57.875615000000003
 40
4.188000000000002
  0
ARC
  8
0
  6
CONTINUOUS
 62
256
 10
-205.219980999999990
 20
-105.875615000000000
 40
13.999999999999998
 50
106.601550000000000
 51
73.398450000000011
  0
LINE
  8
0
  6
CONTINUOUS
 62
256
 10
-201.219980999999990
 20
-88.875614999999996
 11
-201.219980999999990
 21
-95.875614999999996
  0
LINE
  8
0
  6
CONTINUOUS
 62
256
 10
-209.219980999999990
 20
-95.875614999999996
 11
-201.219980999999990
 21
-95.875614999999996
  0
LINE
  8
0
  6
CONTINUOUS
 62
256
 10
-209.219980999999990
 20
-88.875614999999996
 11
-209.219980999999990
 21
-95.875614999999996
  0
LINE
  8
0
  6
CONTINUOUS
 62
256
 10
-209.219980999999990
 20
-88.875614999999996
 11
-201.219980999999990
 21
-88.875614999999996
  0
LINE
  8
0
  6
DASHDOT
 62
256
 10
-205.219980999999990
 20
-126.923938000000010
 11
-205.219980999999990
 21
-85.192346999999998
  0
LINE
  8
0
  6
DASHDOT
 62
256
 10
-224.422911000000000
 20
-105.875615000000000
 11
-182.691319999999990
 21
-105.875615000000000
  0
CIRCLE
  8
0
  6
CONTINUOUS
 62
256
 10
-205.219980999999990
 20
-105.875615000000000
 40
3.500000000000000
  0
CIRCLE
  8
0
  6
CONTINUOUS
 62
256
 10
-205.219980999999990
 20
-105.875615000000000
 40
4.000000000000000
  0
POINT
  8
0
  6
DASHED
 62
256
 10
-205.219980999999990
 20
-91.875614999999996
  0
LINE
  8
0
  6
DASHDOT
 62
256
 10
-279.549757000000000
 20
-105.875615000000000
 11
-446.782400000000000
 21
-105.875615000000000
  0
LINE
  8
0
  6
DASHED
 62
256
 10
-333.775218000000000
 20
-170.153095000000010
 11
-334.037979000000010
 21
-169.890334000000000
  0
LINE
  8
0
  6
DASHDOT
 62
256
 10
-393.957212000000030
 20
-128.875615000000010
 11
-374.023177999999970
 21
-128.875615000000010
  0
LINE
  8
0
  6
CONTINUOUS
 62
256
 10
-324.037979000000010
 20
-128.875615000000010
 11
-324.037979000000010
 21
-119.875615000000000
  0
LINE
  8
0
  6
CONTINUOUS
 62
256
 10
-324.037979000000010
 20
-128.875615000000010
 11
-324.037979000000010
 21
-148.375615000000010
  0
LINE
  8
0
  6
CONTINUOUS
 62
256
 10
-324.537979000000010
 20
-148.875615000000010
 11
-326.062979999999980
 21
-148.875615000000010
  0
LINE
  8
0
  6
CONTINUOUS
 62
256
 10
-442.037979000000010
 20
-128.875615000000010
 11
-442.037979000000010
 21
-148.375615000000010
  0
LINE
  8
0
  6
CONTINUOUS
 62
256
 10
-441.537979000000010
 20
-148.875615000000010
 11
-440.012977999999980
 21
-148.875615000000010
  0
LINE
  8
0
  6
CONTINUOUS
 62
256
 10
-442.037979000000010
 20
-128.875615000000010
 11
-442.037979000000010
 21
-109.375615000000000
  0
LINE
  8
0
  6
CONTINUOUS
 62
256
 10
-441.537979000000010
 20
-108.875615000000000
 11
-440.012977999999980
 21
-108.875615000000000
  0
LINE
  8
0
  6
DASHED
 62
256
 10
-432.300740000000020
 20
-170.153095000000010
 11
-432.037979000000010
 21
-169.890334000000000
  0
ARC
  8
0
  6
CONTINUOUS
 62
256
 10
-324.537979000000010
 20
-148.375615000000010
 40
0.500000000000000
 50
270.000000000000000
 51
0.000000000000000
  0
ARC
  8
0
  6
CONTINUOUS
 62
256
 10
-726.037978999999950
 20
-128.875615000000010
 40
399.999999999999940
 50
355.885654999999990
 51
357.065974999999980
  0
ARC
  8
0
  6
CONTINUOUS
 62
256
 10
-326.062979999999980
 20
-149.375615000000010
 40
0.500000000000000
 50
90.000000000000000
 51
177.065974999999950
  0
ARC
  8
0
  6
CONTINUOUS
 62
256
 10
-356.991524000000030
 20
-155.422069999999990
 40
30.000000000000004
 50
319.917507000000000
 51
355.885654999999990
  0
ARC
  8
0
  6
CONTINUOUS
 62
256
 10
-409.084433999999990
 20
-155.422069999999990
 40
30.000000000000018
 50
184.114344999999960
 51
220.082493000000030
  0
ARC
  8
0
  6
CONTINUOUS
 62
256
 10
-40.037979000000000
 20
-128.875615000000010
 40
400.000000000000000
 50
182.934025000000020
 51
184.114344999999960
  0
ARC
  8
0
  6
CONTINUOUS
 62
256
 10
-441.537979000000010
 20
-148.375615000000010
 40
0.500000000000000
 50
180.000000000000000
 51
270.000000000000000
  0
ARC
  8
0
  6
CONTINUOUS
 62
256
 10
-440.012977999999980
 20
-149.375615000000010
 40
0.500000000000028
 50
2.934025000000031
 51
90.000000000000000
  0
ARC
  8
0
  6
CONTINUOUS
 62
256
 10
-440.012977999999980
 20
-149.375615000000010
 40
0.500000000000028
 50
2.934025000000031
 51
90.000000000000000
  0
ARC
  8
0
  6
CONTINUOUS
 62
256
 10
-441.537979000000010
 20
-109.375615000000000
 40
0.500000000000000
 50
90.000000000000000
 51
180.000000000000000
  0
ARC
  8
0
  6
CONTINUOUS
 62
256
 10
-441.537979000000010
 20
-109.375615000000000
 40
0.500000000000000
 50
90.000000000000000
 51
180.000000000000000
  0
ARC
  8
0
  6
CONTINUOUS
 62
256
 10
-430.179419999999990
 20
-172.274415000000000
 40
3.000000000000004
 50
135.000000000000370
 51
218.620629999999860
  0
ARC
  8
0
  6
CONTINUOUS
 62
256
 10
-335.896538000000020
 20
-172.274415000000000
 40
2.999999999999993
 50
321.379370000000110
 51
44.999999999999616
  0
LINE
  8
0
  6
CONTINUOUS
 62
256
 10
-432.037979000000010
 20
-174.738766000000000
 11
-432.037979000000010
 21
-45.085076000000001
  0
LINE
  8
0
  6
CONTINUOUS
 62
256
 10
-432.037979000000010
 20
-192.666154000000010
 11
-432.037979000000010
 21
-174.738766000000000
  0
LINE
  8
0
  6
CONTINUOUS
 62
256
 10
-436.037979000000010
 20
-63.375615000000003
 11
-436.037979000000010
 21
-128.875615000000010
  0
LINE
  8
0
  6
CONTINUOUS
 62
256
 10
-436.037979000000010
 20
-63.375615000000003
 11
-432.037979000000010
 21
-63.375615000000003
  0
LINE
  8
0
  6
CONTINUOUS
 62
256
 10
-432.037979000000010
 20
-45.085076000000001
 11
-420.037979000000010
 21
-44.875615000000003
  0
LINE
  8
0
  6
CONTINUOUS
 62
256
 10
-436.037979000000010
 20
-148.375615000000010
 11
-432.037979000000010
 21
-148.375615000000010
  0
LINE
  8
0
  6
CONTINUOUS
 62
256
 10
-330.037979000000010
 20
-128.875615000000010
 11
-330.037979000000010
 21
-148.375615000000010
  0
LINE
  8
0
  6
CONTINUOUS
 62
256
 10
-436.037979000000010
 20
-148.375615000000010
 11
-436.037979000000010
 21
-128.875615000000010
  0
LINE
  8
0
  6
CONTINUOUS
 62
256
 10
-334.037979000000010
 20
-148.375615000000010
 11
-330.037979000000010
 21
-148.375615000000010
  0
LINE
  8
0
  6
CONTINUOUS
 62
256
 10
-420.037979000000010
 20
-44.866888000000003
 11
-344.037979000000010
 21
-46.210928000000003
  0
LINE
  8
0
  6
CONTINUOUS
 62
256
 10
-420.037979000000010
 20
-44.866888000000003
 11
-420.037979000000010
 21
-128.875615000000010
  0
LINE
  8
0
  6
CONTINUOUS
 62
256
 10
-334.037979000000010
 20
-174.738766000000000
 11
-334.037979000000010
 21
-46.210928000000003
  0
LINE
  8
0
  6
CONTINUOUS
 62
256
 10
-330.037979000000010
 20
-128.875615000000010
 11
-330.037979000000010
 21
-63.375615000000003
  0
LINE
  8
0
  6
CONTINUOUS
 62
256
 10
-334.037979000000010
 20
-63.375615000000003
 11
-330.037979000000010
 21
-63.375615000000003
  0
LINE
  8
0
  6
CONTINUOUS
 62
256
 10
-344.037979000000010
 20
-46.210928000000003
 11
-334.037979000000010
 21
-46.210928000000003
  0
LINE
  8
0
  6
CONTINUOUS
 62
256
 10
-420.037979000000010
 20
-192.884343000000000
 11
-344.037979000000010
 21
-191.540302999999990
  0
LINE
  8
0
  6
CONTINUOUS
 62
256
 10
-344.037979000000010
 20
-191.540302999999990
 11
-334.037979000000010
 21
-191.540302999999990
  0
LINE
  8
0
  6
CONTINUOUS
 62
256
 10
-334.037979000000010
 20
-191.540302999999990
 11
-334.037979000000010
 21
-174.738766000000000
  0
LINE
  8
0
  6
CONTINUOUS
 62
256
 10
-420.037979000000010
 20
-192.875615000000010
 11
-432.037979000000010
 21
-192.666154000000010
  0
LINE
  8
0
  6
CONTINUOUS
 62
256
 10
-420.037979000000010
 20
-128.875615000000010
 11
-420.037979000000010
 21
-192.884343000000000
  0
ARC
  8
0
  6
CONTINUOUS
 62
256
 10
-383.537979000000010
 20
-128.875615000000010
 40
58.499999999999993
 50
327.795772000000000
 51
8.849883000000006
  0
ARC
  8
0
  6
CONTINUOUS
 62
256
 10
-382.537979000000010
 20
-128.875615000000010
 40
58.500000000000014
 50
156.139057000000010
 51
212.204227999999970
  0
ARC
  8
0
  6
CONTINUOUS
 62
256
 10
-40.037979000000000
 20
-128.875615000000010
 40
400.000000000000060
 50
175.885655000000010
 51
177.065975000000010
  0
ARC
  8
0
  6
CONTINUOUS
 62
256
 10
-440.012977999999980
 20
-108.375615000000000
 40
0.500000000000000
 50
270.000000000000000
 51
357.065974999999980
  0
ARC
  8
0
  6
CONTINUOUS
 62
256
 10
-440.012977999999980
 20
-108.375615000000000
 40
0.500000000000000
 50
270.000000000000000
 51
357.065974999999980
  0
ARC
  8
0
  6
CONTINUOUS
 62
256
 10
-409.084433999999990
 20
-102.329160000000000
 40
29.999999999999979
 50
153.955265999999990
 51
175.885655000000010
  0
LINE
  8
0
  6
CONTINUOUS
 62
256
 10
-319.037979000000010
 20
-91.875614999999996
 11
-319.037979000000010
 21
-88.875614999999996
  0
LINE
  8
0
  6
CONTINUOUS
 62
256
 10
-283.037979000000010
 20
-105.875615000000000
 11
-283.037979000000010
 21
-88.875614999999996
  0
LINE
  8
0
  6
CONTINUOUS
 62
256
 10
-328.037979000000010
 20
-91.875614999999996
 11
-283.037979000000010
 21
-91.875614999999996
  0
LINE
  8
0
  6
CONTINUOUS
 62
256
 10
-319.037979000000010
 20
-88.875614999999996
 11
-283.037979000000010
 21
-88.875614999999996
  0
LINE
  8
0
  6
CONTINUOUS
 62
256
 10
-328.037979000000010
 20
-119.875615000000000
 11
-283.037979000000010
 21
-119.875615000000000
  0
LINE
  8
0
  6
CONTINUOUS
 62
256
 10
-283.037979000000010
 20
-105.875615000000000
 11
-283.037979000000010
 21
-119.875615000000000
  0
LINE
  8
0
  6
CONTINUOUS
 62
256
 10
-328.037979000000010
 20
-91.375614999999996
 11
-330.037979000000010
 21
-91.375614999999996
  0
LINE
  8
0
  6
CONTINUOUS
 62
256
 10
-328.037979000000010
 20
-105.875615000000000
 11
-328.037979000000010
 21
-91.375614999999996
  0
LINE
  8
0
  6
CONTINUOUS
 62
256
 10
-328.037979000000010
 20
-105.875615000000000
 11
-328.037979000000010
 21
-91.375614999999996
  0
LINE
  8
0
  6
CONTINUOUS
 62
256
 10
-328.037979000000010
 20
-105.875615000000000
 11
-328.037979000000010
 21
-120.375615000000000
  0
LINE
  8
0
  6
CONTINUOUS
 62
256
 10
-328.037979000000010
 20
-105.875615000000000
 11
-328.037979000000010
 21
-120.375615000000000
  0
LINE
  8
0
  6
CONTINUOUS
 62
256
 10
-328.037979000000010
 20
-120.375615000000000
 11
-330.037979000000010
 21
-120.375615000000000
  0
LINE
  8
0
  6
DASHDOT
 62
256
 10
-433.484063999999990
 20
-57.875615000000003
 11
-332.400849999999990
 21
-57.875615000000003
  0
LINE
  8
0
  6
DASHDOT
 62
256
 10
-433.484063999999990
 20
-179.875615000000010
 11
-332.400849999999990
 21
-179.875615000000010
  0
ARC
  8
0
  6
CONTINUOUS
 62
256
 10
-356.991524000000030
 20
-102.329160000000000
 40
29.999999999999979
 50
21.414856000000018
 51
26.044734000000012
  0
LINE
  8
0
  6
DASHDOT
 62
256
 10
-383.037979000000010
 20
-199.813133999999990
 11
-383.037979000000010
 21
-25.237206000000000
  0
ARC
  8
0
  6
CONTINUOUS
 62
256
 10
-383.037979000000010
 20
-335.875614999999980
 40
300.000000000000000
 50
85.138594999999995
 51
90.000000000000000
  0
LINE
  8
0
  6
CONTINUOUS
 62
256
 10
-353.037979000000010
 20
-41.936846000000003
 11
-353.037979000000010
 21
-46.051765000000003
  0
ARC
  8
0
  6
CONTINUOUS
 62
256
 10
-358.037979000000010
 20
-41.936846000000003
 40
5.000000000000000
 50
0.000000000000000
 51
85.138594999999953
  0
ARC
  8
0
  6
CONTINUOUS
 62
256
 10
-408.037979000000010
 20
-41.936846000000003
 40
5.000000000000003
 50
94.861405000000062
 51
180.000000000000000
  0
ARC
  8
0
  6
CONTINUOUS
 62
256
 10
-383.037979000000010
 20
-335.875614999999980
 40
300.000000000000000
 50
90.000000000000000
 51
94.861405000000005
  0
LINE
  8
0
  6
CONTINUOUS
 62
256
 10
-385.537979000000010
 20
-35.375615000000003
 11
-385.537979000000010
 21
-35.886032000000000
  0
LINE
  8
0
  6
CONTINUOUS
 62
256
 10
-380.537979000000010
 20
-35.375615000000003
 11
-380.537979000000010
 21
-35.886032000000000
  0
LINE
  8
0
  6
CONTINUOUS
 62
256
 10
-380.537979000000010
 20
-35.375615000000003
 11
-385.537979000000010
 21
-35.375615000000003
  0
LINE
  8
0
  6
CONTINUOUS
 62
256
 10
-413.037979000000010
 20
-41.936846000000003
 11
-413.037979000000010
 21
-44.990681000000002
  0
ARC
  8
0
  6
CONTINUOUS
 62
256
 10
-332.941365000000020
 20
-172.824203000000010
 40
6.600000000000017
 50
315.000000000000170
 51
351.402917999999940
  0
ARC
  8
0
  6
CONTINUOUS
 62
256
 10
-623.637978999999970
 20
-128.875615000000010
 40
300.600000000000020
 50
351.402918000000000
 51
0.000000000000000
  0
ARC
  8
0
  6
CONTINUOUS
 62
256
 10
-332.941365000000020
 20
-84.927028000000007
 40
6.600000000000019
 50
8.597081999999919
 51
44.999999999999829
  0
LINE
  8
0
  6
CONTINUOUS
 62
256
 10
-328.274459999999980
 20
-80.260122999999993
 11
-330.037979000000010
 21
-78.496604000000005
  0
ARC
  8
0
  6
CONTINUOUS
 62
256
 10
-623.637978999999970
 20
-128.875615000000010
 40
300.600000000000020
 50
0.000000000000000
 51
1.715699000000000
  0
LINE
  8
0
  6
CONTINUOUS
 62
256
 10
-328.274459999999980
 20
-177.491107000000000
 11
-334.037979000000010
 21
-183.254626000000000
  0
ARC
  8
0
  6
CONTINUOUS
 62
256
 10
-383.037979000000010
 20
106.724385000000000
 40
300.600000000000020
 50
264.930522000000000
 51
277.146563000000010
  0
LINE
  8
0
  6
CONTINUOUS
 62
256
 10
-437.801497999999980
 20
-177.491107000000000
 11
-432.037979000000010
 21
-183.254626000000000
  0
ARC
  8
0
  6
CONTINUOUS
 62
256
 10
-142.437979000000010
 20
-128.875615000000010
 40
300.600000000000020
 50
171.402918000000000
 51
180.000000000000000
  0
ARC
  8
0
  6
CONTINUOUS
 62
256
 10
-433.134593999999990
 20
-84.927028000000007
 40
6.600000000000017
 50
135.000000000000170
 51
171.402918000000080
  0
ARC
  8
0
  6
CONTINUOUS
 62
256
 10
-142.437979000000010
 20
-128.875615000000010
 40
300.600000000000020
 50
180.000000000000000
 51
188.597082000000000
  0
LINE
  8
0
  6
CONTINUOUS
 62
256
 10
-437.801497999999980
 20
-80.260122999999993
 11
-436.037979000000010
 21
-78.496604000000005
  0
ARC
  8
0
  6
CONTINUOUS
 62
256
 10
-433.134593999999990
 20
-172.824203000000010
 40
6.600000000000022
 50
188.597082000000030
 51
224.999999999999830
  0
ARC
  8
0
  6
CONTINUOUS
 62
256
 10
-623.637978999999970
 20
-128.875615000000010
 40
300.600000000000020
 50
7.070305000000003
 51
8.597081999999999
  0
LINE
  8
0
  6
CONTINUOUS
 62
256
 10
69.039126999999993
 20
93.561099999999996
 11
76.039126999999993
 21
93.561099999999996
  0
ENDSEC
  0
EOF
