  0
SECTION
  2
HEADER
  9
$TEXTSIZE
 40
2.5
  9
$ACADVER
  1
AC1009
  9
$DIMASZ
 40
3.863703297614046
  9
$DIMEXE
 40
2.000000000000000
  9
$DIMEXO
 40
1.000000000000000
  9
$DIMLFAC
 40
1.000000000000000
  9
$DIMSCALE
 40
1.000000000000000
  9
$DIMTAD
 70
1
  9
$DIMTFAC
 40
0.625000000000000
  9
$DIMTXT
 40
3.200000047683716
  9
$LUPREC
 70
3
  9
$REGENMODE
 70
1
  9
$TEXTSTYLE
  7
STANDARD1
  0
ENDSEC
  0
SECTION
  2
TABLES
  0
TABLE
  2
LTYPE
 70
4
  0
LTYPE
  2
CONTINUOUS
 70
64
  3
Solid line
 72
65
 73
0
 40
0.0
  0
LTYPE
  2
DASHED
 70
64
  3
-- -- -- -- -- -- -- -- -- -- -- -- -- -- --
 72
65
 73
2
 40
0.75
 49
0.5
 49
-0.25
  0
LTYPE
  2
DASHDOT
 70
64
  3
__ . __ . __ . __ . __ . __ . __ . __ . __ . __
 72
65
 73
4
 40
1.0
 49
0.5
 49
-0.25
 49
0.0
 49
-0.25
  0
LTYPE
  2
DIVIDE
 70
64
  3
__ . . __ . . __ . . __ . . __ . . __ . . __
 72
65
 73
6
 40
1.25
 49
0.5
 49
-0.25
 49
0.0
 49
-0.25
 49
0.0
 49
-0.25
  0
ENDTAB
  0
TABLE
  2
LAYER
 70
2
  0
LAYER
  2
0
 70
64
 62
53
  6
CONTINUOUS
  0
LAYER
  2
1
 70
64
 62
102
  6
CONTINUOUS
  0
ENDTAB
  0
TABLE
  2
STYLE
 70
4
  0
STYLE
  2
STANDARD1
 70
64
 40
0.0
 41
1.0
 50
0.0
 71
0
 42
3.200000047683716
  3
MONOTXT
  4
BIGFONT
  0
STYLE
  2
STANDARD2
 70
68
 40
0.0
 41
1.0
 50
0.0
 71
0
 42
3.200000047683716
  3
MONOTXT
  4
BIGFONT
  0
STYLE
  2
STANDARD3
 70
64
 40
0.0
 41
1.0
 50
0.0
 71
0
 42
3.200000047683716
  3
MONOTXT
  4

  0
STYLE
  2
STANDARD4
 70
68
 40
0.0
 41
1.0
 50
0.0
 71
0
 42
3.200000047683716
  3
MONOTXT
  4

  0
ENDTAB
  0
TABLE
  2
VIEW
 70
0
  0
ENDTAB
  0
ENDSEC
  0
SECTION
  2
BLOCKS
  0
BLOCK
  8
0
  2
ZU_SYM_1
 70
64
 10
0.000000000000000
 20
0.000000000000000
  0
LINE
  8
0
  6
CONTINUOUS
 62
256
 10
-1.299999000000000
 20
0.300007000000000
 11
-0.000001000000000
 21
0.600002000000000
  0
LINE
  8
0
  6
CONTINUOUS
 62
256
 10
-1.300000000000000
 20
-0.299995000000000
 11
-0.000004000000000
 21
-0.000001000000000
  0
LINE
  8
0
  6
CONTINUOUS
 62
256
 10
-1.300018000000000
 20
-4.599993000000000
 11
-1.299981000000000
 21
4.600004000000000
  0
ARC
  8
0
  6
CONTINUOUS
 62
256
 10
0.740001000000000
 20
-0.000003000000000
 40
5.539999000000000
 50
155.470187000000040
 51
204.529249999999960
  0
ARC
  8
0
  6
CONTINUOUS
 62
256
 10
-3.229986000000000
 20
3.450012000000000
 40
1.570000000000000
 50
179.999744999999990
 51
227.099745999999980
  0
ARC
  8
0
  6
CONTINUOUS
 62
256
 10
-3.230014000000000
 20
-3.449986000000000
 40
1.570000000000000
 50
132.899744000000000
 51
179.999744999999990
  0
LINE
  8
0
  6
CONTINUOUS
 62
256
 10
-4.299987000000000
 20
2.300014000000000
 11
-1.299990000000000
 21
2.300004000000000
  0
LINE
  8
0
  6
CONTINUOUS
 62
256
 10
-4.300006000000000
 20
-2.299980000000000
 11
-1.300007000000000
 21
-2.299992000000000
  0
LINE
  8
0
  6
CONTINUOUS
 62
256
 10
0.000016000000000
 20
4.599992000000000
 11
-0.000021000000000
 21
-4.599992000000000
  0
LINE
  8
0
  6
CONTINUOUS
 62
256
 10
-4.299978000000000
 20
4.600015000000000
 11
0.000013000000000
 21
4.599998000000000
  0
LINE
  8
0
  6
CONTINUOUS
 62
256
 10
-4.799962000000000
 20
3.900001000000000
 11
-4.299962000000000
 21
4.599999000000000
  0
LINE
  8
0
  6
CONTINUOUS
 62
256
 10
-4.800010000000000
 20
-3.899973000000000
 11
-4.799979000000000
 21
3.900012000000000
  0
LINE
  8
0
  6
CONTINUOUS
 62
256
 10
-4.299996000000000
 20
-4.599962000000000
 11
-4.799990000000000
 21
-3.899959000000000
  0
LINE
  8
0
  6
CONTINUOUS
 62
256
 10
-0.000025000000000
 20
-4.599994000000000
 11
-4.300015000000000
 21
-4.599977000000000
  0
POINT
  8
0
  6
CONTINUOUS
 62
256
 10
0.000000000000000
 20
0.000000000000000
  0
ENDBLK
  8
0
  0
BLOCK
  8
0
  2
ZU_SYM_2
 70
64
 10
0.000000000000000
 20
0.000000000000000
  0
LINE
  8
0
  6
CONTINUOUS
 62
256
 10
-1.299999000000000
 20
0.300007000000000
 11
-0.000001000000000
 21
0.600002000000000
  0
LINE
  8
0
  6
CONTINUOUS
 62
256
 10
-1.300000000000000
 20
-0.299995000000000
 11
-0.000004000000000
 21
-0.000001000000000
  0
LINE
  8
0
  6
CONTINUOUS
 62
256
 10
-1.300018000000000
 20
-4.599993000000000
 11
-1.299981000000000
 21
4.600004000000000
  0
ARC
  8
0
  6
CONTINUOUS
 62
256
 10
0.740001000000000
 20
-0.000003000000000
 40
5.539999000000000
 50
155.470187000000040
 51
204.529249999999960
  0
ARC
  8
0
  6
CONTINUOUS
 62
256
 10
-3.229986000000000
 20
3.450012000000000
 40
1.570000000000000
 50
179.999744999999990
 51
227.099745999999980
  0
ARC
  8
0
  6
CONTINUOUS
 62
256
 10
-3.230014000000000
 20
-3.449986000000000
 40
1.570000000000000
 50
132.899744000000000
 51
179.999744999999990
  0
LINE
  8
0
  6
CONTINUOUS
 62
256
 10
-4.299987000000000
 20
2.300014000000000
 11
-1.299990000000000
 21
2.300004000000000
  0
LINE
  8
0
  6
CONTINUOUS
 62
256
 10
-4.300006000000000
 20
-2.299980000000000
 11
-1.300007000000000
 21
-2.299992000000000
  0
LINE
  8
0
  6
CONTINUOUS
 62
256
 10
0.000016000000000
 20
4.599992000000000
 11
-0.000021000000000
 21
-4.599992000000000
  0
LINE
  8
0
  6
CONTINUOUS
 62
256
 10
-4.299978000000000
 20
4.600015000000000
 11
0.000013000000000
 21
4.599998000000000
  0
LINE
  8
0
  6
CONTINUOUS
 62
256
 10
-4.799962000000000
 20
3.900001000000000
 11
-4.299962000000000
 21
4.599999000000000
  0
LINE
  8
0
  6
CONTINUOUS
 62
256
 10
-4.800010000000000
 20
-3.899973000000000
 11
-4.799979000000000
 21
3.900012000000000
  0
LINE
  8
0
  6
CONTINUOUS
 62
256
 10
-4.299996000000000
 20
-4.599962000000000
 11
-4.799990000000000
 21
-3.899959000000000
  0
LINE
  8
0
  6
CONTINUOUS
 62
256
 10
-0.000025000000000
 20
-4.599994000000000
 11
-4.300015000000000
 21
-4.599977000000000
  0
POINT
  8
0
  6
CONTINUOUS
 62
256
 10
0.000000000000000
 20
0.000000000000000
  0
ENDBLK
  8
0
  0
BLOCK
  8
0
  2
ZU_SYM_3
 70
64
 10
0.000000000000000
 20
0.000000000000000
  0
CIRCLE
  8
0
  6
CONTINUOUS
 62
256
 10
0.000000000000000
 20
0.000000000000000
 40
4.000000000000000
  0
LINE
  8
0
  6
CONTINUOUS
 62
256
 10
2.299999000000000
 20
-4.000000000000000
 11
-2.299999000000000
 21
-4.000000000000000
  0
LINE
  8
0
  6
CONTINUOUS
 62
256
 10
4.600000000000000
 20
-0.000001000000000
 11
2.300001000000000
 21
-4.000000000000000
  0
LINE
  8
0
  6
CONTINUOUS
 62
256
 10
2.300001000000000
 20
4.000000000000000
 11
4.600000000000000
 21
0.000001000000000
  0
LINE
  8
0
  6
CONTINUOUS
 62
256
 10
-2.299999000000000
 20
4.000000000000000
 11
2.299999000000000
 21
4.000000000000000
  0
LINE
  8
0
  6
CONTINUOUS
 62
256
 10
-4.600000000000000
 20
0.000001000000000
 11
-2.300001000000000
 21
4.000000000000000
  0
LINE
  8
0
  6
CONTINUOUS
 62
256
 10
-2.300001000000000
 20
-4.000000000000000
 11
-4.600000000000000
 21
-0.000001000000000
  0
POINT
  8
0
  6
CONTINUOUS
 62
256
 10
0.000000000000000
 20
0.000000000000000
  0
ENDBLK
  8
0
  0
BLOCK
  8
0
  2
ZU_SYM_4
 70
64
 10
0.000000000000000
 20
0.000000000000000
  0
CIRCLE
  8
0
  6
CONTINUOUS
 62
256
 10
0.000000000000000
 20
0.000000000000000
 40
4.000000000000000
  0
LINE
  8
0
  6
CONTINUOUS
 62
256
 10
2.299999000000000
 20
-4.000000000000000
 11
-2.299999000000000
 21
-4.000000000000000
  0
LINE
  8
0
  6
CONTINUOUS
 62
256
 10
4.600000000000000
 20
-0.000001000000000
 11
2.300001000000000
 21
-4.000000000000000
  0
LINE
  8
0
  6
CONTINUOUS
 62
256
 10
2.300001000000000
 20
4.000000000000000
 11
4.600000000000000
 21
0.000001000000000
  0
LINE
  8
0
  6
CONTINUOUS
 62
256
 10
-2.299999000000000
 20
4.000000000000000
 11
2.299999000000000
 21
4.000000000000000
  0
LINE
  8
0
  6
CONTINUOUS
 62
256
 10
-4.600000000000000
 20
0.000001000000000
 11
-2.300001000000000
 21
4.000000000000000
  0
LINE
  8
0
  6
CONTINUOUS
 62
256
 10
-2.300001000000000
 20
-4.000000000000000
 11
-4.600000000000000
 21
-0.000001000000000
  0
POINT
  8
0
  6
CONTINUOUS
 62
256
 10
0.000000000000000
 20
0.000000000000000
  0
ENDBLK
  8
0
  0
BLOCK
  8
0
  2
ZU_SYM_5
 70
64
 10
0.000000000000000
 20
0.000000000000000
  0
CIRCLE
  8
0
  6
CONTINUOUS
 62
256
 10
0.000000000000000
 20
0.000000000000000
 40
4.000000000000000
  0
LINE
  8
0
  6
CONTINUOUS
 62
256
 10
2.299999000000000
 20
-4.000000000000000
 11
-2.299999000000000
 21
-4.000000000000000
  0
LINE
  8
0
  6
CONTINUOUS
 62
256
 10
4.600000000000000
 20
-0.000001000000000
 11
2.300001000000000
 21
-4.000000000000000
  0
LINE
  8
0
  6
CONTINUOUS
 62
256
 10
2.300001000000000
 20
4.000000000000000
 11
4.600000000000000
 21
0.000001000000000
  0
LINE
  8
0
  6
CONTINUOUS
 62
256
 10
-2.299999000000000
 20
4.000000000000000
 11
2.299999000000000
 21
4.000000000000000
  0
LINE
  8
0
  6
CONTINUOUS
 62
256
 10
-4.600000000000000
 20
0.000001000000000
 11
-2.300001000000000
 21
4.000000000000000
  0
LINE
  8
0
  6
CONTINUOUS
 62
256
 10
-2.300001000000000
 20
-4.000000000000000
 11
-4.600000000000000
 21
-0.000001000000000
  0
POINT
  8
0
  6
CONTINUOUS
 62
256
 10
0.000000000000000
 20
0.000000000000000
  0
ENDBLK
  8
0
  0
BLOCK
  8
0
  2
ZU_SYM_6
 70
64
 10
0.000000000000000
 20
0.000000000000000
  0
CIRCLE
  8
0
  6
CONTINUOUS
 62
256
 10
0.000000000000000
 20
0.000000000000000
 40
4.000000000000000
  0
LINE
  8
0
  6
CONTINUOUS
 62
256
 10
2.299999000000000
 20
-4.000000000000000
 11
-2.299999000000000
 21
-4.000000000000000
  0
LINE
  8
0
  6
CONTINUOUS
 62
256
 10
4.600000000000000
 20
-0.000001000000000
 11
2.300001000000000
 21
-4.000000000000000
  0
LINE
  8
0
  6
CONTINUOUS
 62
256
 10
2.300001000000000
 20
4.000000000000000
 11
4.600000000000000
 21
0.000001000000000
  0
LINE
  8
0
  6
CONTINUOUS
 62
256
 10
-2.299999000000000
 20
4.000000000000000
 11
2.299999000000000
 21
4.000000000000000
  0
LINE
  8
0
  6
CONTINUOUS
 62
256
 10
-4.600000000000000
 20
0.000001000000000
 11
-2.300001000000000
 21
4.000000000000000
  0
LINE
  8
0
  6
CONTINUOUS
 62
256
 10
-2.300001000000000
 20
-4.000000000000000
 11
-4.600000000000000
 21
-0.000001000000000
  0
POINT
  8
0
  6
CONTINUOUS
 62
256
 10
0.000000000000000
 20
0.000000000000000
  0
ENDBLK
  8
0
  0
BLOCK
  8
0
  2
ZU_SYM_7
 70
64
 10
0.000000000000000
 20
0.000000000000000
  0
LINE
  8
0
  6
CONTINUOUS
 62
256
 10
-1.299999000000000
 20
0.300007000000000
 11
-0.000001000000000
 21
0.600002000000000
  0
LINE
  8
0
  6
CONTINUOUS
 62
256
 10
-1.300000000000000
 20
-0.299995000000000
 11
-0.000004000000000
 21
-0.000001000000000
  0
LINE
  8
0
  6
CONTINUOUS
 62
256
 10
-1.300018000000000
 20
-4.599993000000000
 11
-1.299981000000000
 21
4.600004000000000
  0
ARC
  8
0
  6
CONTINUOUS
 62
256
 10
0.740001000000000
 20
-0.000003000000000
 40
5.539999000000000
 50
155.470187000000040
 51
204.529249999999960
  0
ARC
  8
0
  6
CONTINUOUS
 62
256
 10
-3.229986000000000
 20
3.450012000000000
 40
1.570000000000000
 50
179.999744999999990
 51
227.099745999999980
  0
ARC
  8
0
  6
CONTINUOUS
 62
256
 10
-3.230014000000000
 20
-3.449986000000000
 40
1.570000000000000
 50
132.899744000000000
 51
179.999744999999990
  0
LINE
  8
0
  6
CONTINUOUS
 62
256
 10
-4.299987000000000
 20
2.300014000000000
 11
-1.299990000000000
 21
2.300004000000000
  0
LINE
  8
0
  6
CONTINUOUS
 62
256
 10
-4.300006000000000
 20
-2.299980000000000
 11
-1.300007000000000
 21
-2.299992000000000
  0
LINE
  8
0
  6
CONTINUOUS
 62
256
 10
0.000016000000000
 20
4.599992000000000
 11
-0.000021000000000
 21
-4.599992000000000
  0
LINE
  8
0
  6
CONTINUOUS
 62
256
 10
-4.299978000000000
 20
4.600015000000000
 11
0.000013000000000
 21
4.599998000000000
  0
LINE
  8
0
  6
CONTINUOUS
 62
256
 10
-4.799962000000000
 20
3.900001000000000
 11
-4.299962000000000
 21
4.599999000000000
  0
LINE
  8
0
  6
CONTINUOUS
 62
256
 10
-4.800010000000000
 20
-3.899973000000000
 11
-4.799979000000000
 21
3.900012000000000
  0
LINE
  8
0
  6
CONTINUOUS
 62
256
 10
-4.299996000000000
 20
-4.599962000000000
 11
-4.799990000000000
 21
-3.899959000000000
  0
LINE
  8
0
  6
CONTINUOUS
 62
256
 10
-0.000025000000000
 20
-4.599994000000000
 11
-4.300015000000000
 21
-4.599977000000000
  0
POINT
  8
0
  6
CONTINUOUS
 62
256
 10
0.000000000000000
 20
0.000000000000000
  0
ENDBLK
  8
0
  0
BLOCK
  8
0
  2
ZU_SYM_8
 70
64
 10
0.000000000000000
 20
0.000000000000000
  0
LINE
  8
0
  6
CONTINUOUS
 62
256
 10
-1.299999000000000
 20
0.300007000000000
 11
-0.000001000000000
 21
0.600002000000000
  0
LINE
  8
0
  6
CONTINUOUS
 62
256
 10
-1.300000000000000
 20
-0.299995000000000
 11
-0.000004000000000
 21
-0.000001000000000
  0
LINE
  8
0
  6
CONTINUOUS
 62
256
 10
-1.300018000000000
 20
-4.599993000000000
 11
-1.299981000000000
 21
4.600004000000000
  0
ARC
  8
0
  6
CONTINUOUS
 62
256
 10
0.740001000000000
 20
-0.000003000000000
 40
5.539999000000000
 50
155.470187000000040
 51
204.529249999999960
  0
ARC
  8
0
  6
CONTINUOUS
 62
256
 10
-3.229986000000000
 20
3.450012000000000
 40
1.570000000000000
 50
179.999744999999990
 51
227.099745999999980
  0
ARC
  8
0
  6
CONTINUOUS
 62
256
 10
-3.230014000000000
 20
-3.449986000000000
 40
1.570000000000000
 50
132.899744000000000
 51
179.999744999999990
  0
LINE
  8
0
  6
CONTINUOUS
 62
256
 10
-4.299987000000000
 20
2.300014000000000
 11
-1.299990000000000
 21
2.300004000000000
  0
LINE
  8
0
  6
CONTINUOUS
 62
256
 10
-4.300006000000000
 20
-2.299980000000000
 11
-1.300007000000000
 21
-2.299992000000000
  0
LINE
  8
0
  6
CONTINUOUS
 62
256
 10
0.000016000000000
 20
4.599992000000000
 11
-0.000021000000000
 21
-4.599992000000000
  0
LINE
  8
0
  6
CONTINUOUS
 62
256
 10
-4.299978000000000
 20
4.600015000000000
 11
0.000013000000000
 21
4.599998000000000
  0
LINE
  8
0
  6
CONTINUOUS
 62
256
 10
-4.799962000000000
 20
3.900001000000000
 11
-4.299962000000000
 21
4.599999000000000
  0
LINE
  8
0
  6
CONTINUOUS
 62
256
 10
-4.800010000000000
 20
-3.899973000000000
 11
-4.799979000000000
 21
3.900012000000000
  0
LINE
  8
0
  6
CONTINUOUS
 62
256
 10
-4.299996000000000
 20
-4.599962000000000
 11
-4.799990000000000
 21
-3.899959000000000
  0
LINE
  8
0
  6
CONTINUOUS
 62
256
 10
-0.000025000000000
 20
-4.599994000000000
 11
-4.300015000000000
 21
-4.599977000000000
  0
POINT
  8
0
  6
CONTINUOUS
 62
256
 10
0.000000000000000
 20
0.000000000000000
  0
ENDBLK
  8
0
  0
ENDSEC
  0
SECTION
  2
ENTITIES
  0
TEXT
  8
0
  6
CONTINUOUS
 62
256
 10
-70.375488281250000
 20
-13.156250000000000
 40
2.799999952316284
  1
ü@
 50
0.000002504478167
 41
0.996000017370497
  7
STANDARD1
  0
TEXT
  8
0
  6
CONTINUOUS
 62
256
 10
1.624511957168579
 20
-253.406250000000000
 40
2.799999952316284
  1
ü@
 50
0.000002504478167
 41
0.996000017370497
  7
STANDARD1
  0
LINE
  8
0
  6
CONTINUOUS
 62
256
 10
88.885391999999996
 20
-53.247528000000003
 11
88.885391999999996
 21
-106.747528000000000
  0
LINE
  8
0
  6
CONTINUOUS
 62
256
 10
88.885391999999996
 20
-160.247527999999990
 11
88.885391999999996
 21
-106.747528000000000
  0
CIRCLE
  8
0
  6
CONTINUOUS
 62
256
 10
48.885392000000003
 20
-51.747528000000003
 40
4.500000000000000
  0
CIRCLE
  8
0
  6
CONTINUOUS
 62
256
 10
-69.114608000000004
 20
-51.747528000000003
 40
4.500000000000000
  0
CIRCLE
  8
0
  6
CONTINUOUS
 62
256
 10
-69.114608000000004
 20
-156.747527999999990
 40
4.500000000000000
  0
CIRCLE
  8
0
  6
CONTINUOUS
 62
256
 10
48.885392000000003
 20
-156.747527999999990
 40
4.500000000000000
  0
CIRCLE
  8
0
  6
CONTINUOUS
 62
256
 10
-69.114608000000004
 20
-51.747528000000003
 40
7.000000000000000
  0
CIRCLE
  8
0
  6
CONTINUOUS
 62
256
 10
-69.114608000000004
 20
-156.747527999999990
 40
7.000000000000000
  0
CIRCLE
  8
0
  6
CONTINUOUS
 62
256
 10
48.885392000000003
 20
-156.747527999999990
 40
7.000000000000000
  0
CIRCLE
  8
0
  6
CONTINUOUS
 62
256
 10
48.885392000000003
 20
-51.747528000000003
 40
7.000000000000000
  0
LINE
  8
0
  6
CONTINUOUS
 62
256
 10
88.885391999999996
 20
-53.247528000000003
 11
88.885391999999996
 21
-106.747528000000000
  0
LINE
  8
0
  6
CONTINUOUS
 62
256
 10
88.885391999999996
 20
-160.247527999999990
 11
88.885391999999996
 21
-106.747528000000000
  0
LINE
  8
0
  6
CONTINUOUS
 62
256
 10
83.885391999999996
 20
-59.247528000000003
 11
83.885391999999996
 21
-56.213075000000003
  0
LINE
  8
0
  6
CONTINUOUS
 62
256
 10
80.885391999999996
 20
-62.247528000000003
 11
75.885391999999996
 21
-62.247528000000003
  0
LINE
  8
0
  6
CONTINUOUS
 62
256
 10
81.885391999999996
 20
-65.317876999999996
 11
75.885391999999996
 21
-65.317876999999996
  0
LINE
  8
0
  6
CONTINUOUS
 62
256
 10
70.885391999999996
 20
-69.855362000000000
 11
70.885391999999996
 21
-67.247528000000003
  0
LINE
  8
0
  6
CONTINUOUS
 62
256
 10
73.885391999999996
 20
-72.855362000000000
 11
80.885391999999996
 21
-72.855362000000000
  0
LINE
  8
0
  6
CONTINUOUS
 62
256
 10
83.885391999999996
 20
-86.747528000000003
 11
88.885391999999996
 21
-86.747528000000003
  0
LINE
  8
0
  6
CONTINUOUS
 62
256
 10
83.885391999999996
 20
-106.747528000000000
 11
83.885391999999996
 21
-67.317876999999996
  0
LINE
  8
0
  6
CONTINUOUS
 62
256
 10
83.885391999999996
 20
-126.747528000000000
 11
88.885391999999996
 21
-126.747528000000000
  0
LINE
  8
0
  6
CONTINUOUS
 62
256
 10
70.885391999999996
 20
-143.639693999999990
 11
70.885391999999996
 21
-146.247527999999990
  0
LINE
  8
0
  6
CONTINUOUS
 62
256
 10
73.885391999999996
 20
-140.639693999999990
 11
80.885391999999996
 21
-140.639693999999990
  0
LINE
  8
0
  6
CONTINUOUS
 62
256
 10
83.885391999999996
 20
-106.747528000000000
 11
83.885391999999996
 21
-146.177179999999990
  0
LINE
  8
0
  6
CONTINUOUS
 62
256
 10
80.885391999999996
 20
-151.247527999999990
 11
75.885391999999996
 21
-151.247527999999990
  0
LINE
  8
0
  6
CONTINUOUS
 62
256
 10
81.885391999999996
 20
-148.177179999999990
 11
75.885391999999996
 21
-148.177179999999990
  0
LINE
  8
0
  6
CONTINUOUS
 62
256
 10
83.885391999999996
 20
-154.247527999999990
 11
83.885391999999996
 21
-157.281982000000000
  0
ARC
  8
0
  6
CONTINUOUS
 62
256
 10
86.885391999999996
 20
-56.213075000000003
 40
2.999999999999997
 50
89.000000000000128
 51
180.000000000000000
  0
ARC
  8
0
  6
CONTINUOUS
 62
256
 10
86.885391999999996
 20
-157.281982000000000
 40
3.000000000000000
 50
180.000000000000000
 51
270.999999999999890
  0
ARC
  8
0
  6
CONTINUOUS
 62
256
 10
80.885391999999996
 20
-75.855362000000000
 40
3.000000000000000
 50
0.000000000000000
 51
90.000000000000000
  0
ARC
  8
0
  6
CONTINUOUS
 62
256
 10
80.885391999999996
 20
-59.247528000000003
 40
3.000000000000000
 50
270.000000000000000
 51
0.000000000000000
  0
ARC
  8
0
  6
CONTINUOUS
 62
256
 10
81.885391999999996
 20
-67.317876999999996
 40
2.000000000000000
 50
0.000000000000000
 51
90.000000000000000
  0
ARC
  8
0
  6
CONTINUOUS
 62
256
 10
75.885391999999996
 20
-70.317876999999996
 40
5.000000000000000
 50
90.000000000000000
 51
180.000000000000000
  0
ARC
  8
0
  6
CONTINUOUS
 62
256
 10
75.885391999999996
 20
-67.247528000000003
 40
5.000000000000000
 50
90.000000000000000
 51
180.000000000000000
  0
ARC
  8
0
  6
CONTINUOUS
 62
256
 10
80.885391999999996
 20
-137.639693999999990
 40
3.000000000000000
 50
270.000000000000000
 51
0.000000000000000
  0
ARC
  8
0
  6
CONTINUOUS
 62
256
 10
75.885391999999996
 20
-143.177179999999990
 40
5.000000000000000
 50
180.000000000000000
 51
270.000000000000000
  0
ARC
  8
0
  6
CONTINUOUS
 62
256
 10
75.885391999999996
 20
-146.247527999999990
 40
5.000000000000000
 50
180.000000000000000
 51
270.000000000000000
  0
ARC
  8
0
  6
CONTINUOUS
 62
256
 10
80.885391999999996
 20
-154.247527999999990
 40
3.000000000000000
 50
0.000000000000000
 51
90.000000000000000
  0
ARC
  8
0
  6
CONTINUOUS
 62
256
 10
81.885391999999996
 20
-146.177179999999990
 40
2.000000000000000
 50
270.000000000000000
 51
0.000000000000000
  0
LINE
  8
0
  6
CONTINUOUS
 62
256
 10
70.885391999999996
 20
-55.986159000000001
 11
70.885391999999996
 21
-106.747528000000000
  0
LINE
  8
0
  6
CONTINUOUS
 62
256
 10
70.885391999999996
 20
-157.508896999999990
 11
70.885391999999996
 21
-106.747528000000000
  0
ARC
  8
0
  6
CONTINUOUS
 62
256
 10
73.885391999999996
 20
-157.508896999999990
 40
3.000000000000000
 50
180.000000000000000
 51
270.999999999999890
  0
ARC
  8
0
  6
CONTINUOUS
 62
256
 10
73.885391999999996
 20
-55.986159000000001
 40
2.999999999999997
 50
89.000000000000128
 51
180.000000000000000
  0
ARC
  8
0
  6
CONTINUOUS
 62
256
 10
73.885391999999996
 20
-137.639693999999990
 40
3.000000000000000
 50
180.000000000000000
 51
270.000000000000000
  0
ARC
  8
0
  6
CONTINUOUS
 62
256
 10
73.885391999999996
 20
-75.855362000000000
 40
3.000000000000000
 50
90.000000000000000
 51
180.000000000000000
  0
ARC
  8
0
  6
CONTINUOUS
 62
256
 10
-27.114608000000000
 20
-93.747528000000003
 40
41.499999999999986
 50
270.000000000000000
 51
180.000000000000000
  0
ARC
  8
0
  6
CONTINUOUS
 62
256
 10
73.885391999999996
 20
-137.639693999999990
 40
3.000000000000000
 50
180.000000000000000
 51
270.000000000000000
  0
ARC
  8
0
  6
CONTINUOUS
 62
256
 10
73.885391999999996
 20
-75.855362000000000
 40
3.000000000000000
 50
90.000000000000000
 51
180.000000000000000
  0
ARC
  8
0
  6
CONTINUOUS
 62
256
 10
73.885391999999996
 20
-157.508896999999990
 40
3.000000000000000
 50
180.000000000000000
 51
270.999999999999890
  0
ARC
  8
0
  6
CONTINUOUS
 62
256
 10
73.885391999999996
 20
-55.986159000000001
 40
2.999999999999997
 50
89.000000000000128
 51
180.000000000000000
  0
LINE
  8
0
  6
CONTINUOUS
 62
256
 10
70.885391999999996
 20
-55.986159000000001
 11
70.885391999999996
 21
-106.747528000000000
  0
LINE
  8
0
  6
CONTINUOUS
 62
256
 10
70.885391999999996
 20
-157.508896999999990
 11
70.885391999999996
 21
-106.747528000000000
  0
LINE
  8
0
  6
CONTINUOUS
 62
256
 10
63.389681000000003
 20
-160.692557999999990
 11
88.885391999999996
 21
-160.247527999999990
  0
LINE
  8
0
  6
CONTINUOUS
 62
256
 10
63.729008000000000
 20
-52.808422000000000
 11
88.885391999999996
 21
-53.247528000000003
  0
ARC
  8
0
  6
CONTINUOUS
 62
256
 10
63.781365000000001
 20
-49.808878999999997
 40
2.999999999999997
 50
188.271556000000000
 51
268.999999999999940
  0
ARC
  8
0
  6
CONTINUOUS
 62
256
 10
-27.114608000000000
 20
-93.747528000000003
 40
44.000000000000000
 50
98.645864000000003
 51
180.000000000000000
  0
LINE
  8
0
  6
CONTINUOUS
 62
256
 10
-33.728985999999999
 20
-50.247528000000003
 11
-52.232664999999997
 21
-50.247528000000003
  0
ARC
  8
0
  6
CONTINUOUS
 62
256
 10
-27.114608000000000
 20
-93.747528000000003
 40
37.500000000000000
 50
180.000000000000000
 51
90.000000000000000
  0
LINE
  8
0
  6
CONTINUOUS
 62
256
 10
60.885392000000003
 20
-160.747527999999990
 11
60.885392000000003
 21
-47.747528000000003
  0
ARC
  8
0
  6
CONTINUOUS
 62
256
 10
-73.114608000000004
 20
-47.747528000000003
 40
5.500000000000000
 50
90.000000000000000
 51
180.000000000000000
  0
ARC
  8
0
  6
CONTINUOUS
 62
256
 10
-73.114608000000004
 20
-160.747527999999990
 40
5.500000000000000
 50
180.000000000000000
 51
270.000000000000000
  0
ARC
  8
0
  6
CONTINUOUS
 62
256
 10
53.885392000000003
 20
-160.747527999999990
 40
5.500000000000000
 50
270.000000000000000
 51
0.000000000000000
  0
ARC
  8
0
  6
CONTINUOUS
 62
256
 10
53.885392000000003
 20
-47.747528000000003
 40
5.500000000000000
 50
0.000000000000000
 51
90.000000000000000
  0
ARC
  8
0
  6
CONTINUOUS
 62
256
 10
81.885391999999996
 20
-67.317876999999996
 40
2.000000000000000
 50
0.000000000000000
 51
90.000000000000000
  0
ARC
  8
0
  6
CONTINUOUS
 62
256
 10
80.885391999999996
 20
-59.247528000000003
 40
3.000000000000000
 50
270.000000000000000
 51
0.000000000000000
  0
ARC
  8
0
  6
CONTINUOUS
 62
256
 10
75.885391999999996
 20
-67.247528000000003
 40
5.000000000000000
 50
90.000000000000000
 51
180.000000000000000
  0
ARC
  8
0
  6
CONTINUOUS
 62
256
 10
75.885391999999996
 20
-70.317876999999996
 40
5.000000000000000
 50
90.000000000000000
 51
180.000000000000000
  0
ARC
  8
0
  6
CONTINUOUS
 62
256
 10
80.885391999999996
 20
-75.855362000000000
 40
3.000000000000000
 50
0.000000000000000
 51
90.000000000000000
  0
ARC
  8
0
  6
CONTINUOUS
 62
256
 10
75.885391999999996
 20
-146.247527999999990
 40
5.000000000000000
 50
180.000000000000000
 51
270.000000000000000
  0
ARC
  8
0
  6
CONTINUOUS
 62
256
 10
75.885391999999996
 20
-143.177179999999990
 40
5.000000000000000
 50
180.000000000000000
 51
270.000000000000000
  0
ARC
  8
0
  6
CONTINUOUS
 62
256
 10
81.885391999999996
 20
-146.177179999999990
 40
2.000000000000000
 50
270.000000000000000
 51
0.000000000000000
  0
ARC
  8
0
  6
CONTINUOUS
 62
256
 10
80.885391999999996
 20
-154.247527999999990
 40
3.000000000000000
 50
0.000000000000000
 51
90.000000000000000
  0
ARC
  8
0
  6
CONTINUOUS
 62
256
 10
80.885391999999996
 20
-137.639693999999990
 40
3.000000000000000
 50
270.000000000000000
 51
0.000000000000000
  0
ARC
  8
0
  6
CONTINUOUS
 62
256
 10
53.885392000000003
 20
-160.747527999999990
 40
7.000000000000000
 50
270.000000000000000
 51
0.000000000000000
  0
ARC
  8
0
  6
CONTINUOUS
 62
256
 10
-73.114608000000004
 20
-47.747528000000003
 40
7.000000000000000
 50
90.000000000000000
 51
180.000000000000000
  0
ARC
  8
0
  6
CONTINUOUS
 62
256
 10
-73.114608000000004
 20
-160.747527999999990
 40
7.000000000000000
 50
180.000000000000000
 51
270.000000000000000
  0
ARC
  8
0
  6
CONTINUOUS
 62
256
 10
-27.114608000000000
 20
-93.747528000000003
 40
37.500000000000000
 50
90.000000000000000
 51
180.000000000000000
  0
CIRCLE
  8
0
  6
CONTINUOUS
 62
256
 10
-27.114608000000000
 20
-93.747528000000003
 40
25.000000000000000
  0
ARC
  8
0
  6
CONTINUOUS
 62
256
 10
53.885392000000003
 20
-47.747528000000003
 40
7.000000000000000
 50
0.000000000000000
 51
90.000000000000000
  0
ARC
  8
0
  6
CONTINUOUS
 62
256
 10
86.885391999999996
 20
-56.213075000000003
 40
2.999999999999997
 50
89.000000000000128
 51
180.000000000000000
  0
ARC
  8
0
  6
CONTINUOUS
 62
256
 10
86.885391999999996
 20
-157.281982000000000
 40
3.000000000000000
 50
180.000000000000000
 51
270.999999999999890
  0
ARC
  8
0
  6
CONTINUOUS
 62
256
 10
32.003449000000003
 20
-53.747528000000003
 40
5.999999999999997
 50
6.756327000000024
 51
90.000000000000000
  0
ARC
  8
0
  6
CONTINUOUS
 62
256
 10
48.885392000000003
 20
-51.747528000000003
 40
11.000000000000002
 50
186.756326999999970
 51
266.627713000000030
  0
ARC
  8
0
  6
CONTINUOUS
 62
256
 10
47.885392000000003
 20
-68.718091000000001
 40
6.000000000000000
 50
0.000000000000000
 51
86.627713000000014
  0
ARC
  8
0
  6
CONTINUOUS
 62
256
 10
-52.232664999999997
 20
-53.747528000000003
 40
6.000000000000000
 50
90.000000000000000
 51
173.243672999999970
  0
ARC
  8
0
  6
CONTINUOUS
 62
256
 10
-69.114608000000004
 20
-51.747528000000003
 40
11.000000000000000
 50
273.372286999999970
 51
353.243672999999940
  0
ARC
  8
0
  6
CONTINUOUS
 62
256
 10
-68.114608000000004
 20
-68.718091000000001
 40
5.999999999999999
 50
93.372287000000000
 51
180.000000000000000
  0
ARC
  8
0
  6
CONTINUOUS
 62
256
 10
-68.114608000000004
 20
-139.776965999999990
 40
6.000000000000000
 50
180.000000000000000
 51
266.627712999999970
  0
ARC
  8
0
  6
CONTINUOUS
 62
256
 10
-69.114608000000004
 20
-156.747527999999990
 40
11.000000000000002
 50
6.756326999999983
 51
86.627712999999986
  0
ARC
  8
0
  6
CONTINUOUS
 62
256
 10
-52.232664999999997
 20
-154.747527999999990
 40
5.999999999999996
 50
186.756326999999890
 51
270.000000000000000
  0
ARC
  8
0
  6
CONTINUOUS
 62
256
 10
32.003449000000003
 20
-154.747527999999990
 40
6.000000000000000
 50
270.000000000000000
 51
353.243673000000110
  0
ARC
  8
0
  6
CONTINUOUS
 62
256
 10
48.885392000000003
 20
-156.747527999999990
 40
11.000000000000000
 50
93.372286999999986
 51
173.243673000000030
  0
ARC
  8
0
  6
CONTINUOUS
 62
256
 10
47.885392000000003
 20
-139.776965999999990
 40
5.999999999999992
 50
273.372286999999970
 51
0.000000000000000
  0
ARC
  8
0
  6
CONTINUOUS
 62
256
 10
47.885392000000003
 20
-68.718091000000001
 40
3.500000000000000
 50
0.000000000000000
 51
86.627713000000043
  0
ARC
  8
0
  6
CONTINUOUS
 62
256
 10
48.885392000000003
 20
-51.747528000000003
 40
13.499999999999996
 50
186.756326999999970
 51
266.627713000000030
  0
ARC
  8
0
  6
CONTINUOUS
 62
256
 10
32.003449000000003
 20
-53.747528000000003
 40
3.500000000000002
 50
6.756326999999959
 51
90.000000000000000
  0
ARC
  8
0
  6
CONTINUOUS
 62
256
 10
-52.232664999999997
 20
-53.747528000000003
 40
3.500000000000000
 50
90.000000000000000
 51
173.243673000000060
  0
ARC
  8
0
  6
CONTINUOUS
 62
256
 10
-69.114608000000004
 20
-51.747528000000003
 40
13.500000000000004
 50
273.372286999999970
 51
353.243673000000000
  0
ARC
  8
0
  6
CONTINUOUS
 62
256
 10
-68.114608000000004
 20
-68.718091000000001
 40
3.500000000000003
 50
93.372286999999972
 51
180.000000000000000
  0
ARC
  8
0
  6
CONTINUOUS
 62
256
 10
-68.114608000000004
 20
-139.776965999999990
 40
3.500000000000000
 50
180.000000000000000
 51
266.627713000000030
  0
ARC
  8
0
  6
CONTINUOUS
 62
256
 10
-69.114608000000004
 20
-156.747527999999990
 40
13.499999999999998
 50
6.756327000000007
 51
86.627712999999972
  0
ARC
  8
0
  6
CONTINUOUS
 62
256
 10
47.885392000000003
 20
-139.776965999999990
 40
3.500000000000003
 50
273.372286999999970
 51
0.000000000000000
  0
ARC
  8
0
  6
CONTINUOUS
 62
256
 10
48.885392000000003
 20
-156.747527999999990
 40
13.499999999999989
 50
93.372287000000000
 51
173.243673000000000
  0
ARC
  8
0
  6
CONTINUOUS
 62
256
 10
32.003449000000003
 20
-154.747527999999990
 40
3.500000000000000
 50
270.000000000000000
 51
353.243672999999830
  0
ARC
  8
0
  6
CONTINUOUS
 62
256
 10
-52.232664999999997
 20
-154.747527999999990
 40
3.500000000000004
 50
186.756327000000170
 51
270.000000000000000
  0
ARC
  8
0
  6
CONTINUOUS
 62
256
 10
-27.114608000000000
 20
-93.747528000000003
 40
44.000000000000000
 50
180.000000000000000
 51
81.354135999999997
  0
ARC
  8
0
  6
CONTINUOUS
 62
256
 10
-27.114608000000000
 20
-93.747528000000003
 40
41.500000000000000
 50
180.000000000000000
 51
270.000000000000000
  0
LINE
  8
0
  6
CONTINUOUS
 62
256
 10
-73.114608000000004
 20
-166.247527999999990
 11
-27.114608000000000
 21
-166.247527999999990
  0
LINE
  8
0
  6
CONTINUOUS
 62
256
 10
-27.114608000000000
 20
-166.247527999999990
 11
53.885392000000003
 21
-166.247527999999990
  0
LINE
  8
0
  6
CONTINUOUS
 62
256
 10
-78.614608000000004
 20
-93.747528000000003
 11
-78.614608000000004
 21
-160.747527999999990
  0
LINE
  8
0
  6
CONTINUOUS
 62
256
 10
-78.614608000000004
 20
-47.747528000000003
 11
-78.614608000000004
 21
-93.747528000000003
  0
LINE
  8
0
  6
CONTINUOUS
 62
256
 10
-27.114608000000000
 20
-42.247528000000003
 11
-73.114608000000004
 21
-42.247528000000003
  0
LINE
  8
0
  6
CONTINUOUS
 62
256
 10
53.885392000000003
 20
-42.247528000000003
 11
-27.114608000000000
 21
-42.247528000000003
  0
LINE
  8
0
  6
DASHDOT
 62
256
 10
-27.114608000000000
 20
-169.342660000000000
 11
-27.114608000000000
 21
-43.421655000000001
  0
LINE
  8
0
  6
CONTINUOUS
 62
256
 10
59.385392000000003
 20
-160.747527999999990
 11
59.385392000000003
 21
-47.747528000000003
  0
LINE
  8
0
  6
CONTINUOUS
 62
256
 10
83.885391999999996
 20
-59.247528000000003
 11
83.885391999999996
 21
-56.213075000000003
  0
LINE
  8
0
  6
CONTINUOUS
 62
256
 10
81.885391999999996
 20
-65.317876999999996
 11
75.885391999999996
 21
-65.317876999999996
  0
LINE
  8
0
  6
CONTINUOUS
 62
256
 10
80.885391999999996
 20
-62.247528000000003
 11
75.885391999999996
 21
-62.247528000000003
  0
LINE
  8
0
  6
CONTINUOUS
 62
256
 10
83.885391999999996
 20
-106.747528000000000
 11
83.885391999999996
 21
-67.317876999999996
  0
LINE
  8
0
  6
CONTINUOUS
 62
256
 10
73.885391999999996
 20
-72.855362000000000
 11
80.885391999999996
 21
-72.855362000000000
  0
LINE
  8
0
  6
CONTINUOUS
 62
256
 10
70.885391999999996
 20
-69.855362000000000
 11
70.885391999999996
 21
-67.247528000000003
  0
LINE
  8
0
  6
CONTINUOUS
 62
256
 10
83.885391999999996
 20
-86.747528000000003
 11
88.885391999999996
 21
-86.747528000000003
  0
LINE
  8
0
  6
CONTINUOUS
 62
256
 10
83.885391999999996
 20
-106.747528000000000
 11
83.885391999999996
 21
-146.177179999999990
  0
LINE
  8
0
  6
CONTINUOUS
 62
256
 10
83.885391999999996
 20
-126.747528000000000
 11
88.885391999999996
 21
-126.747528000000000
  0
LINE
  8
0
  6
CONTINUOUS
 62
256
 10
73.885391999999996
 20
-140.639693999999990
 11
80.885391999999996
 21
-140.639693999999990
  0
LINE
  8
0
  6
CONTINUOUS
 62
256
 10
70.885391999999996
 20
-143.639693999999990
 11
70.885391999999996
 21
-146.247527999999990
  0
LINE
  8
0
  6
CONTINUOUS
 62
256
 10
81.885391999999996
 20
-148.177179999999990
 11
75.885391999999996
 21
-148.177179999999990
  0
LINE
  8
0
  6
CONTINUOUS
 62
256
 10
80.885391999999996
 20
-151.247527999999990
 11
75.885391999999996
 21
-151.247527999999990
  0
LINE
  8
0
  6
CONTINUOUS
 62
256
 10
83.885391999999996
 20
-154.247527999999990
 11
83.885391999999996
 21
-157.281982000000000
  0
LINE
  8
0
  6
CONTINUOUS
 62
256
 10
53.885392000000003
 20
-40.747528000000003
 11
-73.114608000000004
 21
-40.747528000000003
  0
LINE
  8
0
  6
CONTINUOUS
 62
256
 10
-80.114608000000004
 20
-47.747528000000003
 11
-80.114608000000004
 21
-160.747527999999990
  0
LINE
  8
0
  6
CONTINUOUS
 62
256
 10
-73.114608000000004
 20
-167.747527999999990
 11
53.885392000000003
 21
-167.747527999999990
  0
LINE
  8
0
  6
DASHDOT
 62
256
 10
48.885392000000003
 20
-147.517045999999990
 11
48.885392000000003
 21
-165.499245000000000
  0
LINE
  8
0
  6
DASHDOT
 62
256
 10
39.886498000000003
 20
-156.747527999999990
 11
57.781849000000001
 21
-156.747527999999990
  0
LINE
  8
0
  6
DASHDOT
 62
256
 10
-69.114608000000004
 20
-147.895618000000010
 11
-69.114608000000004
 21
-165.454699000000010
  0
LINE
  8
0
  6
DASHDOT
 62
256
 10
-77.471016000000006
 20
-156.747527999999990
 11
-60.218150999999999
 21
-156.747527999999990
  0
LINE
  8
0
  6
DASHDOT
 62
256
 10
-69.114608000000004
 20
-42.652428999999998
 11
-69.114608000000004
 21
-60.454698999999998
  0
LINE
  8
0
  6
DASHDOT
 62
256
 10
-77.660302000000001
 20
-51.747528000000003
 11
-60.218150999999999
 21
-51.747528000000003
  0
LINE
  8
0
  6
DASHDOT
 62
256
 10
40.454355999999997
 20
-51.747528000000003
 11
57.781849000000001
 21
-51.747528000000003
  0
LINE
  8
0
  6
DASHDOT
 62
256
 10
48.885392000000003
 20
-43.031002000000001
 11
48.885392000000003
 21
-60.454698999999998
  0
LINE
  8
0
  6
DASHDOT
 62
256
 10
19.227692999999999
 20
-93.747528000000003
 11
-76.724028000000004
 21
-93.747528000000003
  0
LINE
  8
0
  6
CONTINUOUS
 62
256
 10
-56.459539999999997
 20
-64.402597000000000
 11
-56.500590000000003
 21
-64.443647999999996
  0
LINE
  8
0
  6
CONTINUOUS
 62
256
 10
32.003449000000003
 20
-47.747528000000003
 11
-52.232664999999997
 21
-47.747528000000003
  0
LINE
  8
0
  6
CONTINUOUS
 62
256
 10
-74.114608000000004
 20
-68.718091000000001
 11
-74.114608000000004
 21
-139.776965999999990
  0
LINE
  8
0
  6
CONTINUOUS
 62
256
 10
32.003449000000003
 20
-160.747527999999990
 11
-52.232664999999997
 21
-160.747527999999990
  0
LINE
  8
0
  6
CONTINUOUS
 62
256
 10
53.885392000000003
 20
-139.776965999999990
 11
53.885392000000003
 21
-68.718091000000001
  0
LINE
  8
0
  6
CONTINUOUS
 62
256
 10
32.003449000000003
 20
-50.247528000000003
 11
-20.500229999999998
 21
-50.247528000000003
  0
LINE
  8
0
  6
CONTINUOUS
 62
256
 10
-71.614608000000004
 20
-68.718091000000001
 11
-71.614608000000004
 21
-139.776965999999990
  0
LINE
  8
0
  6
CONTINUOUS
 62
256
 10
32.003449000000003
 20
-158.247527999999990
 11
-52.232664999999997
 21
-158.247527999999990
  0
LINE
  8
0
  6
CONTINUOUS
 62
256
 10
51.385392000000003
 20
-139.776965999999990
 11
51.385392000000003
 21
-68.718091000000001
  0
ARC
  8
0
  6
CONTINUOUS
 62
256
 10
-27.114608000000000
 20
-93.747528000000003
 40
11.000000000000004
 50
105.826619999999990
 51
74.173379999999995
  0
CIRCLE
  8
0
  6
CONTINUOUS
 62
256
 10
-27.114608000000000
 20
-93.747528000000003
 40
3.500000000000000
  0
CIRCLE
  8
0
  6
CONTINUOUS
 62
256
 10
-27.114608000000000
 20
-93.747528000000003
 40
4.000000000000000
  0
LINE
  8
0
  6
CONTINUOUS
 62
256
 10
-30.114608000000000
 20
-80.247528000000003
 11
-30.114608000000000
 21
-86.247528000000003
  0
LINE
  8
0
  6
CONTINUOUS
 62
256
 10
-30.114608000000000
 20
-80.247528000000003
 11
-24.114608000000000
 21
-80.247528000000003
  0
LINE
  8
0
  6
CONTINUOUS
 62
256
 10
-30.114608000000000
 20
-86.247528000000003
 11
-24.114608000000000
 21
-86.247528000000003
  0
LINE
  8
0
  6
CONTINUOUS
 62
256
 10
-24.114608000000000
 20
-80.247528000000003
 11
-24.114608000000000
 21
-86.247528000000003
  0
LINE
  8
0
  6
DASHDOT
 62
256
 10
-388.812446000000020
 20
-93.747528000000003
 11
-236.208673000000000
 21
-93.747528000000003
  0
LINE
  8
0
  6
DASHDOT
 62
256
 10
-320.283644999999980
 20
-106.747528000000000
 11
-335.784206999999980
 21
-106.747528000000000
  0
LINE
  8
0
  6
DASHDOT
 62
256
 10
-328.191713999999990
 20
-170.788366000000000
 11
-328.191713999999990
 21
-14.940882000000000
  0
ARC
  8
0
  6
CONTINUOUS
 62
256
 10
-381.191713999999990
 20
-126.247528000000000
 40
0.500000000000000
 50
180.000000000000000
 51
270.000000000000000
  0
ARC
  8
0
  6
CONTINUOUS
 62
256
 10
-381.191713999999990
 20
-87.247528000000003
 40
0.500000000000000
 50
90.000000000000000
 51
180.000000000000000
  0
ARC
  8
0
  6
CONTINUOUS
 62
256
 10
-381.191713999999990
 20
-86.247528000000003
 40
0.500000000000000
 50
270.000000000000000
 51
0.000000000000000
  0
ARC
  8
0
  6
CONTINUOUS
 62
256
 10
-381.191713999999990
 20
-127.247528000000000
 40
0.500000000000000
 50
0.000000000000000
 51
90.000000000000000
  0
ARC
  8
0
  6
CONTINUOUS
 62
256
 10
-275.191713999999990
 20
-126.247528000000000
 40
0.500000000000000
 50
270.000000000000000
 51
0.000000000000000
  0
ARC
  8
0
  6
CONTINUOUS
 62
256
 10
-275.191713999999990
 20
-127.247528000000000
 40
0.500000000000000
 50
90.000000000000000
 51
180.000000000000000
  0
ARC
  8
0
  6
CONTINUOUS
 62
256
 10
-373.224069999999980
 20
-147.537242999999990
 40
3.000000000000004
 50
135.000000000000370
 51
217.162520000000170
  0
ARC
  8
0
  6
CONTINUOUS
 62
256
 10
-371.283434000000000
 20
-149.768427000000000
 40
3.000000000000027
 50
224.869578999999760
 51
262.178139999999590
  0
ARC
  8
0
  6
CONTINUOUS
 62
256
 10
-285.099994999999980
 20
-149.768427000000000
 40
2.999999999999995
 50
277.821860000000410
 51
315.130421000000180
  0
ARC
  8
0
  6
CONTINUOUS
 62
256
 10
-283.159358999999990
 20
-147.537242999999990
 40
2.999999999999989
 50
322.837479999999800
 51
44.999999999999616
  0
ARC
  8
0
  6
CONTINUOUS
 62
256
 10
-283.159358999999990
 20
-65.957813999999999
 40
2.999999999999977
 50
325.340699999999860
 51
34.659300000000187
  0
ARC
  8
0
  6
CONTINUOUS
 62
256
 10
19.308285999999999
 20
-86.747528000000003
 40
400.000000000000000
 50
178.568016000000000
 51
179.928470000000000
  0
ARC
  8
0
  6
CONTINUOUS
 62
256
 10
-355.691713999999990
 20
-79.247528000000003
 40
25.000000000000011
 50
143.130101999999990
 51
174.269825000000000
  0
ARC
  8
0
  6
CONTINUOUS
 62
256
 10
19.308285999999999
 20
-126.747528000000000
 40
400.000000000000000
 50
180.071529999999970
 51
180.859540999999980
  0
ARC
  8
0
  6
CONTINUOUS
 62
256
 10
-355.691713999999990
 20
-134.247527999999990
 40
25.000000000000007
 50
176.561350000000030
 51
230.208180999999880
  0
ARC
  8
0
  6
CONTINUOUS
 62
256
 10
-675.691714000000050
 20
-126.747528000000000
 40
400.000000000000000
 50
358.568016000000060
 51
359.928470000000000
  0
ARC
  8
0
  6
CONTINUOUS
 62
256
 10
-300.691713999999990
 20
-134.247527999999990
 40
24.999999999999986
 50
309.791818999999920
 51
354.269824999999970
  0
ARC
  8
0
  6
CONTINUOUS
 62
256
 10
-675.691714000000050
 20
-86.747528000000003
 40
400.000000000000060
 50
0.572967000000000
 51
1.431984000000000
  0
ARC
  8
0
  6
CONTINUOUS
 62
256
 10
-300.691713999999990
 20
-79.247528000000003
 40
24.999999999999979
 50
5.730175000000014
 51
36.869897999999999
  0
LINE
  8
0
  6
CONTINUOUS
 62
256
 10
-381.691713999999990
 20
-87.247528000000003
 11
-381.691713999999990
 21
-126.247528000000000
  0
LINE
  8
0
  6
CONTINUOUS
 62
256
 10
-274.691713999999990
 20
-126.247528000000000
 11
-274.691713999999990
 21
-104.747528000000000
  0
LINE
  8
0
  6
CONTINUOUS
 62
256
 10
-371.691713999999990
 20
-141.762247000000000
 11
-375.345390000000010
 21
-145.415922999999990
  0
LINE
  8
0
  6
CONTINUOUS
 62
256
 10
-284.691713999999990
 20
-141.762247000000000
 11
-281.038039000000030
 21
-145.415922999999990
  0
ARC
  8
0
  6
CONTINUOUS
 62
256
 10
-373.224069999999980
 20
-65.957813999999999
 40
2.999999999999977
 50
145.340699999999830
 51
214.659300000000170
  0
LINE
  8
0
  6
CONTINUOUS
 62
256
 10
-375.691713999999990
 20
-56.247528000000003
 11
-375.691713999999990
 21
-131.247527999999990
  0
LINE
  8
0
  6
CONTINUOUS
 62
256
 10
-375.691713999999990
 20
-56.247528000000003
 11
-371.691713999999990
 21
-56.247528000000003
  0
LINE
  8
0
  6
CONTINUOUS
 62
256
 10
-371.691713999999990
 20
-40.939534000000002
 11
-371.691713999999990
 21
-167.555522999999990
  0
LINE
  8
0
  6
CONTINUOUS
 62
256
 10
-375.691713999999990
 20
-131.247527999999990
 11
-371.691713999999990
 21
-131.247527999999990
  0
LINE
  8
0
  6
CONTINUOUS
 62
256
 10
-284.691713999999990
 20
-56.256256000000000
 11
-280.691713999999990
 21
-56.256256000000000
  0
LINE
  8
0
  6
CONTINUOUS
 62
256
 10
-280.691713999999990
 20
-56.256256000000000
 11
-280.691713999999990
 21
-131.238801000000000
  0
LINE
  8
0
  6
CONTINUOUS
 62
256
 10
-294.191713999999990
 20
-41.917017999999999
 11
-284.691713999999990
 21
-41.917017999999999
  0
LINE
  8
0
  6
CONTINUOUS
 62
256
 10
-284.691713999999990
 20
-153.029168000000000
 11
-284.691713999999990
 21
-41.917017999999999
  0
LINE
  8
0
  6
CONTINUOUS
 62
256
 10
-361.191713999999990
 20
-40.738801000000002
 11
-361.191713999999990
 21
-45.247528000000003
  0
LINE
  8
0
  6
CONTINUOUS
 62
256
 10
-361.191713999999990
 20
-158.635025000000010
 11
-361.191713999999990
 21
-44.238801000000002
  0
LINE
  8
0
  6
CONTINUOUS
 62
256
 10
-361.191713999999990
 20
-40.747528000000003
 11
-294.191713999999990
 21
-41.917017999999999
  0
LINE
  8
0
  6
CONTINUOUS
 62
256
 10
-361.191713999999990
 20
-40.756256000000000
 11
-371.691713999999990
 21
-40.939534000000002
  0
LINE
  8
0
  6
CONTINUOUS
 62
256
 10
-284.691713999999990
 20
-131.238801000000000
 11
-280.691713999999990
 21
-131.238801000000000
  0
LINE
  8
0
  6
CONTINUOUS
 62
256
 10
-294.191713999999990
 20
-166.595494000000000
 11
-284.691713999999990
 21
-166.595494000000000
  0
LINE
  8
0
  6
CONTINUOUS
 62
256
 10
-284.691713999999990
 20
-166.595494000000000
 11
-284.691713999999990
 21
-153.029168000000000
  0
LINE
  8
0
  6
CONTINUOUS
 62
256
 10
-361.191713999999990
 20
-167.764983000000000
 11
-294.191713999999990
 21
-166.595494000000000
  0
LINE
  8
0
  6
CONTINUOUS
 62
256
 10
-361.191713999999990
 20
-167.764983000000000
 11
-361.191713999999990
 21
-163.256256000000010
  0
LINE
  8
0
  6
CONTINUOUS
 62
256
 10
-361.191713999999990
 20
-167.764983000000000
 11
-361.191713999999990
 21
-158.635025000000010
  0
LINE
  8
0
  6
CONTINUOUS
 62
256
 10
-360.441713999999990
 20
-167.751892000000000
 11
-371.691713999999990
 21
-167.555522999999990
  0
ARC
  8
0
  6
CONTINUOUS
 62
256
 10
-328.191713999999990
 20
-106.747528000000000
 40
53.500000000000014
 50
152.604367999999990
 51
215.601638999999980
  0
ARC
  8
0
  6
CONTINUOUS
 62
256
 10
-328.191713999999990
 20
-106.747528000000000
 40
53.499999999999979
 50
324.398361000000020
 51
2.142396999999993
  0
LINE
  8
0
  6
CONTINUOUS
 62
256
 10
88.885391999999996
 20
-160.247527999999990
 11
187.885392000000000
 21
-160.247527999999990
  0
LINE
  8
0
  6
CONTINUOUS
 62
256
 10
187.885392000000000
 20
-120.747528000000000
 11
88.885391999999996
 21
-120.747528000000000
  0
LINE
  8
0
  6
CONTINUOUS
 62
256
 10
187.885392000000000
 20
-126.375563000000000
 11
88.885391999999996
 21
-126.375563000000000
  0
LINE
  8
0
  6
CONTINUOUS
 62
256
 10
187.885392000000000
 20
-125.133643000000010
 11
88.885391999999996
 21
-125.133643000000010
  0
LINE
  8
0
  6
CONTINUOUS
 62
256
 10
187.885392000000000
 20
-129.585768000000000
 11
88.885391999999996
 21
-129.585768000000000
  0
LINE
  8
0
  6
CONTINUOUS
 62
256
 10
187.885392000000000
 20
-130.932170000000010
 11
88.885391999999996
 21
-130.932170000000010
  0
LINE
  8
0
  6
CONTINUOUS
 62
256
 10
187.885392000000000
 20
-134.024901000000000
 11
88.885391999999996
 21
-134.024901000000000
  0
LINE
  8
0
  6
CONTINUOUS
 62
256
 10
187.885392000000000
 20
-135.503924000000010
 11
88.885391999999996
 21
-135.503924000000010
  0
LINE
  8
0
  6
CONTINUOUS
 62
256
 10
187.885392000000000
 20
-138.461919999999990
 11
88.885391999999996
 21
-138.461919999999990
  0
LINE
  8
0
  6
CONTINUOUS
 62
256
 10
187.885392000000000
 20
-140.051129000000000
 11
88.885391999999996
 21
-140.051129000000000
  0
LINE
  8
0
  6
CONTINUOUS
 62
256
 10
187.885392000000000
 20
-147.789442000000010
 11
88.885391999999996
 21
-147.789442000000010
  0
LINE
  8
0
  6
CONTINUOUS
 62
256
 10
187.885392000000000
 20
-152.880610999999990
 11
88.885391999999996
 21
-152.880610999999990
  0
LINE
  8
0
  6
CONTINUOUS
 62
256
 10
187.885392000000000
 20
-157.247527999999990
 11
88.885391999999996
 21
-157.247527999999990
  0
LINE
  8
0
  6
CONTINUOUS
 62
256
 10
187.885392000000000
 20
-157.747527999999990
 11
88.885391999999996
 21
-157.747527999999990
  0
LINE
  8
0
  6
CONTINUOUS
 62
256
 10
188.385392000000000
 20
-151.845508000000000
 11
188.385392000000000
 21
-142.995927999999990
  0
LINE
  8
0
  6
CONTINUOUS
 62
256
 10
187.885392000000000
 20
-142.995927999999990
 11
188.385392000000000
 21
-142.995927999999990
  0
LINE
  8
0
  6
CONTINUOUS
 62
256
 10
188.385392000000000
 20
-150.086928000000000
 11
187.885392000000000
 21
-150.086928000000000
  0
INSERT
  8
0
  2
ZU_SYM_1
 10
192.885390000000000
 20
-146.345508000000000
 50
180.000000000000000
  0
LINE
  8
0
  6
CONTINUOUS
 62
256
 10
194.385392000000000
 20
-106.747528000000000
 11
194.385392000000000
 21
-126.247528000000000
  0
ARC
  8
0
  6
CONTINUOUS
 62
256
 10
193.885392000000000
 20
-126.247528000000000
 40
0.499999999999995
 50
315.115137999999770
 51
0.000000000000000
  0
ARC
  8
0
  6
CONTINUOUS
 62
256
 10
194.593918000000000
 20
-126.953213000000010
 40
0.499999999999995
 50
135.115137999999720
 51
178.347093000000650
  0
LINE
  8
0
  6
CONTINUOUS
 62
256
 10
188.385392000000000
 20
-151.845508000000000
 11
192.385392000000000
 21
-151.845508000000000
  0
ARC
  8
0
  6
CONTINUOUS
 62
256
 10
192.385392000000000
 20
-151.345508000000000
 40
0.500000000000000
 50
270.000000000000000
 51
0.000000000000000
  0
LINE
  8
0
  6
CONTINUOUS
 62
256
 10
192.885392000000000
 20
-151.345508000000000
 11
192.885392000000000
 21
-135.946170000000000
  0
ARC
  8
0
  6
CONTINUOUS
 62
256
 10
192.844593000000000
 20
-134.238324000000010
 40
1.000000000000005
 50
301.359036000000630
 51
357.746046999999980
  0
ARC
  8
0
  6
CONTINUOUS
 62
256
 10
202.885392000000000
 20
-152.875069000000000
 40
9.999999999999993
 50
176.274962999999960
 51
180.000000000000000
  0
ARC
  8
0
  6
CONTINUOUS
 62
256
 10
193.885392000000000
 20
-135.946170000000000
 40
1.000000000000005
 50
121.359036000000670
 51
180.000000000000000
  0
LINE
  8
0
  6
DASHDOT
 62
256
 10
184.827990000000000
 20
-146.345508000000000
 11
199.459155000000010
 21
-146.345508000000000
  0
ARC
  8
0
  6
CONTINUOUS
 62
256
 10
-505.614607999999980
 20
-106.747528000000000
 40
700.000000000000000
 50
357.134181000000070
 51
358.347092999999970
  0
ARC
  8
0
  6
CONTINUOUS
 62
256
 10
-505.614607999999980
 20
-106.747528000000000
 40
700.000000000000000
 50
355.768744000000030
 51
356.379937999999980
  0
ARC
  8
0
  6
CONTINUOUS
 62
256
 10
190.482907000000010
 20
-158.247527999999990
 40
2.000000000000000
 50
270.000000000000000
 51
355.768743999999800
  0
LINE
  8
0
  6
CONTINUOUS
 62
256
 10
187.885392000000000
 20
-160.247527999999990
 11
190.482907000000010
 21
-160.247527999999990
  0
LINE
  8
0
  6
CONTINUOUS
 62
256
 10
187.885392000000000
 20
-106.747528000000000
 11
187.885392000000000
 21
-160.247527999999990
  0
LINE
  8
0
  6
CONTINUOUS
 62
256
 10
88.885391999999996
 20
-160.247527999999990
 11
88.885391999999996
 21
-106.747528000000000
  0
LINE
  8
0
  6
CONTINUOUS
 62
256
 10
188.385392000000000
 20
-61.649549000000000
 11
188.385392000000000
 21
-70.499128999999996
  0
LINE
  8
0
  6
CONTINUOUS
 62
256
 10
187.885392000000000
 20
-70.499128999999996
 11
188.385392000000000
 21
-70.499128999999996
  0
LINE
  8
0
  6
CONTINUOUS
 62
256
 10
188.385392000000000
 20
-63.408129000000002
 11
187.885392000000000
 21
-63.408129000000002
  0
INSERT
  8
0
  2
ZU_SYM_2
 10
192.885390000000000
 20
-67.149548999999993
 41
-1.000000000000000
 50
0.000000000000007
  0
LINE
  8
0
  6
CONTINUOUS
 62
256
 10
194.385392000000000
 20
-106.747528000000000
 11
194.385392000000000
 21
-87.247528000000003
  0
ARC
  8
0
  6
CONTINUOUS
 62
256
 10
193.885392000000000
 20
-87.247528000000003
 40
0.500000000000000
 50
0.000000000000000
 51
44.884862000000268
  0
ARC
  8
0
  6
CONTINUOUS
 62
256
 10
194.593918000000000
 20
-86.541843999999998
 40
0.499999999999994
 50
181.652906999999350
 51
224.884862000000280
  0
LINE
  8
0
  6
CONTINUOUS
 62
256
 10
188.385392000000000
 20
-61.649549000000000
 11
192.385392000000000
 21
-61.649549000000000
  0
ARC
  8
0
  6
CONTINUOUS
 62
256
 10
192.385392000000000
 20
-62.149549000000000
 40
0.500000000000000
 50
0.000000000000000
 51
90.000000000000000
  0
LINE
  8
0
  6
CONTINUOUS
 62
256
 10
192.885392000000000
 20
-62.149549000000000
 11
192.885392000000000
 21
-77.548886999999993
  0
ARC
  8
0
  6
CONTINUOUS
 62
256
 10
192.844593000000000
 20
-79.256732999999997
 40
1.000000000000004
 50
2.253953000000067
 51
58.640963999999322
  0
ARC
  8
0
  6
CONTINUOUS
 62
256
 10
202.885392000000000
 20
-60.619987999999999
 40
10.000000000000000
 50
180.000000000000000
 51
183.725036999999960
  0
ARC
  8
0
  6
CONTINUOUS
 62
256
 10
193.885392000000000
 20
-77.548886999999993
 40
1.000000000000000
 50
180.000000000000000
 51
238.640963999999340
  0
LINE
  8
0
  6
DASHDOT
 62
256
 10
184.827990000000000
 20
-67.149548999999993
 11
199.459155000000010
 21
-67.149548999999993
  0
ARC
  8
0
  6
CONTINUOUS
 62
256
 10
-505.614607999999980
 20
-106.747528000000000
 40
700.000000000000000
 50
1.652907000000000
 51
2.865818999999999
  0
ARC
  8
0
  6
CONTINUOUS
 62
256
 10
-505.614607999999980
 20
-106.747528000000000
 40
700.000000000000000
 50
3.620062000000000
 51
4.231256000000000
  0
ARC
  8
0
  6
CONTINUOUS
 62
256
 10
190.482907000000010
 20
-55.247528000000003
 40
1.999999999999991
 50
4.231255999999946
 51
90.000000000000000
  0
LINE
  8
0
  6
CONTINUOUS
 62
256
 10
187.885392000000000
 20
-53.247528000000003
 11
190.482907000000010
 21
-53.247528000000003
  0
LINE
  8
0
  6
CONTINUOUS
 62
256
 10
187.885392000000000
 20
-55.747528000000003
 11
88.885391999999996
 21
-55.747528000000003
  0
LINE
  8
0
  6
CONTINUOUS
 62
256
 10
187.885392000000000
 20
-56.247528000000003
 11
88.885391999999996
 21
-56.247528000000003
  0
LINE
  8
0
  6
CONTINUOUS
 62
256
 10
187.885392000000000
 20
-60.614446000000001
 11
88.885391999999996
 21
-60.614446000000001
  0
LINE
  8
0
  6
CONTINUOUS
 62
256
 10
187.885392000000000
 20
-65.705614999999995
 11
88.885391999999996
 21
-65.705614999999995
  0
LINE
  8
0
  6
CONTINUOUS
 62
256
 10
187.885392000000000
 20
-73.443927000000002
 11
88.885391999999996
 21
-73.443927000000002
  0
LINE
  8
0
  6
CONTINUOUS
 62
256
 10
187.885392000000000
 20
-75.033136999999996
 11
88.885391999999996
 21
-75.033136999999996
  0
LINE
  8
0
  6
CONTINUOUS
 62
256
 10
187.885392000000000
 20
-77.991133000000005
 11
88.885391999999996
 21
-77.991133000000005
  0
LINE
  8
0
  6
CONTINUOUS
 62
256
 10
187.885392000000000
 20
-79.470156000000003
 11
88.885391999999996
 21
-79.470156000000003
  0
LINE
  8
0
  6
CONTINUOUS
 62
256
 10
187.885392000000000
 20
-82.562887000000003
 11
88.885391999999996
 21
-82.562887000000003
  0
LINE
  8
0
  6
CONTINUOUS
 62
256
 10
187.885392000000000
 20
-83.909289000000001
 11
88.885391999999996
 21
-83.909289000000001
  0
LINE
  8
0
  6
CONTINUOUS
 62
256
 10
187.885392000000000
 20
-87.119494000000003
 11
88.885391999999996
 21
-87.119494000000003
  0
LINE
  8
0
  6
CONTINUOUS
 62
256
 10
187.885392000000000
 20
-88.361413999999996
 11
88.885391999999996
 21
-88.361413999999996
  0
LINE
  8
0
  6
CONTINUOUS
 62
256
 10
187.885392000000000
 20
-92.747528000000003
 11
88.885391999999996
 21
-92.747528000000003
  0
LINE
  8
0
  6
CONTINUOUS
 62
256
 10
180.885392000000000
 20
-53.247528000000003
 11
187.885392000000000
 21
-53.247528000000003
  0
LINE
  8
0
  6
CONTINUOUS
 62
256
 10
88.885391999999996
 20
-53.247528000000003
 11
105.885392000000000
 21
-53.247528000000003
  0
LINE
  8
0
  6
CONTINUOUS
 62
256
 10
121.885392000000000
 20
-19.247527999999999
 11
121.885392000000000
 21
-19.747527999999999
  0
LINE
  8
0
  6
CONTINUOUS
 62
256
 10
113.885392000000000
 20
-19.247527999999999
 11
113.885392000000000
 21
-19.747527999999999
  0
ARC
  8
0
  6
CONTINUOUS
 62
256
 10
107.885392000000000
 20
-20.747527999999999
 40
1.000000000000000
 50
90.000000000000000
 51
180.000000000000000
  0
ARC
  8
0
  6
CONTINUOUS
 62
256
 10
178.885392000000000
 20
-20.747527999999999
 40
1.000000000000000
 50
0.000000000000000
 51
90.000000000000000
  0
LINE
  8
0
  6
CONTINUOUS
 62
256
 10
179.885392000000000
 20
-20.747527999999999
 11
179.885392000000000
 21
-49.247528000000003
  0
LINE
  8
0
  6
CONTINUOUS
 62
256
 10
106.885392000000000
 20
-20.747527999999999
 11
106.885392000000000
 21
-49.247528000000003
  0
LINE
  8
0
  6
CONTINUOUS
 62
256
 10
107.885392000000000
 20
-19.747527999999999
 11
178.885392000000000
 21
-19.747527999999999
  0
LINE
  8
0
  6
CONTINUOUS
 62
256
 10
105.885392000000000
 20
-49.247528000000003
 11
105.885392000000000
 21
-54.247528000000003
  0
LINE
  8
0
  6
CONTINUOUS
 62
256
 10
180.885392000000000
 20
-49.247528000000003
 11
180.885392000000000
 21
-54.247528000000003
  0
LINE
  8
0
  6
CONTINUOUS
 62
256
 10
180.885392000000000
 20
-49.247528000000003
 11
105.885392000000000
 21
-49.247528000000003
  0
LINE
  8
0
  6
CONTINUOUS
 62
256
 10
105.885392000000000
 20
-54.247528000000003
 11
180.885392000000000
 21
-54.247528000000003
  0
LINE
  8
0
  6
DASHDOT
 62
256
 10
47.900967000000001
 20
-106.747528000000000
 11
199.845848999999990
 21
-106.747528000000000
  0
LINE
  8
0
  6
CONTINUOUS
 62
256
 10
88.885391999999996
 20
-53.247528000000003
 11
88.885391999999996
 21
-106.747528000000000
  0
LINE
  8
0
  6
CONTINUOUS
 62
256
 10
187.885392000000000
 20
-106.747528000000000
 11
187.885392000000000
 21
-53.247528000000003
  0
ARC
  8
0
  6
CONTINUOUS
 62
256
 10
-303.191713999999990
 20
-25.808758999999998
 40
5.000000000000000
 50
0.000000000000000
 51
85.138594999999938
  0
ARC
  8
0
  6
CONTINUOUS
 62
256
 10
-353.191713999999990
 20
-25.808758999999998
 40
4.999999999999999
 50
94.861405000000062
 51
180.000000000000000
  0
LINE
  8
0
  6
CONTINUOUS
 62
256
 10
-298.191713999999990
 20
-41.847197000000001
 11
-298.191713999999990
 21
-25.808758999999998
  0
LINE
  8
0
  6
CONTINUOUS
 62
256
 10
-358.191713999999990
 20
-40.799894000000002
 11
-358.191713999999990
 21
-25.808758999999998
  0
ARC
  8
0
  6
CONTINUOUS
 62
256
 10
-328.191713999999990
 20
-319.747527999999990
 40
300.000000000000000
 50
85.138594999999995
 51
94.861405000000005
  0
LINE
  8
0
  6
CONTINUOUS
 62
256
 10
-330.691713999999990
 20
-19.757944999999999
 11
-330.691713999999990
 21
-19.247527999999999
  0
LINE
  8
0
  6
CONTINUOUS
 62
256
 10
-325.691713999999990
 20
-19.757944999999999
 11
-325.691713999999990
 21
-19.247527999999999
  0
LINE
  8
0
  6
CONTINUOUS
 62
256
 10
-325.691713999999990
 20
-19.247527999999999
 11
-330.691713999999990
 21
-19.247527999999999
  0
LINE
  8
0
  6
CONTINUOUS
 62
256
 10
-270.691786999999980
 20
-80.247528000000003
 11
-270.691786999999980
 21
-82.747528000000003
  0
LINE
  8
0
  6
CONTINUOUS
 62
256
 10
-278.691786999999980
 20
-82.747528000000003
 11
-270.691786999999980
 21
-82.747528000000003
  0
LINE
  8
0
  6
CONTINUOUS
 62
256
 10
-278.691786999999980
 20
-104.747528000000000
 11
-238.691787000000010
 21
-104.747528000000000
  0
LINE
  8
0
  6
CONTINUOUS
 62
256
 10
-270.691786999999980
 20
-80.247528000000003
 11
-238.691806000000010
 21
-80.247528000000003
  0
LINE
  8
0
  6
CONTINUOUS
 62
256
 10
-238.691787000000010
 20
-104.747528000000000
 11
-238.691787000000010
 21
-80.247528000000003
  0
LINE
  8
0
  6
CONTINUOUS
 62
256
 10
-270.691786999999980
 20
-82.747528000000003
 11
-238.691787000000010
 21
-82.747528000000003
  0
LINE
  8
0
  6
CONTINUOUS
 62
256
 10
-280.691713999999990
 20
-81.747528000000003
 11
-278.691786999999980
 21
-81.747528000000003
  0
LINE
  8
0
  6
CONTINUOUS
 62
256
 10
-280.691713999999990
 20
-105.747528000000000
 11
-278.691786999999980
 21
-105.747528000000000
  0
LINE
  8
0
  6
CONTINUOUS
 62
256
 10
-278.691786999999980
 20
-105.747528000000000
 11
-278.691786999999980
 21
-81.747528000000003
  0
LINE
  8
0
  6
DASHED
 62
256
 10
-371.691713999999990
 20
-58.747528000000003
 11
-360.691713999999990
 21
-58.747528000000003
  0
LINE
  8
0
  6
DASHED
 62
256
 10
-295.691713999999990
 20
-56.247528000000003
 11
-360.691713999999990
 21
-56.247528000000003
  0
LINE
  8
0
  6
DASHED
 62
256
 10
-371.691713999999990
 20
-44.747528000000003
 11
-360.691713999999990
 21
-44.747528000000003
  0
LINE
  8
0
  6
DASHED
 62
256
 10
-360.691713999999990
 20
-58.747528000000003
 11
-360.691713999999990
 21
-44.747528000000003
  0
LINE
  8
0
  6
DASHED
 62
256
 10
-295.691713999999990
 20
-47.247528000000003
 11
-360.691713999999990
 21
-47.247528000000003
  0
LINE
  8
0
  6
DASHDOT
 62
256
 10
-283.153944000000020
 20
-51.747528000000003
 11
-372.970898999999970
 21
-51.747528000000003
  0
LINE
  8
0
  6
DASHED
 62
256
 10
-284.691713999999990
 20
-58.747528000000003
 11
-295.691713999999990
 21
-58.747528000000003
  0
LINE
  8
0
  6
DASHED
 62
256
 10
-295.691713999999990
 20
-58.747528000000003
 11
-295.691713999999990
 21
-44.747528000000003
  0
LINE
  8
0
  6
DASHED
 62
256
 10
-284.691713999999990
 20
-44.747528000000003
 11
-295.691713999999990
 21
-44.747528000000003
  0
LINE
  8
0
  6
DASHDOT
 62
256
 10
-283.230906000000000
 20
-156.747527999999990
 11
-373.454881000000000
 21
-156.747527999999990
  0
LINE
  8
0
  6
DASHED
 62
256
 10
-295.691713999999990
 20
-152.247527999999990
 11
-360.691713999999990
 21
-152.247527999999990
  0
LINE
  8
0
  6
DASHED
 62
256
 10
-371.691713999999990
 20
-149.747527999999990
 11
-360.691713999999990
 21
-149.747527999999990
  0
LINE
  8
0
  6
DASHED
 62
256
 10
-371.691713999999990
 20
-163.747527999999990
 11
-360.691713999999990
 21
-163.747527999999990
  0
LINE
  8
0
  6
DASHED
 62
256
 10
-360.691713999999990
 20
-163.747527999999990
 11
-360.691713999999990
 21
-149.747527999999990
  0
LINE
  8
0
  6
DASHED
 62
256
 10
-295.691713999999990
 20
-161.247527999999990
 11
-360.691713999999990
 21
-161.247527999999990
  0
LINE
  8
0
  6
DASHED
 62
256
 10
-284.691713999999990
 20
-149.747527999999990
 11
-295.691713999999990
 21
-149.747527999999990
  0
LINE
  8
0
  6
DASHED
 62
256
 10
-295.691713999999990
 20
-163.747527999999990
 11
-295.691713999999990
 21
-149.747527999999990
  0
LINE
  8
0
  6
DASHED
 62
256
 10
-284.691713999999990
 20
-163.747527999999990
 11
-295.691713999999990
 21
-163.747527999999990
  0
LINE
  8
0
  6
CONTINUOUS
 62
256
 10
113.885392000000000
 20
-19.247527999999999
 11
121.885392000000000
 21
-19.247527999999999
  0
CIRCLE
  8
0
  6
DASHED
 62
256
 10
118.385392000000000
 20
-34.747528000000003
 40
6.000000000000000
  0
ARC
  8
0
  6
DASHED
 62
256
 10
118.385392000000000
 20
-34.747528000000003
 40
7.000000000000000
 50
0.000000000000000
 51
180.000000000000000
  0
LINE
  8
0
  6
DASHED
 62
256
 10
111.385392000000000
 20
-49.247528000000003
 11
111.385392000000000
 21
-34.747528000000003
  0
LINE
  8
0
  6
DASHED
 62
256
 10
125.385392000000000
 20
-49.247528000000003
 11
125.385392000000000
 21
-34.747528000000003
  0
LINE
  8
0
  6
DASHDOT
 62
256
 10
109.077057999999990
 20
-34.747528000000003
 11
128.266098000000000
 21
-34.747528000000003
  0
LINE
  8
0
  6
DASHDOT
 62
256
 10
118.385392000000000
 20
-52.031379999999999
 11
118.385392000000000
 21
-24.052029999999998
  0
LINE
  8
0
  6
DASHDOT
 62
256
 10
168.385392000000000
 20
-52.031379999999999
 11
168.385392000000000
 21
-24.052029999999998
  0
LINE
  8
0
  6
DASHED
 62
256
 10
161.385392000000000
 20
-49.247528000000003
 11
161.385392000000000
 21
-34.747528000000003
  0
LINE
  8
0
  6
DASHED
 62
256
 10
175.385392000000000
 20
-49.247528000000003
 11
175.385392000000000
 21
-34.747528000000003
  0
ARC
  8
0
  6
DASHED
 62
256
 10
168.385392000000000
 20
-34.747528000000003
 40
7.000000000000000
 50
0.000000000000000
 51
180.000000000000000
  0
LINE
  8
0
  6
DASHDOT
 62
256
 10
157.975092999999990
 20
-34.747528000000003
 11
178.349275000000010
 21
-34.747528000000003
  0
INSERT
  8
0
  2
ZU_SYM_3
 10
388.248218000000010
 20
-67.149548999999993
 41
-1.000000000000000
 50
270.000000000000000
  0
INSERT
  8
0
  2
ZU_SYM_4
 10
388.248218000000010
 20
-146.345508000000000
 50
270.000000000000000
  0
INSERT
  8
0
  2
ZU_SYM_5
 10
309.052258999999990
 20
-146.345508000000000
 41
-1.000000000000000
 50
90.000000000000000
  0
INSERT
  8
0
  2
ZU_SYM_6
 10
309.052258999999990
 20
-67.149548999999993
 50
90.000000000000000
  0
ARC
  8
0
  6
CONTINUOUS
 62
256
 10
373.650238000000000
 20
-25.808758999999998
 40
5.000000000000000
 50
0.000000000000000
 51
85.138594999999938
  0
ARC
  8
0
  6
CONTINUOUS
 62
256
 10
323.650238000000000
 20
-25.808758999999998
 40
4.999999999999999
 50
94.861405000000062
 51
180.000000000000000
  0
LINE
  8
0
  6
CONTINUOUS
 62
256
 10
378.650238000000000
 20
-49.247528000000003
 11
378.650238000000000
 21
-25.808758999999998
  0
LINE
  8
0
  6
CONTINUOUS
 62
256
 10
318.650238000000000
 20
-49.247528000000003
 11
318.650238000000000
 21
-25.808758999999998
  0
LINE
  8
0
  6
CONTINUOUS
 62
256
 10
367.400238000000000
 20
-52.747528000000003
 11
367.400238000000000
 21
-53.247528000000003
  0
LINE
  8
0
  6
CONTINUOUS
 62
256
 10
329.900238000000000
 20
-52.747528000000003
 11
329.900238000000000
 21
-53.247528000000003
  0
LINE
  8
0
  6
CONTINUOUS
 62
256
 10
320.451596999999990
 20
-142.838893000000010
 11
309.309124999999990
 21
-152.871620000000010
  0
LINE
  8
0
  6
CONTINUOUS
 62
256
 10
312.558873000000010
 20
-134.946170000000000
 11
302.526145999999980
 21
-146.088641999999990
  0
ARC
  8
0
  6
CONTINUOUS
 62
256
 10
348.650238000000000
 20
-106.747528000000000
 40
52.500000000000007
 50
203.136888999999970
 51
203.663704999999990
  0
ARC
  8
0
  6
CONTINUOUS
 62
256
 10
304.566405999999970
 20
-137.060326000000000
 40
0.999999999999989
 50
37.785802999999802
 51
87.000000000000909
  0
ARC
  8
0
  6
CONTINUOUS
 62
256
 10
304.500587999999990
 20
-136.964384000000000
 40
0.999999999999996
 50
272.999999999999090
 51
31.115752999998847
  0
ARC
  8
0
  6
CONTINUOUS
 62
256
 10
297.672302000000000
 20
-121.247528000000000
 40
0.500000000000015
 50
15.877701999999818
 51
90.000000000000000
  0
LINE
  8
0
  6
CONTINUOUS
 62
256
 10
297.570321999999980
 20
-120.747528000000000
 11
297.672302000000000
 21
-120.747528000000000
  0
ARC
  8
0
  6
CONTINUOUS
 62
256
 10
297.570321999999980
 20
-120.247528000000000
 40
0.499999999999976
 50
187.797849999999870
 51
270.000000000000000
  0
ARC
  8
0
  6
CONTINUOUS
 62
256
 10
396.150238000000000
 20
-106.747528000000000
 40
100.000000000000000
 50
180.000000000000000
 51
187.797849999999980
  0
ARC
  8
0
  6
CONTINUOUS
 62
256
 10
348.650238000000000
 20
-106.747528000000000
 40
52.500000000000021
 50
195.877701999999970
 51
198.664570999999970
  0
ARC
  8
0
  6
CONTINUOUS
 62
256
 10
348.650238000000000
 20
-106.747528000000000
 40
52.500000000000028
 50
208.562833999999980
 51
208.973449000000020
  0
ARC
  8
0
  6
CONTINUOUS
 62
256
 10
298.650238000000000
 20
-130.247527999999990
 40
0.999999999999996
 50
92.999999999999091
 51
267.000000000000910
  0
ARC
  8
0
  6
CONTINUOUS
 62
256
 10
301.799963999999990
 20
-132.579714000000000
 40
0.999999999999996
 50
272.999999999999090
 51
28.871351999999455
  0
LINE
  8
0
  6
CONTINUOUS
 62
256
 10
301.759383000000010
 20
-131.411844000000000
 11
298.597901999999980
 21
-131.246158000000010
  0
ARC
  8
0
  6
CONTINUOUS
 62
256
 10
301.707046999999990
 20
-132.410473999999990
 40
1.000000000000009
 50
28.664584000000026
 51
87.000000000000909
  0
ARC
  8
0
  6
CONTINUOUS
 62
256
 10
299.636589000000010
 20
-128.193091000000010
 40
0.999999999999996
 50
272.999999999999090
 51
23.631430000000389
  0
ARC
  8
0
  6
CONTINUOUS
 62
256
 10
297.963891999999990
 20
-123.868984000000000
 40
1.000000000000005
 50
290.070332000000060
 51
18.664571000000766
  0
ARC
  8
0
  6
CONTINUOUS
 62
256
 10
299.463423999999970
 20
-127.792890000000000
 40
0.999999999999977
 50
23.164432000000296
 51
87.000000000000909
  0
LINE
  8
0
  6
CONTINUOUS
 62
256
 10
299.515760000000000
 20
-126.794261000000010
 11
298.597901999999980
 21
-126.746157999999990
  0
ARC
  8
0
  6
CONTINUOUS
 62
256
 10
298.650238000000000
 20
-125.747528000000000
 40
1.000000000000005
 50
110.070332000000090
 51
267.000000000000910
  0
LINE
  8
0
  6
CONTINUOUS
 62
256
 10
299.688924999999980
 20
-129.191721000000000
 11
298.597901999999980
 21
-129.248898999999990
  0
ARC
  8
0
  6
CONTINUOUS
 62
256
 10
298.650238000000000
 20
-134.747527999999990
 40
0.999999999999996
 50
92.999999999999091
 51
267.000000000000910
  0
LINE
  8
0
  6
CONTINUOUS
 62
256
 10
301.852300000000010
 20
-133.578342999999990
 11
298.597901999999980
 21
-133.748898999999990
  0
ARC
  8
0
  6
CONTINUOUS
 62
256
 10
299.150238000000000
 20
-139.247527999999990
 40
0.999999999999996
 50
92.999999999999091
 51
267.000000000000910
  0
LINE
  8
0
  6
CONTINUOUS
 62
256
 10
304.552924000000020
 20
-137.963012999999990
 11
299.097901999999980
 21
-138.248898999999990
  0
LINE
  8
0
  6
CONTINUOUS
 62
256
 10
304.618742000000000
 20
-136.061697000000010
 11
298.597901999999980
 21
-135.746158000000010
  0
LINE
  8
0
  6
CONTINUOUS
 62
256
 10
329.350237999999990
 20
-160.247527999999990
 11
348.650238000000000
 21
-160.247527999999990
  0
ARC
  8
0
  6
CONTINUOUS
 62
256
 10
329.350237999999990
 20
-159.547528000000000
 40
0.699999999999989
 50
180.000000000000000
 51
270.000000000000000
  0
LINE
  8
0
  6
CONTINUOUS
 62
256
 10
328.650238000000000
 20
-159.547528000000000
 11
328.650238000000000
 21
-155.953726999999990
  0
ARC
  8
0
  6
CONTINUOUS
 62
256
 10
348.650238000000000
 20
-106.747528000000000
 40
52.500000000000000
 50
246.304919000000040
 51
246.888398000000000
  0
ARC
  8
0
  6
CONTINUOUS
 62
256
 10
327.650238000000000
 20
-155.953726999999990
 40
1.000000000000000
 50
0.000000000000000
 51
66.888398000001317
  0
ARC
  8
0
  6
CONTINUOUS
 62
256
 10
348.650238000000000
 20
-106.747528000000000
 40
52.499999999999986
 50
246.336295000000040
 51
246.888398000000000
  0
ARC
  8
0
  6
CONTINUOUS
 62
256
 10
348.650238000000000
 20
-106.747528000000000
 40
52.500000000000014
 50
241.026550999999960
 51
241.437165999999990
  0
ARC
  8
0
  6
CONTINUOUS
 62
256
 10
348.650238000000000
 20
-106.747528000000000
 40
52.500000000000014
 50
241.026550999999960
 51
241.437165999999990
  0
ARC
  8
0
  6
CONTINUOUS
 62
256
 10
316.150238000000000
 20
-156.247527999999990
 40
0.999999999999997
 50
183.000000000000710
 51
356.999999999999260
  0
ARC
  8
0
  6
CONTINUOUS
 62
256
 10
320.650238000000000
 20
-156.747527999999990
 40
0.999999999999997
 50
183.000000000000710
 51
356.999999999999260
  0
LINE
  8
0
  6
CONTINUOUS
 62
256
 10
317.434753000000000
 20
-150.844843000000000
 11
317.148867999999990
 21
-156.299864000000010
  0
LINE
  8
0
  6
CONTINUOUS
 62
256
 10
319.336070000000010
 20
-150.779024999999990
 11
319.651609000000010
 21
-156.799864000000010
  0
LINE
  8
0
  6
CONTINUOUS
 62
256
 10
321.819424000000030
 20
-153.545467000000000
 11
321.648867999999990
 21
-156.799864000000010
  0
ARC
  8
0
  6
CONTINUOUS
 62
256
 10
322.818053000000020
 20
-153.597803000000000
 40
0.999999999999988
 50
61.128648000000545
 51
176.999999999999290
  0
LINE
  8
0
  6
CONTINUOUS
 62
256
 10
323.985923000000010
 20
-153.638384000000000
 11
324.151609000000010
 21
-156.799864000000010
  0
ARC
  8
0
  6
CONTINUOUS
 62
256
 10
322.987293000000020
 20
-153.690720000000000
 40
0.999999999999997
 50
3.000000000000716
 51
61.335416000001402
  0
ARC
  8
0
  6
CONTINUOUS
 62
256
 10
325.150238000000000
 20
-156.747527999999990
 40
0.999999999999997
 50
183.000000000000710
 51
356.999999999999260
  0
ARC
  8
0
  6
CONTINUOUS
 62
256
 10
327.204675000000010
 20
-155.761178000000000
 40
1.000000000000003
 50
66.368570000001014
 51
176.999999999999290
  0
LINE
  8
0
  6
CONTINUOUS
 62
256
 10
326.206046000000010
 20
-155.708842000000000
 11
326.148867999999990
 21
-156.799864000000010
  0
ARC
  8
0
  6
CONTINUOUS
 62
256
 10
318.433382999999990
 20
-150.897178999999990
 40
1.000000000000002
 50
55.611524000000401
 51
176.999999999999290
  0
ARC
  8
0
  6
CONTINUOUS
 62
256
 10
318.337440000000020
 20
-150.831360999999990
 40
0.999999999999997
 50
3.000000000000716
 51
55.486921000000805
  0
ARC
  8
0
  6
CONTINUOUS
 62
256
 10
303.269291000000010
 20
-146.757772999999990
 40
0.999999999999987
 50
137.999999999999010
 51
221.401106000000030
  0
LINE
  8
0
  6
CONTINUOUS
 62
256
 10
305.301537999999990
 20
-140.571277000000010
 11
299.097901999999980
 21
-140.246158000000010
  0
ARC
  8
0
  6
CONTINUOUS
 62
256
 10
305.249202000000030
 20
-141.569906000000000
 40
0.999999999999987
 50
317.999999999998980
 51
87.000000000000909
  0
ARC
  8
0
  6
CONTINUOUS
 62
256
 10
308.639994000000000
 20
-152.128475000000010
 40
0.999999999999988
 50
228.598894000001170
 51
311.999999999999940
  0
ARC
  8
0
  6
CONTINUOUS
 62
256
 10
348.650238000000000
 20
-106.747528000000000
 40
61.500000000000021
 50
221.401105999999970
 51
228.598893999999970
  0
LINE
  8
0
  6
CONTINUOUS
 62
256
 10
314.826489999999980
 20
-150.096228999999990
 11
315.151609000000010
 21
-156.299864000000010
  0
ARC
  8
0
  6
CONTINUOUS
 62
256
 10
313.827860999999980
 20
-150.148564999999990
 40
0.999999999999997
 50
3.000000000000716
 51
131.999999999999940
  0
LINE
  8
0
  6
CONTINUOUS
 62
256
 10
376.848880000000010
 20
-142.838893000000010
 11
387.991352000000010
 21
-152.871620000000010
  0
LINE
  8
0
  6
CONTINUOUS
 62
256
 10
384.741603000000000
 20
-134.946170000000000
 11
394.774330000000020
 21
-146.088641999999990
  0
ARC
  8
0
  6
CONTINUOUS
 62
256
 10
348.650238000000000
 20
-106.747528000000000
 40
52.500000000000007
 50
336.336295000000010
 51
336.863111000000000
  0
ARC
  8
0
  6
CONTINUOUS
 62
256
 10
392.734070999999970
 20
-137.060326000000000
 40
0.999999999999996
 50
92.999999999999091
 51
142.214197000000180
  0
ARC
  8
0
  6
CONTINUOUS
 62
256
 10
392.799889000000010
 20
-136.964384000000000
 40
1.000000000000017
 50
148.884247000001180
 51
267.000000000000910
  0
ARC
  8
0
  6
CONTINUOUS
 62
256
 10
399.628175000000000
 20
-121.247528000000000
 40
0.500000000000000
 50
90.000000000000000
 51
164.122298000000200
  0
LINE
  8
0
  6
CONTINUOUS
 62
256
 10
399.730155000000020
 20
-120.747528000000000
 11
399.628175000000000
 21
-120.747528000000000
  0
ARC
  8
0
  6
CONTINUOUS
 62
256
 10
399.730155000000020
 20
-120.247528000000000
 40
0.500000000000000
 50
270.000000000000000
 51
352.202150000000130
  0
ARC
  8
0
  6
CONTINUOUS
 62
256
 10
301.150238000000000
 20
-106.747528000000000
 40
100.000000000000010
 50
352.202150000000020
 51
0.000000000000000
  0
ARC
  8
0
  6
CONTINUOUS
 62
256
 10
348.650238000000000
 20
-106.747528000000000
 40
52.499999999999986
 50
341.335428999999980
 51
344.122298000000000
  0
ARC
  8
0
  6
CONTINUOUS
 62
256
 10
348.650238000000000
 20
-106.747528000000000
 40
52.499999999999993
 50
331.026550999999930
 51
331.437165999999990
  0
ARC
  8
0
  6
CONTINUOUS
 62
256
 10
398.650238000000000
 20
-130.247527999999990
 40
0.999999999999996
 50
272.999999999999090
 51
87.000000000000909
  0
ARC
  8
0
  6
CONTINUOUS
 62
256
 10
395.500513000000010
 20
-132.579714000000000
 40
0.999999999999988
 50
151.128648000000540
 51
267.000000000000910
  0
LINE
  8
0
  6
CONTINUOUS
 62
256
 10
395.541093999999990
 20
-131.411844000000000
 11
398.702574000000030
 21
-131.246158000000010
  0
ARC
  8
0
  6
CONTINUOUS
 62
256
 10
395.593430000000010
 20
-132.410473999999990
 40
0.999999999999996
 50
92.999999999999091
 51
151.335415999999980
  0
ARC
  8
0
  6
CONTINUOUS
 62
256
 10
397.663887999999990
 20
-128.193091000000010
 40
0.999999999999982
 50
156.368569999999610
 51
267.000000000000910
  0
ARC
  8
0
  6
CONTINUOUS
 62
256
 10
399.336585000000010
 20
-123.868984000000000
 40
0.999999999999979
 50
161.335428999999240
 51
249.929667999999880
  0
ARC
  8
0
  6
CONTINUOUS
 62
256
 10
397.837053000000030
 20
-127.792890000000000
 40
0.999999999999996
 50
92.999999999999091
 51
156.835567999999710
  0
LINE
  8
0
  6
CONTINUOUS
 62
256
 10
397.784717000000000
 20
-126.794261000000010
 11
398.702574000000030
 21
-126.746157999999990
  0
ARC
  8
0
  6
CONTINUOUS
 62
256
 10
398.650238000000000
 20
-125.747528000000000
 40
0.999999999999996
 50
272.999999999999090
 51
69.929667999999921
  0
LINE
  8
0
  6
CONTINUOUS
 62
256
 10
397.611552000000020
 20
-129.191721000000000
 11
398.702574000000030
 21
-129.248898999999990
  0
ARC
  8
0
  6
CONTINUOUS
 62
256
 10
398.650238000000000
 20
-134.747527999999990
 40
0.999999999999996
 50
272.999999999999090
 51
87.000000000000909
  0
LINE
  8
0
  6
CONTINUOUS
 62
256
 10
395.448176999999990
 20
-133.578342999999990
 11
398.702574000000030
 21
-133.748898999999990
  0
ARC
  8
0
  6
CONTINUOUS
 62
256
 10
398.150238000000000
 20
-139.247527999999990
 40
0.999999999999996
 50
272.999999999999090
 51
87.000000000000909
  0
LINE
  8
0
  6
CONTINUOUS
 62
256
 10
392.747552999999980
 20
-137.963012999999990
 11
398.202574000000030
 21
-138.248898999999990
  0
LINE
  8
0
  6
CONTINUOUS
 62
256
 10
392.681735000000000
 20
-136.061697000000010
 11
398.702574000000030
 21
-135.746158000000010
  0
LINE
  8
0
  6
CONTINUOUS
 62
256
 10
367.950238000000010
 20
-160.247527999999990
 11
348.650238000000000
 21
-160.247527999999990
  0
ARC
  8
0
  6
CONTINUOUS
 62
256
 10
367.950238000000010
 20
-159.547528000000000
 40
0.699999999999989
 50
270.000000000000000
 51
0.000000000000000
  0
LINE
  8
0
  6
CONTINUOUS
 62
256
 10
368.650238000000000
 20
-159.547528000000000
 11
368.650238000000000
 21
-155.953726999999990
  0
ARC
  8
0
  6
CONTINUOUS
 62
256
 10
348.650238000000000
 20
-106.747528000000000
 40
52.500000000000007
 50
293.111602000000000
 51
293.695081000000020
  0
ARC
  8
0
  6
CONTINUOUS
 62
256
 10
369.650238000000000
 20
-155.953726999999990
 40
1.000000000000001
 50
113.111601999998680
 51
180.000000000000000
  0
ARC
  8
0
  6
CONTINUOUS
 62
256
 10
348.650238000000000
 20
-106.747528000000000
 40
52.500000000000007
 50
293.111602000000000
 51
293.663704999999990
  0
ARC
  8
0
  6
CONTINUOUS
 62
256
 10
348.650238000000000
 20
-106.747528000000000
 40
52.500000000000014
 50
298.562834000000010
 51
298.973448999999960
  0
ARC
  8
0
  6
CONTINUOUS
 62
256
 10
348.650238000000000
 20
-106.747528000000000
 40
52.500000000000014
 50
298.562834000000010
 51
298.973448999999960
  0
ARC
  8
0
  6
CONTINUOUS
 62
256
 10
381.150238000000000
 20
-156.247527999999990
 40
0.999999999999997
 50
183.000000000000710
 51
356.999999999999260
  0
ARC
  8
0
  6
CONTINUOUS
 62
256
 10
376.650238000000000
 20
-156.747527999999990
 40
0.999999999999997
 50
183.000000000000710
 51
356.999999999999260
  0
LINE
  8
0
  6
CONTINUOUS
 62
256
 10
379.865723000000000
 20
-150.844843000000000
 11
380.151609000000010
 21
-156.299864000000010
  0
LINE
  8
0
  6
CONTINUOUS
 62
256
 10
377.964406999999990
 20
-150.779024999999990
 11
377.648867999999990
 21
-156.799864000000010
  0
LINE
  8
0
  6
CONTINUOUS
 62
256
 10
375.481052999999970
 20
-153.545467000000000
 11
375.651609000000010
 21
-156.799864000000010
  0
ARC
  8
0
  6
CONTINUOUS
 62
256
 10
374.482423999999980
 20
-153.597803000000000
 40
0.999999999999997
 50
3.000000000000716
 51
118.871351999999450
  0
LINE
  8
0
  6
CONTINUOUS
 62
256
 10
373.314553999999990
 20
-153.638384000000000
 11
373.148867999999990
 21
-156.799864000000010
  0
ARC
  8
0
  6
CONTINUOUS
 62
256
 10
374.313183999999980
 20
-153.690720000000000
 40
0.999999999999996
 50
118.664583999998610
 51
176.999999999999290
  0
ARC
  8
0
  6
CONTINUOUS
 62
256
 10
372.150238000000000
 20
-156.747527999999990
 40
0.999999999999997
 50
183.000000000000710
 51
356.999999999999260
  0
ARC
  8
0
  6
CONTINUOUS
 62
256
 10
370.095800999999990
 20
-155.761178000000000
 40
0.999999999999997
 50
3.000000000000716
 51
113.631429999999000
  0
LINE
  8
0
  6
CONTINUOUS
 62
256
 10
371.094430999999990
 20
-155.708842000000000
 11
371.151609000000010
 21
-156.799864000000010
  0
ARC
  8
0
  6
CONTINUOUS
 62
256
 10
378.867094000000010
 20
-150.897178999999990
 40
0.999999999999997
 50
3.000000000000716
 51
124.388475999999600
  0
ARC
  8
0
  6
CONTINUOUS
 62
256
 10
378.963035999999990
 20
-150.831360999999990
 40
0.999999999999985
 50
124.513078999999190
 51
176.999999999999290
  0
ARC
  8
0
  6
CONTINUOUS
 62
256
 10
394.031184999999990
 20
-146.757772999999990
 40
1.000000000000007
 50
318.598893999999970
 51
42.000000000001023
  0
LINE
  8
0
  6
CONTINUOUS
 62
256
 10
391.998939000000010
 20
-140.571277000000010
 11
398.202574000000030
 21
-140.246158000000010
  0
ARC
  8
0
  6
CONTINUOUS
 62
256
 10
392.051274999999980
 20
-141.569906000000000
 40
0.999999999999996
 50
92.999999999999091
 51
222.000000000000990
  0
ARC
  8
0
  6
CONTINUOUS
 62
256
 10
388.660483000000000
 20
-152.128475000000010
 40
1.000000000000008
 50
228.000000000000060
 51
311.401105999998780
  0
ARC
  8
0
  6
CONTINUOUS
 62
256
 10
348.650238000000000
 20
-106.747528000000000
 40
61.499999999999993
 50
311.401106000000030
 51
318.598893999999970
  0
LINE
  8
0
  6
CONTINUOUS
 62
256
 10
382.473987000000020
 20
-150.096228999999990
 11
382.148867999999990
 21
-156.299864000000010
  0
ARC
  8
0
  6
CONTINUOUS
 62
256
 10
383.472616000000020
 20
-150.148564999999990
 40
1.000000000000008
 50
48.000000000000071
 51
176.999999999999290
  0
ARC
  8
0
  6
CONTINUOUS
 62
256
 10
301.150238000000000
 20
-106.747528000000000
 40
100.000000000000000
 50
0.000000000000000
 51
7.797850000000000
  0
ARC
  8
0
  6
CONTINUOUS
 62
256
 10
396.150238000000000
 20
-106.747528000000000
 40
100.000000000000010
 50
172.202150000000020
 51
180.000000000000000
  0
LINE
  8
0
  6
CONTINUOUS
 62
256
 10
376.848880000000010
 20
-70.656163000000006
 11
387.991352000000010
 21
-60.623435999999998
  0
LINE
  8
0
  6
CONTINUOUS
 62
256
 10
384.741603000000000
 20
-78.548886999999993
 11
394.774330000000020
 21
-67.406414999999996
  0
ARC
  8
0
  6
CONTINUOUS
 62
256
 10
348.650238000000000
 20
-106.747528000000000
 40
52.500000000000007
 50
23.136888999999982
 51
23.663704999999993
  0
ARC
  8
0
  6
CONTINUOUS
 62
256
 10
392.734070999999970
 20
-76.434730000000002
 40
0.999999999999998
 50
217.785803000000440
 51
267.000000000000910
  0
ARC
  8
0
  6
CONTINUOUS
 62
256
 10
392.799889000000010
 20
-76.530672999999993
 40
0.999999999999996
 50
92.999999999999091
 51
211.115752999999530
  0
ARC
  8
0
  6
CONTINUOUS
 62
256
 10
399.628175000000000
 20
-92.247528000000003
 40
0.500000000000015
 50
195.877701999999800
 51
270.000000000000000
  0
LINE
  8
0
  6
CONTINUOUS
 62
256
 10
399.730155000000020
 20
-92.747528000000003
 11
399.628175000000000
 21
-92.747528000000003
  0
ARC
  8
0
  6
CONTINUOUS
 62
256
 10
399.730155000000020
 20
-93.247528000000003
 40
0.499999999999976
 50
7.797849999999888
 51
90.000000000000000
  0
ARC
  8
0
  6
CONTINUOUS
 62
256
 10
348.650238000000000
 20
-106.747528000000000
 40
52.500000000000021
 50
15.877701999999992
 51
18.664571000000006
  0
ARC
  8
0
  6
CONTINUOUS
 62
256
 10
348.650238000000000
 20
-106.747528000000000
 40
52.500000000000014
 50
28.562833999999995
 51
28.973449000000002
  0
ARC
  8
0
  6
CONTINUOUS
 62
256
 10
398.650238000000000
 20
-83.247528000000003
 40
0.999999999999996
 50
272.999999999999090
 51
87.000000000000909
  0
ARC
  8
0
  6
CONTINUOUS
 62
256
 10
395.500513000000010
 20
-80.915342999999993
 40
0.999999999999996
 50
92.999999999999091
 51
208.871352000000170
  0
LINE
  8
0
  6
CONTINUOUS
 62
256
 10
395.541093999999990
 20
-82.083213000000001
 11
398.702574000000030
 21
-82.248898999999994
  0
ARC
  8
0
  6
CONTINUOUS
 62
256
 10
395.593430000000010
 20
-81.084582999999995
 40
1.000000000000009
 50
208.664584000000020
 51
267.000000000000910
  0
ARC
  8
0
  6
CONTINUOUS
 62
256
 10
397.663887999999990
 20
-85.301964999999996
 40
0.999999999999996
 50
92.999999999999091
 51
203.631430000000390
  0
ARC
  8
0
  6
CONTINUOUS
 62
256
 10
399.336585000000010
 20
-89.626073000000005
 40
1.000000000000005
 50
110.070332000000090
 51
198.664571000000760
  0
ARC
  8
0
  6
CONTINUOUS
 62
256
 10
397.837053000000030
 20
-85.702166000000005
 40
0.999999999999977
 50
203.164432000000290
 51
267.000000000000910
  0
LINE
  8
0
  6
CONTINUOUS
 62
256
 10
397.784717000000000
 20
-86.700795999999997
 11
398.702574000000030
 21
-86.748898999999994
  0
ARC
  8
0
  6
CONTINUOUS
 62
256
 10
398.650238000000000
 20
-87.747528000000003
 40
1.000000000000005
 50
290.070332000000060
 51
87.000000000000909
  0
LINE
  8
0
  6
CONTINUOUS
 62
256
 10
397.611552000000020
 20
-84.303336000000002
 11
398.702574000000030
 21
-84.246157999999994
  0
ARC
  8
0
  6
CONTINUOUS
 62
256
 10
398.650238000000000
 20
-78.747528000000003
 40
0.999999999999996
 50
272.999999999999090
 51
87.000000000000909
  0
LINE
  8
0
  6
CONTINUOUS
 62
256
 10
395.448176999999990
 20
-79.916713999999999
 11
398.702574000000030
 21
-79.746157999999994
  0
ARC
  8
0
  6
CONTINUOUS
 62
256
 10
398.150238000000000
 20
-74.247528000000003
 40
0.999999999999996
 50
272.999999999999090
 51
87.000000000000909
  0
LINE
  8
0
  6
CONTINUOUS
 62
256
 10
392.747552999999980
 20
-75.532043000000002
 11
398.202574000000030
 21
-75.246157999999994
  0
LINE
  8
0
  6
CONTINUOUS
 62
256
 10
392.681735000000000
 20
-77.433359999999993
 11
398.702574000000030
 21
-77.748898999999994
  0
ARC
  8
0
  6
CONTINUOUS
 62
256
 10
348.650238000000000
 20
-106.747528000000000
 40
52.500000000000014
 50
61.026550999999969
 51
61.437165999999969
  0
ARC
  8
0
  6
CONTINUOUS
 62
256
 10
348.650238000000000
 20
-106.747528000000000
 40
52.500000000000014
 50
61.026550999999969
 51
61.437165999999969
  0
LINE
  8
0
  6
CONTINUOUS
 62
256
 10
379.865723000000000
 20
-62.650213999999998
 11
380.151609000000010
 21
-57.195191999999999
  0
LINE
  8
0
  6
CONTINUOUS
 62
256
 10
377.964406999999990
 20
-62.716031999999998
 11
377.648867999999990
 21
-56.695191999999999
  0
ARC
  8
0
  6
CONTINUOUS
 62
256
 10
374.482423999999980
 20
-59.897253999999997
 40
0.999999999999995
 50
241.128648000000770
 51
357.000000000000060
  0
ARC
  8
0
  6
CONTINUOUS
 62
256
 10
374.313183999999980
 20
-59.804336999999997
 40
0.999999999999997
 50
182.999999999999890
 51
241.335416000001200
  0
ARC
  8
0
  6
CONTINUOUS
 62
256
 10
378.867094000000010
 20
-62.597878000000001
 40
0.999999999999996
 50
235.611524000000170
 51
357.000000000000060
  0
ARC
  8
0
  6
CONTINUOUS
 62
256
 10
378.963035999999990
 20
-62.663696000000002
 40
0.999999999999997
 50
182.999999999999890
 51
235.486921000001050
  0
ARC
  8
0
  6
CONTINUOUS
 62
256
 10
394.031184999999990
 20
-66.737284000000002
 40
0.999999999999987
 50
317.999999999998980
 51
41.401106000000027
  0
LINE
  8
0
  6
CONTINUOUS
 62
256
 10
391.998939000000010
 20
-72.923779999999994
 11
398.202574000000030
 21
-73.248898999999994
  0
ARC
  8
0
  6
CONTINUOUS
 62
256
 10
392.051274999999980
 20
-71.925151000000000
 40
0.999999999999987
 50
137.999999999999010
 51
267.000000000000910
  0
ARC
  8
0
  6
CONTINUOUS
 62
256
 10
388.660483000000000
 20
-61.366580999999996
 40
0.999999999999983
 50
48.598894000000925
 51
132.000000000000200
  0
ARC
  8
0
  6
CONTINUOUS
 62
256
 10
348.650238000000000
 20
-106.747528000000000
 40
61.499999999999972
 50
41.401106000000006
 51
48.598894000000001
  0
LINE
  8
0
  6
CONTINUOUS
 62
256
 10
382.473987000000020
 20
-63.398828000000002
 11
382.148867999999990
 21
-57.195191999999999
  0
ARC
  8
0
  6
CONTINUOUS
 62
256
 10
383.472616000000020
 20
-63.346491999999998
 40
0.999999999999997
 50
182.999999999999890
 51
311.999999999999940
  0
LINE
  8
0
  6
CONTINUOUS
 62
256
 10
320.451596999999990
 20
-70.656163000000006
 11
309.309124999999990
 21
-60.623435999999998
  0
LINE
  8
0
  6
CONTINUOUS
 62
256
 10
312.558873000000010
 20
-78.548886999999993
 11
302.526145999999980
 21
-67.406414999999996
  0
ARC
  8
0
  6
CONTINUOUS
 62
256
 10
348.650238000000000
 20
-106.747528000000000
 40
52.500000000000007
 50
156.336295000000010
 51
156.863111000000000
  0
ARC
  8
0
  6
CONTINUOUS
 62
256
 10
304.566405999999970
 20
-76.434730000000002
 40
0.999999999999996
 50
272.999999999999090
 51
322.214196999999560
  0
ARC
  8
0
  6
CONTINUOUS
 62
256
 10
304.500587999999990
 20
-76.530672999999993
 40
1.000000000000025
 50
328.884247000000410
 51
87.000000000000909
  0
ARC
  8
0
  6
CONTINUOUS
 62
256
 10
297.672302000000000
 20
-92.247528000000003
 40
0.500000000000000
 50
270.000000000000000
 51
344.122298000000230
  0
LINE
  8
0
  6
CONTINUOUS
 62
256
 10
297.570321999999980
 20
-92.747528000000003
 11
297.672302000000000
 21
-92.747528000000003
  0
ARC
  8
0
  6
CONTINUOUS
 62
256
 10
297.570321999999980
 20
-93.247528000000003
 40
0.500000000000000
 50
90.000000000000000
 51
172.202150000000130
  0
ARC
  8
0
  6
CONTINUOUS
 62
256
 10
348.650238000000000
 20
-106.747528000000000
 40
52.499999999999979
 50
161.335429000000000
 51
164.122297999999970
  0
ARC
  8
0
  6
CONTINUOUS
 62
256
 10
348.650238000000000
 20
-106.747528000000000
 40
52.500000000000028
 50
151.026551000000040
 51
151.437165999999960
  0
ARC
  8
0
  6
CONTINUOUS
 62
256
 10
298.650238000000000
 20
-83.247528000000003
 40
0.999999999999996
 50
92.999999999999091
 51
267.000000000000910
  0
ARC
  8
0
  6
CONTINUOUS
 62
256
 10
301.799963999999990
 20
-80.915342999999993
 40
0.999999999999995
 50
331.128647999999880
 51
87.000000000000909
  0
LINE
  8
0
  6
CONTINUOUS
 62
256
 10
301.759383000000010
 20
-82.083213000000001
 11
298.597901999999980
 21
-82.248898999999994
  0
ARC
  8
0
  6
CONTINUOUS
 62
256
 10
301.707046999999990
 20
-81.084582999999995
 40
0.999999999999996
 50
272.999999999999090
 51
331.335416000000010
  0
ARC
  8
0
  6
CONTINUOUS
 62
256
 10
299.636589000000010
 20
-85.301964999999996
 40
0.999999999999982
 50
336.368569999999640
 51
87.000000000000909
  0
ARC
  8
0
  6
CONTINUOUS
 62
256
 10
297.963891999999990
 20
-89.626073000000005
 40
0.999999999999979
 50
341.335428999999240
 51
69.929667999999921
  0
ARC
  8
0
  6
CONTINUOUS
 62
256
 10
299.463423999999970
 20
-85.702166000000005
 40
0.999999999999996
 50
272.999999999999090
 51
336.835567999999680
  0
LINE
  8
0
  6
CONTINUOUS
 62
256
 10
299.515760000000000
 20
-86.700795999999997
 11
298.597901999999980
 21
-86.748898999999994
  0
ARC
  8
0
  6
CONTINUOUS
 62
256
 10
298.650238000000000
 20
-87.747528000000003
 40
0.999999999999996
 50
92.999999999999091
 51
249.929667999999880
  0
LINE
  8
0
  6
CONTINUOUS
 62
256
 10
299.688924999999980
 20
-84.303336000000002
 11
298.597901999999980
 21
-84.246157999999994
  0
ARC
  8
0
  6
CONTINUOUS
 62
256
 10
298.650238000000000
 20
-78.747528000000003
 40
0.999999999999996
 50
92.999999999999091
 51
267.000000000000910
  0
LINE
  8
0
  6
CONTINUOUS
 62
256
 10
301.852300000000010
 20
-79.916713999999999
 11
298.597901999999980
 21
-79.746157999999994
  0
ARC
  8
0
  6
CONTINUOUS
 62
256
 10
299.150238000000000
 20
-74.247528000000003
 40
0.999999999999996
 50
92.999999999999091
 51
267.000000000000910
  0
LINE
  8
0
  6
CONTINUOUS
 62
256
 10
304.552924000000020
 20
-75.532043000000002
 11
299.097901999999980
 21
-75.246157999999994
  0
LINE
  8
0
  6
CONTINUOUS
 62
256
 10
304.618742000000000
 20
-77.433359999999993
 11
298.597901999999980
 21
-77.748898999999994
  0
ARC
  8
0
  6
CONTINUOUS
 62
256
 10
348.650238000000000
 20
-106.747528000000000
 40
52.499999999999993
 50
118.562833999999970
 51
118.973448999999970
  0
ARC
  8
0
  6
CONTINUOUS
 62
256
 10
348.650238000000000
 20
-106.747528000000000
 40
52.499999999999993
 50
118.562833999999970
 51
118.973448999999970
  0
LINE
  8
0
  6
CONTINUOUS
 62
256
 10
317.434753000000000
 20
-62.650213999999998
 11
317.148867999999990
 21
-57.195191999999999
  0
LINE
  8
0
  6
CONTINUOUS
 62
256
 10
319.336070000000010
 20
-62.716031999999998
 11
319.651609000000010
 21
-56.695191999999999
  0
ARC
  8
0
  6
CONTINUOUS
 62
256
 10
322.818053000000020
 20
-59.897253999999997
 40
0.999999999999997
 50
182.999999999999890
 51
298.871351999999210
  0
ARC
  8
0
  6
CONTINUOUS
 62
256
 10
322.987293000000020
 20
-59.804336999999997
 40
0.999999999999989
 50
298.664583999998800
 51
357.000000000000060
  0
ARC
  8
0
  6
CONTINUOUS
 62
256
 10
318.433382999999990
 20
-62.597878000000001
 40
0.999999999999997
 50
182.999999999999890
 51
304.388475999999800
  0
ARC
  8
0
  6
CONTINUOUS
 62
256
 10
318.337440000000020
 20
-62.663696000000002
 40
0.999999999999990
 50
304.513078999998980
 51
357.000000000000060
  0
ARC
  8
0
  6
CONTINUOUS
 62
256
 10
303.269291000000010
 20
-66.737284000000002
 40
1.000000000000007
 50
138.598893999999970
 51
222.000000000000990
  0
LINE
  8
0
  6
CONTINUOUS
 62
256
 10
305.301537999999990
 20
-72.923779999999994
 11
299.097901999999980
 21
-73.248898999999994
  0
ARC
  8
0
  6
CONTINUOUS
 62
256
 10
305.249202000000030
 20
-71.925151000000000
 40
0.999999999999996
 50
272.999999999999090
 51
42.000000000001023
  0
ARC
  8
0
  6
CONTINUOUS
 62
256
 10
308.639994000000000
 20
-61.366580999999996
 40
1.000000000000003
 50
47.999999999999801
 51
131.401105999999090
  0
ARC
  8
0
  6
CONTINUOUS
 62
256
 10
348.650238000000000
 20
-106.747528000000000
 40
61.500000000000007
 50
131.401106000000000
 51
138.598894000000000
  0
LINE
  8
0
  6
CONTINUOUS
 62
256
 10
314.826489999999980
 20
-63.398828000000002
 11
315.151609000000010
 21
-57.195191999999999
  0
ARC
  8
0
  6
CONTINUOUS
 62
256
 10
313.827860999999980
 20
-63.346491999999998
 40
1.000000000000008
 50
228.000000000000060
 51
357.000000000000060
  0
ARC
  8
0
  6
CONTINUOUS
 62
256
 10
348.650238000000000
 20
-106.747528000000000
 40
52.500000000000007
 50
66.304918999999984
 51
66.888397999999981
  0
ARC
  8
0
  6
CONTINUOUS
 62
256
 10
369.650238000000000
 20
-57.541330000000002
 40
1.000000000000000
 50
180.000000000000000
 51
246.888398000001160
  0
ARC
  8
0
  6
CONTINUOUS
 62
256
 10
348.650238000000000
 20
-106.747528000000000
 40
52.499999999999993
 50
66.336295000000021
 51
66.888397999999981
  0
ARC
  8
0
  6
CONTINUOUS
 62
256
 10
381.150238000000000
 20
-57.247528000000003
 40
0.999999999999997
 50
2.999999999999903
 51
177.000000000000110
  0
ARC
  8
0
  6
CONTINUOUS
 62
256
 10
376.650238000000000
 20
-56.747528000000003
 40
0.999999999999997
 50
2.999999999999903
 51
177.000000000000110
  0
LINE
  8
0
  6
CONTINUOUS
 62
256
 10
375.481052999999970
 20
-59.949590000000001
 11
375.651609000000010
 21
-56.695191999999999
  0
LINE
  8
0
  6
CONTINUOUS
 62
256
 10
373.314553999999990
 20
-59.856673000000001
 11
373.148867999999990
 21
-56.695191999999999
  0
ARC
  8
0
  6
CONTINUOUS
 62
256
 10
372.150238000000000
 20
-56.747528000000003
 40
0.999999999999997
 50
2.999999999999903
 51
177.000000000000110
  0
ARC
  8
0
  6
CONTINUOUS
 62
256
 10
370.095800999999990
 20
-57.733879000000002
 40
0.999999999999996
 50
246.368570000000860
 51
357.000000000000060
  0
LINE
  8
0
  6
CONTINUOUS
 62
256
 10
371.094430999999990
 20
-57.786214999999999
 11
371.151609000000010
 21
-56.695191999999999
  0
ARC
  8
0
  6
CONTINUOUS
 62
256
 10
348.650238000000000
 20
-106.747528000000000
 40
52.500000000000007
 50
113.111602000000020
 51
113.695081000000030
  0
ARC
  8
0
  6
CONTINUOUS
 62
256
 10
327.650238000000000
 20
-57.541330000000002
 40
0.999999999999995
 50
293.111601999998870
 51
0.000000000000000
  0
ARC
  8
0
  6
CONTINUOUS
 62
256
 10
348.650238000000000
 20
-106.747528000000000
 40
52.500000000000007
 50
113.111602000000020
 51
113.663704999999980
  0
ARC
  8
0
  6
CONTINUOUS
 62
256
 10
316.150238000000000
 20
-57.247528000000003
 40
0.999999999999997
 50
2.999999999999903
 51
177.000000000000110
  0
ARC
  8
0
  6
CONTINUOUS
 62
256
 10
320.650238000000000
 20
-56.747528000000003
 40
0.999999999999997
 50
2.999999999999903
 51
177.000000000000110
  0
LINE
  8
0
  6
CONTINUOUS
 62
256
 10
321.819424000000030
 20
-59.949590000000001
 11
321.648867999999990
 21
-56.695191999999999
  0
LINE
  8
0
  6
CONTINUOUS
 62
256
 10
323.985923000000010
 20
-59.856673000000001
 11
324.151609000000010
 21
-56.695191999999999
  0
ARC
  8
0
  6
CONTINUOUS
 62
256
 10
325.150238000000000
 20
-56.747528000000003
 40
0.999999999999997
 50
2.999999999999903
 51
177.000000000000110
  0
ARC
  8
0
  6
CONTINUOUS
 62
256
 10
327.204675000000010
 20
-57.733879000000002
 40
0.999999999999997
 50
182.999999999999890
 51
293.631429999999170
  0
LINE
  8
0
  6
CONTINUOUS
 62
256
 10
326.206046000000010
 20
-57.786214999999999
 11
326.148867999999990
 21
-56.695191999999999
  0
LINE
  8
0
  6
CONTINUOUS
 62
256
 10
380.150238000000000
 20
-49.247528000000003
 11
317.150238000000000
 21
-49.247528000000003
  0
LINE
  8
0
  6
CONTINUOUS
 62
256
 10
369.150238000000000
 20
-54.247528000000003
 11
369.150238000000000
 21
-52.947527999999998
  0
ARC
  8
0
  6
CONTINUOUS
 62
256
 10
368.950238000000010
 20
-52.947527999999998
 40
0.199999999999989
 50
0.000000000000000
 51
90.000000000000000
  0
LINE
  8
0
  6
CONTINUOUS
 62
256
 10
328.150238000000000
 20
-54.247528000000003
 11
317.150238000000000
 21
-54.247528000000003
  0
LINE
  8
0
  6
CONTINUOUS
 62
256
 10
328.150238000000000
 20
-54.247528000000003
 11
328.150238000000000
 21
-52.947527999999998
  0
LINE
  8
0
  6
CONTINUOUS
 62
256
 10
368.950238000000010
 20
-52.747528000000003
 11
328.350237999999990
 21
-52.747528000000003
  0
ARC
  8
0
  6
CONTINUOUS
 62
256
 10
328.350237999999990
 20
-52.947527999999998
 40
0.200000000000003
 50
90.000000000000000
 51
180.000000000000000
  0
LINE
  8
0
  6
CONTINUOUS
 62
256
 10
369.150238000000000
 20
-54.247528000000003
 11
380.150238000000000
 21
-54.247528000000003
  0
LINE
  8
0
  6
CONTINUOUS
 62
256
 10
317.150238000000000
 20
-54.247528000000003
 11
317.150238000000000
 21
-49.247528000000003
  0
LINE
  8
0
  6
CONTINUOUS
 62
256
 10
380.150238000000000
 20
-54.247528000000003
 11
380.150238000000000
 21
-49.247528000000003
  0
ARC
  8
0
  6
CONTINUOUS
 62
256
 10
348.650238000000000
 20
-319.747527999999990
 40
300.000000000000000
 50
85.138594999999995
 51
94.861405000000005
  0
LINE
  8
0
  6
CONTINUOUS
 62
256
 10
346.150238000000000
 20
-19.757944999999999
 11
346.150238000000000
 21
-19.247527999999999
  0
LINE
  8
0
  6
CONTINUOUS
 62
256
 10
351.150238000000000
 20
-19.757944999999999
 11
351.150238000000000
 21
-19.247527999999999
  0
LINE
  8
0
  6
CONTINUOUS
 62
256
 10
351.150238000000000
 20
-19.247527999999999
 11
346.150238000000000
 21
-19.247527999999999
  0
LINE
  8
0
  6
CONTINUOUS
 62
256
 10
367.950238000000010
 20
-53.247528000000003
 11
348.650238000000000
 21
-53.247528000000003
  0
ARC
  8
0
  6
CONTINUOUS
 62
256
 10
367.950238000000010
 20
-53.947527999999998
 40
0.699999999999989
 50
0.000000000000000
 51
90.000000000000000
  0
LINE
  8
0
  6
CONTINUOUS
 62
256
 10
368.650238000000000
 20
-53.947527999999998
 11
368.650238000000000
 21
-57.541330000000002
  0
LINE
  8
0
  6
CONTINUOUS
 62
256
 10
329.350237999999990
 20
-53.247528000000003
 11
348.650238000000000
 21
-53.247528000000003
  0
ARC
  8
0
  6
CONTINUOUS
 62
256
 10
329.350237999999990
 20
-53.947527999999998
 40
0.700000000000003
 50
90.000000000000000
 51
180.000000000000000
  0
LINE
  8
0
  6
CONTINUOUS
 62
256
 10
328.650238000000000
 20
-53.947527999999998
 11
328.650238000000000
 21
-57.541330000000002
  0
LINE
  8
0
  6
DASHDOT
 62
256
 10
348.650238000000000
 20
-13.840320000000000
 11
348.650238000000000
 21
-175.453871999999990
  0
LINE
  8
0
  6
CONTINUOUS
 62
256
 10
295.150238000000000
 20
-126.247528000000000
 11
295.150238000000000
 21
-87.247528000000003
  0
LINE
  8
0
  6
CONTINUOUS
 62
256
 10
402.150238000000000
 20
-87.247528000000003
 11
402.150238000000000
 21
-126.247528000000000
  0
LINE
  8
0
  6
CONTINUOUS
 62
256
 10
368.150238000000000
 20
-160.247527999999990
 11
329.150238000000000
 21
-160.247527999999990
  0
LINE
  8
0
  6
CONTINUOUS
 62
256
 10
329.150238000000000
 20
-53.247528000000003
 11
368.150238000000000
 21
-53.247528000000003
  0
ARC
  8
0
  6
CONTINUOUS
 62
256
 10
328.650238000000000
 20
-454.247527999999990
 40
400.000000000000000
 50
90.071529999999996
 51
91.431984000000014
  0
ARC
  8
0
  6
CONTINUOUS
 62
256
 10
696.150237999999940
 20
-86.747528000000003
 40
400.000000000000000
 50
178.568016000000000
 51
179.947000000000000
  0
ARC
  8
0
  6
CONTINUOUS
 62
256
 10
321.150238000000000
 20
-134.247527999999990
 40
24.999999999999979
 50
185.730174999999970
 51
273.438650000000000
  0
ARC
  8
0
  6
CONTINUOUS
 62
256
 10
696.150237999999940
 20
-126.747528000000000
 40
400.000000000000000
 50
180.071529999999970
 51
181.431983999999970
  0
ARC
  8
0
  6
CONTINUOUS
 62
256
 10
328.650238000000000
 20
240.752472000000010
 40
400.000000000000000
 50
269.140459000000020
 51
269.928470000000000
  0
ARC
  8
0
  6
CONTINUOUS
 62
256
 10
376.150238000000000
 20
-134.247527999999990
 40
25.000000000000011
 50
275.730175000000030
 51
3.438649999999981
  0
ARC
  8
0
  6
CONTINUOUS
 62
256
 10
368.650238000000000
 20
240.752472000000010
 40
400.000000000000000
 50
270.071530000000000
 51
271.431984000000000
  0
ARC
  8
0
  6
CONTINUOUS
 62
256
 10
1.150238000000000
 20
-126.747528000000000
 40
400.000000000000000
 50
359.140459000000020
 51
359.928470000000000
  0
ARC
  8
0
  6
CONTINUOUS
 62
256
 10
376.150238000000000
 20
-79.247528000000003
 40
24.999999999999979
 50
5.730175000000014
 51
84.269824999999955
  0
ARC
  8
0
  6
CONTINUOUS
 62
256
 10
1.150238000000000
 20
-86.747528000000003
 40
400.000000000000000
 50
0.071529999999999
 51
1.431984000000000
  0
ARC
  8
0
  6
CONTINUOUS
 62
256
 10
368.650238000000000
 20
-454.247527999999990
 40
400.000000000000000
 50
88.568016000000000
 51
89.928470000000004
  0
ARC
  8
0
  6
CONTINUOUS
 62
256
 10
295.650238000000000
 20
-86.247528000000003
 40
0.500000000000000
 50
270.000000000000000
 51
0.000000000000000
  0
ARC
  8
0
  6
CONTINUOUS
 62
256
 10
295.650238000000000
 20
-127.247528000000000
 40
0.500000000000000
 50
0.000000000000000
 51
90.000000000000000
  0
ARC
  8
0
  6
CONTINUOUS
 62
256
 10
295.650238000000000
 20
-126.247528000000000
 40
0.500000000000000
 50
180.000000000000000
 51
270.000000000000000
  0
ARC
  8
0
  6
CONTINUOUS
 62
256
 10
368.150238000000000
 20
-159.747527999999990
 40
0.500000000000000
 50
270.000000000000000
 51
0.000000000000000
  0
ARC
  8
0
  6
CONTINUOUS
 62
256
 10
329.150238000000000
 20
-159.747527999999990
 40
0.500000000000000
 50
180.000000000000000
 51
270.000000000000000
  0
ARC
  8
0
  6
CONTINUOUS
 62
256
 10
328.150238000000000
 20
-159.747527999999990
 40
0.500000000000000
 50
0.000000000000000
 51
90.000000000000000
  0
ARC
  8
0
  6
CONTINUOUS
 62
256
 10
401.650238000000000
 20
-127.247528000000000
 40
0.500000000000000
 50
90.000000000000000
 51
180.000000000000000
  0
ARC
  8
0
  6
CONTINUOUS
 62
256
 10
369.150238000000000
 20
-159.747527999999990
 40
0.500000000000000
 50
90.000000000000000
 51
180.000000000000000
  0
ARC
  8
0
  6
CONTINUOUS
 62
256
 10
401.650238000000000
 20
-86.247528000000003
 40
0.500000000000000
 50
180.000000000000000
 51
270.000000000000000
  0
ARC
  8
0
  6
CONTINUOUS
 62
256
 10
401.650238000000000
 20
-87.247528000000003
 40
0.500000000000000
 50
0.000000000000000
 51
90.000000000000000
  0
ARC
  8
0
  6
CONTINUOUS
 62
256
 10
401.650238000000000
 20
-126.247528000000000
 40
0.500000000000000
 50
270.000000000000000
 51
0.000000000000000
  0
ARC
  8
0
  6
CONTINUOUS
 62
256
 10
368.150238000000000
 20
-53.747528000000003
 40
0.500000000000000
 50
0.000000000000000
 51
90.000000000000000
  0
ARC
  8
0
  6
CONTINUOUS
 62
256
 10
369.150238000000000
 20
-53.747528000000003
 40
0.500000000000000
 50
180.000000000000000
 51
270.000000000000000
  0
ARC
  8
0
  6
CONTINUOUS
 62
256
 10
328.150238000000000
 20
-53.747528000000003
 40
0.500000000000000
 50
270.000000000000000
 51
0.000000000000000
  0
ARC
  8
0
  6
CONTINUOUS
 62
256
 10
329.150238000000000
 20
-53.747528000000003
 40
0.500000000000000
 50
90.000000000000000
 51
180.000000000000000
  0
ARC
  8
0
  6
CONTINUOUS
 62
256
 10
295.650238000000000
 20
-87.247528000000003
 40
0.500000000000000
 50
90.000000000000000
 51
180.000000000000000
  0
ARC
  8
0
  6
CONTINUOUS
 62
256
 10
321.150238000000000
 20
-79.247528000000003
 40
25.000000000000004
 50
95.730175000000045
 51
174.269825000000000
  0
LINE
  8
0
  6
CONTINUOUS
 62
256
 10
396.150238000000000
 20
-56.247528000000003
 11
396.150238000000000
 21
-64.247528000000003
  0
LINE
  8
0
  6
CONTINUOUS
 62
256
 10
396.150238000000000
 20
-56.247528000000003
 11
392.150238000000000
 21
-56.247528000000003
  0
LINE
  8
0
  6
CONTINUOUS
 62
256
 10
392.150238000000000
 20
-167.555522999999990
 11
392.150238000000000
 21
-153.456900999999990
  0
LINE
  8
0
  6
CONTINUOUS
 62
256
 10
381.150238000000000
 20
-40.738801000000002
 11
381.150238000000000
 21
-45.247528000000003
  0
LINE
  8
0
  6
CONTINUOUS
 62
256
 10
381.150238000000000
 20
-54.752631000000001
 11
381.150238000000000
 21
-44.238801000000002
  0
LINE
  8
0
  6
CONTINUOUS
 62
256
 10
381.150238000000000
 20
-40.747528000000003
 11
392.150238000000000
 21
-40.939534000000002
  0
LINE
  8
0
  6
CONTINUOUS
 62
256
 10
392.150238000000000
 20
-40.939534000000002
 11
392.150238000000000
 21
-60.038156000000001
  0
LINE
  8
0
  6
CONTINUOUS
 62
256
 10
314.650238000000000
 20
-41.917017999999999
 11
305.150238000000000
 21
-41.917017999999999
  0
LINE
  8
0
  6
CONTINUOUS
 62
256
 10
305.150238000000000
 20
-60.038156000000001
 11
305.150238000000000
 21
-41.917017999999999
  0
LINE
  8
0
  6
CONTINUOUS
 62
256
 10
301.150238000000000
 20
-56.256256000000000
 11
301.150238000000000
 21
-64.247528000000003
  0
LINE
  8
0
  6
CONTINUOUS
 62
256
 10
305.150238000000000
 20
-56.256256000000000
 11
301.150238000000000
 21
-56.256256000000000
  0
LINE
  8
0
  6
CONTINUOUS
 62
256
 10
381.150238000000000
 20
-167.756256000000010
 11
381.150238000000000
 21
-163.256256000000010
  0
LINE
  8
0
  6
CONTINUOUS
 62
256
 10
381.150238000000000
 20
-167.764983000000000
 11
381.150238000000000
 21
-158.742425999999990
  0
LINE
  8
0
  6
CONTINUOUS
 62
256
 10
381.150238000000000
 20
-167.747527999999990
 11
392.150238000000000
 21
-167.555522999999990
  0
LINE
  8
0
  6
CONTINUOUS
 62
256
 10
381.150238000000000
 20
-167.756256000000010
 11
314.650238000000000
 21
-166.595494000000000
  0
LINE
  8
0
  6
CONTINUOUS
 62
256
 10
314.650238000000000
 20
-166.595494000000000
 11
305.150238000000000
 21
-166.595494000000000
  0
LINE
  8
0
  6
CONTINUOUS
 62
256
 10
305.150238000000000
 20
-166.595494000000000
 11
305.150238000000000
 21
-153.456900999999990
  0
LINE
  8
0
  6
CONTINUOUS
 62
256
 10
291.150310999999990
 20
-82.747528000000003
 11
259.150310999999990
 21
-82.747528000000003
  0
LINE
  8
0
  6
CONTINUOUS
 62
256
 10
259.150310999999990
 20
-104.747528000000000
 11
259.150310999999990
 21
-80.247528000000003
  0
LINE
  8
0
  6
CONTINUOUS
 62
256
 10
291.150310999999990
 20
-80.247528000000003
 11
259.150330000000000
 21
-80.247528000000003
  0
LINE
  8
0
  6
CONTINUOUS
 62
256
 10
291.150310999999990
 20
-80.247528000000003
 11
291.150310999999990
 21
-82.747528000000003
  0
LINE
  8
0
  6
CONTINUOUS
 62
256
 10
296.170238999999980
 20
-82.747528000000003
 11
291.150310999999990
 21
-82.747528000000003
  0
LINE
  8
0
  6
CONTINUOUS
 62
256
 10
295.150238000000000
 20
-104.747528000000000
 11
259.150310999999990
 21
-104.747528000000000
  0
LINE
  8
0
  6
CONTINUOUS
 62
256
 10
381.150238000000000
 20
-40.756256000000000
 11
378.650238000000000
 21
-40.799894000000002
  0
LINE
  8
0
  6
CONTINUOUS
 62
256
 10
318.650238000000000
 20
-41.847197000000001
 11
314.650238000000000
 21
-41.917017999999999
  0
LINE
  8
0
  6
DASHDOT
 62
256
 10
251.592187000000000
 20
-93.747528000000003
 11
406.323270999999980
 21
-93.747528000000003
  0
LINE
  8
0
  6
DASHDOT
 62
256
 10
405.445905999999980
 20
-106.747528000000000
 11
289.308263000000010
 21
-106.747528000000000
  0
LINE
  8
0
  6
DASHED
 62
256
 10
381.150238000000000
 20
-56.247528000000003
 11
316.150238000000000
 21
-56.247528000000003
  0
TEXT
  8
0
  6
CONTINUOUS
 62
256
 10
432.819305419921870
 20
-194.504028320312500
 40
3.299999952316284
  1
1/1
 50
0.000002504478167
 41
0.850909097352304
  7
STANDARD1
  0
TEXT
  8
0
  6
CONTINUOUS
 62
256
 10
430.401306152343750
 20
-194.504028320312500
 40
3.299999952316284
  1
 
 50
0.000002504478167
 41
1.733333298293026
  7
STANDARD1
  0
TEXT
  8
0
  6
CONTINUOUS
 62
256
 10
417.350677490234370
 20
-194.504028320312500
 40
3.299999952316284
  1
SCALE
 50
0.000002504478167
 41
0.821052645401140
  7
STANDARD1
  0
TEXT
  8
0
  6
CONTINUOUS
 62
256
 10
414.099304199218750
 20
-194.504028320312500
 40
3.299999952316284
  1
 
 50
0.000002504478167
 41
1.733333298293026
  7
STANDARD1
  0
TEXT
  8
0
  6
CONTINUOUS
 62
256
 10
426.379486083984370
 20
-189.204025268554690
 40
3.299999952316284
  1
1/240
 50
0.000002504478167
 41
0.821052645401140
  7
STANDARD1
  0
TEXT
  8
0
  6
CONTINUOUS
 62
256
 10
422.597473144531250
 20
-189.204025268554690
 40
3.299999952316284
  1
ü`
 50
0.000002504478167
 41
1.176000019651471
  7
STANDARD1
  0
TEXT
  8
0
  6
CONTINUOUS
 62
256
 10
414.099304199218750
 20
-189.204025268554690
 40
3.299999952316284
  1
1/5
 50
0.000002504478167
 41
0.850909097352304
  7
STANDARD1
  0
TEXT
  8
0
  6
CONTINUOUS
 62
256
 10
417.333312988281250
 20
-183.904022216796870
 40
3.299999952316284
  1
GM-SHYF-RL
 50
0.000002504478167
 41
0.799999980493025
  7
STANDARD1
  0
TEXT
  8
0
  6
CONTINUOUS
 62
256
 10
414.099304199218750
 20
-183.904022216796870
 40
3.299999952316284
  1
 
 50
0.000002504478167
 41
1.733333298293026
  7
STANDARD1
  0
TEXT
  8
0
  6
CONTINUOUS
 62
256
 10
419.924682617187500
 20
-178.604034423828120
 40
3.299999952316284
  1
0.1kW
 50
0.000002504478167
 41
0.821052645401140
  7
STANDARD1
  0
TEXT
  8
0
  6
CONTINUOUS
 62
256
 10
414.099304199218750
 20
-178.604034423828120
 40
3.299999952316284
  1
  
 50
0.000002504478167
 41
1.485714400175845
  7
STANDARD1
  0
TEXT
  8
0
  6
CONTINUOUS
 62
256
 10
419.918792724609370
 20
-173.304031372070310
 40
3.299999952316284
  1
SHY031
 50
0.000002504478167
 41
0.813913121261144
  7
STANDARD1
  0
TEXT
  8
0
  6
CONTINUOUS
 62
256
 10
414.099304199218750
 20
-173.304031372070310
 40
3.299999952316284
  1
  
 50
0.000002504478167
 41
1.485714400175845
  7
STANDARD1
  0
LINE
  8
0
  6
CONTINUOUS
 62
256
 10
83.885391999999996
 20
45.319502000000000
 11
83.885391999999996
 21
42.285048000000003
  0
LINE
  8
0
  6
CONTINUOUS
 62
256
 10
80.885391999999996
 20
48.319502000000000
 11
75.885391999999996
 21
48.319502000000000
  0
LINE
  8
0
  6
CONTINUOUS
 62
256
 10
81.885391999999996
 20
51.389850000000003
 11
75.885391999999996
 21
51.389850000000003
  0
LINE
  8
0
  6
CONTINUOUS
 62
256
 10
70.885391999999996
 20
55.927335999999997
 11
70.885391999999996
 21
53.319502000000000
  0
LINE
  8
0
  6
CONTINUOUS
 62
256
 10
73.885391999999996
 20
58.927335999999997
 11
80.885391999999996
 21
58.927335999999997
  0
LINE
  8
0
  6
CONTINUOUS
 62
256
 10
83.885391999999996
 20
72.819502000000000
 11
88.885391999999996
 21
72.819502000000000
  0
LINE
  8
0
  6
CONTINUOUS
 62
256
 10
83.885391999999996
 20
92.819502000000000
 11
83.885391999999996
 21
53.389850000000003
  0
LINE
  8
0
  6
CONTINUOUS
 62
256
 10
83.885391999999996
 20
112.819502000000000
 11
88.885391999999996
 21
112.819502000000000
  0
LINE
  8
0
  6
CONTINUOUS
 62
256
 10
70.885391999999996
 20
129.711668000000000
 11
70.885391999999996
 21
132.319502000000000
  0
LINE
  8
0
  6
CONTINUOUS
 62
256
 10
73.885391999999996
 20
126.711668000000000
 11
80.885391999999996
 21
126.711668000000000
  0
LINE
  8
0
  6
CONTINUOUS
 62
256
 10
83.885391999999996
 20
92.819502000000000
 11
83.885391999999996
 21
132.249153000000010
  0
LINE
  8
0
  6
CONTINUOUS
 62
256
 10
80.885391999999996
 20
137.319502000000000
 11
75.885391999999996
 21
137.319502000000000
  0
LINE
  8
0
  6
CONTINUOUS
 62
256
 10
81.885391999999996
 20
134.249153000000010
 11
75.885391999999996
 21
134.249153000000010
  0
LINE
  8
0
  6
CONTINUOUS
 62
256
 10
83.885391999999996
 20
140.319502000000000
 11
83.885391999999996
 21
143.353955000000010
  0
ARC
  8
0
  6
CONTINUOUS
 62
256
 10
86.885391999999996
 20
42.285048000000003
 40
3.000000000000000
 50
180.000000000000000
 51
270.999999999999890
  0
ARC
  8
0
  6
CONTINUOUS
 62
256
 10
86.885391999999996
 20
143.353955000000010
 40
3.000000000000011
 50
89.000000000000128
 51
180.000000000000000
  0
ARC
  8
0
  6
CONTINUOUS
 62
256
 10
80.885391999999996
 20
61.927335999999997
 40
3.000000000000000
 50
270.000000000000000
 51
0.000000000000000
  0
ARC
  8
0
  6
CONTINUOUS
 62
256
 10
80.885391999999996
 20
45.319502000000000
 40
3.000000000000000
 50
0.000000000000000
 51
90.000000000000000
  0
ARC
  8
0
  6
CONTINUOUS
 62
256
 10
81.885391999999996
 20
53.389850000000003
 40
2.000000000000000
 50
270.000000000000000
 51
0.000000000000000
  0
ARC
  8
0
  6
CONTINUOUS
 62
256
 10
75.885391999999996
 20
56.389850000000003
 40
5.000000000000000
 50
180.000000000000000
 51
270.000000000000000
  0
ARC
  8
0
  6
CONTINUOUS
 62
256
 10
75.885391999999996
 20
53.319502000000000
 40
5.000000000000000
 50
180.000000000000000
 51
270.000000000000000
  0
ARC
  8
0
  6
CONTINUOUS
 62
256
 10
80.885391999999996
 20
123.711668000000000
 40
3.000000000000000
 50
0.000000000000000
 51
90.000000000000000
  0
ARC
  8
0
  6
CONTINUOUS
 62
256
 10
75.885391999999996
 20
129.249153000000010
 40
5.000000000000000
 50
90.000000000000000
 51
180.000000000000000
  0
ARC
  8
0
  6
CONTINUOUS
 62
256
 10
75.885391999999996
 20
132.319502000000000
 40
5.000000000000000
 50
90.000000000000000
 51
180.000000000000000
  0
ARC
  8
0
  6
CONTINUOUS
 62
256
 10
80.885391999999996
 20
140.319502000000000
 40
3.000000000000000
 50
270.000000000000000
 51
0.000000000000000
  0
ARC
  8
0
  6
CONTINUOUS
 62
256
 10
81.885391999999996
 20
132.249153000000010
 40
2.000000000000000
 50
0.000000000000000
 51
90.000000000000000
  0
LINE
  8
0
  6
CONTINUOUS
 62
256
 10
70.885391999999996
 20
42.058132999999998
 11
70.885391999999996
 21
92.819502000000000
  0
LINE
  8
0
  6
CONTINUOUS
 62
256
 10
70.885391999999996
 20
143.580871000000000
 11
70.885391999999996
 21
92.819502000000000
  0
ARC
  8
0
  6
CONTINUOUS
 62
256
 10
73.885391999999996
 20
143.580871000000000
 40
3.000000000000011
 50
89.000000000000128
 51
180.000000000000000
  0
ARC
  8
0
  6
CONTINUOUS
 62
256
 10
73.885391999999996
 20
42.058132999999998
 40
3.000000000000000
 50
180.000000000000000
 51
270.999999999999890
  0
ARC
  8
0
  6
CONTINUOUS
 62
256
 10
73.885391999999996
 20
123.711668000000000
 40
3.000000000000000
 50
90.000000000000000
 51
180.000000000000000
  0
ARC
  8
0
  6
CONTINUOUS
 62
256
 10
73.885391999999996
 20
61.927335999999997
 40
3.000000000000000
 50
180.000000000000000
 51
270.000000000000000
  0
LINE
  8
0
  6
CONTINUOUS
 62
256
 10
88.885391999999996
 20
92.819502000000000
 11
88.885391999999996
 21
146.319502000000000
  0
LINE
  8
0
  6
CONTINUOUS
 62
256
 10
88.885391999999996
 20
92.819502000000000
 11
88.885391999999996
 21
39.319502000000000
  0
LINE
  8
0
  6
CONTINUOUS
 62
256
 10
70.885391999999996
 20
143.580871000000000
 11
70.885391999999996
 21
137.319502000000000
  0
LINE
  8
0
  6
CONTINUOUS
 62
256
 10
70.885391999999996
 20
42.058132999999998
 11
70.885391999999996
 21
59.319502000000000
  0
ARC
  8
0
  6
CONTINUOUS
 62
256
 10
73.885391999999996
 20
42.058132999999998
 40
3.000000000000000
 50
180.000000000000000
 51
270.999999999999890
  0
ARC
  8
0
  6
CONTINUOUS
 62
256
 10
67.885391999999996
 20
126.319502000000000
 40
3.000000000000000
 50
270.000000000000000
 51
0.000000000000000
  0
LINE
  8
0
  6
CONTINUOUS
 62
256
 10
62.876969000000003
 20
123.319502000000000
 11
67.885391999999996
 21
123.319502000000000
  0
ARC
  8
0
  6
CONTINUOUS
 62
256
 10
73.885391999999996
 20
143.580871000000000
 40
3.000000000000011
 50
89.000000000000128
 51
180.000000000000000
  0
ARC
  8
0
  6
CONTINUOUS
 62
256
 10
67.885391999999996
 20
48.319502000000000
 40
3.000000000000000
 50
0.000000000000000
 51
90.000000000000000
  0
LINE
  8
0
  6
CONTINUOUS
 62
256
 10
61.715902999999997
 20
51.319502000000000
 11
67.885391999999996
 21
51.319502000000000
  0
LINE
  8
0
  6
CONTINUOUS
 62
256
 10
60.867936999999998
 20
125.319502000000000
 11
60.675930999999999
 21
136.319502000000000
  0
LINE
  8
0
  6
CONTINUOUS
 62
256
 10
-80.114608000000004
 20
136.319502000000000
 11
60.675930999999999
 21
136.319502000000000
  0
LINE
  8
0
  6
CONTINUOUS
 62
256
 10
-80.306613999999996
 20
125.319502000000000
 11
-80.114608000000004
 21
136.319502000000000
  0
LINE
  8
0
  6
CONTINUOUS
 62
256
 10
10.385392000000000
 20
49.319502000000000
 11
10.385392000000000
 21
45.319502000000000
  0
LINE
  8
0
  6
CONTINUOUS
 62
256
 10
-64.614608000000004
 20
45.319502000000000
 11
10.385392000000000
 21
45.319502000000000
  0
LINE
  8
0
  6
CONTINUOUS
 62
256
 10
-64.614608000000004
 20
49.319502000000000
 11
-64.614608000000004
 21
45.319502000000000
  0
LINE
  8
0
  6
CONTINUOUS
 62
256
 10
10.385392000000000
 20
140.319502000000000
 11
10.385392000000000
 21
136.319502000000000
  0
LINE
  8
0
  6
CONTINUOUS
 62
256
 10
-64.614608000000004
 20
140.319502000000000
 11
-64.614608000000004
 21
136.319502000000000
  0
LINE
  8
0
  6
CONTINUOUS
 62
256
 10
46.010184000000002
 20
136.319502000000000
 11
31.975026000000000
 21
136.319502000000000
  0
LINE
  8
0
  6
CONTINUOUS
 62
256
 10
-64.614608000000004
 20
140.319502000000000
 11
10.385392000000000
 21
140.319502000000000
  0
ARC
  8
0
  6
CONTINUOUS
 62
256
 10
61.715902999999997
 20
49.319502000000000
 40
2.000000000000000
 50
90.000000000000000
 51
180.000000000000000
  0
ARC
  8
0
  6
CONTINUOUS
 62
256
 10
62.876969000000003
 20
125.319502000000000
 40
2.000000000000000
 50
180.000000000000000
 51
270.000000000000000
  0
LINE
  8
0
  6
CONTINUOUS
 62
256
 10
73.378885999999994
 20
39.101199999999999
 11
88.885391999999996
 21
39.371867000000002
  0
LINE
  8
0
  6
CONTINUOUS
 62
256
 10
73.378885999999994
 20
146.537803000000000
 11
88.885391999999996
 21
146.267135999999990
  0
LINE
  8
0
  6
CONTINUOUS
 62
256
 10
59.715902999999997
 20
58.819502000000000
 11
59.715902999999997
 21
49.319502000000000
  0
LINE
  8
0
  6
CONTINUOUS
 62
256
 10
59.715902999999997
 20
49.319502000000000
 11
-27.114608000000000
 21
49.319502000000000
  0
LINE
  8
0
  6
CONTINUOUS
 62
256
 10
60.876663999999998
 20
125.319502000000000
 11
59.715902999999997
 21
58.819502000000000
  0
LINE
  8
0
  6
CONTINUOUS
 62
256
 10
60.876969000000003
 20
125.319502000000000
 11
-80.306613999999996
 21
125.319502000000000
  0
LINE
  8
0
  6
CONTINUOUS
 62
256
 10
-80.297886000000005
 20
125.319502000000000
 11
-79.137124000000000
 21
58.819502000000000
  0
LINE
  8
0
  6
CONTINUOUS
 62
256
 10
-79.137124000000000
 20
58.819502000000000
 11
-79.137124000000000
 21
49.319502000000000
  0
LINE
  8
0
  6
CONTINUOUS
 62
256
 10
-27.114608000000000
 20
49.319502000000000
 11
-79.137124000000000
 21
49.319502000000000
  0
LINE
  8
0
  6
CONTINUOUS
 62
256
 10
-39.114607999999997
 20
45.319502000000000
 11
-39.114607999999997
 21
43.319575000000000
  0
LINE
  8
0
  6
CONTINUOUS
 62
256
 10
-38.114607999999997
 20
43.319575000000000
 11
-38.114607999999997
 21
3.319575000000000
  0
LINE
  8
0
  6
CONTINUOUS
 62
256
 10
-16.114608000000000
 20
35.319575000000000
 11
-16.114608000000000
 21
3.319575000000000
  0
LINE
  8
0
  6
CONTINUOUS
 62
256
 10
-39.114607999999997
 20
43.319575000000000
 11
-15.114608000000000
 21
43.319575000000000
  0
LINE
  8
0
  6
CONTINUOUS
 62
256
 10
-15.114608000000000
 20
45.319502000000000
 11
-15.114608000000000
 21
43.319575000000000
  0
LINE
  8
0
  6
CONTINUOUS
 62
256
 10
-16.114608000000000
 20
43.319575000000000
 11
-16.114608000000000
 21
35.319575000000000
  0
LINE
  8
0
  6
DASHDOT
 62
256
 10
-27.114608000000000
 20
147.839157000000000
 11
-27.114608000000000
 21
0.308608000000000
  0
LINE
  8
0
  6
CONTINUOUS
 62
256
 10
-24.114608000000000
 20
3.319575000000000
 11
-24.114608000000000
 21
35.319575000000000
  0
ARC
  8
0
  6
CONTINUOUS
 62
256
 10
-27.114608000000000
 20
35.319575000000000
 40
3.000000000000000
 50
0.000000000000000
 51
180.000000000000000
  0
LINE
  8
0
  6
CONTINUOUS
 62
256
 10
-30.114608000000000
 20
35.319575000000000
 11
-24.114608000000000
 21
35.319575000000000
  0
LINE
  8
0
  6
CONTINUOUS
 62
256
 10
-30.114608000000000
 20
3.319575000000000
 11
-30.114608000000000
 21
35.319575000000000
  0
LINE
  8
0
  6
CONTINUOUS
 62
256
 10
-38.114607999999997
 20
3.319575000000000
 11
-16.114608000000000
 21
3.319575000000000
  0
ARC
  8
0
  6
CONTINUOUS
 62
256
 10
107.885392000000000
 20
121.819502000000000
 40
1.000000000000000
 50
90.000000000000000
 51
180.000000000000000
  0
ARC
  8
0
  6
CONTINUOUS
 62
256
 10
107.885392000000000
 20
63.819502000000000
 40
1.000000000000000
 50
180.000000000000000
 51
270.000000000000000
  0
ARC
  8
0
  6
CONTINUOUS
 62
256
 10
178.885392000000000
 20
63.819502000000000
 40
1.000000000000000
 50
270.000000000000000
 51
0.000000000000000
  0
ARC
  8
0
  6
CONTINUOUS
 62
256
 10
178.885392000000000
 20
121.819502000000000
 40
1.000000000000000
 50
0.000000000000000
 51
90.000000000000000
  0
LINE
  8
0
  6
CONTINUOUS
 62
256
 10
106.885392000000000
 20
121.819502000000000
 11
106.885392000000000
 21
63.819502000000000
  0
LINE
  8
0
  6
CONTINUOUS
 62
256
 10
179.885392000000000
 20
63.819502000000000
 11
179.885392000000000
 21
121.819502000000000
  0
LINE
  8
0
  6
CONTINUOUS
 62
256
 10
107.885392000000000
 20
62.819502000000000
 11
178.885392000000000
 21
62.819502000000000
  0
LINE
  8
0
  6
CONTINUOUS
 62
256
 10
107.885392000000000
 20
122.819502000000000
 11
178.885392000000000
 21
122.819502000000000
  0
LINE
  8
0
  6
CONTINUOUS
 62
256
 10
194.385392000000000
 20
92.819502000000000
 11
194.385392000000000
 21
73.319502000000000
  0
ARC
  8
0
  6
CONTINUOUS
 62
256
 10
193.885392000000000
 20
73.319502000000000
 40
0.499999999999995
 50
315.115137999999770
 51
0.000000000000000
  0
ARC
  8
0
  6
CONTINUOUS
 62
256
 10
194.593918000000000
 20
72.613816999999997
 40
0.499999999999995
 50
135.115137999999720
 51
178.347093000000650
  0
LINE
  8
0
  6
CONTINUOUS
 62
256
 10
188.385392000000000
 20
47.721522000000000
 11
192.385392000000000
 21
47.721522000000000
  0
ARC
  8
0
  6
CONTINUOUS
 62
256
 10
192.385392000000000
 20
48.221522000000000
 40
0.500000000000000
 50
270.000000000000000
 51
0.000000000000000
  0
LINE
  8
0
  6
CONTINUOUS
 62
256
 10
192.885392000000000
 20
48.221522000000000
 11
192.885392000000000
 21
63.620860000000000
  0
ARC
  8
0
  6
CONTINUOUS
 62
256
 10
192.844593000000000
 20
65.328705999999997
 40
1.000000000000005
 50
301.359036000000630
 51
357.746046999999980
  0
ARC
  8
0
  6
CONTINUOUS
 62
256
 10
202.885392000000000
 20
46.691960999999999
 40
9.999999999999993
 50
176.274962999999990
 51
180.000000000000000
  0
ARC
  8
0
  6
CONTINUOUS
 62
256
 10
193.885392000000000
 20
63.620860000000000
 40
1.000000000000011
 50
121.359036000000470
 51
180.000000000000000
  0
LINE
  8
0
  6
CONTINUOUS
 62
256
 10
187.885392000000000
 20
40.319502000000000
 11
190.556168000000010
 21
40.319502000000000
  0
ARC
  8
0
  6
CONTINUOUS
 62
256
 10
190.556168000000010
 20
42.319502000000000
 40
2.000000000000000
 50
270.000000000000000
 51
355.851049999999990
  0
LINE
  8
0
  6
CONTINUOUS
 62
256
 10
188.385392000000000
 20
47.721522000000000
 11
188.385392000000000
 21
56.571102000000003
  0
LINE
  8
0
  6
CONTINUOUS
 62
256
 10
187.885392000000000
 20
56.571102000000003
 11
188.385392000000000
 21
56.571102000000003
  0
LINE
  8
0
  6
CONTINUOUS
 62
256
 10
188.385392000000000
 20
49.480102000000002
 11
187.885392000000000
 21
49.480102000000002
  0
ARC
  8
0
  6
CONTINUOUS
 62
256
 10
178.885392000000000
 20
63.319502000000000
 40
2.000000000000000
 50
270.000000000000000
 51
0.000000000000000
  0
LINE
  8
0
  6
DASHDOT
 62
256
 10
184.827990000000000
 20
53.221522000000000
 11
199.459155000000010
 21
53.221522000000000
  0
ARC
  8
0
  6
CONTINUOUS
 62
256
 10
107.885392000000000
 20
63.319502000000000
 40
2.000000000000000
 50
180.000000000000000
 51
270.000000000000000
  0
LINE
  8
0
  6
CONTINUOUS
 62
256
 10
107.885392000000000
 20
61.319502000000000
 11
178.885392000000000
 21
61.319502000000000
  0
LINE
  8
0
  6
CONTINUOUS
 62
256
 10
88.885391999999996
 20
40.319502000000000
 11
187.885392000000000
 21
40.319502000000000
  0
ARC
  8
0
  6
CONTINUOUS
 62
256
 10
-505.614607999999980
 20
92.819502000000000
 40
700.000000000000110
 50
355.851049999999990
 51
356.379937999999980
  0
ARC
  8
0
  6
CONTINUOUS
 62
256
 10
-505.614607999999980
 20
92.819502000000000
 40
700.000000000000000
 50
357.134181000000070
 51
358.347092999999970
  0
ARC
  8
0
  6
CONTINUOUS
 62
256
 10
190.698360000000010
 20
44.319502000000000
 40
2.000000000000000
 50
270.000000000000000
 51
356.015635999999860
  0
ARC
  8
0
  6
CONTINUOUS
 62
256
 10
190.663354000000000
 20
43.819502000000000
 40
2.000000000000000
 50
270.000000000000000
 51
355.974491999999830
  0
LINE
  8
0
  6
CONTINUOUS
 62
256
 10
187.885392000000000
 20
42.319502000000000
 11
190.698360000000010
 21
42.319502000000000
  0
LINE
  8
0
  6
CONTINUOUS
 62
256
 10
187.885392000000000
 20
41.819502000000000
 11
190.663354000000000
 21
41.819502000000000
  0
LINE
  8
0
  6
CONTINUOUS
 62
256
 10
187.885392000000000
 20
42.319502000000000
 11
88.885391999999996
 21
42.319502000000000
  0
LINE
  8
0
  6
CONTINUOUS
 62
256
 10
187.885392000000000
 20
41.819502000000000
 11
88.885391999999996
 21
41.819502000000000
  0
LINE
  8
0
  6
CONTINUOUS
 62
256
 10
187.885392000000000
 20
48.314846000000003
 11
88.885391999999996
 21
48.314846000000003
  0
LINE
  8
0
  6
CONTINUOUS
 62
256
 10
187.885392000000000
 20
46.686419000000001
 11
88.885391999999996
 21
46.686419000000001
  0
LINE
  8
0
  6
CONTINUOUS
 62
256
 10
187.885392000000000
 20
51.777588000000002
 11
88.885391999999996
 21
51.777588000000002
  0
LINE
  8
0
  6
CONTINUOUS
 62
256
 10
187.885392000000000
 20
52.779066000000000
 11
88.885391999999996
 21
52.779066000000000
  0
LINE
  8
0
  6
CONTINUOUS
 62
256
 10
187.885392000000000
 20
59.515900999999999
 11
88.885391999999996
 21
59.515900999999999
  0
LINE
  8
0
  6
CONTINUOUS
 62
256
 10
187.885392000000000
 20
61.105110000000003
 11
88.885391999999996
 21
61.105110000000003
  0
LINE
  8
0
  6
CONTINUOUS
 62
256
 10
187.885392000000000
 20
72.819502000000000
 11
180.885392000000000
 21
72.819502000000000
  0
LINE
  8
0
  6
CONTINUOUS
 62
256
 10
105.885392000000000
 20
72.819502000000000
 11
88.885391999999996
 21
72.819502000000000
  0
LINE
  8
0
  6
CONTINUOUS
 62
256
 10
187.885392000000000
 20
69.981262000000001
 11
180.885392000000000
 21
69.981262000000001
  0
LINE
  8
0
  6
CONTINUOUS
 62
256
 10
105.885392000000000
 20
69.981262000000001
 11
88.885391999999996
 21
69.981262000000001
  0
LINE
  8
0
  6
CONTINUOUS
 62
256
 10
187.885392000000000
 20
68.634860000000003
 11
180.885392000000000
 21
68.634860000000003
  0
LINE
  8
0
  6
CONTINUOUS
 62
256
 10
105.885392000000000
 20
68.634860000000003
 11
88.885391999999996
 21
68.634860000000003
  0
LINE
  8
0
  6
CONTINUOUS
 62
256
 10
187.885392000000000
 20
65.542129000000003
 11
180.885392000000000
 21
65.542129000000003
  0
LINE
  8
0
  6
CONTINUOUS
 62
256
 10
105.885392000000000
 20
65.542129000000003
 11
88.885391999999996
 21
65.542129000000003
  0
LINE
  8
0
  6
CONTINUOUS
 62
256
 10
187.885392000000000
 20
64.063106000000005
 11
180.885392000000000
 21
64.063106000000005
  0
LINE
  8
0
  6
CONTINUOUS
 62
256
 10
105.885392000000000
 20
64.063106000000005
 11
88.885391999999996
 21
64.063106000000005
  0
LINE
  8
0
  6
CONTINUOUS
 62
256
 10
192.885392000000000
 20
58.995753000000001
 11
187.885392000000000
 21
58.995753000000001
  0
LINE
  8
0
  6
CONTINUOUS
 62
256
 10
192.885392000000000
 20
61.604016999999999
 11
187.885392000000000
 21
61.604016999999999
  0
LINE
  8
0
  6
CONTINUOUS
 62
256
 10
192.885392000000000
 20
63.505333000000000
 11
187.885392000000000
 21
63.505333000000000
  0
LINE
  8
0
  6
CONTINUOUS
 62
256
 10
193.870994000000000
 20
65.988686999999999
 11
187.885392000000000
 21
65.988686999999999
  0
LINE
  8
0
  6
CONTINUOUS
 62
256
 10
193.950737000000000
 20
68.155186000000000
 11
187.885392000000000
 21
68.155186000000000
  0
LINE
  8
0
  6
CONTINUOUS
 62
256
 10
194.025484000000010
 20
70.375309000000001
 11
187.885392000000000
 21
70.375309000000001
  0
LINE
  8
0
  6
CONTINUOUS
 62
256
 10
194.138184000000000
 20
72.819502000000000
 11
187.885392000000000
 21
72.819502000000000
  0
LINE
  8
0
  6
CONTINUOUS
 62
256
 10
105.885392000000000
 20
92.819502000000000
 11
105.885392000000000
 21
63.319502000000000
  0
LINE
  8
0
  6
CONTINUOUS
 62
256
 10
180.885392000000000
 20
92.819502000000000
 11
180.885392000000000
 21
63.319502000000000
  0
LINE
  8
0
  6
CONTINUOUS
 62
256
 10
187.885392000000000
 20
40.319502000000000
 11
187.885392000000000
 21
92.819502000000000
  0
LINE
  8
0
  6
CONTINUOUS
 62
256
 10
194.138184000000000
 20
112.819502000000000
 11
187.885392000000000
 21
112.819502000000000
  0
LINE
  8
0
  6
CONTINUOUS
 62
256
 10
194.025484000000010
 20
115.263694000000000
 11
187.885392000000000
 21
115.263694000000000
  0
LINE
  8
0
  6
CONTINUOUS
 62
256
 10
193.950737000000000
 20
117.483817000000000
 11
187.885392000000000
 21
117.483817000000000
  0
LINE
  8
0
  6
CONTINUOUS
 62
256
 10
193.870994000000000
 20
119.650316000000000
 11
187.885392000000000
 21
119.650316000000000
  0
LINE
  8
0
  6
CONTINUOUS
 62
256
 10
192.885392000000000
 20
122.133670000000000
 11
187.885392000000000
 21
122.133670000000000
  0
LINE
  8
0
  6
CONTINUOUS
 62
256
 10
192.885392000000000
 20
124.034986000000000
 11
187.885392000000000
 21
124.034986000000000
  0
LINE
  8
0
  6
CONTINUOUS
 62
256
 10
192.885392000000000
 20
126.643249999999990
 11
187.885392000000000
 21
126.643249999999990
  0
LINE
  8
0
  6
CONTINUOUS
 62
256
 10
105.885392000000000
 20
121.575897000000000
 11
88.885391999999996
 21
121.575897000000000
  0
LINE
  8
0
  6
CONTINUOUS
 62
256
 10
105.885392000000000
 20
120.096874000000000
 11
88.885391999999996
 21
120.096874000000000
  0
LINE
  8
0
  6
CONTINUOUS
 62
256
 10
105.885392000000000
 20
117.004143000000000
 11
88.885391999999996
 21
117.004143000000000
  0
LINE
  8
0
  6
CONTINUOUS
 62
256
 10
105.885392000000000
 20
115.657741000000000
 11
88.885391999999996
 21
115.657741000000000
  0
LINE
  8
0
  6
CONTINUOUS
 62
256
 10
105.885392000000000
 20
112.819502000000000
 11
88.885391999999996
 21
112.819502000000000
  0
LINE
  8
0
  6
CONTINUOUS
 62
256
 10
187.885392000000000
 20
132.859937000000000
 11
88.885391999999996
 21
132.859937000000000
  0
LINE
  8
0
  6
CONTINUOUS
 62
256
 10
187.885392000000000
 20
137.324157000000010
 11
88.885391999999996
 21
137.324157000000010
  0
LINE
  8
0
  6
CONTINUOUS
 62
256
 10
187.885392000000000
 20
115.657741000000000
 11
180.885392000000000
 21
115.657741000000000
  0
LINE
  8
0
  6
CONTINUOUS
 62
256
 10
187.885392000000000
 20
117.004143000000000
 11
180.885392000000000
 21
117.004143000000000
  0
LINE
  8
0
  6
CONTINUOUS
 62
256
 10
187.885392000000000
 20
120.096874000000000
 11
180.885392000000000
 21
120.096874000000000
  0
LINE
  8
0
  6
CONTINUOUS
 62
256
 10
187.885392000000000
 20
121.575897000000000
 11
180.885392000000000
 21
121.575897000000000
  0
LINE
  8
0
  6
CONTINUOUS
 62
256
 10
187.885392000000000
 20
124.533893000000010
 11
88.885391999999996
 21
124.533893000000010
  0
LINE
  8
0
  6
CONTINUOUS
 62
256
 10
187.885392000000000
 20
126.123103000000000
 11
88.885391999999996
 21
126.123103000000000
  0
LINE
  8
0
  6
CONTINUOUS
 62
256
 10
187.885392000000000
 20
112.819502000000000
 11
180.885392000000000
 21
112.819502000000000
  0
LINE
  8
0
  6
CONTINUOUS
 62
256
 10
187.885392000000000
 20
133.861414999999990
 11
88.885391999999996
 21
133.861414999999990
  0
LINE
  8
0
  6
CONTINUOUS
 62
256
 10
187.885392000000000
 20
138.952584000000000
 11
88.885391999999996
 21
138.952584000000000
  0
LINE
  8
0
  6
CONTINUOUS
 62
256
 10
187.885392000000000
 20
143.819502000000000
 11
88.885391999999996
 21
143.819502000000000
  0
LINE
  8
0
  6
CONTINUOUS
 62
256
 10
187.885392000000000
 20
143.319502000000000
 11
88.885391999999996
 21
143.319502000000000
  0
ARC
  8
0
  6
CONTINUOUS
 62
256
 10
190.663354000000000
 20
141.819502000000000
 40
1.999999999999989
 50
4.025507999999724
 51
90.000000000000000
  0
ARC
  8
0
  6
CONTINUOUS
 62
256
 10
190.698360000000010
 20
141.319502000000000
 40
1.999999999999995
 50
3.984363999999913
 51
90.000000000000000
  0
LINE
  8
0
  6
CONTINUOUS
 62
256
 10
187.885392000000000
 20
143.819502000000000
 11
190.663354000000000
 21
143.819502000000000
  0
LINE
  8
0
  6
CONTINUOUS
 62
256
 10
187.885392000000000
 20
143.319502000000000
 11
190.698360000000010
 21
143.319502000000000
  0
LINE
  8
0
  6
CONTINUOUS
 62
256
 10
194.385392000000000
 20
92.819502000000000
 11
194.385392000000000
 21
112.319502000000000
  0
ARC
  8
0
  6
CONTINUOUS
 62
256
 10
193.885392000000000
 20
112.319502000000000
 40
0.500000000000000
 50
0.000000000000000
 51
44.884862000000268
  0
ARC
  8
0
  6
CONTINUOUS
 62
256
 10
194.593918000000000
 20
113.025186000000010
 40
0.499999999999994
 50
181.652906999999350
 51
224.884862000000280
  0
LINE
  8
0
  6
CONTINUOUS
 62
256
 10
188.385392000000000
 20
137.917481000000010
 11
192.385392000000000
 21
137.917481000000010
  0
ARC
  8
0
  6
CONTINUOUS
 62
256
 10
192.385392000000000
 20
137.417481000000010
 40
0.500000000000000
 50
0.000000000000000
 51
90.000000000000000
  0
LINE
  8
0
  6
CONTINUOUS
 62
256
 10
192.885392000000000
 20
137.417481000000010
 11
192.885392000000000
 21
122.018142999999990
  0
ARC
  8
0
  6
CONTINUOUS
 62
256
 10
192.844593000000000
 20
120.310297000000010
 40
1.000000000000004
 50
2.253953000000067
 51
58.640963999999322
  0
ARC
  8
0
  6
CONTINUOUS
 62
256
 10
202.885392000000000
 20
138.947042000000010
 40
10.000000000000000
 50
180.000000000000000
 51
183.725037000000040
  0
ARC
  8
0
  6
CONTINUOUS
 62
256
 10
193.885392000000000
 20
122.018142999999990
 40
1.000000000000000
 50
180.000000000000000
 51
238.640963999999340
  0
LINE
  8
0
  6
CONTINUOUS
 62
256
 10
187.885392000000000
 20
145.319502000000000
 11
190.556168000000010
 21
145.319502000000000
  0
ARC
  8
0
  6
CONTINUOUS
 62
256
 10
190.556168000000010
 20
143.319502000000000
 40
2.000000000000009
 50
4.148949999999623
 51
90.000000000000000
  0
LINE
  8
0
  6
CONTINUOUS
 62
256
 10
188.385392000000000
 20
137.917481000000010
 11
188.385392000000000
 21
129.067901000000010
  0
LINE
  8
0
  6
CONTINUOUS
 62
256
 10
187.885392000000000
 20
129.067901000000010
 11
188.385392000000000
 21
129.067901000000010
  0
LINE
  8
0
  6
CONTINUOUS
 62
256
 10
188.385392000000000
 20
136.158900999999990
 11
187.885392000000000
 21
136.158900999999990
  0
ARC
  8
0
  6
CONTINUOUS
 62
256
 10
178.885392000000000
 20
122.319502000000000
 40
2.000000000000000
 50
0.000000000000000
 51
90.000000000000000
  0
LINE
  8
0
  6
DASHDOT
 62
256
 10
184.827990000000000
 20
132.417481000000010
 11
199.459155000000010
 21
132.417481000000010
  0
LINE
  8
0
  6
CONTINUOUS
 62
256
 10
187.885392000000000
 20
145.319502000000000
 11
187.885392000000000
 21
92.819502000000000
  0
ARC
  8
0
  6
CONTINUOUS
 62
256
 10
107.885392000000000
 20
122.319502000000000
 40
2.000000000000000
 50
90.000000000000000
 51
180.000000000000000
  0
LINE
  8
0
  6
CONTINUOUS
 62
256
 10
107.885392000000000
 20
124.319502000000000
 11
178.885392000000000
 21
124.319502000000000
  0
LINE
  8
0
  6
CONTINUOUS
 62
256
 10
105.885392000000000
 20
92.819502000000000
 11
105.885392000000000
 21
122.319502000000000
  0
LINE
  8
0
  6
CONTINUOUS
 62
256
 10
180.885392000000000
 20
92.819502000000000
 11
180.885392000000000
 21
122.319502000000000
  0
LINE
  8
0
  6
CONTINUOUS
 62
256
 10
88.885391999999996
 20
145.319502000000000
 11
187.885392000000000
 21
145.319502000000000
  0
ARC
  8
0
  6
CONTINUOUS
 62
256
 10
-505.614607999999980
 20
92.819502000000000
 40
700.000000000000000
 50
3.620061999999999
 51
4.148950000000000
  0
ARC
  8
0
  6
CONTINUOUS
 62
256
 10
-505.614607999999980
 20
92.819502000000000
 40
700.000000000000000
 50
1.652907000000000
 51
2.865819000000000
  0
INSERT
  8
0
  2
ZU_SYM_7
 10
192.885390000000000
 20
53.221522000000000
 50
180.000000000000000
  0
INSERT
  8
0
  2
ZU_SYM_8
 10
192.885390000000000
 20
132.417481000000010
 41
-1.000000000000000
 50
0.000000000000007
  0
LINE
  8
0
  6
DASHDOT
 62
256
 10
-91.996988999999999
 20
92.819502000000000
 11
201.585624000000000
 21
92.819502000000000
  0
POINT
  8
0
  6
CONTINUOUS
 62
256
 10
-166.373716000000000
 20
-82.747528000000003
  0
ARC
  8
0
  6
CONTINUOUS
 62
256
 10
-166.373716000000000
 20
-93.747528000000003
 40
11.000000000000004
 50
105.826619999999990
 51
74.173380000000009
  0
LINE
  8
0
  6
CONTINUOUS
 62
256
 10
-163.373716000000000
 20
-80.247528000000003
 11
-163.373716000000000
 21
-86.247528000000003
  0
LINE
  8
0
  6
CONTINUOUS
 62
256
 10
-169.373716000000000
 20
-80.247528000000003
 11
-169.373716000000000
 21
-86.247528000000003
  0
LINE
  8
0
  6
CONTINUOUS
 62
256
 10
-169.373716000000000
 20
-80.247528000000003
 11
-163.373716000000000
 21
-80.247528000000003
  0
LINE
  8
0
  6
CONTINUOUS
 62
256
 10
-169.373716000000000
 20
-86.247528000000003
 11
-163.373716000000000
 21
-86.247528000000003
  0
LINE
  8
0
  6
DASHDOT
 62
256
 10
-166.373716000000000
 20
-77.159431999999995
 11
-166.373716000000000
 21
-107.835920000000000
  0
LINE
  8
0
  6
DASHDOT
 62
256
 10
-180.330150000000000
 20
-93.747528000000003
 11
-151.719417999999990
 21
-93.747528000000003
  0
CIRCLE
  8
0
  6
CONTINUOUS
 62
256
 10
-166.373716000000000
 20
-93.747528000000003
 40
4.000000000000000
  0
CIRCLE
  8
0
  6
CONTINUOUS
 62
256
 10
-166.373716000000000
 20
-93.747528000000003
 40
3.500000000000000
  0
ARC
  8
0
  6
CONTINUOUS
 62
256
 10
63.442037999999997
 20
-163.692101000000010
 40
3.000000000000011
 50
91.000000000000014
 51
162.875006000000240
  0
ENDSEC
  0
EOF
