  0
SECTION
  2
HEADER
  9
$TEXTSIZE
 40
2.5
  9
$ACADVER
  1
AC1009
  9
$DIMASZ
 40
3.863703297614046
  9
$DIMEXE
 40
2.000000000000000
  9
$DIMEXO
 40
1.000000000000000
  9
$DIMLFAC
 40
1.000000000000000
  9
$DIMSCALE
 40
1.000000000000000
  9
$DIMTAD
 70
1
  9
$DIMTFAC
 40
0.625000000000000
  9
$DIMTXT
 40
3.200000047683716
  9
$LUPREC
 70
3
  9
$REGENMODE
 70
1
  9
$TEXTSTYLE
  7
STANDARD1
  0
ENDSEC
  0
SECTION
  2
TABLES
  0
TABLE
  2
LTYPE
 70
4
  0
LTYPE
  2
CONTINUOUS
 70
64
  3
Solid line
 72
65
 73
0
 40
0.0
  0
LTYPE
  2
DASHED
 70
64
  3
-- -- -- -- -- -- -- -- -- -- -- -- -- -- --
 72
65
 73
2
 40
0.75
 49
0.5
 49
-0.25
  0
LTYPE
  2
DASHDOT
 70
64
  3
__ . __ . __ . __ . __ . __ . __ . __ . __ . __
 72
65
 73
4
 40
1.0
 49
0.5
 49
-0.25
 49
0.0
 49
-0.25
  0
LTYPE
  2
DIVIDE
 70
64
  3
__ . . __ . . __ . . __ . . __ . . __ . . __
 72
65
 73
6
 40
1.25
 49
0.5
 49
-0.25
 49
0.0
 49
-0.25
 49
0.0
 49
-0.25
  0
ENDTAB
  0
TABLE
  2
LAYER
 70
3
  0
LAYER
  2
0
 70
64
 62
53
  6
CONTINUOUS
  0
LAYER
  2
1
 70
64
 62
102
  6
CONTINUOUS
  0
LAYER
  2
2
 70
64
 62
102
  6
CONTINUOUS
  0
ENDTAB
  0
TABLE
  2
STYLE
 70
4
  0
STYLE
  2
STANDARD1
 70
64
 40
0.0
 41
1.0
 50
0.0
 71
0
 42
3.200000047683716
  3
MONOTXT
  4
BIGFONT
  0
STYLE
  2
STANDARD2
 70
68
 40
0.0
 41
1.0
 50
0.0
 71
0
 42
3.200000047683716
  3
MONOTXT
  4
BIGFONT
  0
STYLE
  2
STANDARD3
 70
64
 40
0.0
 41
1.0
 50
0.0
 71
0
 42
3.200000047683716
  3
MONOTXT
  4

  0
STYLE
  2
STANDARD4
 70
68
 40
0.0
 41
1.0
 50
0.0
 71
0
 42
3.200000047683716
  3
MONOTXT
  4

  0
ENDTAB
  0
TABLE
  2
VIEW
 70
0
  0
ENDTAB
  0
ENDSEC
  0
SECTION
  2
BLOCKS
  0
ENDSEC
  0
SECTION
  2
ENTITIES
  0
CIRCLE
  8
0
  6
CONTINUOUS
 62
256
 10
-1.948283000000000
 20
-62.340572000000002
 40
7.000000000000000
  0
CIRCLE
  8
0
  6
CONTINUOUS
 62
256
 10
-1.948283000000000
 20
-62.340572000000002
 40
4.500000000000000
  0
CIRCLE
  8
0
  6
CONTINUOUS
 62
256
 10
-119.948283000000000
 20
-62.340572000000002
 40
7.000000000000000
  0
CIRCLE
  8
0
  6
CONTINUOUS
 62
256
 10
-119.948283000000000
 20
-62.340572000000002
 40
4.500000000000000
  0
CIRCLE
  8
0
  6
CONTINUOUS
 62
256
 10
-119.948283000000000
 20
-167.340572000000010
 40
4.500000000000000
  0
CIRCLE
  8
0
  6
CONTINUOUS
 62
256
 10
-119.948283000000000
 20
-167.340572000000010
 40
7.000000000000000
  0
CIRCLE
  8
0
  6
CONTINUOUS
 62
256
 10
-1.948283000000000
 20
-167.340572000000010
 40
4.500000000000000
  0
CIRCLE
  8
0
  6
CONTINUOUS
 62
256
 10
-1.948283000000000
 20
-167.340572000000010
 40
7.000000000000000
  0
LINE
  8
0
  6
DASHED
 62
256
 10
-296.525390000000020
 20
-66.840571999999995
 11
-361.525390000000020
 21
-66.840571999999995
  0
LINE
  8
0
  6
DASHED
 62
256
 10
-285.525390000000020
 20
-69.340571999999995
 11
-296.525390000000020
 21
-69.340571999999995
  0
LINE
  8
0
  6
DASHED
 62
256
 10
-296.525390000000020
 20
-69.340571999999995
 11
-296.525390000000020
 21
-55.340572000000002
  0
LINE
  8
0
  6
DASHED
 62
256
 10
-361.525390000000020
 20
-69.340571999999995
 11
-361.525390000000020
 21
-55.340572000000002
  0
LINE
  8
0
  6
DASHED
 62
256
 10
-372.525390000000020
 20
-69.340571999999995
 11
-361.525390000000020
 21
-69.340571999999995
  0
LINE
  8
0
  6
DASHED
 62
256
 10
-372.525390000000020
 20
-55.340572000000002
 11
-361.525390000000020
 21
-55.340572000000002
  0
LINE
  8
0
  6
CONTINUOUS
 62
256
 10
-362.025390000000020
 20
-51.331845000000001
 11
-362.025390000000020
 21
-55.840572000000002
  0
LINE
  8
0
  6
DASHED
 62
256
 10
-296.525390000000020
 20
-57.840572000000002
 11
-361.525390000000020
 21
-57.840572000000002
  0
LINE
  8
0
  6
DASHED
 62
256
 10
-285.525390000000020
 20
-55.340572000000002
 11
-296.525390000000020
 21
-55.340572000000002
  0
LINE
  8
0
  6
DASHED
 62
256
 10
-296.525390000000020
 20
-162.840572000000010
 11
-361.525390000000020
 21
-162.840572000000010
  0
LINE
  8
0
  6
DASHED
 62
256
 10
-372.525390000000020
 20
-160.340572000000010
 11
-361.525390000000020
 21
-160.340572000000010
  0
LINE
  8
0
  6
DASHED
 62
256
 10
-361.525390000000020
 20
-174.340572000000010
 11
-361.525390000000020
 21
-160.340572000000010
  0
LINE
  8
0
  6
CONTINUOUS
 62
256
 10
-362.025390000000020
 20
-178.358026999999990
 11
-362.025390000000020
 21
-173.849300000000000
  0
LINE
  8
0
  6
CONTINUOUS
 62
256
 10
-362.025390000000020
 20
-178.358026999999990
 11
-362.025390000000020
 21
-169.228069000000000
  0
LINE
  8
0
  6
DASHED
 62
256
 10
-372.525390000000020
 20
-174.340572000000010
 11
-361.525390000000020
 21
-174.340572000000010
  0
LINE
  8
0
  6
DASHED
 62
256
 10
-296.525390000000020
 20
-171.840572000000010
 11
-361.525390000000020
 21
-171.840572000000010
  0
LINE
  8
0
  6
DASHED
 62
256
 10
-285.525390000000020
 20
-160.340572000000010
 11
-296.525390000000020
 21
-160.340572000000010
  0
LINE
  8
0
  6
DASHED
 62
256
 10
-296.525390000000020
 20
-174.340572000000010
 11
-296.525390000000020
 21
-160.340572000000010
  0
LINE
  8
0
  6
DASHED
 62
256
 10
-285.525390000000020
 20
-174.340572000000010
 11
-296.525390000000020
 21
-174.340572000000010
  0
LINE
  8
0
  6
DASHDOT
 62
256
 10
230.979570999999990
 20
-104.340571999999990
 11
383.413283999999980
 21
-104.340571999999990
  0
LINE
  8
0
  6
CONTINUOUS
 62
256
 10
-88.948283000000004
 20
8.958667999999999
 11
-66.948283000000004
 21
8.958667999999999
  0
LINE
  8
0
  6
CONTINUOUS
 62
256
 10
-80.948283000000004
 20
8.958667999999999
 11
-80.948283000000004
 21
40.958668000000003
  0
LINE
  8
0
  6
CONTINUOUS
 62
256
 10
-80.948283000000004
 20
40.958668000000003
 11
-74.948283000000004
 21
40.958668000000003
  0
ARC
  8
0
  6
CONTINUOUS
 62
256
 10
-77.948283000000004
 20
40.958668000000003
 40
3.000000000000000
 50
0.000000000000000
 51
180.000000000000000
  0
LINE
  8
0
  6
CONTINUOUS
 62
256
 10
-74.948283000000004
 20
8.958667999999999
 11
-74.948283000000004
 21
40.958668000000003
  0
LINE
  8
0
  6
DASHDOT
 62
256
 10
-77.948283000000004
 20
152.491605999999990
 11
-77.948283000000004
 21
5.947701000000000
  0
LINE
  8
0
  6
CONTINUOUS
 62
256
 10
-66.948283000000004
 20
48.958668000000003
 11
-66.948283000000004
 21
40.958668000000003
  0
LINE
  8
0
  6
CONTINUOUS
 62
256
 10
-65.948283000000004
 20
50.958595000000003
 11
-65.948283000000004
 21
48.958668000000003
  0
LINE
  8
0
  6
CONTINUOUS
 62
256
 10
-89.948283000000004
 20
48.958668000000003
 11
-65.948283000000004
 21
48.958668000000003
  0
LINE
  8
0
  6
CONTINUOUS
 62
256
 10
-66.948283000000004
 20
40.958668000000003
 11
-66.948283000000004
 21
8.958667999999999
  0
LINE
  8
0
  6
CONTINUOUS
 62
256
 10
-88.948283000000004
 20
48.958668000000003
 11
-88.948283000000004
 21
8.958667999999999
  0
LINE
  8
0
  6
CONTINUOUS
 62
256
 10
-89.948283000000004
 20
50.958595000000003
 11
-89.948283000000004
 21
48.958668000000003
  0
LINE
  8
0
  6
CONTINUOUS
 62
256
 10
-77.948283000000004
 20
54.958595000000003
 11
-129.970800000000000
 21
54.958595000000003
  0
LINE
  8
0
  6
CONTINUOUS
 62
256
 10
-129.970800000000000
 20
64.458595000000003
 11
-129.970800000000000
 21
54.958595000000003
  0
LINE
  8
0
  6
CONTINUOUS
 62
256
 10
-131.131561000000000
 20
130.958595000000000
 11
-129.970800000000000
 21
64.458595000000003
  0
LINE
  8
0
  6
CONTINUOUS
 62
256
 10
10.043293999999999
 20
130.958595000000000
 11
-131.140289000000000
 21
130.958595000000000
  0
LINE
  8
0
  6
CONTINUOUS
 62
256
 10
10.042989000000000
 20
130.958595000000000
 11
8.882227000000000
 21
64.458595000000003
  0
LINE
  8
0
  6
CONTINUOUS
 62
256
 10
8.882227000000000
 20
54.958595000000003
 11
-77.948283000000004
 21
54.958595000000003
  0
LINE
  8
0
  6
CONTINUOUS
 62
256
 10
8.882227000000000
 20
64.458595000000003
 11
8.882227000000000
 21
54.958595000000003
  0
LINE
  8
0
  6
CONTINUOUS
 62
256
 10
22.545210999999998
 20
152.176897000000000
 11
38.051716999999996
 21
151.906229999999990
  0
LINE
  8
0
  6
CONTINUOUS
 62
256
 10
22.545210999999998
 20
44.740293999999999
 11
38.051716999999996
 21
45.010961000000002
  0
ARC
  8
0
  6
CONTINUOUS
 62
256
 10
12.043293999999999
 20
130.958595000000000
 40
2.000000000000000
 50
180.000000000000000
 51
270.000000000000000
  0
ARC
  8
0
  6
CONTINUOUS
 62
256
 10
10.882227000000000
 20
54.958595000000003
 40
2.000000000000000
 50
90.000000000000000
 51
180.000000000000000
  0
LINE
  8
0
  6
CONTINUOUS
 62
256
 10
-115.448283000000000
 20
145.958595000000000
 11
-40.448283000000004
 21
145.958595000000000
  0
LINE
  8
0
  6
CONTINUOUS
 62
256
 10
-4.823491000000000
 20
141.958595000000000
 11
-18.858649000000000
 21
141.958595000000000
  0
LINE
  8
0
  6
CONTINUOUS
 62
256
 10
-115.448283000000000
 20
145.958595000000000
 11
-115.448283000000000
 21
141.958595000000000
  0
LINE
  8
0
  6
CONTINUOUS
 62
256
 10
-40.448283000000004
 20
145.958595000000000
 11
-40.448283000000004
 21
141.958595000000000
  0
LINE
  8
0
  6
CONTINUOUS
 62
256
 10
-115.448283000000000
 20
54.958595000000003
 11
-115.448283000000000
 21
50.958595000000003
  0
LINE
  8
0
  6
CONTINUOUS
 62
256
 10
-115.448283000000000
 20
50.958595000000003
 11
-40.448283000000004
 21
50.958595000000003
  0
LINE
  8
0
  6
CONTINUOUS
 62
256
 10
-40.448283000000004
 20
54.958595000000003
 11
-40.448283000000004
 21
50.958595000000003
  0
LINE
  8
0
  6
CONTINUOUS
 62
256
 10
-131.140289000000000
 20
130.958595000000000
 11
-130.948283000000000
 21
141.958595000000000
  0
LINE
  8
0
  6
CONTINUOUS
 62
256
 10
-130.948283000000000
 20
141.958595000000000
 11
9.842256000000001
 21
141.958595000000000
  0
LINE
  8
0
  6
CONTINUOUS
 62
256
 10
10.034262000000000
 20
130.958595000000000
 11
9.842256000000001
 21
141.958595000000000
  0
LINE
  8
0
  6
CONTINUOUS
 62
256
 10
10.882227000000000
 20
56.958595000000003
 11
17.051717000000000
 21
56.958595000000003
  0
ARC
  8
0
  6
CONTINUOUS
 62
256
 10
17.051717000000000
 20
53.958595000000003
 40
3.000000000000000
 50
0.000000000000000
 51
90.000000000000000
  0
ARC
  8
0
  6
CONTINUOUS
 62
256
 10
23.051717000000000
 20
149.219964000000000
 40
3.000000000000011
 50
89.000000000000000
 51
180.000000000000000
  0
LINE
  8
0
  6
CONTINUOUS
 62
256
 10
12.043293999999999
 20
128.958595000000000
 11
17.051717000000000
 21
128.958595000000000
  0
ARC
  8
0
  6
CONTINUOUS
 62
256
 10
17.051717000000000
 20
131.958595000000000
 40
3.000000000000000
 50
270.000000000000000
 51
0.000000000000000
  0
ARC
  8
0
  6
CONTINUOUS
 62
256
 10
23.051717000000000
 20
47.697226000000001
 40
3.000000000000000
 50
180.000000000000000
 51
271.000000000000060
  0
LINE
  8
0
  6
CONTINUOUS
 62
256
 10
20.051717000000000
 20
47.697226000000001
 11
20.051717000000000
 21
64.958595000000003
  0
LINE
  8
0
  6
CONTINUOUS
 62
256
 10
20.051717000000000
 20
149.219964000000000
 11
20.051717000000000
 21
142.958595000000000
  0
ARC
  8
0
  6
CONTINUOUS
 62
256
 10
23.051717000000000
 20
67.566428999999999
 40
3.000000000000000
 50
180.000000000000000
 51
270.000000000000000
  0
ARC
  8
0
  6
CONTINUOUS
 62
256
 10
23.051717000000000
 20
129.350761000000010
 40
3.000000000000000
 50
90.000000000000000
 51
180.000000000000000
  0
ARC
  8
0
  6
CONTINUOUS
 62
256
 10
23.051717000000000
 20
47.697226000000001
 40
3.000000000000000
 50
180.000000000000000
 51
271.000000000000060
  0
ARC
  8
0
  6
CONTINUOUS
 62
256
 10
23.051717000000000
 20
149.219964000000000
 40
3.000000000000011
 50
89.000000000000000
 51
180.000000000000000
  0
LINE
  8
0
  6
CONTINUOUS
 62
256
 10
20.051717000000000
 20
149.219964000000000
 11
20.051717000000000
 21
98.458595000000003
  0
LINE
  8
0
  6
CONTINUOUS
 62
256
 10
20.051717000000000
 20
47.697226000000001
 11
20.051717000000000
 21
98.458595000000003
  0
ARC
  8
0
  6
CONTINUOUS
 62
256
 10
31.051717000000000
 20
137.888247000000010
 40
1.999999999999996
 50
0.000000000000000
 51
90.000000000000000
  0
ARC
  8
0
  6
CONTINUOUS
 62
256
 10
30.051717000000000
 20
145.958595000000000
 40
3.000000000000000
 50
270.000000000000000
 51
0.000000000000000
  0
ARC
  8
0
  6
CONTINUOUS
 62
256
 10
25.051717000000000
 20
137.958595000000000
 40
5.000000000000000
 50
90.000000000000000
 51
180.000000000000000
  0
ARC
  8
0
  6
CONTINUOUS
 62
256
 10
25.051717000000000
 20
134.888247000000010
 40
5.000000000000000
 50
90.000000000000000
 51
180.000000000000000
  0
ARC
  8
0
  6
CONTINUOUS
 62
256
 10
30.051717000000000
 20
129.350761000000010
 40
2.999999999999996
 50
0.000000000000000
 51
90.000000000000000
  0
ARC
  8
0
  6
CONTINUOUS
 62
256
 10
25.051717000000000
 20
58.958595000000003
 40
5.000000000000000
 50
180.000000000000000
 51
270.000000000000000
  0
ARC
  8
0
  6
CONTINUOUS
 62
256
 10
25.051717000000000
 20
62.028944000000003
 40
5.000000000000000
 50
180.000000000000000
 51
270.000000000000000
  0
ARC
  8
0
  6
CONTINUOUS
 62
256
 10
31.051717000000000
 20
59.028944000000003
 40
2.000000000000000
 50
270.000000000000000
 51
0.000000000000000
  0
ARC
  8
0
  6
CONTINUOUS
 62
256
 10
30.051717000000000
 20
50.958595000000003
 40
2.999999999999996
 50
0.000000000000000
 51
90.000000000000000
  0
ARC
  8
0
  6
CONTINUOUS
 62
256
 10
30.051717000000000
 20
67.566428999999999
 40
3.000000000000000
 50
270.000000000000000
 51
0.000000000000000
  0
ARC
  8
0
  6
CONTINUOUS
 62
256
 10
36.051716999999996
 20
148.993049000000010
 40
2.999999999999999
 50
99.720102999999980
 51
180.000000000000000
  0
ARC
  8
0
  6
CONTINUOUS
 62
256
 10
36.051716999999996
 20
47.924142000000003
 40
3.000000000000000
 50
180.000000000000000
 51
260.279897000000010
  0
LINE
  8
0
  6
CONTINUOUS
 62
256
 10
33.051716999999996
 20
145.958595000000000
 11
33.051716999999996
 21
148.993049000000010
  0
LINE
  8
0
  6
CONTINUOUS
 62
256
 10
31.051717000000000
 20
139.888247000000010
 11
25.051717000000000
 21
139.888247000000010
  0
LINE
  8
0
  6
CONTINUOUS
 62
256
 10
30.051717000000000
 20
142.958595000000000
 11
25.051717000000000
 21
142.958595000000000
  0
LINE
  8
0
  6
CONTINUOUS
 62
256
 10
33.051716999999996
 20
98.458595000000003
 11
33.051716999999996
 21
137.888247000000010
  0
LINE
  8
0
  6
CONTINUOUS
 62
256
 10
23.051717000000000
 20
132.350761000000010
 11
30.051717000000000
 21
132.350761000000010
  0
LINE
  8
0
  6
CONTINUOUS
 62
256
 10
20.051717000000000
 20
135.350761000000010
 11
20.051717000000000
 21
137.958595000000000
  0
LINE
  8
0
  6
CONTINUOUS
 62
256
 10
33.051716999999996
 20
118.458595000000000
 11
38.051716999999996
 21
118.458595000000000
  0
LINE
  8
0
  6
CONTINUOUS
 62
256
 10
33.051716999999996
 20
98.458595000000003
 11
33.051716999999996
 21
59.028944000000003
  0
LINE
  8
0
  6
CONTINUOUS
 62
256
 10
33.051716999999996
 20
78.458595000000003
 11
38.051716999999996
 21
78.458595000000003
  0
LINE
  8
0
  6
CONTINUOUS
 62
256
 10
23.051717000000000
 20
64.566428999999999
 11
30.051717000000000
 21
64.566428999999999
  0
LINE
  8
0
  6
CONTINUOUS
 62
256
 10
20.051717000000000
 20
61.566428999999999
 11
20.051717000000000
 21
58.958595000000003
  0
LINE
  8
0
  6
CONTINUOUS
 62
256
 10
31.051717000000000
 20
57.028944000000003
 11
25.051717000000000
 21
57.028944000000003
  0
LINE
  8
0
  6
CONTINUOUS
 62
256
 10
30.051717000000000
 20
53.958595000000003
 11
25.051717000000000
 21
53.958595000000003
  0
LINE
  8
0
  6
CONTINUOUS
 62
256
 10
33.051716999999996
 20
50.958595000000003
 11
33.051716999999996
 21
47.924142000000003
  0
LINE
  8
0
  6
CONTINUOUS
 62
256
 10
38.051716999999996
 20
98.458595000000003
 11
38.051716999999996
 21
45.010961000000002
  0
LINE
  8
0
  6
CONTINUOUS
 62
256
 10
38.051716999999996
 20
98.458595000000003
 11
38.051716999999996
 21
151.906229999999990
  0
ARC
  8
0
  6
CONTINUOUS
 62
256
 10
57.051716999999996
 20
127.458595000000000
 40
1.000000000000000
 50
90.000000000000000
 51
180.000000000000000
  0
ARC
  8
0
  6
CONTINUOUS
 62
256
 10
128.051717000000000
 20
127.458595000000000
 40
1.000000000000000
 50
0.000000000000000
 51
90.000000000000000
  0
LINE
  8
0
  6
CONTINUOUS
 62
256
 10
56.051716999999996
 20
127.458595000000000
 11
56.051716999999996
 21
98.458595000000003
  0
LINE
  8
0
  6
CONTINUOUS
 62
256
 10
129.051717000000000
 20
98.458595000000003
 11
129.051717000000000
 21
127.458595000000000
  0
LINE
  8
0
  6
CONTINUOUS
 62
256
 10
57.051716999999996
 20
128.458595000000000
 11
128.051717000000000
 21
128.458595000000000
  0
LINE
  8
0
  6
CONTINUOUS
 62
256
 10
55.051716999999996
 20
127.214991000000000
 11
38.051716999999996
 21
127.214991000000000
  0
LINE
  8
0
  6
CONTINUOUS
 62
256
 10
55.051716999999996
 20
125.735968000000000
 11
38.051716999999996
 21
125.735968000000000
  0
LINE
  8
0
  6
CONTINUOUS
 62
256
 10
55.051716999999996
 20
122.643237000000000
 11
38.051716999999996
 21
122.643237000000000
  0
LINE
  8
0
  6
CONTINUOUS
 62
256
 10
55.051716999999996
 20
121.296835000000000
 11
38.051716999999996
 21
121.296835000000000
  0
LINE
  8
0
  6
CONTINUOUS
 62
256
 10
55.051716999999996
 20
118.458595000000000
 11
38.051716999999996
 21
118.458595000000000
  0
LINE
  8
0
  6
CONTINUOUS
 62
256
 10
122.209317000000000
 20
138.499031000000000
 11
38.051716999999996
 21
138.499031000000000
  0
LINE
  8
0
  6
CONTINUOUS
 62
256
 10
122.051717000000000
 20
142.963251000000010
 11
38.051716999999996
 21
142.963251000000010
  0
LINE
  8
0
  6
CONTINUOUS
 62
256
 10
132.051717000000000
 20
121.296835000000000
 11
130.051717000000000
 21
121.296835000000000
  0
LINE
  8
0
  6
CONTINUOUS
 62
256
 10
132.051717000000000
 20
122.643237000000000
 11
130.051717000000000
 21
122.643237000000000
  0
LINE
  8
0
  6
CONTINUOUS
 62
256
 10
132.051717000000000
 20
125.735968000000000
 11
130.051717000000000
 21
125.735968000000000
  0
LINE
  8
0
  6
CONTINUOUS
 62
256
 10
132.051717000000000
 20
127.214991000000000
 11
130.051717000000000
 21
127.214991000000000
  0
LINE
  8
0
  6
CONTINUOUS
 62
256
 10
132.051717000000000
 20
130.172987000000010
 11
38.051716999999996
 21
130.172987000000010
  0
LINE
  8
0
  6
CONTINUOUS
 62
256
 10
132.051717000000000
 20
131.762195999999990
 11
38.051716999999996
 21
131.762195999999990
  0
LINE
  8
0
  6
CONTINUOUS
 62
256
 10
132.051717000000000
 20
118.458595000000000
 11
130.051717000000000
 21
118.458595000000000
  0
LINE
  8
0
  6
CONTINUOUS
 62
256
 10
122.051717000000000
 20
139.500508999999990
 11
38.051716999999996
 21
139.500508999999990
  0
LINE
  8
0
  6
CONTINUOUS
 62
256
 10
122.051717000000000
 20
144.591678000000000
 11
38.051716999999996
 21
144.591678000000000
  0
LINE
  8
0
  6
CONTINUOUS
 62
256
 10
122.051717000000000
 20
149.458595000000000
 11
38.051716999999996
 21
149.458595000000000
  0
LINE
  8
0
  6
CONTINUOUS
 62
256
 10
122.051717000000000
 20
148.958595000000000
 11
38.051716999999996
 21
148.958595000000000
  0
ARC
  8
0
  6
CONTINUOUS
 62
256
 10
128.051717000000000
 20
127.958595000000000
 40
2.000000000000000
 50
0.000000000000000
 51
90.000000000000000
  0
ARC
  8
0
  6
CONTINUOUS
 62
256
 10
57.051716999999996
 20
127.958595000000000
 40
2.000000000000000
 50
90.000000000000000
 51
180.000000000000000
  0
LINE
  8
0
  6
CONTINUOUS
 62
256
 10
57.051716999999996
 20
129.958595000000000
 11
128.051717000000000
 21
129.958595000000000
  0
LINE
  8
0
  6
CONTINUOUS
 62
256
 10
55.051716999999996
 20
98.458595000000003
 11
55.051716999999996
 21
127.958595000000000
  0
LINE
  8
0
  6
CONTINUOUS
 62
256
 10
130.051717000000000
 20
98.458595000000003
 11
130.051717000000000
 21
127.958595000000000
  0
LINE
  8
0
  6
CONTINUOUS
 62
256
 10
38.051716999999996
 20
150.958595000000000
 11
122.051717000000000
 21
150.958595000000000
  0
LINE
  8
0
  6
CONTINUOUS
 62
256
 10
122.051717000000000
 20
152.458595000000000
 11
151.556562000000010
 21
152.458595000000000
  0
LINE
  8
0
  6
CONTINUOUS
 62
256
 10
163.372235999999990
 20
148.733127999999990
 11
170.943016000000000
 21
143.432010999999990
  0
LINE
  8
0
  6
CONTINUOUS
 62
256
 10
172.051717000000000
 20
141.302215999999990
 11
172.051717000000000
 21
98.458595000000003
  0
ARC
  8
0
  6
CONTINUOUS
 62
256
 10
169.451717000000000
 20
141.302215999999990
 40
2.599999999999994
 50
0.000000000000000
 51
54.999999999999801
  0
ARC
  8
0
  6
CONTINUOUS
 62
256
 10
151.556562000000010
 20
131.858595000000010
 40
20.599999999999991
 50
55.000000000000007
 51
90.000000000000000
  0
LINE
  8
0
  6
CONTINUOUS
 62
256
 10
133.051717000000000
 20
147.602516000000010
 11
135.051717000000000
 21
145.949874999999990
  0
LINE
  8
0
  6
CONTINUOUS
 62
256
 10
131.051717000000000
 20
148.778302000000000
 11
133.051717000000000
 21
147.602516000000010
  0
LINE
  8
0
  6
CONTINUOUS
 62
256
 10
133.051717000000000
 20
147.602516000000010
 11
131.051717000000000
 21
145.949874999999990
  0
LINE
  8
0
  6
CONTINUOUS
 62
256
 10
135.051717000000000
 20
148.778302000000000
 11
133.051717000000000
 21
147.602516000000010
  0
POLYLINE
  8
0
  6
CONTINUOUS
 62
256
 66
1
 70
1
  0
VERTEX
  8
0
  6
CONTINUOUS
 62
256
 10
137.751716999999990
 20
145.785925999999990
  0
VERTEX
  8
0
  6
CONTINUOUS
 62
256
 10
137.661407817895170
 20
146.488882510558170
  0
VERTEX
  8
0
  6
CONTINUOUS
 62
256
 10
137.393950802803030
 20
147.164824796638130
  0
VERTEX
  8
0
  6
CONTINUOUS
 62
256
 10
136.959624177821950
 20
147.787776775258660
  0
VERTEX
  8
0
  6
CONTINUOUS
 62
256
 10
136.375118871576770
 20
148.333798751236830
  0
VERTEX
  8
0
  6
CONTINUOUS
 62
256
 10
135.662897095192110
 20
148.781907406248480
  0
VERTEX
  8
0
  6
CONTINUOUS
 62
256
 10
134.850329132115920
 20
149.114882175983720
  0
VERTEX
  8
0
  6
CONTINUOUS
 62
256
 10
133.968641513475800
 20
149.319927026776070
  0
VERTEX
  8
0
  6
CONTINUOUS
 62
256
 10
133.051717000000000
 20
149.389162199999990
  0
VERTEX
  8
0
  6
CONTINUOUS
 62
256
 10
132.134792486524190
 20
149.319927026776070
  0
VERTEX
  8
0
  6
CONTINUOUS
 62
256
 10
131.253104867884080
 20
149.114882175983720
  0
VERTEX
  8
0
  6
CONTINUOUS
 62
256
 10
130.440536904807890
 20
148.781907406248480
  0
VERTEX
  8
0
  6
CONTINUOUS
 62
256
 10
129.728315128423220
 20
148.333798751236830
  0
VERTEX
  8
0
  6
CONTINUOUS
 62
256
 10
129.143809822178040
 20
147.787776775258660
  0
VERTEX
  8
0
  6
CONTINUOUS
 62
256
 10
128.709483197196960
 20
147.164824796638130
  0
VERTEX
  8
0
  6
CONTINUOUS
 62
256
 10
128.442026182104830
 20
146.488882510558170
  0
VERTEX
  8
0
  6
CONTINUOUS
 62
256
 10
128.351717000000010
 20
145.785925999999990
  0
VERTEX
  8
0
  6
CONTINUOUS
 62
256
 10
128.442026182104830
 20
145.082969489441810
  0
VERTEX
  8
0
  6
CONTINUOUS
 62
256
 10
128.709483197196960
 20
144.407027203361850
  0
VERTEX
  8
0
  6
CONTINUOUS
 62
256
 10
129.143809822178040
 20
143.784075224741310
  0
VERTEX
  8
0
  6
CONTINUOUS
 62
256
 10
129.728315128423220
 20
143.238053248763150
  0
VERTEX
  8
0
  6
CONTINUOUS
 62
256
 10
130.440536904807890
 20
142.789944593751500
  0
VERTEX
  8
0
  6
CONTINUOUS
 62
256
 10
131.253104867884080
 20
142.456969824016260
  0
VERTEX
  8
0
  6
CONTINUOUS
 62
256
 10
132.134792486524190
 20
142.251924973223940
  0
VERTEX
  8
0
  6
CONTINUOUS
 62
256
 10
133.051717000000000
 20
142.182689799999990
  0
VERTEX
  8
0
  6
CONTINUOUS
 62
256
 10
133.968641513475800
 20
142.251924973223940
  0
VERTEX
  8
0
  6
CONTINUOUS
 62
256
 10
134.850329132115920
 20
142.456969824016260
  0
VERTEX
  8
0
  6
CONTINUOUS
 62
256
 10
135.662897095192110
 20
142.789944593751500
  0
VERTEX
  8
0
  6
CONTINUOUS
 62
256
 10
136.375118871576750
 20
143.238053248763150
  0
VERTEX
  8
0
  6
CONTINUOUS
 62
256
 10
136.959624177821950
 20
143.784075224741310
  0
VERTEX
  8
0
  6
CONTINUOUS
 62
256
 10
137.393950802803030
 20
144.407027203361850
  0
VERTEX
  8
0
  6
CONTINUOUS
 62
256
 10
137.661407817895170
 20
145.082969489441810
  0
SEQEND
  8
0
  6
CONTINUOUS
 62
256
  0
ARC
  8
0
  6
CONTINUOUS
 62
256
 10
125.051717000000000
 20
139.458595000000000
 40
3.000000000000000
 50
180.000000000000000
 51
270.000000000000000
  0
LINE
  8
0
  6
CONTINUOUS
 62
256
 10
122.051717000000000
 20
152.458595000000000
 11
122.051717000000000
 21
139.458595000000000
  0
ARC
  8
0
  6
CONTINUOUS
 62
256
 10
129.051717000000000
 20
133.458595000000000
 40
3.000000000000000
 50
0.000000000000000
 51
90.000000000000000
  0
LINE
  8
0
  6
CONTINUOUS
 62
256
 10
125.051717000000000
 20
136.458595000000000
 11
129.051717000000000
 21
136.458595000000000
  0
LINE
  8
0
  6
CONTINUOUS
 62
256
 10
132.051717000000000
 20
98.458595000000003
 11
132.051717000000000
 21
133.458595000000000
  0
LINE
  8
0
  6
CONTINUOUS
 62
256
 10
56.051716999999996
 20
69.458595000000003
 11
56.051716999999996
 21
98.458595000000003
  0
LINE
  8
0
  6
CONTINUOUS
 62
256
 10
129.051717000000000
 20
98.458595000000003
 11
129.051717000000000
 21
69.458595000000003
  0
LINE
  8
0
  6
CONTINUOUS
 62
256
 10
163.372235999999990
 20
48.184063000000002
 11
170.943016000000000
 21
53.485180000000000
  0
LINE
  8
0
  6
CONTINUOUS
 62
256
 10
172.051717000000000
 20
55.614975000000001
 11
172.051717000000000
 21
98.458595000000003
  0
ARC
  8
0
  6
CONTINUOUS
 62
256
 10
169.451717000000000
 20
55.614975000000001
 40
2.600000000000001
 50
305.000000000000110
 51
0.000000000000000
  0
ARC
  8
0
  6
CONTINUOUS
 62
256
 10
151.556562000000010
 20
65.058594999999997
 40
20.600000000000001
 50
270.000000000000000
 51
304.999999999999940
  0
LINE
  8
0
  6
CONTINUOUS
 62
256
 10
122.051717000000000
 20
44.458595000000003
 11
151.556562000000010
 21
44.458595000000003
  0
LINE
  8
0
  6
CONTINUOUS
 62
256
 10
132.051717000000000
 20
78.458595000000003
 11
130.051717000000000
 21
78.458595000000003
  0
LINE
  8
0
  6
CONTINUOUS
 62
256
 10
132.051717000000000
 20
75.620356000000001
 11
130.051717000000000
 21
75.620356000000001
  0
LINE
  8
0
  6
CONTINUOUS
 62
256
 10
132.051717000000000
 20
74.273954000000003
 11
130.051717000000000
 21
74.273954000000003
  0
LINE
  8
0
  6
CONTINUOUS
 62
256
 10
132.051717000000000
 20
71.181223000000003
 11
130.051717000000000
 21
71.181223000000003
  0
LINE
  8
0
  6
CONTINUOUS
 62
256
 10
132.051717000000000
 20
69.702200000000005
 11
130.051717000000000
 21
69.702200000000005
  0
LINE
  8
0
  6
CONTINUOUS
 62
256
 10
132.051717000000000
 20
66.744203999999996
 11
38.051716999999996
 21
66.744203999999996
  0
LINE
  8
0
  6
CONTINUOUS
 62
256
 10
132.051717000000000
 20
65.154994000000002
 11
38.051716999999996
 21
65.154994000000002
  0
LINE
  8
0
  6
CONTINUOUS
 62
256
 10
122.209317000000000
 20
58.418160000000000
 11
38.051716999999996
 21
58.418160000000000
  0
LINE
  8
0
  6
CONTINUOUS
 62
256
 10
122.051717000000000
 20
57.416682000000002
 11
38.051716999999996
 21
57.416682000000002
  0
LINE
  8
0
  6
CONTINUOUS
 62
256
 10
122.051717000000000
 20
53.953940000000003
 11
38.051716999999996
 21
53.953940000000003
  0
LINE
  8
0
  6
CONTINUOUS
 62
256
 10
122.051717000000000
 20
52.325513000000001
 11
38.051716999999996
 21
52.325513000000001
  0
LINE
  8
0
  6
CONTINUOUS
 62
256
 10
122.051717000000000
 20
47.458595000000003
 11
38.051716999999996
 21
47.458595000000003
  0
LINE
  8
0
  6
CONTINUOUS
 62
256
 10
122.051717000000000
 20
47.958595000000003
 11
38.051716999999996
 21
47.958595000000003
  0
LINE
  8
0
  6
CONTINUOUS
 62
256
 10
38.051716999999996
 20
45.958595000000003
 11
122.051717000000000
 21
45.958595000000003
  0
LINE
  8
0
  6
CONTINUOUS
 62
256
 10
133.051717000000000
 20
49.314673999999997
 11
135.051717000000000
 21
50.967315999999997
  0
LINE
  8
0
  6
CONTINUOUS
 62
256
 10
131.051717000000000
 20
48.138888999999999
 11
133.051717000000000
 21
49.314673999999997
  0
LINE
  8
0
  6
CONTINUOUS
 62
256
 10
133.051717000000000
 20
49.314673999999997
 11
131.051717000000000
 21
50.967315999999997
  0
LINE
  8
0
  6
CONTINUOUS
 62
256
 10
135.051717000000000
 20
48.138888999999999
 11
133.051717000000000
 21
49.314673999999997
  0
POLYLINE
  8
0
  6
CONTINUOUS
 62
256
 66
1
 70
1
  0
VERTEX
  8
0
  6
CONTINUOUS
 62
256
 10
137.751716999999990
 20
51.131264000000002
  0
VERTEX
  8
0
  6
CONTINUOUS
 62
256
 10
137.661407817895170
 20
51.834220510558168
  0
VERTEX
  8
0
  6
CONTINUOUS
 62
256
 10
137.393950802803030
 20
52.510162796638141
  0
VERTEX
  8
0
  6
CONTINUOUS
 62
256
 10
136.959624177821950
 20
53.133114775258662
  0
VERTEX
  8
0
  6
CONTINUOUS
 62
256
 10
136.375118871576770
 20
53.679136751236840
  0
VERTEX
  8
0
  6
CONTINUOUS
 62
256
 10
135.662897095192110
 20
54.127245406248491
  0
VERTEX
  8
0
  6
CONTINUOUS
 62
256
 10
134.850329132115920
 20
54.460220175983736
  0
VERTEX
  8
0
  6
CONTINUOUS
 62
256
 10
133.968641513475800
 20
54.665265026776062
  0
VERTEX
  8
0
  6
CONTINUOUS
 62
256
 10
133.051717000000000
 20
54.734500199999992
  0
VERTEX
  8
0
  6
CONTINUOUS
 62
256
 10
132.134792486524190
 20
54.665265026776062
  0
VERTEX
  8
0
  6
CONTINUOUS
 62
256
 10
131.253104867884080
 20
54.460220175983736
  0
VERTEX
  8
0
  6
CONTINUOUS
 62
256
 10
130.440536904807890
 20
54.127245406248491
  0
VERTEX
  8
0
  6
CONTINUOUS
 62
256
 10
129.728315128423220
 20
53.679136751236840
  0
VERTEX
  8
0
  6
CONTINUOUS
 62
256
 10
129.143809822178040
 20
53.133114775258662
  0
VERTEX
  8
0
  6
CONTINUOUS
 62
256
 10
128.709483197196960
 20
52.510162796638141
  0
VERTEX
  8
0
  6
CONTINUOUS
 62
256
 10
128.442026182104830
 20
51.834220510558168
  0
VERTEX
  8
0
  6
CONTINUOUS
 62
256
 10
128.351717000000010
 20
51.131264000000002
  0
VERTEX
  8
0
  6
CONTINUOUS
 62
256
 10
128.442026182104830
 20
50.428307489441835
  0
VERTEX
  8
0
  6
CONTINUOUS
 62
256
 10
128.709483197196960
 20
49.752365203361862
  0
VERTEX
  8
0
  6
CONTINUOUS
 62
256
 10
129.143809822178040
 20
49.129413224741342
  0
VERTEX
  8
0
  6
CONTINUOUS
 62
256
 10
129.728315128423220
 20
48.583391248763164
  0
VERTEX
  8
0
  6
CONTINUOUS
 62
256
 10
130.440536904807890
 20
48.135282593751512
  0
VERTEX
  8
0
  6
CONTINUOUS
 62
256
 10
131.253104867884080
 20
47.802307824016268
  0
VERTEX
  8
0
  6
CONTINUOUS
 62
256
 10
132.134792486524190
 20
47.597262973223941
  0
VERTEX
  8
0
  6
CONTINUOUS
 62
256
 10
133.051717000000000
 20
47.528027800000011
  0
VERTEX
  8
0
  6
CONTINUOUS
 62
256
 10
133.968641513475800
 20
47.597262973223941
  0
VERTEX
  8
0
  6
CONTINUOUS
 62
256
 10
134.850329132115920
 20
47.802307824016268
  0
VERTEX
  8
0
  6
CONTINUOUS
 62
256
 10
135.662897095192110
 20
48.135282593751512
  0
VERTEX
  8
0
  6
CONTINUOUS
 62
256
 10
136.375118871576750
 20
48.583391248763164
  0
VERTEX
  8
0
  6
CONTINUOUS
 62
256
 10
136.959624177821950
 20
49.129413224741342
  0
VERTEX
  8
0
  6
CONTINUOUS
 62
256
 10
137.393950802803030
 20
49.752365203361862
  0
VERTEX
  8
0
  6
CONTINUOUS
 62
256
 10
137.661407817895170
 20
50.428307489441835
  0
SEQEND
  8
0
  6
CONTINUOUS
 62
256
  0
ARC
  8
0
  6
CONTINUOUS
 62
256
 10
125.051717000000000
 20
57.458595000000003
 40
3.000000000000000
 50
90.000000000000000
 51
180.000000000000000
  0
LINE
  8
0
  6
CONTINUOUS
 62
256
 10
122.051717000000000
 20
44.458595000000003
 11
122.051717000000000
 21
57.458595000000003
  0
ARC
  8
0
  6
CONTINUOUS
 62
256
 10
129.051717000000000
 20
63.458595000000003
 40
3.000000000000000
 50
270.000000000000000
 51
0.000000000000000
  0
LINE
  8
0
  6
CONTINUOUS
 62
256
 10
125.051717000000000
 20
60.458595000000003
 11
129.051717000000000
 21
60.458595000000003
  0
LINE
  8
0
  6
CONTINUOUS
 62
256
 10
132.051717000000000
 20
98.458595000000003
 11
132.051717000000000
 21
63.458595000000003
  0
ARC
  8
0
  6
CONTINUOUS
 62
256
 10
57.051716999999996
 20
69.458595000000003
 40
1.000000000000000
 50
180.000000000000000
 51
270.000000000000000
  0
ARC
  8
0
  6
CONTINUOUS
 62
256
 10
128.051717000000000
 20
69.458595000000003
 40
1.000000000000000
 50
270.000000000000000
 51
0.000000000000000
  0
LINE
  8
0
  6
CONTINUOUS
 62
256
 10
57.051716999999996
 20
68.458595000000003
 11
128.051717000000000
 21
68.458595000000003
  0
LINE
  8
0
  6
CONTINUOUS
 62
256
 10
55.051716999999996
 20
69.702200000000005
 11
38.051716999999996
 21
69.702200000000005
  0
LINE
  8
0
  6
CONTINUOUS
 62
256
 10
55.051716999999996
 20
71.181223000000003
 11
38.051716999999996
 21
71.181223000000003
  0
LINE
  8
0
  6
CONTINUOUS
 62
256
 10
55.051716999999996
 20
74.273954000000003
 11
38.051716999999996
 21
74.273954000000003
  0
LINE
  8
0
  6
CONTINUOUS
 62
256
 10
55.051716999999996
 20
75.620356000000001
 11
38.051716999999996
 21
75.620356000000001
  0
LINE
  8
0
  6
CONTINUOUS
 62
256
 10
55.051716999999996
 20
78.458595000000003
 11
38.051716999999996
 21
78.458595000000003
  0
ARC
  8
0
  6
CONTINUOUS
 62
256
 10
128.051717000000000
 20
68.958595000000003
 40
2.000000000000000
 50
270.000000000000000
 51
0.000000000000000
  0
ARC
  8
0
  6
CONTINUOUS
 62
256
 10
57.051716999999996
 20
68.958595000000003
 40
2.000000000000000
 50
180.000000000000000
 51
270.000000000000000
  0
LINE
  8
0
  6
CONTINUOUS
 62
256
 10
57.051716999999996
 20
66.958595000000003
 11
128.051717000000000
 21
66.958595000000003
  0
LINE
  8
0
  6
CONTINUOUS
 62
256
 10
55.051716999999996
 20
98.458595000000003
 11
55.051716999999996
 21
68.958595000000003
  0
LINE
  8
0
  6
CONTINUOUS
 62
256
 10
130.051717000000000
 20
98.458595000000003
 11
130.051717000000000
 21
68.958595000000003
  0
LINE
  8
0
  6
DASHDOT
 62
256
 10
-137.376021000000010
 20
98.458595000000003
 11
182.541542999999990
 21
98.458595000000003
  0
LINE
  8
0
  6
DASHDOT
 62
256
 10
117.551717000000000
 20
-62.624423999999998
 11
117.551717000000000
 21
-34.645074000000001
  0
LINE
  8
0
  6
DASHED
 62
256
 10
110.551717000000000
 20
-59.840572000000002
 11
110.551717000000000
 21
-45.340572000000002
  0
LINE
  8
0
  6
DASHED
 62
256
 10
124.551717000000000
 20
-59.840572000000002
 11
124.551717000000000
 21
-45.340572000000002
  0
ARC
  8
0
  6
DASHED
 62
256
 10
117.551717000000000
 20
-45.340572000000002
 40
7.000000000000000
 50
0.000000000000000
 51
180.000000000000000
  0
LINE
  8
0
  6
DASHDOT
 62
256
 10
107.141418000000000
 20
-45.340572000000002
 11
127.515600000000010
 21
-45.340572000000002
  0
LINE
  8
0
  6
DASHDOT
 62
256
 10
67.551716999999996
 20
-62.624423999999998
 11
67.551716999999996
 21
-34.645074000000001
  0
LINE
  8
0
  6
DASHDOT
 62
256
 10
58.243383000000001
 20
-45.340572000000002
 11
77.432423000000000
 21
-45.340572000000002
  0
LINE
  8
0
  6
DASHED
 62
256
 10
74.551716999999996
 20
-59.840572000000002
 11
74.551716999999996
 21
-45.340572000000002
  0
ARC
  8
0
  6
DASHED
 62
256
 10
67.551716999999996
 20
-45.340572000000002
 40
7.000000000000000
 50
0.000000000000000
 51
180.000000000000000
  0
LINE
  8
0
  6
DASHED
 62
256
 10
60.551716999999996
 20
-59.840572000000002
 11
60.551716999999996
 21
-45.340572000000002
  0
CIRCLE
  8
0
  6
DASHED
 62
256
 10
67.551716999999996
 20
-45.340572000000002
 40
6.000000000000000
  0
LINE
  8
0
  6
CONTINUOUS
 62
256
 10
236.240325000000010
 20
-115.340571999999990
 11
236.240325000000010
 21
-90.840571999999995
  0
LINE
  8
0
  6
DASHDOT
 62
256
 10
384.679565000000030
 20
-117.340571999999990
 11
266.025172000000000
 21
-117.340571999999990
  0
LINE
  8
0
  6
DASHDOT
 62
256
 10
325.740252000000000
 20
-180.581060000000010
 11
325.740252000000000
 21
-25.953582999999998
  0
LINE
  8
0
  6
CONTINUOUS
 62
256
 10
357.240252000000000
 20
-60.039122999999996
 11
357.240252000000000
 21
-59.840572000000002
  0
LINE
  8
0
  6
CONTINUOUS
 62
256
 10
357.240252000000000
 20
-59.840572000000002
 11
355.728237999999980
 21
-59.840572000000002
  0
ARC
  8
0
  6
CONTINUOUS
 62
256
 10
280.318305000000010
 20
-156.771438999999990
 40
6.599999999999971
 50
185.743681999999920
 51
224.999999999999830
  0
ARC
  8
0
  6
CONTINUOUS
 62
256
 10
672.340251999999960
 20
-117.340571999999990
 40
400.600000000000020
 50
180.000000000000000
 51
185.743681999999980
  0
ARC
  8
0
  6
CONTINUOUS
 62
256
 10
297.676494999999990
 20
-154.330639999999990
 40
20.599999999999991
 50
225.000000000000000
 51
264.247716999999910
  0
LINE
  8
0
  6
CONTINUOUS
 62
256
 10
283.110096000000000
 20
-168.897039000000010
 11
275.651401000000020
 21
-161.438344000000000
  0
ARC
  8
0
  6
CONTINUOUS
 62
256
 10
325.740252000000000
 20
124.259428000000000
 40
300.600000000000020
 50
264.247717000000020
 51
270.000000000000000
  0
ARC
  8
0
  6
CONTINUOUS
 62
256
 10
371.162198999999990
 20
-156.771438999999990
 40
6.600000000000017
 50
315.000000000000170
 51
354.256318000000020
  0
ARC
  8
0
  6
CONTINUOUS
 62
256
 10
-20.859748000000000
 20
-117.340571999999990
 40
400.600000000000020
 50
354.256318000000020
 51
0.000000000000000
  0
ARC
  8
0
  6
CONTINUOUS
 62
256
 10
353.804009000000010
 20
-154.330639999999990
 40
20.599999999999991
 50
275.752282999999860
 51
315.000000000000000
  0
LINE
  8
0
  6
CONTINUOUS
 62
256
 10
368.370408000000000
 20
-168.897039000000010
 11
375.829103999999970
 21
-161.438344000000000
  0
ARC
  8
0
  6
CONTINUOUS
 62
256
 10
325.740252000000000
 20
124.259428000000000
 40
300.600000000000020
 50
270.000000000000000
 51
275.752282999999980
  0
ARC
  8
0
  6
CONTINUOUS
 62
256
 10
371.162198999999990
 20
-77.909705000000002
 40
6.599999999999973
 50
5.743682000000063
 51
44.999999999999829
  0
ARC
  8
0
  6
CONTINUOUS
 62
256
 10
-20.859748000000000
 20
-117.340571999999990
 40
400.600000000000020
 50
0.000000000000000
 51
5.743682000000000
  0
ARC
  8
0
  6
CONTINUOUS
 62
256
 10
353.804009000000010
 20
-80.350504999999998
 40
20.599999999999991
 50
45.000000000000000
 51
84.247716999999938
  0
LINE
  8
0
  6
CONTINUOUS
 62
256
 10
368.370408000000000
 20
-65.784104999999997
 11
375.829103999999970
 21
-73.242801000000000
  0
ARC
  8
0
  6
CONTINUOUS
 62
256
 10
325.740252000000000
 20
-358.940571999999970
 40
300.600000000000020
 50
84.247716999999994
 51
90.000000000000000
  0
ARC
  8
0
  6
CONTINUOUS
 62
256
 10
325.740252000000000
 20
-358.940571999999970
 40
290.797000000000030
 50
90.000000000000000
 51
95.752283000000006
  0
LINE
  8
0
  6
CONTINUOUS
 62
256
 10
290.041863999999980
 20
-72.715873000000002
 11
284.154450000000000
 21
-78.603286999999995
  0
ARC
  8
0
  6
CONTINUOUS
 62
256
 10
297.676494999999990
 20
-80.350504999999998
 40
10.797000000000002
 50
95.752283000000034
 51
135.000000000000060
  0
LINE
  8
0
  6
CONTINUOUS
 62
256
 10
295.747752999999990
 20
-59.840572000000002
 11
294.240252000000000
 21
-59.840572000000002
  0
LINE
  8
0
  6
CONTINUOUS
 62
256
 10
294.240252000000000
 20
-60.039122999999996
 11
294.240252000000000
 21
-59.840572000000002
  0
ARC
  8
0
  6
CONTINUOUS
 62
256
 10
325.740252000000000
 20
-358.940571999999970
 40
300.600000000000020
 50
90.000000000000000
 51
95.752283000000006
  0
LINE
  8
0
  6
CONTINUOUS
 62
256
 10
283.110096000000000
 20
-65.784104999999997
 11
275.651401000000020
 21
-73.242801000000000
  0
ARC
  8
0
  6
CONTINUOUS
 62
256
 10
297.676494999999990
 20
-80.350504999999998
 40
20.600000000000009
 50
95.752283000000077
 51
134.999999999999970
  0
LINE
  8
0
  6
CONTINUOUS
 62
256
 10
328.240252000000000
 20
-29.840572000000002
 11
323.240252000000000
 21
-29.840572000000002
  0
LINE
  8
0
  6
CONTINUOUS
 62
256
 10
328.240252000000000
 20
-30.350988999999998
 11
328.240252000000000
 21
-29.840572000000002
  0
LINE
  8
0
  6
CONTINUOUS
 62
256
 10
323.240252000000000
 20
-30.350988999999998
 11
323.240252000000000
 21
-29.840572000000002
  0
ARC
  8
0
  6
CONTINUOUS
 62
256
 10
325.740252000000000
 20
-330.340572000000010
 40
300.000000000000000
 50
85.138594999999995
 51
94.861405000000005
  0
LINE
  8
0
  6
CONTINUOUS
 62
256
 10
295.740252000000000
 20
-59.840572000000002
 11
295.740252000000000
 21
-36.401803000000001
  0
LINE
  8
0
  6
CONTINUOUS
 62
256
 10
355.740252000000000
 20
-59.840572000000002
 11
355.740252000000000
 21
-36.401803000000001
  0
ARC
  8
0
  6
CONTINUOUS
 62
256
 10
300.740252000000000
 20
-36.401803000000001
 40
5.000000000000003
 50
94.861405000000062
 51
180.000000000000000
  0
ARC
  8
0
  6
CONTINUOUS
 62
256
 10
350.740252000000000
 20
-36.401803000000001
 40
5.000000000000000
 50
0.000000000000000
 51
85.138594999999953
  0
ARC
  8
0
  6
CONTINUOUS
 62
256
 10
325.740252000000000
 20
124.259428000000000
 40
290.797000000000030
 50
264.998350000000070
 51
270.000000000000000
  0
LINE
  8
0
  6
CONTINUOUS
 62
256
 10
287.494755000000000
 20
-159.418162999999990
 11
284.154450000000000
 21
-156.077857999999990
  0
ARC
  8
0
  6
CONTINUOUS
 62
256
 10
302.200453999999980
 20
-144.712463000000010
 40
20.797000000000015
 50
225.000000000000000
 51
264.998350000000070
  0
ARC
  8
0
  6
CONTINUOUS
 62
256
 10
672.340251999999960
 20
-117.340571999999990
 40
390.797000000000030
 50
180.000000000000000
 51
185.417964000000010
  0
ARC
  8
0
  6
CONTINUOUS
 62
256
 10
286.275770000000020
 20
-153.956537000000000
 40
2.999999999999998
 50
185.417964000000180
 51
224.999999999999630
  0
ARC
  8
0
  6
CONTINUOUS
 62
256
 10
325.740252000000000
 20
124.259428000000000
 40
290.797000000000030
 50
270.000000000000000
 51
275.001649999999980
  0
LINE
  8
0
  6
CONTINUOUS
 62
256
 10
363.985750000000000
 20
-159.418162999999990
 11
367.326055000000000
 21
-156.077857999999990
  0
ARC
  8
0
  6
CONTINUOUS
 62
256
 10
349.280050000000020
 20
-144.712463000000010
 40
20.796999999999990
 50
275.001650000000040
 51
315.000000000000000
  0
ARC
  8
0
  6
CONTINUOUS
 62
256
 10
-20.859748000000000
 20
-117.340571999999990
 40
390.797000000000030
 50
354.582036000000020
 51
0.000000000000000
  0
ARC
  8
0
  6
CONTINUOUS
 62
256
 10
365.204733999999970
 20
-153.956537000000000
 40
3.000000000000004
 50
315.000000000000340
 51
354.582035999999790
  0
ARC
  8
0
  6
CONTINUOUS
 62
256
 10
325.740252000000000
 20
-358.940571999999970
 40
290.797000000000030
 50
84.998350000000002
 51
90.000000000000000
  0
LINE
  8
0
  6
CONTINUOUS
 62
256
 10
363.985750000000000
 20
-75.262981999999994
 11
367.326055000000000
 21
-78.603286999999995
  0
ARC
  8
0
  6
CONTINUOUS
 62
256
 10
349.280050000000020
 20
-89.968682000000001
 40
20.797000000000008
 50
44.999999999999972
 51
84.998349999999959
  0
ARC
  8
0
  6
CONTINUOUS
 62
256
 10
-20.859748000000000
 20
-117.340571999999990
 40
390.797000000000030
 50
0.000000000000000
 51
5.417964000000000
  0
ARC
  8
0
  6
CONTINUOUS
 62
256
 10
365.204733999999970
 20
-80.724607000000006
 40
2.999999999999996
 50
5.417963999999932
 51
44.999999999999808
  0
ARC
  8
0
  6
CONTINUOUS
 62
256
 10
286.275770000000020
 20
-80.724607000000006
 40
3.000000000000014
 50
135.000000000000200
 51
174.582036000000070
  0
ARC
  8
0
  6
CONTINUOUS
 62
256
 10
672.340251999999960
 20
-117.340571999999990
 40
390.797000000000030
 50
174.582035999999990
 51
180.000000000000000
  0
ARC
  8
0
  6
CONTINUOUS
 62
256
 10
280.318305000000010
 20
-77.909705000000002
 40
6.600000000000017
 50
135.000000000000170
 51
174.256317999999940
  0
ARC
  8
0
  6
CONTINUOUS
 62
256
 10
672.340251999999960
 20
-117.340571999999990
 40
400.600000000000080
 50
174.256317999999990
 51
180.000000000000000
  0
ARC
  8
0
  6
CONTINUOUS
 62
256
 10
360.564812000000020
 20
-120.840571999999990
 40
1.000000000000000
 50
90.000000000000000
 51
174.260829999999570
  0
ARC
  8
0
  6
CONTINUOUS
 62
256
 10
363.578725000000020
 20
-120.840571999999990
 40
1.000000000000027
 50
354.715267000000210
 51
90.000000000000000
  0
ARC
  8
0
  6
CONTINUOUS
 62
256
 10
355.031888999999980
 20
-120.840571999999990
 40
1.000000000000019
 50
353.186146000000240
 51
90.000000000000000
  0
LINE
  8
0
  6
CONTINUOUS
 62
256
 10
363.578725000000020
 20
-119.840571999999990
 11
360.564812000000020
 21
-119.840571999999990
  0
ARC
  8
0
  6
CONTINUOUS
 62
256
 10
331.537384999999970
 20
-134.381500999999990
 40
0.999999999999984
 50
30.000000000000544
 51
108.787729000000750
  0
LINE
  8
0
  6
CONTINUOUS
 62
256
 10
333.928328000000020
 20
-136.522736000000010
 11
332.403410000000010
 21
-133.881500999999990
  0
ARC
  8
0
  6
CONTINUOUS
 62
256
 10
333.062302999999990
 20
-137.022736000000010
 40
0.999999999999993
 50
290.405931999999840
 51
30.000000000000544
  0
ARC
  8
0
  6
CONTINUOUS
 62
256
 10
335.843089000000020
 20
-141.839199000000010
 40
0.999999999999984
 50
30.000000000000544
 51
112.410458000000460
  0
ARC
  8
0
  6
CONTINUOUS
 62
256
 10
340.121443000000000
 20
-149.249526000000000
 40
0.999999999999984
 50
30.000000000000544
 51
114.260829999998650
  0
LINE
  8
0
  6
CONTINUOUS
 62
256
 10
338.221006999999990
 20
-143.957874000000000
 11
336.709114000000000
 21
-141.339199000000010
  0
ARC
  8
0
  6
CONTINUOUS
 62
256
 10
337.354982000000010
 20
-144.457874000000000
 40
1.000000000000000
 50
293.186146000000120
 51
30.000000000000544
  0
LINE
  8
0
  6
CONTINUOUS
 62
256
 10
342.494424999999980
 20
-151.359651000000010
 11
340.987468999999980
 21
-148.749526000000000
  0
ARC
  8
0
  6
CONTINUOUS
 62
256
 10
341.628399000000000
 20
-151.859651000000010
 40
1.000000000000004
 50
294.715267000000150
 51
30.000000000000544
  0
ARC
  8
0
  6
CONTINUOUS
 62
256
 10
347.690577000000020
 20
-148.359651000000010
 40
0.999999999999984
 50
210.000000000000510
 51
305.284733000000980
  0
ARC
  8
0
  6
CONTINUOUS
 62
256
 10
346.183621000000020
 20
-145.749526000000000
 40
0.999999999999998
 50
125.739170000000210
 51
210.000000000000510
  0
ARC
  8
0
  6
CONTINUOUS
 62
256
 10
352.008103000000010
 20
-120.840571999999990
 40
1.000000000000000
 50
90.000000000000000
 51
172.410458000000010
  0
ARC
  8
0
  6
CONTINUOUS
 62
256
 10
343.417160000000020
 20
-140.957874000000000
 40
0.999999999999984
 50
210.000000000000510
 51
306.813854000001190
  0
ARC
  8
0
  6
CONTINUOUS
 62
256
 10
341.905266999999980
 20
-138.339199000000010
 40
0.999999999999993
 50
127.589541999998830
 51
210.000000000000510
  0
ARC
  8
0
  6
CONTINUOUS
 62
256
 10
346.446530999999990
 20
-120.840571999999990
 40
0.999999999999978
 50
350.405932000000010
 51
90.000000000000000
  0
ARC
  8
0
  6
CONTINUOUS
 62
256
 10
343.396696000000020
 20
-120.840571999999990
 40
1.000000000000000
 50
90.000000000000000
 51
168.787729000000270
  0
ARC
  8
0
  6
CONTINUOUS
 62
256
 10
339.124481000000000
 20
-133.522736000000010
 40
0.999999999999984
 50
210.000000000000510
 51
309.594067999998800
  0
ARC
  8
0
  6
CONTINUOUS
 62
256
 10
337.599562999999990
 20
-130.881500999999990
 40
1.000000000000006
 50
131.212270999999760
 51
210.000000000000510
  0
ARC
  8
0
  6
CONTINUOUS
 62
256
 10
334.771341000000010
 20
-125.982877000000000
 40
0.999999999999984
 50
210.000000000000510
 51
316.260205000000270
  0
ARC
  8
0
  6
CONTINUOUS
 62
256
 10
337.740252000000000
 20
-120.840571999999990
 40
0.999999999999976
 50
343.739794999999330
 51
90.000000000000000
  0
ARC
  8
0
  6
CONTINUOUS
 62
256
 10
334.572013000000030
 20
-120.840571999999990
 40
1.000000000000000
 50
90.000000000000000
 51
158.381728000000550
  0
ARC
  8
0
  6
CONTINUOUS
 62
256
 10
333.187221000000020
 20
-123.239102000000000
 40
0.999999999999985
 50
141.618271999999000
 51
210.000000000000510
  0
ARC
  8
0
  6
CONTINUOUS
 62
256
 10
325.740252000000000
 20
-117.340571999999990
 40
39.000000000000014
 50
305.284733000000020
 51
354.715266999999980
  0
ARC
  8
0
  6
CONTINUOUS
 62
256
 10
325.740252000000000
 20
-117.340571999999990
 40
30.499999999999982
 50
306.813853999999990
 51
353.186146000000010
  0
ARC
  8
0
  6
CONTINUOUS
 62
256
 10
325.740252000000000
 20
-117.340571999999990
 40
33.999999999999986
 50
305.739169999999940
 51
354.260830000000000
  0
ARC
  8
0
  6
CONTINUOUS
 62
256
 10
325.740252000000000
 20
-117.340571999999990
 40
25.499999999999996
 50
307.589541999999990
 51
352.410458000000010
  0
ARC
  8
0
  6
CONTINUOUS
 62
256
 10
325.740252000000000
 20
-117.340571999999990
 40
21.999999999999986
 50
309.594067999999940
 51
350.405932000000010
  0
ARC
  8
0
  6
CONTINUOUS
 62
256
 10
325.740252000000000
 20
-117.340571999999990
 40
17.000000000000000
 50
311.212271000000040
 51
348.787729000000010
  0
ARC
  8
0
  6
CONTINUOUS
 62
256
 10
325.740252000000000
 20
-117.340571999999990
 40
13.500000000000004
 50
316.260204999999980
 51
343.739794999999960
  0
ARC
  8
0
  6
CONTINUOUS
 62
256
 10
325.740252000000000
 20
-117.340571999999990
 40
8.500000000000005
 50
321.618272000000050
 51
338.381728000000010
  0
LINE
  8
0
  6
CONTINUOUS
 62
256
 10
342.551133999999990
 20
-141.457874000000000
 11
341.039241000000000
 21
-138.839199000000010
  0
LINE
  8
0
  6
CONTINUOUS
 62
256
 10
346.824551999999980
 20
-148.859651000000010
 11
345.317595999999980
 21
-146.249526000000000
  0
LINE
  8
0
  6
CONTINUOUS
 62
256
 10
338.258455000000030
 20
-134.022736000000010
 11
336.733537000000010
 21
-131.381500999999990
  0
LINE
  8
0
  6
CONTINUOUS
 62
256
 10
333.905316000000030
 20
-126.482877000000000
 11
332.321195999999990
 21
-123.739102000000000
  0
LINE
  8
0
  6
CONTINUOUS
 62
256
 10
337.740252000000000
 20
-119.840571999999990
 11
334.572013000000030
 21
-119.840571999999990
  0
LINE
  8
0
  6
CONTINUOUS
 62
256
 10
346.446530999999990
 20
-119.840571999999990
 11
343.396696000000020
 21
-119.840571999999990
  0
LINE
  8
0
  6
CONTINUOUS
 62
256
 10
355.031888999999980
 20
-119.840571999999990
 11
352.008103000000010
 21
-119.840571999999990
  0
ARC
  8
0
  6
CONTINUOUS
 62
256
 10
327.125044000000000
 20
-126.739102000000000
 40
0.999999999999984
 50
30.000000000000544
 51
98.381727999998901
  0
ARC
  8
0
  6
CONTINUOUS
 62
256
 10
325.740252000000000
 20
-117.340571999999990
 40
8.500000000000002
 50
261.618271999999930
 51
278.381728000000070
  0
LINE
  8
0
  6
CONTINUOUS
 62
256
 10
329.575189000000020
 20
-128.982877000000000
 11
327.991068999999980
 21
-126.239102000000000
  0
ARC
  8
0
  6
CONTINUOUS
 62
256
 10
328.709162999999990
 20
-129.482877000000000
 40
0.999999999999997
 50
283.739795000001440
 51
30.000000000000544
  0
ARC
  8
0
  6
CONTINUOUS
 62
256
 10
308.083808999999970
 20
-120.840571999999990
 40
1.000000000000016
 50
11.212270999999729
 51
90.000000000000000
  0
LINE
  8
0
  6
CONTINUOUS
 62
256
 10
305.033973000000000
 20
-119.840571999999990
 11
308.083808999999970
 21
-119.840571999999990
  0
ARC
  8
0
  6
CONTINUOUS
 62
256
 10
305.033973000000000
 20
-120.840571999999990
 40
1.000000000000000
 50
90.000000000000000
 51
189.594067999999960
  0
ARC
  8
0
  6
CONTINUOUS
 62
256
 10
299.472400999999990
 20
-120.840571999999990
 40
0.999999999999990
 50
7.589541999999997
 51
90.000000000000000
  0
LINE
  8
0
  6
CONTINUOUS
 62
256
 10
296.448615000000020
 20
-119.840571999999990
 11
299.472400999999990
 21
-119.840571999999990
  0
ARC
  8
0
  6
CONTINUOUS
 62
256
 10
296.448615000000020
 20
-120.840571999999990
 40
1.000000000000000
 50
90.000000000000000
 51
186.813853999999760
  0
ARC
  8
0
  6
CONTINUOUS
 62
256
 10
290.915691999999980
 20
-120.840571999999990
 40
0.999999999999978
 50
5.739170000000447
 51
90.000000000000000
  0
LINE
  8
0
  6
CONTINUOUS
 62
256
 10
287.901779999999970
 20
-119.840571999999990
 11
290.915691999999980
 21
-119.840571999999990
  0
ARC
  8
0
  6
CONTINUOUS
 62
256
 10
287.901779999999970
 20
-120.840571999999990
 40
1.000000000000000
 50
90.000000000000000
 51
185.284732999999760
  0
ARC
  8
0
  6
CONTINUOUS
 62
256
 10
308.063345000000030
 20
-140.957874000000000
 40
1.000000000000000
 50
233.186145999998760
 51
329.999999999999490
  0
LINE
  8
0
  6
CONTINUOUS
 62
256
 10
308.929370000000010
 20
-141.457874000000000
 11
310.441262999999990
 21
-138.839199000000010
  0
ARC
  8
0
  6
CONTINUOUS
 62
256
 10
309.575238000000010
 20
-138.339199000000010
 40
0.999999999999984
 50
329.999999999999490
 51
52.410458000001171
  0
ARC
  8
0
  6
CONTINUOUS
 62
256
 10
303.789926999999980
 20
-148.359651000000010
 40
1.000000000000016
 50
234.715266999999020
 51
329.999999999999490
  0
LINE
  8
0
  6
CONTINUOUS
 62
256
 10
304.655952000000010
 20
-148.859651000000010
 11
306.162908000000020
 21
-146.249526000000000
  0
ARC
  8
0
  6
CONTINUOUS
 62
256
 10
305.296882999999980
 20
-145.749526000000000
 40
0.999999999999984
 50
329.999999999999490
 51
54.260829999999778
  0
ARC
  8
0
  6
CONTINUOUS
 62
256
 10
318.293282999999970
 20
-123.239102000000000
 40
0.999999999999984
 50
329.999999999999490
 51
38.381728000001026
  0
LINE
  8
0
  6
CONTINUOUS
 62
256
 10
317.575189000000020
 20
-126.482877000000000
 11
319.159308000000010
 21
-123.739102000000000
  0
ARC
  8
0
  6
CONTINUOUS
 62
256
 10
313.880941000000010
 20
-130.881500999999990
 40
0.999999999999984
 50
329.999999999999490
 51
48.787729000000247
  0
LINE
  8
0
  6
CONTINUOUS
 62
256
 10
313.222049000000030
 20
-134.022736000000010
 11
314.746966999999980
 21
-131.381500999999990
  0
ARC
  8
0
  6
CONTINUOUS
 62
256
 10
312.356023999999990
 20
-133.522736000000010
 40
0.999999999999999
 50
230.405932000001170
 51
329.999999999999490
  0
ARC
  8
0
  6
CONTINUOUS
 62
256
 10
316.908491000000030
 20
-120.840571999999990
 40
1.000000000000013
 50
21.618271999999475
 51
90.000000000000000
  0
ARC
  8
0
  6
CONTINUOUS
 62
256
 10
325.740252000000000
 20
-117.340571999999990
 40
8.500000000000016
 50
201.618271999999960
 51
218.381727999999950
  0
ARC
  8
0
  6
CONTINUOUS
 62
256
 10
316.709162999999990
 20
-125.982877000000000
 40
1.000000000000005
 50
223.739794999999760
 51
329.999999999999490
  0
LINE
  8
0
  6
CONTINUOUS
 62
256
 10
313.740252000000000
 20
-119.840571999999990
 11
316.908491000000030
 21
-119.840571999999990
  0
ARC
  8
0
  6
CONTINUOUS
 62
256
 10
313.740252000000000
 20
-120.840571999999990
 40
1.000000000000000
 50
90.000000000000000
 51
196.260205000000670
  0
ARC
  8
0
  6
CONTINUOUS
 62
256
 10
325.740252000000000
 20
-117.340571999999990
 40
13.499999999999989
 50
196.260205000000010
 51
223.739794999999990
  0
ARC
  8
0
  6
CONTINUOUS
 62
256
 10
325.740252000000000
 20
-117.340571999999990
 40
16.999999999999989
 50
191.212270999999960
 51
228.787728999999960
  0
ARC
  8
0
  6
CONTINUOUS
 62
256
 10
325.740252000000000
 20
-117.340571999999990
 40
21.999999999999975
 50
189.594067999999960
 51
230.405932000000060
  0
ARC
  8
0
  6
CONTINUOUS
 62
256
 10
325.740252000000000
 20
-117.340571999999990
 40
30.499999999999986
 50
186.813853999999990
 51
233.186146000000040
  0
ARC
  8
0
  6
CONTINUOUS
 62
256
 10
325.740252000000000
 20
-117.340571999999990
 40
25.500000000000011
 50
187.589541999999990
 51
232.410458000000030
  0
ARC
  8
0
  6
CONTINUOUS
 62
256
 10
325.740252000000000
 20
-117.340571999999990
 40
33.999999999999972
 50
185.739169999999970
 51
234.260829999999970
  0
ARC
  8
0
  6
CONTINUOUS
 62
256
 10
325.740252000000000
 20
-117.340571999999990
 40
38.999999999999986
 50
185.284732999999990
 51
234.715266999999980
  0
ARC
  8
0
  6
CONTINUOUS
 62
256
 10
314.125522999999990
 20
-144.457874000000000
 40
0.999999999999984
 50
149.999999999999460
 51
246.813853999999880
  0
LINE
  8
0
  6
CONTINUOUS
 62
256
 10
313.259497000000010
 20
-143.957874000000000
 11
314.771390000000000
 21
-141.339199000000010
  0
ARC
  8
0
  6
CONTINUOUS
 62
256
 10
315.637414999999980
 20
-141.839199000000010
 40
1.000000000000009
 50
67.589541999999554
 51
149.999999999999460
  0
ARC
  8
0
  6
CONTINUOUS
 62
256
 10
309.852104999999990
 20
-151.859651000000010
 40
0.999999999999984
 50
149.999999999999460
 51
245.284732999999870
  0
LINE
  8
0
  6
CONTINUOUS
 62
256
 10
308.986079000000020
 20
-151.359651000000010
 11
310.493035000000020
 21
-148.749526000000000
  0
ARC
  8
0
  6
CONTINUOUS
 62
256
 10
311.359061000000000
 20
-149.249526000000000
 40
0.999999999999992
 50
65.739170000001337
 51
149.999999999999460
  0
ARC
  8
0
  6
CONTINUOUS
 62
256
 10
324.355460999999990
 20
-126.739102000000000
 40
0.999999999999998
 50
81.618272000001099
 51
149.999999999999460
  0
LINE
  8
0
  6
CONTINUOUS
 62
256
 10
321.905316000000030
 20
-128.982877000000000
 11
323.489435000000010
 21
-126.239102000000000
  0
ARC
  8
0
  6
CONTINUOUS
 62
256
 10
319.943119000000020
 20
-134.381500999999990
 40
1.000000000000010
 50
71.212270999999262
 51
149.999999999999460
  0
LINE
  8
0
  6
CONTINUOUS
 62
256
 10
317.552175999999970
 20
-136.522736000000010
 11
319.077093999999990
 21
-133.881500999999990
  0
ARC
  8
0
  6
CONTINUOUS
 62
256
 10
318.418201000000010
 20
-137.022736000000010
 40
0.999999999999984
 50
149.999999999999460
 51
249.594068000000160
  0
ARC
  8
0
  6
CONTINUOUS
 62
256
 10
322.771341000000010
 20
-129.482877000000000
 40
0.999999999999984
 50
149.999999999999460
 51
256.260204999998510
  0
ARC
  8
0
  6
CONTINUOUS
 62
256
 10
325.740252000000000
 20
-117.340571999999990
 40
13.499999999999989
 50
256.260205000000040
 51
283.739794999999960
  0
ARC
  8
0
  6
CONTINUOUS
 62
256
 10
325.740252000000000
 20
-117.340571999999990
 40
16.999999999999993
 50
251.212271000000040
 51
288.787728999999960
  0
ARC
  8
0
  6
CONTINUOUS
 62
256
 10
325.740252000000000
 20
-117.340571999999990
 40
21.999999999999996
 50
249.594067999999990
 51
290.405932000000010
  0
ARC
  8
0
  6
CONTINUOUS
 62
256
 10
325.740252000000000
 20
-117.340571999999990
 40
30.499999999999996
 50
246.813853999999990
 51
293.186146000000010
  0
ARC
  8
0
  6
CONTINUOUS
 62
256
 10
325.740252000000000
 20
-117.340571999999990
 40
25.499999999999993
 50
247.589541999999940
 51
292.410458000000010
  0
ARC
  8
0
  6
CONTINUOUS
 62
256
 10
325.740252000000000
 20
-117.340571999999990
 40
34.000000000000000
 50
245.739170000000000
 51
294.260830000000000
  0
ARC
  8
0
  6
CONTINUOUS
 62
256
 10
325.740252000000000
 20
-117.340571999999990
 40
39.000000000000000
 50
245.284732999999960
 51
294.715266999999980
  0
LINE
  8
0
  6
CONTINUOUS
 62
256
 10
355.031888999999980
 20
-114.840571999999990
 11
352.008103000000010
 21
-114.840571999999990
  0
LINE
  8
0
  6
CONTINUOUS
 62
256
 10
346.446530999999990
 20
-114.840571999999990
 11
343.396696000000020
 21
-114.840571999999990
  0
LINE
  8
0
  6
CONTINUOUS
 62
256
 10
337.740252000000000
 20
-114.840571999999990
 11
334.572013000000030
 21
-114.840571999999990
  0
LINE
  8
0
  6
CONTINUOUS
 62
256
 10
333.905316000000030
 20
-108.198268000000000
 11
332.321195999999990
 21
-110.942043000000000
  0
LINE
  8
0
  6
CONTINUOUS
 62
256
 10
338.258455000000030
 20
-100.658409000000010
 11
336.733537000000010
 21
-103.299644000000000
  0
LINE
  8
0
  6
CONTINUOUS
 62
256
 10
346.824551999999980
 20
-85.821494000000001
 11
345.317595999999980
 21
-88.431618999999998
  0
LINE
  8
0
  6
CONTINUOUS
 62
256
 10
363.578725000000020
 20
-114.840571999999990
 11
360.564812000000020
 21
-114.840571999999990
  0
LINE
  8
0
  6
CONTINUOUS
 62
256
 10
342.551133999999990
 20
-93.223270999999997
 11
341.039241000000000
 21
-95.841945999999993
  0
ARC
  8
0
  6
CONTINUOUS
 62
256
 10
325.740252000000000
 20
-117.340571999999990
 40
8.500000000000016
 50
21.618271999999980
 51
38.381727999999960
  0
ARC
  8
0
  6
CONTINUOUS
 62
256
 10
325.740252000000000
 20
-117.340571999999990
 40
13.499999999999989
 50
16.260205000000035
 51
43.739795000000001
  0
ARC
  8
0
  6
CONTINUOUS
 62
256
 10
325.740252000000000
 20
-117.340571999999990
 40
16.999999999999993
 50
11.212271000000010
 51
48.787728999999970
  0
ARC
  8
0
  6
CONTINUOUS
 62
256
 10
325.740252000000000
 20
-117.340571999999990
 40
21.999999999999979
 50
9.594068000000020
 51
50.405932000000064
  0
ARC
  8
0
  6
CONTINUOUS
 62
256
 10
325.740252000000000
 20
-117.340571999999990
 40
25.500000000000011
 50
7.589541999999985
 51
52.410458000000027
  0
ARC
  8
0
  6
CONTINUOUS
 62
256
 10
325.740252000000000
 20
-117.340571999999990
 40
33.999999999999972
 50
5.739170000000013
 51
54.260829999999984
  0
ARC
  8
0
  6
CONTINUOUS
 62
256
 10
325.740252000000000
 20
-117.340571999999990
 40
30.499999999999986
 50
6.813854000000005
 51
53.186146000000029
  0
ARC
  8
0
  6
CONTINUOUS
 62
256
 10
325.740252000000000
 20
-117.340571999999990
 40
38.999999999999986
 50
5.284733000000007
 51
54.715266999999990
  0
ARC
  8
0
  6
CONTINUOUS
 62
256
 10
333.187221000000020
 20
-111.442043000000000
 40
0.999999999999984
 50
149.999999999999460
 51
218.381728000001000
  0
ARC
  8
0
  6
CONTINUOUS
 62
256
 10
334.572013000000030
 20
-113.840571999999990
 40
1.000000000000013
 50
201.618271999999450
 51
270.000000000000000
  0
ARC
  8
0
  6
CONTINUOUS
 62
256
 10
337.740252000000000
 20
-113.840571999999990
 40
1.000000000000000
 50
270.000000000000000
 51
16.260205000000671
  0
ARC
  8
0
  6
CONTINUOUS
 62
256
 10
334.771341000000010
 20
-108.698268000000000
 40
1.000000000000005
 50
43.739794999999773
 51
149.999999999999460
  0
ARC
  8
0
  6
CONTINUOUS
 62
256
 10
337.599562999999990
 20
-103.799644000000000
 40
0.999999999999984
 50
149.999999999999460
 51
228.787729000000240
  0
ARC
  8
0
  6
CONTINUOUS
 62
256
 10
339.124481000000000
 20
-101.158409000000010
 40
0.999999999999988
 50
50.405932000000682
 51
149.999999999999460
  0
ARC
  8
0
  6
CONTINUOUS
 62
256
 10
343.396696000000020
 20
-113.840571999999990
 40
1.000000000000016
 50
191.212270999999730
 51
270.000000000000000
  0
ARC
  8
0
  6
CONTINUOUS
 62
256
 10
346.446530999999990
 20
-113.840571999999990
 40
1.000000000000000
 50
270.000000000000000
 51
9.594067999999961
  0
ARC
  8
0
  6
CONTINUOUS
 62
256
 10
355.031888999999980
 20
-113.840571999999990
 40
1.000000000000000
 50
270.000000000000000
 51
6.813853999999752
  0
ARC
  8
0
  6
CONTINUOUS
 62
256
 10
341.905266999999980
 20
-96.341945999999993
 40
0.999999999999984
 50
149.999999999999460
 51
232.410458000001200
  0
ARC
  8
0
  6
CONTINUOUS
 62
256
 10
343.417160000000020
 20
-93.723270999999997
 40
1.000000000000011
 50
53.186145999999269
 51
149.999999999999460
  0
ARC
  8
0
  6
CONTINUOUS
 62
256
 10
352.008103000000010
 20
-113.840571999999990
 40
0.999999999999990
 50
187.589541999999990
 51
270.000000000000000
  0
ARC
  8
0
  6
CONTINUOUS
 62
256
 10
363.578725000000020
 20
-113.840571999999990
 40
1.000000000000000
 50
270.000000000000000
 51
5.284732999999778
  0
ARC
  8
0
  6
CONTINUOUS
 62
256
 10
360.564812000000020
 20
-113.840571999999990
 40
0.999999999999978
 50
185.739170000000430
 51
270.000000000000000
  0
ARC
  8
0
  6
CONTINUOUS
 62
256
 10
346.183621000000020
 20
-88.931618999999998
 40
0.999999999999984
 50
149.999999999999460
 51
234.260829999999740
  0
ARC
  8
0
  6
CONTINUOUS
 62
256
 10
347.690577000000020
 20
-86.321494000000001
 40
1.000000000000016
 50
54.715266999999017
 51
149.999999999999460
  0
CIRCLE
  8
0
  6
CONTINUOUS
 62
256
 10
325.740252000000000
 20
-117.340571999999990
 40
5.000000000000000
  0
ARC
  8
0
  6
CONTINUOUS
 62
256
 10
341.628399000000000
 20
-82.821494000000001
 40
0.999999999999984
 50
329.999999999999490
 51
65.284732999999861
  0
LINE
  8
0
  6
CONTINUOUS
 62
256
 10
342.494424999999980
 20
-83.321494000000001
 11
340.987468999999980
 21
-85.931618999999998
  0
ARC
  8
0
  6
CONTINUOUS
 62
256
 10
325.740252000000000
 20
-117.340571999999990
 40
38.999999999999993
 50
65.284733000000031
 51
114.715266999999980
  0
ARC
  8
0
  6
CONTINUOUS
 62
256
 10
325.740252000000000
 20
-117.340571999999990
 40
34.000000000000000
 50
65.739169999999987
 51
114.260830000000010
  0
ARC
  8
0
  6
CONTINUOUS
 62
256
 10
325.740252000000000
 20
-117.340571999999990
 40
25.500000000000007
 50
67.589541999999966
 51
112.410458000000050
  0
ARC
  8
0
  6
CONTINUOUS
 62
256
 10
325.740252000000000
 20
-117.340571999999990
 40
30.499999999999996
 50
66.813853999999992
 51
113.186146000000020
  0
ARC
  8
0
  6
CONTINUOUS
 62
256
 10
337.354982000000010
 20
-90.223270999999997
 40
0.999999999999984
 50
329.999999999999490
 51
66.813853999999878
  0
LINE
  8
0
  6
CONTINUOUS
 62
256
 10
338.221006999999990
 20
-90.723270999999997
 11
336.709114000000000
 21
-93.341945999999993
  0
ARC
  8
0
  6
CONTINUOUS
 62
256
 10
325.740252000000000
 20
-117.340571999999990
 40
21.999999999999996
 50
69.594067999999993
 51
110.405932000000020
  0
ARC
  8
0
  6
CONTINUOUS
 62
256
 10
340.121443000000000
 20
-85.431618999999998
 40
0.999999999999992
 50
245.739170000001340
 51
329.999999999999490
  0
ARC
  8
0
  6
CONTINUOUS
 62
256
 10
335.843089000000020
 20
-92.841945999999993
 40
1.000000000000009
 50
247.589541999999540
 51
329.999999999999490
  0
ARC
  8
0
  6
CONTINUOUS
 62
256
 10
333.062302999999990
 20
-97.658409000000006
 40
0.999999999999984
 50
329.999999999999490
 51
69.594068000000149
  0
ARC
  8
0
  6
CONTINUOUS
 62
256
 10
325.740252000000000
 20
-117.340571999999990
 40
16.999999999999993
 50
71.212271000000044
 51
108.787728999999960
  0
LINE
  8
0
  6
CONTINUOUS
 62
256
 10
333.928328000000020
 20
-98.158409000000006
 11
332.403410000000010
 21
-100.799644000000000
  0
ARC
  8
0
  6
CONTINUOUS
 62
256
 10
331.537384999999970
 20
-100.299644000000000
 40
1.000000000000010
 50
251.212270999999220
 51
329.999999999999490
  0
ARC
  8
0
  6
CONTINUOUS
 62
256
 10
325.740252000000000
 20
-117.340571999999990
 40
13.499999999999989
 50
76.260205000000056
 51
103.739794999999940
  0
ARC
  8
0
  6
CONTINUOUS
 62
256
 10
328.709162999999990
 20
-105.198268000000000
 40
0.999999999999984
 50
329.999999999999490
 51
76.260204999998734
  0
LINE
  8
0
  6
CONTINUOUS
 62
256
 10
329.575189000000020
 20
-105.698268000000000
 11
327.991068999999980
 21
-108.442043000000000
  0
ARC
  8
0
  6
CONTINUOUS
 62
256
 10
322.771341000000010
 20
-105.198268000000000
 40
1.000000000000011
 50
103.739795000001280
 51
210.000000000000510
  0
ARC
  8
0
  6
CONTINUOUS
 62
256
 10
325.740252000000000
 20
-117.340571999999990
 40
8.500000000000002
 50
81.618271999999948
 51
98.381728000000052
  0
ARC
  8
0
  6
CONTINUOUS
 62
256
 10
327.125044000000000
 20
-107.942043000000000
 40
0.999999999999998
 50
261.618272000001130
 51
329.999999999999490
  0
ARC
  8
0
  6
CONTINUOUS
 62
256
 10
318.418201000000010
 20
-97.658409000000006
 40
0.999999999999993
 50
110.405931999999860
 51
210.000000000000510
  0
LINE
  8
0
  6
CONTINUOUS
 62
256
 10
317.552175999999970
 20
-98.158409000000006
 11
319.077093999999990
 21
-100.799644000000000
  0
ARC
  8
0
  6
CONTINUOUS
 62
256
 10
319.943119000000020
 20
-100.299644000000000
 40
0.999999999999984
 50
210.000000000000510
 51
288.787729000000750
  0
LINE
  8
0
  6
CONTINUOUS
 62
256
 10
321.905316000000030
 20
-105.698268000000000
 11
323.489435000000010
 21
-108.442043000000000
  0
ARC
  8
0
  6
CONTINUOUS
 62
256
 10
324.355460999999990
 20
-107.942043000000000
 40
0.999999999999984
 50
210.000000000000510
 51
278.381727999998870
  0
ARC
  8
0
  6
CONTINUOUS
 62
256
 10
311.359061000000000
 20
-85.431618999999998
 40
0.999999999999984
 50
210.000000000000510
 51
294.260829999998690
  0
LINE
  8
0
  6
CONTINUOUS
 62
256
 10
308.986079000000020
 20
-83.321494000000001
 11
310.493035000000020
 21
-85.931618999999998
  0
ARC
  8
0
  6
CONTINUOUS
 62
256
 10
309.852104999999990
 20
-82.821494000000001
 40
1.000000000000004
 50
114.715267000000150
 51
210.000000000000510
  0
ARC
  8
0
  6
CONTINUOUS
 62
256
 10
315.637414999999980
 20
-92.841945999999993
 40
0.999999999999984
 50
210.000000000000510
 51
292.410458000000400
  0
LINE
  8
0
  6
CONTINUOUS
 62
256
 10
313.259497000000010
 20
-90.723270999999997
 11
314.771390000000000
 21
-93.341945999999993
  0
ARC
  8
0
  6
CONTINUOUS
 62
256
 10
314.125522999999990
 20
-90.223270999999997
 40
1.000000000000000
 50
113.186146000000120
 51
210.000000000000510
  0
ARC
  8
0
  6
CONTINUOUS
 62
256
 10
325.740252000000000
 20
-117.340571999999990
 40
39.000000000000000
 50
125.284733000000000
 51
174.715267000000010
  0
ARC
  8
0
  6
CONTINUOUS
 62
256
 10
325.740252000000000
 20
-117.340571999999990
 40
34.000000000000007
 50
125.739170000000040
 51
174.260830000000000
  0
ARC
  8
0
  6
CONTINUOUS
 62
256
 10
325.740252000000000
 20
-117.340571999999990
 40
25.499999999999996
 50
127.589541999999970
 51
172.410458000000010
  0
ARC
  8
0
  6
CONTINUOUS
 62
256
 10
325.740252000000000
 20
-117.340571999999990
 40
30.499999999999982
 50
126.813853999999980
 51
173.186145999999980
  0
ARC
  8
0
  6
CONTINUOUS
 62
256
 10
325.740252000000000
 20
-117.340571999999990
 40
21.999999999999986
 50
129.594067999999940
 51
170.405931999999980
  0
ARC
  8
0
  6
CONTINUOUS
 62
256
 10
325.740252000000000
 20
-117.340571999999990
 40
17.000000000000014
 50
131.212271000000020
 51
168.787728999999980
  0
ARC
  8
0
  6
CONTINUOUS
 62
256
 10
325.740252000000000
 20
-117.340571999999990
 40
13.500000000000004
 50
136.260205000000010
 51
163.739794999999960
  0
ARC
  8
0
  6
CONTINUOUS
 62
256
 10
313.740252000000000
 20
-113.840571999999990
 40
0.999999999999976
 50
163.739794999999330
 51
270.000000000000000
  0
LINE
  8
0
  6
CONTINUOUS
 62
256
 10
313.740252000000000
 20
-114.840571999999990
 11
316.908491000000030
 21
-114.840571999999990
  0
ARC
  8
0
  6
CONTINUOUS
 62
256
 10
316.709162999999990
 20
-108.698268000000000
 40
0.999999999999984
 50
30.000000000000544
 51
136.260205000000240
  0
ARC
  8
0
  6
CONTINUOUS
 62
256
 10
325.740252000000000
 20
-117.340571999999990
 40
8.500000000000005
 50
141.618272000000020
 51
158.381728000000040
  0
ARC
  8
0
  6
CONTINUOUS
 62
256
 10
316.908491000000030
 20
-113.840571999999990
 40
1.000000000000000
 50
270.000000000000000
 51
338.381728000000520
  0
ARC
  8
0
  6
CONTINUOUS
 62
256
 10
312.356023999999990
 20
-101.158409000000010
 40
0.999999999999984
 50
30.000000000000544
 51
129.594067999999310
  0
LINE
  8
0
  6
CONTINUOUS
 62
256
 10
313.222049000000030
 20
-100.658409000000010
 11
314.746966999999980
 21
-103.299644000000000
  0
ARC
  8
0
  6
CONTINUOUS
 62
256
 10
313.880941000000010
 20
-103.799644000000000
 40
1.000000000000006
 50
311.212270999999760
 51
30.000000000000544
  0
LINE
  8
0
  6
CONTINUOUS
 62
256
 10
317.575189000000020
 20
-108.198268000000000
 11
319.159308000000010
 21
-110.942043000000000
  0
ARC
  8
0
  6
CONTINUOUS
 62
256
 10
318.293282999999970
 20
-111.442043000000000
 40
0.999999999999985
 50
321.618271999998970
 51
30.000000000000544
  0
ARC
  8
0
  6
CONTINUOUS
 62
256
 10
305.296882999999980
 20
-88.931618999999998
 40
0.999999999999998
 50
305.739170000000230
 51
30.000000000000544
  0
LINE
  8
0
  6
CONTINUOUS
 62
256
 10
304.655952000000010
 20
-85.821494000000001
 11
306.162908000000020
 21
-88.431618999999998
  0
ARC
  8
0
  6
CONTINUOUS
 62
256
 10
303.789926999999980
 20
-86.321494000000001
 40
0.999999999999984
 50
30.000000000000544
 51
125.284733000000970
  0
ARC
  8
0
  6
CONTINUOUS
 62
256
 10
309.575238000000010
 20
-96.341945999999993
 40
0.999999999999993
 50
307.589541999998800
 51
30.000000000000544
  0
LINE
  8
0
  6
CONTINUOUS
 62
256
 10
308.929370000000010
 20
-93.223270999999997
 11
310.441262999999990
 21
-95.841945999999993
  0
ARC
  8
0
  6
CONTINUOUS
 62
256
 10
308.063345000000030
 20
-93.723270999999997
 40
0.999999999999984
 50
30.000000000000544
 51
126.813854000000730
  0
ARC
  8
0
  6
CONTINUOUS
 62
256
 10
287.901779999999970
 20
-113.840571999999990
 40
1.000000000000027
 50
174.715267000000240
 51
270.000000000000000
  0
LINE
  8
0
  6
CONTINUOUS
 62
256
 10
287.901779999999970
 20
-114.840571999999990
 11
290.915691999999980
 21
-114.840571999999990
  0
ARC
  8
0
  6
CONTINUOUS
 62
256
 10
290.915691999999980
 20
-113.840571999999990
 40
1.000000000000000
 50
270.000000000000000
 51
354.260829999999540
  0
ARC
  8
0
  6
CONTINUOUS
 62
256
 10
296.448615000000020
 20
-113.840571999999990
 40
1.000000000000019
 50
173.186146000000240
 51
270.000000000000000
  0
LINE
  8
0
  6
CONTINUOUS
 62
256
 10
296.448615000000020
 20
-114.840571999999990
 11
299.472400999999990
 21
-114.840571999999990
  0
ARC
  8
0
  6
CONTINUOUS
 62
256
 10
299.472400999999990
 20
-113.840571999999990
 40
1.000000000000000
 50
270.000000000000000
 51
352.410458000000010
  0
ARC
  8
0
  6
CONTINUOUS
 62
256
 10
305.033973000000000
 20
-113.840571999999990
 40
0.999999999999978
 50
170.405932000000040
 51
270.000000000000000
  0
LINE
  8
0
  6
CONTINUOUS
 62
256
 10
305.033973000000000
 20
-114.840571999999990
 11
308.083808999999970
 21
-114.840571999999990
  0
ARC
  8
0
  6
CONTINUOUS
 62
256
 10
308.083808999999970
 20
-113.840571999999990
 40
1.000000000000000
 50
270.000000000000000
 51
348.787729000000300
  0
LINE
  8
0
  6
CONTINUOUS
 62
256
 10
291.740252000000000
 20
-177.188537999999990
 11
282.240252000000000
 21
-177.188537999999990
  0
LINE
  8
0
  6
CONTINUOUS
 62
256
 10
358.240252000000000
 20
-178.349300000000000
 11
291.740252000000000
 21
-177.188537999999990
  0
LINE
  8
0
  6
CONTINUOUS
 62
256
 10
358.240252000000000
 20
-178.340572000000010
 11
369.240252000000000
 21
-178.148567000000010
  0
LINE
  8
0
  6
CONTINUOUS
 62
256
 10
282.044900999999980
 20
-66.849299999999999
 11
278.240252000000000
 21
-66.849299999999999
  0
LINE
  8
0
  6
CONTINUOUS
 62
256
 10
291.740252000000000
 20
-52.510061999999998
 11
282.240252000000000
 21
-52.510061999999998
  0
LINE
  8
0
  6
CONTINUOUS
 62
256
 10
358.240252000000000
 20
-51.340572000000002
 11
369.240252000000000
 21
-51.532578000000001
  0
LINE
  8
0
  6
CONTINUOUS
 62
256
 10
358.240252000000000
 20
-51.340572000000002
 11
358.240252000000000
 21
-55.840572000000002
  0
LINE
  8
0
  6
CONTINUOUS
 62
256
 10
373.240252000000000
 20
-66.840571999999995
 11
369.426875000000000
 21
-66.840571999999995
  0
LINE
  8
0
  6
CONTINUOUS
 62
256
 10
373.240252000000000
 20
-66.840571999999995
 11
373.240252000000000
 21
-70.653948999999997
  0
LINE
  8
0
  6
CONTINUOUS
 62
256
 10
369.240252000000000
 20
-51.532578000000001
 11
369.240252000000000
 21
-66.653948999999997
  0
LINE
  8
0
  6
CONTINUOUS
 62
256
 10
358.240252000000000
 20
-60.233851999999999
 11
358.240252000000000
 21
-54.831845000000001
  0
LINE
  8
0
  6
CONTINUOUS
 62
256
 10
282.240252000000000
 20
-66.653948999999997
 11
282.240252000000000
 21
-52.510061999999998
  0
LINE
  8
0
  6
CONTINUOUS
 62
256
 10
278.240252000000000
 20
-66.849299999999999
 11
278.240252000000000
 21
-70.653948999999997
  0
LINE
  8
0
  6
CONTINUOUS
 62
256
 10
369.240252000000000
 20
-178.148567000000010
 11
369.240252000000000
 21
-167.971842000000010
  0
LINE
  8
0
  6
CONTINUOUS
 62
256
 10
358.240252000000000
 20
-178.358026999999990
 11
358.240252000000000
 21
-174.447293000000000
  0
LINE
  8
0
  6
CONTINUOUS
 62
256
 10
282.240252000000000
 20
-177.188537999999990
 11
282.240252000000000
 21
-168.027196000000000
  0
LINE
  8
0
  6
CONTINUOUS
 62
256
 10
358.240252000000000
 20
-51.349299999999999
 11
355.740252000000000
 21
-51.392938000000001
  0
LINE
  8
0
  6
CONTINUOUS
 62
256
 10
295.740252000000000
 20
-52.440241999999998
 11
291.740252000000000
 21
-52.510061999999998
  0
LINE
  8
0
  6
CONTINUOUS
 62
256
 10
268.240324999999980
 20
-90.840571999999995
 11
268.240324999999980
 21
-93.340571999999995
  0
LINE
  8
0
  6
CONTINUOUS
 62
256
 10
268.240324999999980
 20
-90.840571999999995
 11
236.240343000000000
 21
-90.840571999999995
  0
LINE
  8
0
  6
CONTINUOUS
 62
256
 10
272.459819999999980
 20
-93.340571999999995
 11
236.240325000000010
 21
-93.340571999999995
  0
LINE
  8
0
  6
CONTINUOUS
 62
256
 10
271.745245000000010
 20
-115.340571999999990
 11
236.240325000000010
 21
-115.340571999999990
  0
LINE
  8
0
  6
CONTINUOUS
 62
256
 10
-362.025390000000020
 20
-178.358026999999990
 11
-362.025390000000020
 21
-173.849300000000000
  0
LINE
  8
0
  6
CONTINUOUS
 62
256
 10
-362.025390000000020
 20
-178.358026999999990
 11
-362.025390000000020
 21
-169.228069000000000
  0
LINE
  8
0
  6
DASHDOT
 62
256
 10
-284.064580999999980
 20
-167.340572000000010
 11
-374.288556000000030
 21
-167.340572000000010
  0
LINE
  8
0
  6
DASHDOT
 62
256
 10
-283.987619000000000
 20
-62.340572000000002
 11
-373.804574000000000
 21
-62.340572000000002
  0
LINE
  8
0
  6
CONTINUOUS
 62
256
 10
-281.525390000000020
 20
-92.340571999999995
 11
-279.525463000000000
 21
-92.340571999999995
  0
LINE
  8
0
  6
CONTINUOUS
 62
256
 10
-281.525390000000020
 20
-116.340571999999990
 11
-279.525463000000000
 21
-116.340571999999990
  0
LINE
  8
0
  6
CONTINUOUS
 62
256
 10
-279.525463000000000
 20
-116.340571999999990
 11
-279.525463000000000
 21
-92.340571999999995
  0
LINE
  8
0
  6
CONTINUOUS
 62
256
 10
-279.525463000000000
 20
-115.340571999999990
 11
-239.525463000000000
 21
-115.340571999999990
  0
LINE
  8
0
  6
CONTINUOUS
 62
256
 10
-271.525463000000000
 20
-90.840571999999995
 11
-239.525481000000010
 21
-90.840571999999995
  0
LINE
  8
0
  6
CONTINUOUS
 62
256
 10
-239.525463000000000
 20
-115.340571999999990
 11
-239.525463000000000
 21
-90.840571999999995
  0
LINE
  8
0
  6
CONTINUOUS
 62
256
 10
-279.525463000000000
 20
-93.340571999999995
 11
-239.525463000000000
 21
-93.340571999999995
  0
LINE
  8
0
  6
CONTINUOUS
 62
256
 10
-271.525463000000000
 20
-90.840571999999995
 11
-271.525463000000000
 21
-93.340571999999995
  0
ARC
  8
0
  6
CONTINUOUS
 62
256
 10
-374.447336000000010
 20
-156.771438999999990
 40
6.599999999999971
 50
185.743681999999920
 51
224.999999999999830
  0
ARC
  8
0
  6
CONTINUOUS
 62
256
 10
17.574610000000000
 20
-117.340571999999990
 40
400.600000000000020
 50
180.000000000000000
 51
185.743681999999980
  0
LINE
  8
0
  6
CONTINUOUS
 62
256
 10
-372.525390000000020
 20
-168.027196000000000
 11
-379.114240999999990
 21
-161.438344000000000
  0
LINE
  8
0
  6
CONTINUOUS
 62
256
 10
-376.525390000000020
 20
-70.653948999999997
 11
-379.114240999999990
 21
-73.242801000000000
  0
ARC
  8
0
  6
CONTINUOUS
 62
256
 10
-374.447336000000010
 20
-77.909705000000002
 40
6.600000000000017
 50
135.000000000000170
 51
174.256317999999940
  0
ARC
  8
0
  6
CONTINUOUS
 62
256
 10
17.574610000000000
 20
-117.340571999999990
 40
400.600000000000080
 50
174.256317999999990
 51
180.000000000000000
  0
ARC
  8
0
  6
CONTINUOUS
 62
256
 10
-283.603443000000030
 20
-156.771438999999990
 40
6.600000000000017
 50
315.000000000000170
 51
354.256318000000020
  0
ARC
  8
0
  6
CONTINUOUS
 62
256
 10
-675.625390000000040
 20
-117.340571999999990
 40
400.600000000000020
 50
354.256318000000020
 51
0.286051000000000
  0
LINE
  8
0
  6
CONTINUOUS
 62
256
 10
-285.525390000000020
 20
-168.027196000000000
 11
-278.936537999999980
 21
-161.438344000000000
  0
ARC
  8
0
  6
CONTINUOUS
 62
256
 10
-283.603443000000030
 20
-77.909705000000002
 40
6.599999999999973
 50
5.743682000000063
 51
44.999999999999829
  0
ARC
  8
0
  6
CONTINUOUS
 62
256
 10
-675.625390000000040
 20
-117.340571999999990
 40
400.599999999999970
 50
3.434655000000000
 51
5.743682000000000
  0
LINE
  8
0
  6
CONTINUOUS
 62
256
 10
-281.525390000000020
 20
-70.653948999999997
 11
-278.936537999999980
 21
-73.242801000000000
  0
LINE
  8
0
  6
CONTINUOUS
 62
256
 10
-326.525390000000020
 20
-29.840572000000002
 11
-331.525390000000020
 21
-29.840572000000002
  0
LINE
  8
0
  6
CONTINUOUS
 62
256
 10
-326.525390000000020
 20
-30.350988999999998
 11
-326.525390000000020
 21
-29.840572000000002
  0
LINE
  8
0
  6
CONTINUOUS
 62
256
 10
-331.525390000000020
 20
-30.350988999999998
 11
-331.525390000000020
 21
-29.840572000000002
  0
ARC
  8
0
  6
CONTINUOUS
 62
256
 10
-329.025390000000020
 20
-330.340572000000010
 40
300.000000000000000
 50
85.138594999999995
 51
94.861405000000005
  0
LINE
  8
0
  6
CONTINUOUS
 62
256
 10
-359.025390000000020
 20
-51.392938000000001
 11
-359.025390000000020
 21
-36.401803000000001
  0
LINE
  8
0
  6
CONTINUOUS
 62
256
 10
-299.025390000000020
 20
-52.510061999999998
 11
-299.025390000000020
 21
-36.401803000000001
  0
ARC
  8
0
  6
CONTINUOUS
 62
256
 10
-354.025390000000020
 20
-36.401803000000001
 40
5.000000000000003
 50
94.861405000000062
 51
180.000000000000000
  0
ARC
  8
0
  6
CONTINUOUS
 62
256
 10
-304.025390000000020
 20
-36.401803000000001
 40
5.000000000000000
 50
0.000000000000000
 51
85.138594999999953
  0
ARC
  8
0
  6
CONTINUOUS
 62
256
 10
-329.025390000000020
 20
-117.340571999999990
 40
53.499999999999979
 50
324.398361000000020
 51
2.142396999999993
  0
ARC
  8
0
  6
CONTINUOUS
 62
256
 10
-329.025390000000020
 20
-117.340571999999990
 40
53.500000000000014
 50
152.604367999999990
 51
215.601638999999980
  0
LINE
  8
0
  6
CONTINUOUS
 62
256
 10
-361.275390000000020
 20
-178.344935999999990
 11
-372.525390000000020
 21
-178.148567000000010
  0
LINE
  8
0
  6
CONTINUOUS
 62
256
 10
-362.025390000000020
 20
-178.358026999999990
 11
-362.025390000000020
 21
-169.228069000000000
  0
LINE
  8
0
  6
CONTINUOUS
 62
256
 10
-362.025390000000020
 20
-178.358026999999990
 11
-295.025390000000020
 21
-177.188537999999990
  0
LINE
  8
0
  6
CONTINUOUS
 62
256
 10
-285.525390000000020
 20
-177.188537999999990
 11
-285.525390000000020
 21
-163.622211999999990
  0
LINE
  8
0
  6
CONTINUOUS
 62
256
 10
-295.025390000000020
 20
-177.188537999999990
 11
-285.525390000000020
 21
-177.188537999999990
  0
LINE
  8
0
  6
CONTINUOUS
 62
256
 10
-285.525390000000020
 20
-141.831844999999990
 11
-281.525390000000020
 21
-141.831844999999990
  0
LINE
  8
0
  6
CONTINUOUS
 62
256
 10
-362.025390000000020
 20
-51.349299999999999
 11
-372.525390000000020
 21
-51.532578000000001
  0
LINE
  8
0
  6
CONTINUOUS
 62
256
 10
-362.025390000000020
 20
-51.340572000000002
 11
-295.025390000000020
 21
-52.510061999999998
  0
LINE
  8
0
  6
CONTINUOUS
 62
256
 10
-362.025390000000020
 20
-51.331845000000001
 11
-362.025390000000020
 21
-178.358026999999990
  0
LINE
  8
0
  6
CONTINUOUS
 62
256
 10
-285.525390000000020
 20
-163.622211999999990
 11
-285.525390000000020
 21
-52.510061999999998
  0
LINE
  8
0
  6
CONTINUOUS
 62
256
 10
-295.025390000000020
 20
-52.510061999999998
 11
-285.525390000000020
 21
-52.510061999999998
  0
LINE
  8
0
  6
CONTINUOUS
 62
256
 10
-281.525390000000020
 20
-66.849299999999999
 11
-281.525390000000020
 21
-141.831844999999990
  0
LINE
  8
0
  6
CONTINUOUS
 62
256
 10
-285.525390000000020
 20
-66.849299999999999
 11
-281.525390000000020
 21
-66.849299999999999
  0
LINE
  8
0
  6
CONTINUOUS
 62
256
 10
-376.525390000000020
 20
-141.840572000000010
 11
-372.525390000000020
 21
-141.840572000000010
  0
LINE
  8
0
  6
CONTINUOUS
 62
256
 10
-372.525390000000020
 20
-51.532578000000001
 11
-372.525390000000020
 21
-178.148567000000010
  0
LINE
  8
0
  6
CONTINUOUS
 62
256
 10
-376.525390000000020
 20
-66.840571999999995
 11
-372.525390000000020
 21
-66.840571999999995
  0
LINE
  8
0
  6
CONTINUOUS
 62
256
 10
-376.525390000000020
 20
-66.840571999999995
 11
-376.525390000000020
 21
-141.840572000000010
  0
ARC
  8
0
  6
CONTINUOUS
 62
256
 10
-374.057745000000010
 20
-76.550858000000005
 40
2.999999999999977
 50
145.340699999999830
 51
214.659300000000170
  0
LINE
  8
0
  6
CONTINUOUS
 62
256
 10
-285.525390000000020
 20
-152.355290999999990
 11
-281.871714000000000
 21
-156.008967000000010
  0
LINE
  8
0
  6
CONTINUOUS
 62
256
 10
-372.525390000000020
 20
-152.355290999999990
 11
-376.179064999999980
 21
-156.008967000000010
  0
LINE
  8
0
  6
CONTINUOUS
 62
256
 10
-275.525390000000020
 20
-136.840572000000010
 11
-275.525390000000020
 21
-115.340571999999990
  0
LINE
  8
0
  6
CONTINUOUS
 62
256
 10
-382.525390000000020
 20
-97.840571999999995
 11
-382.525390000000020
 21
-136.840572000000010
  0
ARC
  8
0
  6
CONTINUOUS
 62
256
 10
-301.525390000000020
 20
-89.840571999999995
 40
24.999999999999979
 50
5.730175000000014
 51
36.869897999999999
  0
ARC
  8
0
  6
CONTINUOUS
 62
256
 10
-676.525390000000020
 20
-97.340571999999995
 40
400.000000000000060
 50
0.572967000000000
 51
1.431984000000000
  0
ARC
  8
0
  6
CONTINUOUS
 62
256
 10
-301.525390000000020
 20
-144.840572000000010
 40
24.999999999999986
 50
309.791818999999920
 51
354.269824999999970
  0
ARC
  8
0
  6
CONTINUOUS
 62
256
 10
-676.525390000000020
 20
-137.340572000000010
 40
400.000000000000000
 50
358.568016000000060
 51
359.928470000000000
  0
ARC
  8
0
  6
CONTINUOUS
 62
256
 10
-356.525390000000020
 20
-144.840572000000010
 40
25.000000000000007
 50
176.561350000000030
 51
230.208180999999880
  0
ARC
  8
0
  6
CONTINUOUS
 62
256
 10
18.474609999999998
 20
-137.340572000000010
 40
400.000000000000000
 50
180.071529999999970
 51
180.859540999999980
  0
ARC
  8
0
  6
CONTINUOUS
 62
256
 10
-356.525390000000020
 20
-89.840571999999995
 40
25.000000000000011
 50
143.130101999999990
 51
174.269825000000000
  0
ARC
  8
0
  6
CONTINUOUS
 62
256
 10
18.474609999999998
 20
-97.340571999999995
 40
400.000000000000000
 50
178.568016000000000
 51
179.928470000000000
  0
ARC
  8
0
  6
CONTINUOUS
 62
256
 10
-283.993034000000020
 20
-76.550858000000005
 40
2.999999999999977
 50
325.340699999999860
 51
34.659300000000187
  0
ARC
  8
0
  6
CONTINUOUS
 62
256
 10
-283.993034000000020
 20
-158.130287000000010
 40
2.999999999999989
 50
322.837479999999800
 51
44.999999999999616
  0
ARC
  8
0
  6
CONTINUOUS
 62
256
 10
-285.933670000000010
 20
-160.361470999999990
 40
2.999999999999995
 50
277.821860000000410
 51
315.130421000000180
  0
ARC
  8
0
  6
CONTINUOUS
 62
256
 10
-372.117109000000030
 20
-160.361470999999990
 40
3.000000000000027
 50
224.869578999999760
 51
262.178139999999590
  0
ARC
  8
0
  6
CONTINUOUS
 62
256
 10
-374.057745000000010
 20
-158.130287000000010
 40
3.000000000000004
 50
135.000000000000370
 51
217.162520000000170
  0
ARC
  8
0
  6
CONTINUOUS
 62
256
 10
-276.025390000000020
 20
-137.840572000000010
 40
0.500000000000000
 50
90.000000000000000
 51
180.000000000000000
  0
ARC
  8
0
  6
CONTINUOUS
 62
256
 10
-276.025390000000020
 20
-136.840572000000010
 40
0.500000000000000
 50
270.000000000000000
 51
0.000000000000000
  0
ARC
  8
0
  6
CONTINUOUS
 62
256
 10
-382.025390000000020
 20
-137.840572000000010
 40
0.500000000000000
 50
0.000000000000000
 51
90.000000000000000
  0
ARC
  8
0
  6
CONTINUOUS
 62
256
 10
-382.025390000000020
 20
-96.840571999999995
 40
0.500000000000000
 50
270.000000000000000
 51
0.000000000000000
  0
ARC
  8
0
  6
CONTINUOUS
 62
256
 10
-382.025390000000020
 20
-97.840571999999995
 40
0.500000000000000
 50
90.000000000000000
 51
180.000000000000000
  0
ARC
  8
0
  6
CONTINUOUS
 62
256
 10
-382.025390000000020
 20
-136.840572000000010
 40
0.500000000000000
 50
180.000000000000000
 51
270.000000000000000
  0
LINE
  8
0
  6
DASHDOT
 62
256
 10
-321.117320000000010
 20
-117.340571999999990
 11
-336.617882000000010
 21
-117.340571999999990
  0
LINE
  8
0
  6
DASHDOT
 62
256
 10
-389.646120999999990
 20
-104.340571999999990
 11
-235.088679000000010
 21
-104.340571999999990
  0
LINE
  8
0
  6
CONTINUOUS
 62
256
 10
38.051716999999996
 20
-63.840572000000002
 11
38.051716999999996
 21
-117.340571999999990
  0
LINE
  8
0
  6
CONTINUOUS
 62
256
 10
130.051717000000000
 20
-59.840572000000002
 11
55.051716999999996
 21
-59.840572000000002
  0
LINE
  8
0
  6
CONTINUOUS
 62
256
 10
55.051716999999996
 20
-59.840572000000002
 11
55.051716999999996
 21
-64.840571999999995
  0
LINE
  8
0
  6
CONTINUOUS
 62
256
 10
56.051716999999996
 20
-31.340572000000002
 11
56.051716999999996
 21
-59.840572000000002
  0
LINE
  8
0
  6
CONTINUOUS
 62
256
 10
129.051717000000000
 20
-31.340572000000002
 11
129.051717000000000
 21
-59.840572000000002
  0
ARC
  8
0
  6
CONTINUOUS
 62
256
 10
128.051717000000000
 20
-31.340572000000002
 40
1.000000000000000
 50
0.000000000000000
 51
90.000000000000000
  0
ARC
  8
0
  6
CONTINUOUS
 62
256
 10
57.051716999999996
 20
-31.340572000000002
 40
1.000000000000000
 50
90.000000000000000
 51
180.000000000000000
  0
LINE
  8
0
  6
CONTINUOUS
 62
256
 10
38.051716999999996
 20
-63.840572000000002
 11
55.051716999999996
 21
-63.840572000000002
  0
LINE
  8
0
  6
CONTINUOUS
 62
256
 10
38.051716999999996
 20
-170.840572000000010
 11
38.051716999999996
 21
-117.340571999999990
  0
LINE
  8
0
  6
CONTINUOUS
 62
256
 10
63.051716999999996
 20
-29.840572000000002
 11
63.051716999999996
 21
-30.340572000000002
  0
LINE
  8
0
  6
CONTINUOUS
 62
256
 10
71.051716999999996
 20
-29.840572000000002
 11
63.051716999999996
 21
-29.840572000000002
  0
LINE
  8
0
  6
CONTINUOUS
 62
256
 10
71.051716999999996
 20
-29.840572000000002
 11
71.051716999999996
 21
-30.340572000000002
  0
LINE
  8
0
  6
CONTINUOUS
 62
256
 10
57.051716999999996
 20
-30.340572000000002
 11
128.051717000000000
 21
-30.340572000000002
  0
LINE
  8
0
  6
CONTINUOUS
 62
256
 10
122.051717000000000
 20
-66.000876000000005
 11
122.051717000000000
 21
-117.340571999999990
  0
ARC
  8
0
  6
CONTINUOUS
 62
256
 10
125.051717000000000
 20
-66.000876000000005
 40
3.000000000000000
 50
90.000000000000000
 51
180.000000000000000
  0
LINE
  8
0
  6
CONTINUOUS
 62
256
 10
129.051717000000000
 20
-63.000875999999998
 11
125.051717000000000
 21
-63.000875999999998
  0
POLYLINE
  8
0
  6
CONTINUOUS
 62
256
 66
1
 70
1
  0
VERTEX
  8
0
  6
CONTINUOUS
 62
256
 10
137.751716999999990
 20
-70.013240999999994
  0
VERTEX
  8
0
  6
CONTINUOUS
 62
256
 10
137.661407817895170
 20
-69.310284489441827
  0
VERTEX
  8
0
  6
CONTINUOUS
 62
256
 10
137.393950802803030
 20
-68.634342203361854
  0
VERTEX
  8
0
  6
CONTINUOUS
 62
256
 10
136.959624177821950
 20
-68.011390224741334
  0
VERTEX
  8
0
  6
CONTINUOUS
 62
256
 10
136.375118871576770
 20
-67.465368248763156
  0
VERTEX
  8
0
  6
CONTINUOUS
 62
256
 10
135.662897095192110
 20
-67.017259593751504
  0
VERTEX
  8
0
  6
CONTINUOUS
 62
256
 10
134.850329132115920
 20
-66.684284824016245
  0
VERTEX
  8
0
  6
CONTINUOUS
 62
256
 10
133.968641513475800
 20
-66.479239973223926
  0
VERTEX
  8
0
  6
CONTINUOUS
 62
256
 10
133.051717000000000
 20
-66.410004799999996
  0
VERTEX
  8
0
  6
CONTINUOUS
 62
256
 10
132.134792486524190
 20
-66.479239973223926
  0
VERTEX
  8
0
  6
CONTINUOUS
 62
256
 10
131.253104867884080
 20
-66.684284824016245
  0
VERTEX
  8
0
  6
CONTINUOUS
 62
256
 10
130.440536904807890
 20
-67.017259593751504
  0
VERTEX
  8
0
  6
CONTINUOUS
 62
256
 10
129.728315128423220
 20
-67.465368248763156
  0
VERTEX
  8
0
  6
CONTINUOUS
 62
256
 10
129.143809822178040
 20
-68.011390224741334
  0
VERTEX
  8
0
  6
CONTINUOUS
 62
256
 10
128.709483197196960
 20
-68.634342203361854
  0
VERTEX
  8
0
  6
CONTINUOUS
 62
256
 10
128.442026182104830
 20
-69.310284489441827
  0
VERTEX
  8
0
  6
CONTINUOUS
 62
256
 10
128.351717000000010
 20
-70.013240999999994
  0
VERTEX
  8
0
  6
CONTINUOUS
 62
256
 10
128.442026182104830
 20
-70.716197510558160
  0
VERTEX
  8
0
  6
CONTINUOUS
 62
256
 10
128.709483197196960
 20
-71.392139796638133
  0
VERTEX
  8
0
  6
CONTINUOUS
 62
256
 10
129.143809822178040
 20
-72.015091775258654
  0
VERTEX
  8
0
  6
CONTINUOUS
 62
256
 10
129.728315128423220
 20
-72.561113751236832
  0
VERTEX
  8
0
  6
CONTINUOUS
 62
256
 10
130.440536904807890
 20
-73.009222406248483
  0
VERTEX
  8
0
  6
CONTINUOUS
 62
256
 10
131.253104867884080
 20
-73.342197175983728
  0
VERTEX
  8
0
  6
CONTINUOUS
 62
256
 10
132.134792486524190
 20
-73.547242026776061
  0
VERTEX
  8
0
  6
CONTINUOUS
 62
256
 10
133.051717000000000
 20
-73.616477199999991
  0
VERTEX
  8
0
  6
CONTINUOUS
 62
256
 10
133.968641513475800
 20
-73.547242026776061
  0
VERTEX
  8
0
  6
CONTINUOUS
 62
256
 10
134.850329132115920
 20
-73.342197175983742
  0
VERTEX
  8
0
  6
CONTINUOUS
 62
256
 10
135.662897095192110
 20
-73.009222406248483
  0
VERTEX
  8
0
  6
CONTINUOUS
 62
256
 10
136.375118871576750
 20
-72.561113751236832
  0
VERTEX
  8
0
  6
CONTINUOUS
 62
256
 10
136.959624177821950
 20
-72.015091775258654
  0
VERTEX
  8
0
  6
CONTINUOUS
 62
256
 10
137.393950802803030
 20
-71.392139796638133
  0
VERTEX
  8
0
  6
CONTINUOUS
 62
256
 10
137.661407817895170
 20
-70.716197510558160
  0
SEQEND
  8
0
  6
CONTINUOUS
 62
256
  0
LINE
  8
0
  6
CONTINUOUS
 62
256
 10
135.051717000000000
 20
-67.020865999999998
 11
133.051717000000000
 21
-68.196651000000003
  0
LINE
  8
0
  6
CONTINUOUS
 62
256
 10
133.051717000000000
 20
-68.196651000000003
 11
131.051717000000000
 21
-69.849293000000003
  0
LINE
  8
0
  6
CONTINUOUS
 62
256
 10
131.051717000000000
 20
-67.020865999999998
 11
133.051717000000000
 21
-68.196651000000003
  0
LINE
  8
0
  6
CONTINUOUS
 62
256
 10
133.051717000000000
 20
-68.196651000000003
 11
135.051717000000000
 21
-69.849293000000003
  0
ARC
  8
0
  6
CONTINUOUS
 62
256
 10
129.051717000000000
 20
-60.000875999999998
 40
3.000000000000000
 50
270.000000000000000
 51
0.000000000000000
  0
LINE
  8
0
  6
CONTINUOUS
 62
256
 10
132.051717000000000
 20
-58.340572000000002
 11
132.051717000000000
 21
-60.000875999999998
  0
LINE
  8
0
  6
CONTINUOUS
 62
256
 10
122.051717000000000
 20
-176.340572000000010
 11
122.051717000000000
 21
-117.340571999999990
  0
POLYLINE
  8
0
  6
CONTINUOUS
 62
256
 66
1
 70
1
  0
VERTEX
  8
0
  6
CONTINUOUS
 62
256
 10
137.751716999999990
 20
-164.667903000000000
  0
VERTEX
  8
0
  6
CONTINUOUS
 62
256
 10
137.661407817895170
 20
-163.964946489441810
  0
VERTEX
  8
0
  6
CONTINUOUS
 62
256
 10
137.393950802803030
 20
-163.289004203361860
  0
VERTEX
  8
0
  6
CONTINUOUS
 62
256
 10
136.959624177821950
 20
-162.666052224741320
  0
VERTEX
  8
0
  6
CONTINUOUS
 62
256
 10
136.375118871576770
 20
-162.120030248763160
  0
VERTEX
  8
0
  6
CONTINUOUS
 62
256
 10
135.662897095192110
 20
-161.671921593751510
  0
VERTEX
  8
0
  6
CONTINUOUS
 62
256
 10
134.850329132115920
 20
-161.338946824016260
  0
VERTEX
  8
0
  6
CONTINUOUS
 62
256
 10
133.968641513475800
 20
-161.133901973223910
  0
VERTEX
  8
0
  6
CONTINUOUS
 62
256
 10
133.051717000000000
 20
-161.064666800000000
  0
VERTEX
  8
0
  6
CONTINUOUS
 62
256
 10
132.134792486524190
 20
-161.133901973223910
  0
VERTEX
  8
0
  6
CONTINUOUS
 62
256
 10
131.253104867884080
 20
-161.338946824016260
  0
VERTEX
  8
0
  6
CONTINUOUS
 62
256
 10
130.440536904807890
 20
-161.671921593751510
  0
VERTEX
  8
0
  6
CONTINUOUS
 62
256
 10
129.728315128423220
 20
-162.120030248763160
  0
VERTEX
  8
0
  6
CONTINUOUS
 62
256
 10
129.143809822178040
 20
-162.666052224741320
  0
VERTEX
  8
0
  6
CONTINUOUS
 62
256
 10
128.709483197196960
 20
-163.289004203361860
  0
VERTEX
  8
0
  6
CONTINUOUS
 62
256
 10
128.442026182104830
 20
-163.964946489441810
  0
VERTEX
  8
0
  6
CONTINUOUS
 62
256
 10
128.351717000000010
 20
-164.667903000000000
  0
VERTEX
  8
0
  6
CONTINUOUS
 62
256
 10
128.442026182104830
 20
-165.370859510558180
  0
VERTEX
  8
0
  6
CONTINUOUS
 62
256
 10
128.709483197196960
 20
-166.046801796638140
  0
VERTEX
  8
0
  6
CONTINUOUS
 62
256
 10
129.143809822178040
 20
-166.669753775258670
  0
VERTEX
  8
0
  6
CONTINUOUS
 62
256
 10
129.728315128423220
 20
-167.215775751236830
  0
VERTEX
  8
0
  6
CONTINUOUS
 62
256
 10
130.440536904807890
 20
-167.663884406248480
  0
VERTEX
  8
0
  6
CONTINUOUS
 62
256
 10
131.253104867884080
 20
-167.996859175983730
  0
VERTEX
  8
0
  6
CONTINUOUS
 62
256
 10
132.134792486524190
 20
-168.201904026776050
  0
VERTEX
  8
0
  6
CONTINUOUS
 62
256
 10
133.051717000000000
 20
-168.271139199999990
  0
VERTEX
  8
0
  6
CONTINUOUS
 62
256
 10
133.968641513475800
 20
-168.201904026776050
  0
VERTEX
  8
0
  6
CONTINUOUS
 62
256
 10
134.850329132115920
 20
-167.996859175983730
  0
VERTEX
  8
0
  6
CONTINUOUS
 62
256
 10
135.662897095192110
 20
-167.663884406248480
  0
VERTEX
  8
0
  6
CONTINUOUS
 62
256
 10
136.375118871576750
 20
-167.215775751236830
  0
VERTEX
  8
0
  6
CONTINUOUS
 62
256
 10
136.959624177821950
 20
-166.669753775258670
  0
VERTEX
  8
0
  6
CONTINUOUS
 62
256
 10
137.393950802803030
 20
-166.046801796638140
  0
VERTEX
  8
0
  6
CONTINUOUS
 62
256
 10
137.661407817895170
 20
-165.370859510558180
  0
SEQEND
  8
0
  6
CONTINUOUS
 62
256
  0
LINE
  8
0
  6
CONTINUOUS
 62
256
 10
135.051717000000000
 20
-167.660279000000000
 11
133.051717000000000
 21
-166.484492999999990
  0
LINE
  8
0
  6
CONTINUOUS
 62
256
 10
133.051717000000000
 20
-166.484492999999990
 11
131.051717000000000
 21
-164.831852000000000
  0
LINE
  8
0
  6
CONTINUOUS
 62
256
 10
131.051717000000000
 20
-167.660279000000000
 11
133.051717000000000
 21
-166.484492999999990
  0
LINE
  8
0
  6
CONTINUOUS
 62
256
 10
133.051717000000000
 20
-166.484492999999990
 11
135.051717000000000
 21
-164.831852000000000
  0
LINE
  8
0
  6
CONTINUOUS
 62
256
 10
38.051716999999996
 20
-170.840572000000010
 11
122.051717000000000
 21
-170.840572000000010
  0
LINE
  8
0
  6
CONTINUOUS
 62
256
 10
122.051717000000000
 20
-168.340572000000010
 11
38.051716999999996
 21
-168.340572000000010
  0
LINE
  8
0
  6
CONTINUOUS
 62
256
 10
122.051717000000000
 20
-167.840572000000010
 11
38.051716999999996
 21
-167.840572000000010
  0
LINE
  8
0
  6
CONTINUOUS
 62
256
 10
122.051717000000000
 20
-163.473655000000010
 11
38.051716999999996
 21
-163.473655000000010
  0
LINE
  8
0
  6
CONTINUOUS
 62
256
 10
122.051717000000000
 20
-158.382486000000000
 11
38.051716999999996
 21
-158.382486000000000
  0
LINE
  8
0
  6
CONTINUOUS
 62
256
 10
122.051717000000000
 20
-150.644172999999990
 11
38.051716999999996
 21
-150.644172999999990
  0
LINE
  8
0
  6
CONTINUOUS
 62
256
 10
122.051717000000000
 20
-149.054964000000010
 11
38.051716999999996
 21
-149.054964000000010
  0
LINE
  8
0
  6
CONTINUOUS
 62
256
 10
122.051717000000000
 20
-146.096968000000000
 11
38.051716999999996
 21
-146.096968000000000
  0
LINE
  8
0
  6
CONTINUOUS
 62
256
 10
122.051717000000000
 20
-144.617944999999990
 11
38.051716999999996
 21
-144.617944999999990
  0
LINE
  8
0
  6
CONTINUOUS
 62
256
 10
122.051717000000000
 20
-141.525214000000010
 11
38.051716999999996
 21
-141.525214000000010
  0
LINE
  8
0
  6
CONTINUOUS
 62
256
 10
122.051717000000000
 20
-140.178811999999990
 11
38.051716999999996
 21
-140.178811999999990
  0
LINE
  8
0
  6
CONTINUOUS
 62
256
 10
122.051717000000000
 20
-136.968606999999990
 11
38.051716999999996
 21
-136.968606999999990
  0
LINE
  8
0
  6
CONTINUOUS
 62
256
 10
122.051717000000000
 20
-135.726687000000000
 11
38.051716999999996
 21
-135.726687000000000
  0
LINE
  8
0
  6
CONTINUOUS
 62
256
 10
122.051717000000000
 20
-131.340572000000010
 11
38.051716999999996
 21
-131.340572000000010
  0
LINE
  8
0
  6
CONTINUOUS
 62
256
 10
122.051717000000000
 20
-103.340571999999990
 11
38.051716999999996
 21
-103.340571999999990
  0
LINE
  8
0
  6
CONTINUOUS
 62
256
 10
122.051717000000000
 20
-98.954458000000002
 11
38.051716999999996
 21
-98.954458000000002
  0
LINE
  8
0
  6
CONTINUOUS
 62
256
 10
122.051717000000000
 20
-97.712537999999995
 11
38.051716999999996
 21
-97.712537999999995
  0
LINE
  8
0
  6
CONTINUOUS
 62
256
 10
122.051717000000000
 20
-94.502332999999993
 11
38.051716999999996
 21
-94.502332999999993
  0
LINE
  8
0
  6
CONTINUOUS
 62
256
 10
122.051717000000000
 20
-93.155930999999995
 11
38.051716999999996
 21
-93.155930999999995
  0
LINE
  8
0
  6
CONTINUOUS
 62
256
 10
122.051717000000000
 20
-90.063199999999995
 11
38.051716999999996
 21
-90.063199999999995
  0
LINE
  8
0
  6
CONTINUOUS
 62
256
 10
122.051717000000000
 20
-88.584176999999997
 11
38.051716999999996
 21
-88.584176999999997
  0
LINE
  8
0
  6
CONTINUOUS
 62
256
 10
122.051717000000000
 20
-84.036970999999994
 11
38.051716999999996
 21
-84.036970999999994
  0
LINE
  8
0
  6
CONTINUOUS
 62
256
 10
122.051717000000000
 20
-85.626181000000003
 11
38.051716999999996
 21
-85.626181000000003
  0
LINE
  8
0
  6
CONTINUOUS
 62
256
 10
122.051717000000000
 20
-76.298659000000001
 11
38.051716999999996
 21
-76.298659000000001
  0
LINE
  8
0
  6
CONTINUOUS
 62
256
 10
122.051717000000000
 20
-71.207490000000007
 11
38.051716999999996
 21
-71.207490000000007
  0
LINE
  8
0
  6
CONTINUOUS
 62
256
 10
122.051717000000000
 20
-66.840571999999995
 11
38.051716999999996
 21
-66.840571999999995
  0
LINE
  8
0
  6
CONTINUOUS
 62
256
 10
122.051717000000000
 20
-66.340571999999995
 11
38.051716999999996
 21
-66.340571999999995
  0
LINE
  8
0
  6
CONTINUOUS
 62
256
 10
55.051716999999996
 20
-64.840571999999995
 11
122.285185000000000
 21
-64.840571999999995
  0
LINE
  8
0
  6
CONTINUOUS
 62
256
 10
130.051717000000000
 20
-59.840572000000002
 11
130.051717000000000
 21
-62.829303000000003
  0
LINE
  8
0
  6
CONTINUOUS
 62
256
 10
132.051717000000000
 20
-58.340572000000002
 11
151.556562000000010
 21
-58.340572000000002
  0
LINE
  8
0
  6
CONTINUOUS
 62
256
 10
122.051717000000000
 20
-176.340572000000010
 11
151.556562000000010
 21
-176.340572000000010
  0
LINE
  8
0
  6
DASHDOT
 62
256
 10
-2.462770000000000
 20
-117.340571999999990
 11
179.024992999999990
 21
-117.340571999999990
  0
ARC
  8
0
  6
CONTINUOUS
 62
256
 10
151.556562000000010
 20
-78.940572000000003
 40
20.600000000000001
 50
55.000000000000028
 51
90.000000000000000
  0
ARC
  8
0
  6
CONTINUOUS
 62
256
 10
169.451717000000000
 20
-69.496951999999993
 40
2.599999999999994
 50
0.000000000000000
 51
54.999999999999979
  0
LINE
  8
0
  6
CONTINUOUS
 62
256
 10
163.372235999999990
 20
-62.066040000000001
 11
170.943016000000000
 21
-67.367157000000006
  0
LINE
  8
0
  6
CONTINUOUS
 62
256
 10
172.051717000000000
 20
-69.496951999999993
 11
172.051717000000000
 21
-117.340571999999990
  0
ARC
  8
0
  6
CONTINUOUS
 62
256
 10
151.556562000000010
 20
-155.740571999999990
 40
20.599999999999994
 50
270.000000000000000
 51
305.000000000000000
  0
ARC
  8
0
  6
CONTINUOUS
 62
256
 10
169.451717000000000
 20
-165.184192999999990
 40
2.599999999999996
 50
305.000000000000230
 51
0.000000000000000
  0
LINE
  8
0
  6
CONTINUOUS
 62
256
 10
163.372235999999990
 20
-172.615105000000000
 11
170.943016000000000
 21
-167.313987999999990
  0
LINE
  8
0
  6
CONTINUOUS
 62
256
 10
172.051717000000000
 20
-165.184192999999990
 11
172.051717000000000
 21
-117.340571999999990
  0
LINE
  8
0
  6
CONTINUOUS
 62
256
 10
38.051716999999996
 20
-63.840572000000002
 11
38.051716999999996
 21
-117.340571999999990
  0
LINE
  8
0
  6
CONTINUOUS
 62
256
 10
38.051716999999996
 20
-170.840572000000010
 11
38.051716999999996
 21
-117.340571999999990
  0
LINE
  8
0
  6
CONTINUOUS
 62
256
 10
33.051716999999996
 20
-97.340571999999995
 11
38.051716999999996
 21
-97.340571999999995
  0
LINE
  8
0
  6
CONTINUOUS
 62
256
 10
33.051716999999996
 20
-97.340571999999995
 11
38.051716999999996
 21
-97.340571999999995
  0
LINE
  8
0
  6
DASHDOT
 62
256
 10
-10.947177999999999
 20
-167.340572000000010
 11
6.948173000000000
 21
-167.340572000000010
  0
LINE
  8
0
  6
DASHDOT
 62
256
 10
-1.948283000000000
 20
-158.110090000000010
 11
-1.948283000000000
 21
-176.092288999999990
  0
LINE
  8
0
  6
CONTINUOUS
 62
256
 10
33.051716999999996
 20
-164.840572000000010
 11
33.051716999999996
 21
-167.875025999999990
  0
LINE
  8
0
  6
CONTINUOUS
 62
256
 10
30.051717000000000
 20
-161.840572000000010
 11
25.051717000000000
 21
-161.840572000000010
  0
LINE
  8
0
  6
CONTINUOUS
 62
256
 10
31.051717000000000
 20
-158.770224000000010
 11
25.051717000000000
 21
-158.770224000000010
  0
LINE
  8
0
  6
CONTINUOUS
 62
256
 10
20.051717000000000
 20
-154.232738000000010
 11
20.051717000000000
 21
-156.840572000000010
  0
LINE
  8
0
  6
CONTINUOUS
 62
256
 10
23.051717000000000
 20
-151.232738000000010
 11
30.051717000000000
 21
-151.232738000000010
  0
LINE
  8
0
  6
CONTINUOUS
 62
256
 10
33.051716999999996
 20
-137.340572000000010
 11
38.051716999999996
 21
-137.340572000000010
  0
LINE
  8
0
  6
CONTINUOUS
 62
256
 10
33.051716999999996
 20
-117.340571999999990
 11
33.051716999999996
 21
-156.770224000000010
  0
ARC
  8
0
  6
CONTINUOUS
 62
256
 10
-18.830226000000000
 20
-165.340572000000010
 40
3.500000000000000
 50
270.000000000000000
 51
353.243672999999830
  0
ARC
  8
0
  6
CONTINUOUS
 62
256
 10
-1.948283000000000
 20
-167.340572000000010
 40
13.499999999999989
 50
93.372287000000000
 51
173.243673000000000
  0
ARC
  8
0
  6
CONTINUOUS
 62
256
 10
-2.948283000000000
 20
-150.370010000000010
 40
3.500000000000003
 50
273.372286999999970
 51
0.000000000000000
  0
ARC
  8
0
  6
CONTINUOUS
 62
256
 10
-2.948283000000000
 20
-150.370010000000010
 40
5.999999999999992
 50
273.372286999999970
 51
0.000000000000000
  0
ARC
  8
0
  6
CONTINUOUS
 62
256
 10
-1.948283000000000
 20
-167.340572000000010
 40
11.000000000000000
 50
93.372287000000000
 51
173.243673000000030
  0
ARC
  8
0
  6
CONTINUOUS
 62
256
 10
-18.830226000000000
 20
-165.340572000000010
 40
6.000000000000000
 50
270.000000000000000
 51
353.243673000000110
  0
ARC
  8
0
  6
CONTINUOUS
 62
256
 10
36.051716999999996
 20
-167.875025999999990
 40
3.000000000000000
 50
180.000000000000000
 51
271.000000000000000
  0
ARC
  8
0
  6
CONTINUOUS
 62
256
 10
3.051717000000000
 20
-171.340572000000010
 40
7.000000000000000
 50
270.000000000000000
 51
0.000000000000000
  0
ARC
  8
0
  6
CONTINUOUS
 62
256
 10
30.051717000000000
 20
-148.232738000000010
 40
3.000000000000000
 50
270.000000000000000
 51
0.000000000000000
  0
ARC
  8
0
  6
CONTINUOUS
 62
256
 10
30.051717000000000
 20
-164.840572000000010
 40
2.999999999999996
 50
0.000000000000000
 51
90.000000000000000
  0
ARC
  8
0
  6
CONTINUOUS
 62
256
 10
31.051717000000000
 20
-156.770224000000010
 40
2.000000000000000
 50
270.000000000000000
 51
0.000000000000000
  0
ARC
  8
0
  6
CONTINUOUS
 62
256
 10
25.051717000000000
 20
-153.770224000000010
 40
5.000000000000000
 50
180.000000000000000
 51
270.000000000000000
  0
ARC
  8
0
  6
CONTINUOUS
 62
256
 10
25.051717000000000
 20
-156.840572000000010
 40
5.000000000000000
 50
180.000000000000000
 51
270.000000000000000
  0
ARC
  8
0
  6
CONTINUOUS
 62
256
 10
3.051717000000000
 20
-171.340572000000010
 40
5.500000000000000
 50
270.000000000000000
 51
0.000000000000000
  0
ARC
  8
0
  6
CONTINUOUS
 62
256
 10
13.035862000000000
 20
-174.277683000000000
 40
3.000000000000011
 50
91.000000000000014
 51
183.226826000000240
  0
LINE
  8
0
  6
CONTINUOUS
 62
256
 10
12.983504999999999
 20
-171.278140000000010
 11
38.051716999999996
 21
-170.840572000000010
  0
LINE
  8
0
  6
CONTINUOUS
 62
256
 10
20.051717000000000
 20
-168.101941000000010
 11
20.051717000000000
 21
-117.340571999999990
  0
ARC
  8
0
  6
CONTINUOUS
 62
256
 10
23.051717000000000
 20
-168.101941000000010
 40
3.000000000000000
 50
180.000000000000000
 51
271.000000000000000
  0
ARC
  8
0
  6
CONTINUOUS
 62
256
 10
23.051717000000000
 20
-148.232738000000010
 40
3.000000000000000
 50
180.000000000000000
 51
270.000000000000000
  0
ARC
  8
0
  6
CONTINUOUS
 62
256
 10
23.051717000000000
 20
-148.232738000000010
 40
3.000000000000000
 50
180.000000000000000
 51
270.000000000000000
  0
ARC
  8
0
  6
CONTINUOUS
 62
256
 10
23.051717000000000
 20
-168.101941000000010
 40
3.000000000000000
 50
180.000000000000000
 51
271.000000000000000
  0
LINE
  8
0
  6
CONTINUOUS
 62
256
 10
20.051717000000000
 20
-168.101941000000010
 11
20.051717000000000
 21
-117.340571999999990
  0
ARC
  8
0
  6
CONTINUOUS
 62
256
 10
31.051717000000000
 20
-156.770224000000010
 40
2.000000000000000
 50
270.000000000000000
 51
0.000000000000000
  0
ARC
  8
0
  6
CONTINUOUS
 62
256
 10
30.051717000000000
 20
-164.840572000000010
 40
2.999999999999996
 50
0.000000000000000
 51
90.000000000000000
  0
ARC
  8
0
  6
CONTINUOUS
 62
256
 10
25.051717000000000
 20
-156.840572000000010
 40
5.000000000000000
 50
180.000000000000000
 51
270.000000000000000
  0
ARC
  8
0
  6
CONTINUOUS
 62
256
 10
25.051717000000000
 20
-153.770224000000010
 40
5.000000000000000
 50
180.000000000000000
 51
270.000000000000000
  0
ARC
  8
0
  6
CONTINUOUS
 62
256
 10
30.051717000000000
 20
-148.232738000000010
 40
3.000000000000000
 50
270.000000000000000
 51
0.000000000000000
  0
ARC
  8
0
  6
CONTINUOUS
 62
256
 10
36.051716999999996
 20
-167.875025999999990
 40
3.000000000000000
 50
180.000000000000000
 51
271.000000000000000
  0
LINE
  8
0
  6
CONTINUOUS
 62
256
 10
33.051716999999996
 20
-164.840572000000010
 11
33.051716999999996
 21
-167.875025999999990
  0
LINE
  8
0
  6
CONTINUOUS
 62
256
 10
31.051717000000000
 20
-158.770224000000010
 11
25.051717000000000
 21
-158.770224000000010
  0
LINE
  8
0
  6
CONTINUOUS
 62
256
 10
30.051717000000000
 20
-161.840572000000010
 11
25.051717000000000
 21
-161.840572000000010
  0
LINE
  8
0
  6
CONTINUOUS
 62
256
 10
33.051716999999996
 20
-117.340571999999990
 11
33.051716999999996
 21
-156.770224000000010
  0
LINE
  8
0
  6
CONTINUOUS
 62
256
 10
23.051717000000000
 20
-151.232738000000010
 11
30.051717000000000
 21
-151.232738000000010
  0
LINE
  8
0
  6
CONTINUOUS
 62
256
 10
20.051717000000000
 20
-154.232738000000010
 11
20.051717000000000
 21
-156.840572000000010
  0
LINE
  8
0
  6
CONTINUOUS
 62
256
 10
33.051716999999996
 20
-137.340572000000010
 11
38.051716999999996
 21
-137.340572000000010
  0
LINE
  8
0
  6
CONTINUOUS
 62
256
 10
-18.830226000000000
 20
-168.840572000000010
 11
-103.066340000000000
 21
-168.840572000000010
  0
LINE
  8
0
  6
CONTINUOUS
 62
256
 10
-18.830226000000000
 20
-171.340572000000010
 11
-103.066340000000000
 21
-171.340572000000010
  0
LINE
  8
0
  6
DASHDOT
 62
256
 10
-128.304690999999990
 20
-167.340572000000010
 11
-111.051827000000000
 21
-167.340572000000010
  0
LINE
  8
0
  6
DASHDOT
 62
256
 10
-119.948283000000000
 20
-158.488662000000010
 11
-119.948283000000000
 21
-176.047743000000000
  0
LINE
  8
0
  6
CONTINUOUS
 62
256
 10
-123.948283000000000
 20
-178.340572000000010
 11
3.051717000000000
 21
-178.340572000000010
  0
LINE
  8
0
  6
CONTINUOUS
 62
256
 10
-129.448283000000000
 20
-104.340571999999990
 11
-129.448283000000000
 21
-171.340572000000010
  0
LINE
  8
0
  6
CONTINUOUS
 62
256
 10
-77.948283000000004
 20
-176.840572000000010
 11
3.051717000000000
 21
-176.840572000000010
  0
LINE
  8
0
  6
CONTINUOUS
 62
256
 10
-123.948283000000000
 20
-176.840572000000010
 11
-77.948283000000004
 21
-176.840572000000010
  0
ARC
  8
0
  6
CONTINUOUS
 62
256
 10
-77.948283000000004
 20
-104.340571999999990
 40
41.500000000000000
 50
180.000000000000000
 51
270.000000000000000
  0
ARC
  8
0
  6
CONTINUOUS
 62
256
 10
-103.066340000000000
 20
-165.340572000000010
 40
3.499999999999996
 50
186.756327000000200
 51
270.000000000000000
  0
ARC
  8
0
  6
CONTINUOUS
 62
256
 10
-119.948283000000000
 20
-167.340572000000010
 40
13.500000000000005
 50
6.756327000000003
 51
86.627712999999972
  0
ARC
  8
0
  6
CONTINUOUS
 62
256
 10
-118.948283000000000
 20
-150.370010000000010
 40
3.500000000000000
 50
180.000000000000000
 51
266.627713000000030
  0
ARC
  8
0
  6
CONTINUOUS
 62
256
 10
-103.066340000000000
 20
-165.340572000000010
 40
5.999999999999996
 50
186.756326999999890
 51
270.000000000000000
  0
ARC
  8
0
  6
CONTINUOUS
 62
256
 10
-119.948283000000000
 20
-167.340572000000010
 40
11.000000000000002
 50
6.756326999999983
 51
86.627712999999986
  0
ARC
  8
0
  6
CONTINUOUS
 62
256
 10
-118.948283000000000
 20
-150.370010000000010
 40
6.000000000000000
 50
180.000000000000000
 51
266.627712999999970
  0
ARC
  8
0
  6
CONTINUOUS
 62
256
 10
-123.948283000000000
 20
-171.340572000000010
 40
7.000000000000000
 50
180.000000000000000
 51
270.000000000000000
  0
ARC
  8
0
  6
CONTINUOUS
 62
256
 10
-123.948283000000000
 20
-171.340572000000010
 40
5.500000000000000
 50
180.000000000000000
 51
270.000000000000000
  0
LINE
  8
0
  6
CONTINUOUS
 62
256
 10
0.551717000000000
 20
-150.370010000000010
 11
0.551717000000000
 21
-79.311134999999993
  0
LINE
  8
0
  6
CONTINUOUS
 62
256
 10
-122.448283000000000
 20
-79.311134999999993
 11
-122.448283000000000
 21
-150.370010000000010
  0
LINE
  8
0
  6
CONTINUOUS
 62
256
 10
-18.830226000000000
 20
-60.840572000000002
 11
-71.333905000000001
 21
-60.840572000000002
  0
LINE
  8
0
  6
CONTINUOUS
 62
256
 10
3.051717000000000
 20
-150.370010000000010
 11
3.051717000000000
 21
-79.311134999999993
  0
LINE
  8
0
  6
CONTINUOUS
 62
256
 10
-124.948283000000000
 20
-79.311134999999993
 11
-124.948283000000000
 21
-150.370010000000010
  0
LINE
  8
0
  6
CONTINUOUS
 62
256
 10
-18.830226000000000
 20
-58.340572000000002
 11
-103.066340000000000
 21
-58.340572000000002
  0
LINE
  8
0
  6
CONTINUOUS
 62
256
 10
-107.293215000000000
 20
-74.995641000000006
 11
-107.334266000000000
 21
-75.036692000000002
  0
LINE
  8
0
  6
DASHDOT
 62
256
 10
-1.948283000000000
 20
-53.624046000000000
 11
-1.948283000000000
 21
-71.047742999999997
  0
LINE
  8
0
  6
DASHDOT
 62
256
 10
-10.379319000000001
 20
-62.340572000000002
 11
6.948173000000000
 21
-62.340572000000002
  0
LINE
  8
0
  6
DASHDOT
 62
256
 10
-128.493977000000000
 20
-62.340572000000002
 11
-111.051827000000000
 21
-62.340572000000002
  0
LINE
  8
0
  6
DASHDOT
 62
256
 10
-119.948283000000000
 20
-53.245472999999997
 11
-119.948283000000000
 21
-71.047742999999997
  0
LINE
  8
0
  6
CONTINUOUS
 62
256
 10
-130.948283000000000
 20
-58.340572000000002
 11
-130.948283000000000
 21
-171.340572000000010
  0
LINE
  8
0
  6
CONTINUOUS
 62
256
 10
3.051717000000000
 20
-51.340572000000002
 11
-123.948283000000000
 21
-51.340572000000002
  0
LINE
  8
0
  6
CONTINUOUS
 62
256
 10
20.051717000000000
 20
-80.448406000000006
 11
20.051717000000000
 21
-77.840571999999995
  0
LINE
  8
0
  6
CONTINUOUS
 62
256
 10
23.051717000000000
 20
-83.448406000000006
 11
30.051717000000000
 21
-83.448406000000006
  0
LINE
  8
0
  6
CONTINUOUS
 62
256
 10
33.051716999999996
 20
-117.340571999999990
 11
33.051716999999996
 21
-77.910921000000002
  0
LINE
  8
0
  6
CONTINUOUS
 62
256
 10
30.051717000000000
 20
-72.840571999999995
 11
25.051717000000000
 21
-72.840571999999995
  0
LINE
  8
0
  6
CONTINUOUS
 62
256
 10
31.051717000000000
 20
-75.910921000000002
 11
25.051717000000000
 21
-75.910921000000002
  0
LINE
  8
0
  6
CONTINUOUS
 62
256
 10
33.051716999999996
 20
-69.840571999999995
 11
33.051716999999996
 21
-66.806118999999995
  0
LINE
  8
0
  6
CONTINUOUS
 62
256
 10
8.551717000000000
 20
-171.340572000000010
 11
8.551717000000000
 21
-58.340572000000002
  0
LINE
  8
0
  6
CONTINUOUS
 62
256
 10
3.051717000000000
 20
-52.840572000000002
 11
-77.948283000000004
 21
-52.840572000000002
  0
LINE
  8
0
  6
CONTINUOUS
 62
256
 10
-77.948283000000004
 20
-52.840572000000002
 11
-123.948283000000000
 21
-52.840572000000002
  0
LINE
  8
0
  6
CONTINUOUS
 62
256
 10
-129.448283000000000
 20
-58.340572000000002
 11
-129.448283000000000
 21
-104.340571999999990
  0
ARC
  8
0
  6
CONTINUOUS
 62
256
 10
-77.948283000000004
 20
-104.340571999999990
 40
44.000000000000000
 50
180.000000000000000
 51
81.354135999999983
  0
ARC
  8
0
  6
CONTINUOUS
 62
256
 10
-118.948283000000000
 20
-79.311134999999993
 40
3.500000000000003
 50
93.372286999999972
 51
180.000000000000000
  0
ARC
  8
0
  6
CONTINUOUS
 62
256
 10
-119.948283000000000
 20
-62.340572000000002
 40
13.499999999999996
 50
273.372286999999970
 51
353.243673000000000
  0
ARC
  8
0
  6
CONTINUOUS
 62
256
 10
-103.066340000000000
 20
-64.340571999999995
 40
3.500000000000000
 50
90.000000000000000
 51
173.243673000000030
  0
ARC
  8
0
  6
CONTINUOUS
 62
256
 10
-18.830226000000000
 20
-64.340571999999995
 40
3.500000000000000
 50
6.756326999999962
 51
90.000000000000000
  0
ARC
  8
0
  6
CONTINUOUS
 62
256
 10
-1.948283000000000
 20
-62.340572000000002
 40
13.500000000000002
 50
186.756326999999970
 51
266.627713000000030
  0
ARC
  8
0
  6
CONTINUOUS
 62
256
 10
-2.948283000000000
 20
-79.311134999999993
 40
3.500000000000000
 50
0.000000000000000
 51
86.627713000000000
  0
ARC
  8
0
  6
CONTINUOUS
 62
256
 10
-118.948283000000000
 20
-79.311134999999993
 40
6.000000000000006
 50
93.372287000000000
 51
180.000000000000000
  0
ARC
  8
0
  6
CONTINUOUS
 62
256
 10
-119.948283000000000
 20
-62.340572000000002
 40
11.000000000000007
 50
273.372286999999970
 51
353.243672999999940
  0
ARC
  8
0
  6
CONTINUOUS
 62
256
 10
-103.066340000000000
 20
-64.340571999999995
 40
6.000000000000000
 50
90.000000000000000
 51
173.243672999999970
  0
ARC
  8
0
  6
CONTINUOUS
 62
256
 10
-2.948283000000000
 20
-79.311134999999993
 40
6.000000000000000
 50
0.000000000000000
 51
86.627713000000000
  0
ARC
  8
0
  6
CONTINUOUS
 62
256
 10
-1.948283000000000
 20
-62.340572000000002
 40
11.000000000000000
 50
186.756326999999970
 51
266.627713000000030
  0
ARC
  8
0
  6
CONTINUOUS
 62
256
 10
-18.830226000000000
 20
-64.340571999999995
 40
6.000000000000001
 50
6.756327000000019
 51
90.000000000000000
  0
ARC
  8
0
  6
CONTINUOUS
 62
256
 10
36.051716999999996
 20
-66.806118999999995
 40
2.999999999999997
 50
88.999999999999986
 51
180.000000000000000
  0
ARC
  8
0
  6
CONTINUOUS
 62
256
 10
3.051717000000000
 20
-58.340572000000002
 40
7.000000000000000
 50
0.000000000000000
 51
90.000000000000000
  0
CIRCLE
  8
0
  6
CONTINUOUS
 62
256
 10
-77.948283000000004
 20
-104.340571999999990
 40
25.000000000000000
  0
ARC
  8
0
  6
CONTINUOUS
 62
256
 10
-77.948283000000004
 20
-104.340571999999990
 40
37.500000000000000
 50
90.000000000000000
 51
180.000000000000000
  0
ARC
  8
0
  6
CONTINUOUS
 62
256
 10
-123.948283000000000
 20
-58.340572000000002
 40
7.000000000000000
 50
90.000000000000000
 51
180.000000000000000
  0
ARC
  8
0
  6
CONTINUOUS
 62
256
 10
30.051717000000000
 20
-86.448406000000006
 40
2.999999999999996
 50
0.000000000000000
 51
90.000000000000000
  0
ARC
  8
0
  6
CONTINUOUS
 62
256
 10
25.051717000000000
 20
-80.910921000000002
 40
5.000000000000000
 50
90.000000000000000
 51
180.000000000000000
  0
ARC
  8
0
  6
CONTINUOUS
 62
256
 10
25.051717000000000
 20
-77.840571999999995
 40
5.000000000000000
 50
90.000000000000000
 51
180.000000000000000
  0
ARC
  8
0
  6
CONTINUOUS
 62
256
 10
30.051717000000000
 20
-69.840571999999995
 40
3.000000000000000
 50
270.000000000000000
 51
0.000000000000000
  0
ARC
  8
0
  6
CONTINUOUS
 62
256
 10
31.051717000000000
 20
-77.910921000000002
 40
1.999999999999996
 50
0.000000000000000
 51
90.000000000000000
  0
ARC
  8
0
  6
CONTINUOUS
 62
256
 10
3.051717000000000
 20
-58.340572000000002
 40
5.500000000000000
 50
0.000000000000000
 51
90.000000000000000
  0
ARC
  8
0
  6
CONTINUOUS
 62
256
 10
-123.948283000000000
 20
-58.340572000000002
 40
5.500000000000000
 50
90.000000000000000
 51
180.000000000000000
  0
LINE
  8
0
  6
CONTINUOUS
 62
256
 10
10.051717000000000
 20
-171.340572000000010
 11
10.051717000000000
 21
-58.340572000000002
  0
ARC
  8
0
  6
CONTINUOUS
 62
256
 10
-77.948283000000004
 20
-104.340571999999990
 40
37.500000000000000
 50
180.000000000000000
 51
90.000000000000000
  0
LINE
  8
0
  6
CONTINUOUS
 62
256
 10
-84.562661000000006
 20
-60.840572000000002
 11
-103.066340000000000
 21
-60.840572000000002
  0
ARC
  8
0
  6
CONTINUOUS
 62
256
 10
-77.948283000000004
 20
-104.340571999999990
 40
44.000000000000000
 50
98.645864000000003
 51
180.000000000000000
  0
ARC
  8
0
  6
CONTINUOUS
 62
256
 10
12.947690000000000
 20
-60.401922999999996
 40
2.999999999999999
 50
188.271556000000000
 51
268.999999999999940
  0
LINE
  8
0
  6
CONTINUOUS
 62
256
 10
12.895333000000001
 20
-63.401465999999999
 11
38.051716999999996
 21
-63.840572000000002
  0
LINE
  8
0
  6
CONTINUOUS
 62
256
 10
20.051717000000000
 20
-66.579203000000007
 11
20.051717000000000
 21
-117.340571999999990
  0
ARC
  8
0
  6
CONTINUOUS
 62
256
 10
23.051717000000000
 20
-66.579203000000007
 40
2.999999999999997
 50
88.999999999999986
 51
180.000000000000000
  0
ARC
  8
0
  6
CONTINUOUS
 62
256
 10
23.051717000000000
 20
-86.448406000000006
 40
3.000000000000000
 50
90.000000000000000
 51
180.000000000000000
  0
ARC
  8
0
  6
CONTINUOUS
 62
256
 10
-77.948283000000004
 20
-104.340571999999990
 40
41.500000000000014
 50
270.000000000000000
 51
180.000000000000000
  0
ARC
  8
0
  6
CONTINUOUS
 62
256
 10
23.051717000000000
 20
-86.448406000000006
 40
3.000000000000000
 50
90.000000000000000
 51
180.000000000000000
  0
ARC
  8
0
  6
CONTINUOUS
 62
256
 10
23.051717000000000
 20
-66.579203000000007
 40
2.999999999999997
 50
88.999999999999986
 51
180.000000000000000
  0
LINE
  8
0
  6
CONTINUOUS
 62
256
 10
20.051717000000000
 20
-66.579203000000007
 11
20.051717000000000
 21
-117.340571999999990
  0
ARC
  8
0
  6
CONTINUOUS
 62
256
 10
25.051717000000000
 20
-77.840571999999995
 40
5.000000000000000
 50
90.000000000000000
 51
180.000000000000000
  0
ARC
  8
0
  6
CONTINUOUS
 62
256
 10
25.051717000000000
 20
-80.910921000000002
 40
5.000000000000000
 50
90.000000000000000
 51
180.000000000000000
  0
ARC
  8
0
  6
CONTINUOUS
 62
256
 10
31.051717000000000
 20
-77.910921000000002
 40
1.999999999999996
 50
0.000000000000000
 51
90.000000000000000
  0
ARC
  8
0
  6
CONTINUOUS
 62
256
 10
30.051717000000000
 20
-69.840571999999995
 40
3.000000000000000
 50
270.000000000000000
 51
0.000000000000000
  0
ARC
  8
0
  6
CONTINUOUS
 62
256
 10
30.051717000000000
 20
-86.448406000000006
 40
2.999999999999996
 50
0.000000000000000
 51
90.000000000000000
  0
ARC
  8
0
  6
CONTINUOUS
 62
256
 10
36.051716999999996
 20
-66.806118999999995
 40
2.999999999999997
 50
88.999999999999986
 51
180.000000000000000
  0
LINE
  8
0
  6
CONTINUOUS
 62
256
 10
33.051716999999996
 20
-117.340571999999990
 11
33.051716999999996
 21
-77.910921000000002
  0
LINE
  8
0
  6
CONTINUOUS
 62
256
 10
23.051717000000000
 20
-83.448406000000006
 11
30.051717000000000
 21
-83.448406000000006
  0
LINE
  8
0
  6
CONTINUOUS
 62
256
 10
20.051717000000000
 20
-80.448406000000006
 11
20.051717000000000
 21
-77.840571999999995
  0
LINE
  8
0
  6
CONTINUOUS
 62
256
 10
31.051717000000000
 20
-75.910921000000002
 11
25.051717000000000
 21
-75.910921000000002
  0
LINE
  8
0
  6
CONTINUOUS
 62
256
 10
30.051717000000000
 20
-72.840571999999995
 11
25.051717000000000
 21
-72.840571999999995
  0
LINE
  8
0
  6
CONTINUOUS
 62
256
 10
33.051716999999996
 20
-69.840571999999995
 11
33.051716999999996
 21
-66.806118999999995
  0
LINE
  8
0
  6
DASHDOT
 62
256
 10
-329.025390000000020
 20
-24.926687000000001
 11
-329.025390000000020
 21
-183.142513000000010
  0
ARC
  8
0
  6
CONTINUOUS
 62
256
 10
-187.207391000000000
 20
-104.340571999999990
 40
11.000000000000004
 50
105.826619999999990
 51
74.173380000000009
  0
LINE
  8
0
  6
CONTINUOUS
 62
256
 10
-184.207391000000000
 20
-90.840571999999995
 11
-184.207391000000000
 21
-96.840571999999995
  0
LINE
  8
0
  6
CONTINUOUS
 62
256
 10
-190.207391000000000
 20
-90.840571999999995
 11
-190.207391000000000
 21
-96.840571999999995
  0
LINE
  8
0
  6
CONTINUOUS
 62
256
 10
-190.207391000000000
 20
-90.840571999999995
 11
-184.207391000000000
 21
-90.840571999999995
  0
LINE
  8
0
  6
CONTINUOUS
 62
256
 10
-190.207391000000000
 20
-96.840571999999995
 11
-184.207391000000000
 21
-96.840571999999995
  0
LINE
  8
0
  6
DASHDOT
 62
256
 10
-187.207391000000000
 20
-87.752476000000001
 11
-187.207391000000000
 21
-118.428963999999990
  0
LINE
  8
0
  6
DASHDOT
 62
256
 10
-201.163825000000000
 20
-104.340571999999990
 11
-172.553092999999990
 21
-104.340571999999990
  0
CIRCLE
  8
0
  6
CONTINUOUS
 62
256
 10
-187.207391000000000
 20
-104.340571999999990
 40
4.000000000000000
  0
CIRCLE
  8
0
  6
CONTINUOUS
 62
256
 10
-187.207391000000000
 20
-104.340571999999990
 40
3.500000000000000
  0
LINE
  8
0
  6
DASHDOT
 62
256
 10
-135.249715000000010
 20
-104.340571999999990
 11
-17.603427000000000
 21
-104.340571999999990
  0
LINE
  8
0
  6
DASHDOT
 62
256
 10
-77.948283000000004
 20
-46.576749999999997
 11
-77.948283000000004
 21
-157.228952999999990
  0
CIRCLE
  8
0
  6
CONTINUOUS
 62
256
 10
-77.948283000000004
 20
-104.340571999999990
 40
3.500000000000000
  0
CIRCLE
  8
0
  6
CONTINUOUS
 62
256
 10
-77.948283000000004
 20
-104.340571999999990
 40
4.000000000000000
  0
ARC
  8
0
  6
CONTINUOUS
 62
256
 10
-77.948283000000004
 20
-104.340571999999990
 40
11.000000000000004
 50
105.826619999999990
 51
74.173380000000009
  0
LINE
  8
0
  6
CONTINUOUS
 62
256
 10
-80.948283000000004
 20
-90.840571999999995
 11
-80.948283000000004
 21
-96.840571999999995
  0
LINE
  8
0
  6
CONTINUOUS
 62
256
 10
-80.948283000000004
 20
-90.840571999999995
 11
-74.948283000000004
 21
-90.840571999999995
  0
LINE
  8
0
  6
CONTINUOUS
 62
256
 10
-80.948283000000004
 20
-96.840571999999995
 11
-74.948283000000004
 21
-96.840571999999995
  0
LINE
  8
0
  6
CONTINUOUS
 62
256
 10
-74.948283000000004
 20
-90.840571999999995
 11
-74.948283000000004
 21
-96.840571999999995
  0
POINT
  8
0
  6
CONTINUOUS
 62
256
 10
-187.207391000000000
 20
-93.340571999999995
  0
TEXT
  8
0
  6
CONTINUOUS
 62
256
 10
434.118194580078130
 20
-207.048355102539060
 40
3.299999952316284
  1
1/1
 50
0.000002504478167
 41
0.850909097352304
  7
STANDARD1
  0
TEXT
  8
0
  6
CONTINUOUS
 62
256
 10
431.700195312500000
 20
-207.048355102539060
 40
3.299999952316284
  1
 
 50
0.000002504478167
 41
1.733333298293026
  7
STANDARD1
  0
TEXT
  8
0
  6
CONTINUOUS
 62
256
 10
418.649566650390620
 20
-207.048355102539060
 40
3.299999952316284
  1
SCALE
 50
0.000002504478167
 41
0.821052645401140
  7
STANDARD1
  0
TEXT
  8
0
  6
CONTINUOUS
 62
256
 10
415.398193359375000
 20
-207.048355102539060
 40
3.299999952316284
  1
 
 50
0.000002504478167
 41
1.733333298293026
  7
STANDARD1
  0
TEXT
  8
0
  6
CONTINUOUS
 62
256
 10
430.261383056640620
 20
-201.748352050781250
 40
3.299999952316284
  1
1/60
 50
0.000002504478167
 41
0.832000075658163
  7
STANDARD1
  0
TEXT
  8
0
  6
CONTINUOUS
 62
256
 10
426.470367431640620
 20
-201.748352050781250
 40
3.299999952316284
  1
ü`
 50
0.000002504478167
 41
1.176000019651471
  7
STANDARD1
  0
TEXT
  8
0
  6
CONTINUOUS
 62
256
 10
418.674194335937500
 20
-201.748352050781250
 40
3.299999952316284
  1
1/5
 50
0.000002504478167
 41
0.850909097352304
  7
STANDARD1
  0
TEXT
  8
0
  6
CONTINUOUS
 62
256
 10
415.398193359375000
 20
-201.748352050781250
 40
3.299999952316284
  1
 
 50
0.000002504478167
 41
1.733333298293026
  7
STANDARD1
  0
TEXT
  8
0
  6
CONTINUOUS
 62
256
 10
418.632202148437500
 20
-196.448348999023440
 40
3.299999952316284
  1
GM-SHYF-RL
 50
0.000002504478167
 41
0.799999980493025
  7
STANDARD1
  0
TEXT
  8
0
  6
CONTINUOUS
 62
256
 10
415.398193359375000
 20
-196.448348999023440
 40
3.299999952316284
  1
 
 50
0.000002504478167
 41
1.733333298293026
  7
STANDARD1
  0
TEXT
  8
0
  6
CONTINUOUS
 62
256
 10
421.223571777343750
 20
-191.148361206054690
 40
3.299999952316284
  1
0.2kW
 50
0.000002504478167
 41
0.821052645401140
  7
STANDARD1
  0
TEXT
  8
0
  6
CONTINUOUS
 62
256
 10
415.398193359375000
 20
-191.148361206054690
 40
3.299999952316284
  1
  
 50
0.000002504478167
 41
1.485714400175845
  7
STANDARD1
  0
TEXT
  8
0
  6
CONTINUOUS
 62
256
 10
421.217681884765620
 20
-185.848358154296870
 40
3.299999952316284
  1
SHY032
 50
0.000002504478167
 41
0.813913121261144
  7
STANDARD1
  0
TEXT
  8
0
  6
CONTINUOUS
 62
256
 10
415.398193359375000
 20
-185.848358154296870
 40
3.299999952316284
  1
  
 50
0.000002504478167
 41
1.485714400175845
  7
STANDARD1
  0
ENDSEC
  0
EOF
