  0
SECTION
  2
HEADER
  9
$ACADVER
  1
AC1015
  9
$ACADMAINTVER
 70
     6
  9
$DWGCODEPAGE
  3
ANSI_932
  9
$INSBASE
 10
0.0
 20
0.0
 30
0.0
  9
$EXTMIN
 10
1.000000E+20
 20
1.000000E+20
 30
1.000000E+20
  9
$EXTMAX
 10
-1.000000E+20
 20
-1.000000E+20
 30
-1.000000E+20
  9
$LIMMIN
 10
0.0
 20
0.0
  9
$LIMMAX
 10
0.0
 20
0.0
  9
$ORTHOMODE
 70
     0
  9
$REGENMODE
 70
     1
  9
$FILLMODE
 70
     1
  9
$QTEXTMODE
 70
     0
  9
$MIRRTEXT
 70
     1
  9
$LTSCALE
 40
1.0
  9
$ATTMODE
 70
     1
  9
$TEXTSIZE
 40
3.2
  9
$TRACEWID
 40
0.05
  9
$TEXTSTYLE
  7
Standard
  9
$CLAYER
  8
0
  9
$CELTYPE
  6
Continuous
  9
$CECOLOR
 62
   256
  9
$CELTSCALE
 40
1.0
  9
$DISPSILH
 70
     0
  9
$DIMSCALE
 40
1.0
  9
$DIMASZ
 40
3.863703
  9
$DIMEXO
 40
1.0
  9
$DIMDLI
 40
0.38
  9
$DIMRND
 40
0.0
  9
$DIMDLE
 40
0.0
  9
$DIMEXE
 40
2.0
  9
$DIMTP
 40
0.0
  9
$DIMTM
 40
0.0
  9
$DIMTXT
 40
3.2
  9
$DIMCEN
 40
0.09
  9
$DIMTSZ
 40
0.0
  9
$DIMTOL
 70
     0
  9
$DIMLIM
 70
     0
  9
$DIMTIH
 70
     1
  9
$DIMTOH
 70
     1
  9
$DIMSE1
 70
     0
  9
$DIMSE2
 70
     0
  9
$DIMTAD
 70
     1
  9
$DIMZIN
 70
     0
  9
$DIMBLK
  1

  9
$DIMASO
 70
     1
  9
$DIMSHO
 70
     1
  9
$DIMPOST
  1

  9
$DIMAPOST
  1

  9
$DIMALT
 70
     0
  9
$DIMALTD
 70
     2
  9
$DIMALTF
 40
25.4
  9
$DIMLFAC
 40
1.0
  9
$DIMTOFL
 70
     0
  9
$DIMTVP
 40
0.0
  9
$DIMTIX
 70
     0
  9
$DIMSOXD
 70
     0
  9
$DIMSAH
 70
     0
  9
$DIMBLK1
  1

  9
$DIMBLK2
  1

  9
$DIMSTYLE
  2
Standard
  9
$DIMCLRD
 70
     0
  9
$DIMCLRE
 70
     0
  9
$DIMCLRT
 70
     0
  9
$DIMTFAC
 40
0.625
  9
$DIMGAP
 40
0.09
  9
$DIMJUST
 70
     0
  9
$DIMSD1
 70
     0
  9
$DIMSD2
 70
     0
  9
$DIMTOLJ
 70
     1
  9
$DIMTZIN
 70
     0
  9
$DIMALTZ
 70
     0
  9
$DIMALTTZ
 70
     0
  9
$DIMUPT
 70
     0
  9
$DIMDEC
 70
     4
  9
$DIMTDEC
 70
     4
  9
$DIMALTU
 70
     2
  9
$DIMALTTD
 70
     2
  9
$DIMTXSTY
  7
Standard
  9
$DIMAUNIT
 70
     0
  9
$DIMADEC
 70
     0
  9
$DIMALTRND
 40
0.0
  9
$DIMAZIN
 70
     0
  9
$DIMDSEP
 70
     0
  9
$DIMATFIT
 70
     3
  9
$DIMFRAC
 70
     0
  9
$DIMLDRBLK
  1

  9
$DIMLUNIT
 70
     2
  9
$DIMLWD
 70
     0
  9
$DIMLWE
 70
     0
  9
$DIMTMOVE
 70
     0
  9
$LUNITS
 70
     2
  9
$LUPREC
 70
     3
  9
$SKETCHINC
 40
0.1
  9
$FILLETRAD
 40
0.0
  9
$AUNITS
 70
     0
  9
$AUPREC
 70
     0
  9
$MENU
  1
acad
  9
$ELEVATION
 40
0.0
  9
$PELEVATION
 40
0.0
  9
$THICKNESS
 40
0.0
  9
$LIMCHECK
 70
     0
  9
$CHAMFERA
 40
0.0
  9
$CHAMFERB
 40
0.0
  9
$CHAMFERC
 40
0.0
  9
$CHAMFERD
 40
0.0
  9
$SKPOLY
 70
     0
  9
$TDCREATE
 40
0.000000000
  9
$TDUCREATE
 40
0.000000000
  9
$TDUPDATE
 40
0.000000000
  9
$TDUUPDATE
 40
0.000000000
  9
$TDINDWG
 40
0.0000000000
  9
$TDUSRTIMER
 40
0.0000000000
  9
$USRTIMER
 70
     1
  9
$ANGBASE
 50
0.0
  9
$ANGDIR
 70
     0
  9
$PDMODE
 70
     0
  9
$PDSIZE
 40
0.0
  9
$PLINEWID
 40
0.0
  9
$SPLFRAME
 70
     0
  9
$SPLINETYPE
 70
     6
  9
$SPLINESEGS
 70
     8
  9
$HANDSEED
  5
399
  9
$SURFTAB1
 70
     6
  9
$SURFTAB2
 70
     6
  9
$SURFTYPE
 70
     6
  9
$SURFU
 70
     6
  9
$SURFV
 70
     6
  9
$UCSBASE
  2

  9
$UCSNAME
  2

  9
$UCSORG
 10
0.0
 20
0.0
 30
0.0
  9
$UCSXDIR
 10
1.0
 20
0.0
 30
0.0
  9
$UCSYDIR
 10
0.0
 20
1.0
 30
0.0
  9
$UCSORTHOREF
  2

  9
$UCSORTHOVIEW
 70
     0
  9
$UCSORGTOP
 10
0.0
 20
0.0
 30
0.0
  9
$UCSORGBOTTOM
 10
0.0
 20
0.0
 30
0.0
  9
$UCSORGLEFT
 10
0.0
 20
0.0
 30
0.0
  9
$UCSORGRIGHT
 10
0.0
 20
0.0
 30
0.0
  9
$UCSORGFRONT
 10
0.0
 20
0.0
 30
0.0
  9
$UCSORGBACK
 10
0.0
 20
0.0
 30
0.0
  9
$PUCSBASE
  2

  9
$PUCSNAME
  2

  9
$PUCSORG
 10
0.0
 20
0.0
 30
0.0
  9
$PUCSXDIR
 10
1.0
 20
0.0
 30
0.0
  9
$PUCSYDIR
 10
0.0
 20
1.0
 30
0.0
  9
$PUCSORTHOREF
  2

  9
$PUCSORTHOVIEW
 70
     0
  9
$PUCSORGTOP
 10
0.0
 20
0.0
 30
0.0
  9
$PUCSORGBOTTOM
 10
0.0
 20
0.0
 30
0.0
  9
$PUCSORGLEFT
 10
0.0
 20
0.0
 30
0.0
  9
$PUCSORGRIGHT
 10
0.0
 20
0.0
 30
0.0
  9
$PUCSORGFRONT
 10
0.0
 20
0.0
 30
0.0
  9
$PUCSORGBACK
 10
0.0
 20
0.0
 30
0.0
  9
$USERI1
 70
     0
  9
$USERI2
 70
     0
  9
$USERI3
 70
     0
  9
$USERI4
 70
     0
  9
$USERI5
 70
     0
  9
$USERR1
 40
0.0
  9
$USERR2
 40
0.0
  9
$USERR3
 40
0.0
  9
$USERR4
 40
0.0
  9
$USERR5
 40
0.0
  9
$WORLDVIEW
 70
     1
  9
$SHADEDGE
 70
     3
  9
$SHADEDIF
 70
    70
  9
$TILEMODE
 70
     1
  9
$MAXACTVP
 70
    16
  9
$PINSBASE
 10
0.0
 20
0.0
 30
0.0
  9
$PLIMCHECK
 70
     0
  9
$PEXTMIN
 10
1.000000E+20
 20
1.000000E+20
 30
1.000000E+20
  9
$PEXTMAX
 10
-1.000000E+20
 20
-1.000000E+20
 30
-1.000000E+20
  9
$PLIMMIN
 10
0.0
 20
0.0
  9
$PLIMMAX
 10
12.0
 20
9.0
  9
$UNITMODE
 70
     0
  9
$VISRETAIN
 70
     0
  9
$PLINEGEN
 70
     1
  9
$PSLTSCALE
 70
     0
  9
$TREEDEPTH
 70
  3020
  9
$CMLSTYLE
  2
Standard
  9
$CMLJUST
 70
     0
  9
$CMLSCALE
 40
1.0
  9
$PROXYGRAPHICS
 70
     0
  9
$MEASUREMENT
 70
     0
  9
$CELWEIGHT
370
     0
  9
$ENDCAPS
280
     0
  9
$JOINSTYLE
280
     0
  9
$LWDISPLAY
290
     0
  9
$INSUNITS
 70
     0
  9
$HYPERLINKBASE
  1

  9
$STYLESHEET
  1

  9
$XEDIT
290
     1
  9
$CEPSNTYPE
380
     0
  9
$PSTYLEMODE
290
     1
  9
$FINGERPRINTGUID
  2

  9
$VERSIONGUID
  2

  9
$EXTNAMES
290
     1
  9
$PSVPSCALE
 40
0.0
  0
ENDSEC
  0
SECTION
  2
CLASSES
  0
CLASS
  1
LWPOLYLINE
  2
AcDbPolyline
  3
AutoCAD 2000
 90
        0
280
     0
281
     1
  0
CLASS
  1
IMAGE
  2
AcDbRasterImage
  3
ISM
 90
      127
280
     0
281
     1
  0
CLASS
  1
OLE2FRAME
  2
AcDbOle2Frame
  3
AutoCAD 2000
 90
        0
280
     0
281
     1
  0
CLASS
  1
HATCH
  2
AcDbHatch
  3
AutoCAD 2000
 90
        0
280
     0
281
     1
  0
CLASS
  1
DICTIONARYVAR
  2
AcDbDictionaryVar
  3
AutoCAD 2000
 90
        0
280
     0
281
     0
  0
CLASS
  1
RASTERVARIABLES
  2
AcDbRasterVariables
  3
ISM
 90
        0
280
     0
281
     0
  0
CLASS
  1
IMAGEDEF
  2
AcDbRasterImageDef
  3
ISM
 90
        0
280
     0
281
     0
  0
CLASS
  1
IMAGEDEF_REACTOR
  2
AcDbRasterImageDefReactor
  3
ISM
 90
        1
280
     0
281
     0
  0
CLASS
  1
IDBUFFER
  2
AcDbIdBuffer
  3
AutoCAD 2000
 90
        0
280
     0
281
     0
  0
CLASS
  1
SPATIAL_FILTER
  2
AcDbSpatialFilter
  3
AutoCAD 2000
 90
        0
280
     0
281
     0
  0
CLASS
  1
XRECORD
  2
AcDbXrecord
  3
AutoCAD 2000
 90
        0
280
     0
281
     0
  0
CLASS
  1
SORTENTSTABLE
  2
AcDbSortentsTable
  3
AutoCAD 2000
 90
        0
280
     0
281
     0
  0
CLASS
  1
LAYER_INDEX
  2
AcDbLayerIndex
  3
AutoCAD 2000
 90
        0
280
     0
281
     0
  0
CLASS
  1
SPATIAL_INDEX
  2
AcDbSpatialIndex
  3
AutoCAD 2000
 90
        0
280
     0
281
     0
  0
CLASS
  1
OBJECT_PTR
  2
CAseDLPNTableRecord
  3
"ASE-LPNTableRecord"
 90
        1
280
     0
281
     0
  0
CLASS
  1
LAYOUT
  2
AcDbLayout
  3
AutoCAD 2000
 90
        0
280
     0
281
     0
  0
CLASS
  1
PLOTSETTINGS
  2
AcDbPlotSettings
  3
AutoCAD 2000
 90
        0
280
     0
281
     0
  0
CLASS
  1
ACDBDICTIONARYWDFLT
  2
AcDbDictionaryWithDefault
  3
AutoCAD 2000
 90
        0
280
     0
281
     0
  0
CLASS
  1
ACDBPLACEHOLDER
  2
AcDbPlaceHolder
  3
AutoCAD 2000
 90
        0
280
     0
281
     0
  0
CLASS
  1
VBA_PROJECT
  2
AcDbVbaProject
  3
acadvba
 90
        0
280
     0
281
     0
  0
CLASS
  1
WIPEOUT
  2
AcDbWipeout
  3
WipeOut|AutoCAD Express Tool|expresstools@autodesk.com
 90
      127
280
     0
281
     1
  0
CLASS
  1
WIPEOUTVARIABLES
  2
AcDbWipeoutVariables
  3
WipeOut|AutoCAD Express Tool|expresstools@autodesk.com
 90
        0
280
     0
281
     0
  0
CLASS
  1
RTEXT
  2
RText
  3
RText|AutoCAD Express Tool|expresstools@autodesk.com
 90
        0
280
     0
281
     1
  0
CLASS
  1
ARCALIGNEDTEXT
  2
AcDbArcAlignedText
  3
ATEXT|AutoCAD Express Tool|expresstools@autodesk.com
 90
        0
280
     0
281
     1
  0
ENDSEC
  0
SECTION
  2
TABLES
  0
TABLE
  2
VPORT
  5
7
100
AcDbSymbolTable
 70
     1
  0
VPORT
  5
15
100
AcDbSymbolTableRecord
100
AcDbViewportTableRecord
  2
*ACTIVE
 70
     0
 10
0.0
 20
0.0
 11
1.0
 21
1.0
 12
0.0
 22
0.0
 13
0.0
 23
0.0
 14
1.0
 24
1.0
 15
0.0
 25
0.0
 16
0.0
 26
0.0
 36
1.0
 17
0.0
 27
0.0
 37
0.0
 40
100.0
 41
1.0
 42
50.0
 43
0.0
 44
0.0
 50
0.0
 51
0.0
 71
     0
 72
   100
 73
     1
 74
     1
 75
     0
 76
     0
 77
     0
 78
     0
281
     0
 65
     0
110
0.0
120
0.0
130
0.0
111
1.0
121
0.0
131
0.0
112
0.0
122
1.0
132
0.0
345
0
346
0
 79
     0
146
0.0
  0
ENDTAB
  0
TABLE
  2
LTYPE
  5
4
100
AcDbSymbolTable
 70
     7
  0
LTYPE
  5
11
100
AcDbSymbolTableRecord
100
AcDbLinetypeTableRecord
  2
ByBlock
 70
    64
  3

 72
    65
 73
     0
 40
0.0
  0
LTYPE
  5
12
100
AcDbSymbolTableRecord
100
AcDbLinetypeTableRecord
  2
ByLayer
 70
    64
  3

 72
    65
 73
     0
 40
0.0
  0
LTYPE
  5
13
100
AcDbSymbolTableRecord
100
AcDbLinetypeTableRecord
  2
Continuous
 70
    64
  3
Solid line
 72
    65
 73
     0
 40
0.0
  0
LTYPE
  5
24
100
AcDbSymbolTableRecord
100
AcDbLinetypeTableRecord
  2
DASHED
 70
    64
  3
Dashed __ __ __ __ __ __ __ __ __ __ __ __ __ _
 72
    65
 73
     2
 40
0.75
 49
0.5
 74
     0
 49
-0.25
 74
     0
  0
LTYPE
  5
25
100
AcDbSymbolTableRecord
100
AcDbLinetypeTableRecord
  2
CENTER
 70
    64
  3
Center ____ _ ____ _ ____ _ ____ _ ____ _ ____
 72
    65
 73
     4
 40
1.0
 49
0.5
 74
     0
 49
-0.25
 74
     0
 49
0.0
 74
     0
 49
-0.25
 74
     0
  0
LTYPE
  5
26
100
AcDbSymbolTableRecord
100
AcDbLinetypeTableRecord
  2
DIVIDE
 70
    64
  3
Divide ____ . . ____ . . ____ . . ____ . . ____
 72
    65
 73
     6
 40
1.25
 49
0.5
 74
     0
 49
-0.25
 74
     0
 49
0.0
 74
     0
 49
-0.25
 74
     0
 49
0.0
 74
     0
 49
-0.25
 74
     0
  0
LTYPE
  5
27
100
AcDbSymbolTableRecord
100
AcDbLinetypeTableRecord
  2
PHANTOM
 70
    64
  3
Phantom ______  __  __  ______  __  __  ______
 72
    65
 73
     6
 40
9.0
 49
4.3
 74
     0
 49
-0.7
 74
     0
 49
1.3
 74
     0
 49
-0.7
 74
     0
 49
1.3
 74
     0
 49
-0.7
 74
     0
  0
ENDTAB
  0
TABLE
  2
LAYER
  5
2
100
AcDbSymbolTable
 70
     4
  0
LAYER
  5
14
100
AcDbSymbolTableRecord
100
AcDbLayerTableRecord
  2
0
 70
    64
 62
    53
  6
Continuous
290
     1
370
    -3
390
1D
  0
LAYER
  5
28
100
AcDbSymbolTableRecord
100
AcDbLayerTableRecord
  2
1
 70
    64
 62
   102
  6
Continuous
290
     1
370
    -3
390
1D
  0
LAYER
  5
29
100
AcDbSymbolTableRecord
100
AcDbLayerTableRecord
  2
2
 70
    64
 62
    42
  6
Continuous
290
     1
370
    -3
390
1D
  0
LAYER
  5
2A
100
AcDbSymbolTableRecord
100
AcDbLayerTableRecord
  2
3
 70
    64
 62
    42
  6
Continuous
290
     1
370
    -3
390
1D
  0
ENDTAB
  0
TABLE
  2
STYLE
  5
3
100
AcDbSymbolTable
 70
     2
  0
STYLE
  5
17
100
AcDbSymbolTableRecord
100
AcDbTextStyleTableRecord
  2
Standard
 70
     0
 40
0.0
 41
1.0
 50
0.0
 71
     0
 42
0.0
  3
txt
  4

  0
STYLE
  5
29D
100
AcDbSymbolTableRecord
100
AcDbTextStyleTableRecord
  2
ZU_SHPTB00001
 70
     0
 40
0.0
 41
1.0
 50
0.0
 71
     0
 42
0.0
  3
monotxt
  4
bigfont
  0
ENDTAB
  0
TABLE
  2
VIEW
  5
5
100
AcDbSymbolTable
 70
     0
  0
ENDTAB
  0
TABLE
  2
UCS
  5
6
100
AcDbSymbolTable
 70
     0
  0
ENDTAB
  0
TABLE
  2
APPID
  5
8
100
AcDbSymbolTable
 70
     1
  0
APPID
  5
16
100
AcDbSymbolTableRecord
100
AcDbRegAppTableRecord
  2
ACAD
 70
     0
  0
ENDTAB
  0
TABLE
  2
DIMSTYLE
  5
9
100
AcDbSymbolTable
 70
     1
100
AcDbDimStyleTable
 71
     0
  0
DIMSTYLE
105
18
100
AcDbSymbolTableRecord
100
AcDbDimStyleTableRecord
  2
Standard
 70
     0
  3

  4

 40
1.0
 41
0.18
 42
0.0625
 43
0.38
 44
0.18
 45
0.0
 46
0.0
 47
0.0
 48
0.0
 71
     0
 72
     0
 73
     1
 74
     1
 75
     0
 76
     0
 77
     0
 78
     0
 79
     0
140
0.18
141
0.09
142
0.0
143
25.4
144
1.0
145
0.0
146
1.0
147
0.09
148
0.0
170
     0
171
     2
172
     0
173
     0
174
     0
175
     0
176
     0
177
     0
178
     0
179
     0
271
     4
272
     4
273
     2
274
     2
275
     0
276
     0
277
     2
278
    46
279
     0
280
     0
281
     0
282
     0
283
     1
284
     0
285
     0
286
     0
288
     0
289
     3
340
17
341
0
342
0
343
0
344
0
371
    -2
372
    -2
  0
ENDTAB
  0
TABLE
  2
BLOCK_RECORD
  5
1
100
AcDbSymbolTable
 70
     0
  0
BLOCK_RECORD
  5
A
100
AcDbSymbolTableRecord
100
AcDbBlockTableRecord
  2
*MODEL_SPACE
340
20
  0
BLOCK_RECORD
  5
B
100
AcDbSymbolTableRecord
100
AcDbBlockTableRecord
  2
*PAPER_SPACE
340
21
  0
ENDTAB
  0
ENDSEC
  0
SECTION
  2
BLOCKS
  0
BLOCK
  5
D
100
AcDbEntity
  8
0
390
0
100
AcDbBlockBegin
  2
*MODEL_SPACE
 70
     0
 10
0.0
 20
0.0
 30
0.0
  3
*MODEL_SPACE
  1

  0
ENDBLK
  5
E
100
AcDbEntity
  8
0
390
0
100
AcDbBlockEnd
  0
BLOCK
  5
F
100
AcDbEntity
 67
     1
  8
0
390
0
100
AcDbBlockBegin
  2
*PAPER_SPACE
 70
     0
 10
0.0
 20
0.0
 30
0.0
  3
*PAPER_SPACE
  1

  0
ENDBLK
  5
10
100
AcDbEntity
 67
     1
  8
0
390
0
100
AcDbBlockEnd
  0
ENDSEC
  0
SECTION
  2
ENTITIES
  0
CIRCLE
  5
2B
100
AcDbEntity
  8
0
370
    25
390
0
  6
Continuous
100
AcDbCircle
 10
-123.221205
 20
-155.977694
 30
0.0
 40
5.5
  0
CIRCLE
  5
2C
100
AcDbEntity
  8
0
370
    25
390
0
  6
Continuous
100
AcDbCircle
 10
-123.221205
 20
-155.977694
 30
0.0
 40
8.5
  0
CIRCLE
  5
2D
100
AcDbEntity
  8
0
370
    25
390
0
  6
Continuous
100
AcDbCircle
 10
10.778795
 20
-155.977694
 30
0.0
 40
5.5
  0
CIRCLE
  5
2E
100
AcDbEntity
  8
0
370
    25
390
0
  6
Continuous
100
AcDbCircle
 10
10.778795
 20
-155.977694
 30
0.0
 40
8.5
  0
CIRCLE
  5
2F
100
AcDbEntity
  8
0
370
    25
390
0
  6
Continuous
100
AcDbCircle
 10
10.778795
 20
-33.977694
 30
0.0
 40
5.5
  0
CIRCLE
  5
30
100
AcDbEntity
  8
0
370
    25
390
0
  6
Continuous
100
AcDbCircle
 10
10.778795
 20
-33.977694
 30
0.0
 40
8.5
  0
CIRCLE
  5
31
100
AcDbEntity
  8
0
370
    25
390
0
  6
Continuous
100
AcDbCircle
 10
-123.221205
 20
-33.977694
 30
0.0
 40
8.5
  0
CIRCLE
  5
32
100
AcDbEntity
  8
0
370
    25
390
0
  6
Continuous
100
AcDbCircle
 10
-123.221205
 20
-33.977694
 30
0.0
 40
5.5
  0
LINE
  5
33
100
AcDbEntity
  8
0
370
    25
390
0
  6
Continuous
100
AcDbLine
 10
47.278795
 20
133.601804
 30
0.0
 11
52.278795
 21
133.601804
 31
0.0
  0
POINT
  5
34
100
AcDbEntity
  8
0
370
    25
390
0
  6
DASHED
100
AcDbPoint
 10
-214.480313
 20
-67.977694
 30
0.0
  0
ARC
  5
35
100
AcDbEntity
  8
0
370
    25
390
0
  6
Continuous
100
AcDbCircle
 10
-214.480313
 20
-81.977694
 30
0.0
 40
14.0
100
AcDbArc
 50
106.60155
 51
73.39845
  0
LINE
  5
36
100
AcDbEntity
  8
0
370
    25
390
0
  6
Continuous
100
AcDbLine
 10
-210.480313
 20
-64.977694
 30
0.0
 11
-210.480313
 21
-71.977694
 31
0.0
  0
LINE
  5
37
100
AcDbEntity
  8
0
370
    25
390
0
  6
Continuous
100
AcDbLine
 10
-218.480313
 20
-71.977694
 30
0.0
 11
-210.480313
 21
-71.977694
 31
0.0
  0
LINE
  5
38
100
AcDbEntity
  8
0
370
    25
390
0
  6
Continuous
100
AcDbLine
 10
-218.480313
 20
-64.977694
 30
0.0
 11
-218.480313
 21
-71.977694
 31
0.0
  0
LINE
  5
39
100
AcDbEntity
  8
0
370
    25
390
0
  6
Continuous
100
AcDbLine
 10
-218.480313
 20
-64.977694
 30
0.0
 11
-210.480313
 21
-64.977694
 31
0.0
  0
LINE
  5
3A
100
AcDbEntity
  8
0
370
    25
390
0
  6
CENTER
100
AcDbLine
 10
-214.480313
 20
-103.026017
 30
0.0
 11
-214.480313
 21
-61.294426
 31
0.0
  0
LINE
  5
3B
100
AcDbEntity
  8
0
370
    25
390
0
  6
CENTER
100
AcDbLine
 10
-233.683243
 20
-81.977694
 30
0.0
 11
-191.951653
 21
-81.977694
 31
0.0
  0
CIRCLE
  5
3C
100
AcDbEntity
  8
0
370
    25
390
0
  6
Continuous
100
AcDbCircle
 10
-214.480313
 20
-81.977694
 30
0.0
 40
3.5
  0
CIRCLE
  5
3D
100
AcDbEntity
  8
0
370
    25
390
0
  6
Continuous
100
AcDbCircle
 10
-214.480313
 20
-81.977694
 30
0.0
 40
4.0
  0
LINE
  5
3E
100
AcDbEntity
  8
0
370
    25
390
0
  6
CENTER
100
AcDbLine
 10
-281.443672
 20
-81.977694
 30
0.0
 11
-448.589576
 21
-81.977694
 31
0.0
  0
LINE
  5
3F
100
AcDbEntity
  8
0
370
    25
390
0
  6
Continuous
100
AcDbLine
 10
-437.298311
 20
-77.460239
 30
0.0
 11
-437.298311
 21
-116.460239
 31
0.0
  0
LINE
  5
40
100
AcDbEntity
  8
0
370
    25
390
0
  6
Continuous
100
AcDbLine
 10
-331.298311
 20
-116.460239
 30
0.0
 11
-331.298311
 21
-77.460239
 31
0.0
  0
ARC
  5
41
100
AcDbEntity
  8
0
370
    25
390
0
  6
Continuous
100
AcDbCircle
 10
-357.298311
 20
-124.460239
 30
0.0
 40
25.0
100
AcDbArc
 50
331.642363
 51
354.269825
  0
ARC
  5
42
100
AcDbEntity
  8
0
370
    25
390
0
  6
Continuous
100
AcDbCircle
 10
-411.298311
 20
-124.460239
 30
0.0
 40
25.0
100
AcDbArc
 50
185.730175
 51
208.357637
  0
ARC
  5
43
100
AcDbEntity
  8
0
370
    25
390
0
  6
Continuous
100
AcDbCircle
 10
-36.298311
 20
-116.960239
 30
0.0
 40
400.0
100
AcDbArc
 50
181.07686
 51
181.431984
  0
ARC
  5
44
100
AcDbEntity
  8
0
370
    25
390
0
  6
Continuous
100
AcDbCircle
 10
-732.298311
 20
-116.960239
 30
0.0
 40
400.0
100
AcDbArc
 50
358.568016
 51
358.849006
  0
ARC
  5
45
100
AcDbEntity
  8
0
370
    25
390
0
  6
DASHED
100
AcDbCircle
 10
-331.798311
 20
-116.460239
 30
0.0
 40
0.5
100
AcDbArc
 50
270.0
 51
0.0
  0
ARC
  5
46
100
AcDbEntity
  8
0
370
    25
390
0
  6
DASHED
100
AcDbCircle
 10
-732.298311
 20
-116.960239
 30
0.0
 40
400.0
100
AcDbArc
 50
358.849006
 51
359.92847
  0
ARC
  5
47
100
AcDbEntity
  8
0
370
    25
390
0
  6
DASHED
100
AcDbCircle
 10
-357.298311
 20
-124.460239
 30
0.0
 40
25.0
100
AcDbArc
 50
275.730175
 51
331.642363
  0
ARC
  5
48
100
AcDbEntity
  8
0
370
    25
390
0
  6
DASHED
100
AcDbCircle
 10
-411.298311
 20
-124.460239
 30
0.0
 40
25.0
100
AcDbArc
 50
208.357637
 51
264.269825
  0
LINE
  5
49
100
AcDbEntity
  8
0
370
    25
390
0
  6
DASHED
100
AcDbLine
 10
-364.798311
 20
-43.460239
 30
0.0
 11
-403.798311
 21
-43.460239
 31
0.0
  0
ARC
  5
4A
100
AcDbEntity
  8
0
370
    25
390
0
  6
DASHED
100
AcDbCircle
 10
-364.798311
 20
-444.460239
 30
0.0
 40
400.0
100
AcDbArc
 50
89.140459
 51
89.92847
  0
ARC
  5
4B
100
AcDbEntity
  8
0
370
    25
390
0
  6
DASHED
100
AcDbCircle
 10
-357.298311
 20
-69.460239
 30
0.0
 40
25.0
100
AcDbArc
 50
5.730175
 51
93.43865
  0
ARC
  5
4C
100
AcDbEntity
  8
0
370
    25
390
0
  6
DASHED
100
AcDbCircle
 10
-364.798311
 20
-43.960239
 30
0.0
 40
0.5
100
AcDbArc
 50
0.0
 51
90.0
  0
ARC
  5
4D
100
AcDbEntity
  8
0
370
    25
390
0
  6
DASHED
100
AcDbCircle
 10
-363.798311
 20
-43.960239
 30
0.0
 40
0.5
100
AcDbArc
 50
180.0
 51
270.0
  0
ARC
  5
4E
100
AcDbEntity
  8
0
370
    25
390
0
  6
DASHED
100
AcDbCircle
 10
-732.298311
 20
-76.960239
 30
0.0
 40
400.0
100
AcDbArc
 50
0.053
 51
1.431984
  0
ARC
  5
4F
100
AcDbEntity
  8
0
370
    25
390
0
  6
DASHED
100
AcDbCircle
 10
-331.798311
 20
-76.460239
 30
0.0
 40
0.5
100
AcDbArc
 50
180.0
 51
270.0
  0
ARC
  5
50
100
AcDbEntity
  8
0
370
    25
390
0
  6
DASHED
100
AcDbCircle
 10
-331.798311
 20
-117.460239
 30
0.0
 40
0.5
100
AcDbArc
 50
90.0
 51
180.0
  0
ARC
  5
51
100
AcDbEntity
  8
0
370
    25
390
0
  6
DASHED
100
AcDbCircle
 10
-364.798311
 20
250.539761
 30
0.0
 40
400.0
100
AcDbArc
 50
270.07153
 51
271.431984
  0
ARC
  5
52
100
AcDbEntity
  8
0
370
    25
390
0
  6
DASHED
100
AcDbCircle
 10
-363.798311
 20
-149.960239
 30
0.0
 40
0.5
100
AcDbArc
 50
90.0
 51
180.0
  0
LINE
  5
53
100
AcDbEntity
  8
0
370
    25
390
0
  6
DASHED
100
AcDbLine
 10
-403.798311
 20
-150.460239
 30
0.0
 11
-364.798311
 21
-150.460239
 31
0.0
  0
ARC
  5
54
100
AcDbEntity
  8
0
370
    25
390
0
  6
DASHED
100
AcDbCircle
 10
-364.798311
 20
-149.960239
 30
0.0
 40
0.5
100
AcDbArc
 50
270.0
 51
0.0
  0
ARC
  5
55
100
AcDbEntity
  8
0
370
    25
390
0
  6
DASHED
100
AcDbCircle
 10
-403.798311
 20
250.539761
 30
0.0
 40
400.0
100
AcDbArc
 50
268.568016
 51
269.92847
  0
ARC
  5
56
100
AcDbEntity
  8
0
370
    25
390
0
  6
DASHED
100
AcDbCircle
 10
-404.798311
 20
-149.960239
 30
0.0
 40
0.5
100
AcDbArc
 50
0.0
 51
90.0
  0
ARC
  5
57
100
AcDbEntity
  8
0
370
    25
390
0
  6
DASHED
100
AcDbCircle
 10
-403.798311
 20
-149.960239
 30
0.0
 40
0.5
100
AcDbArc
 50
180.0
 51
270.0
  0
ARC
  5
58
100
AcDbEntity
  8
0
370
    25
390
0
  6
DASHED
100
AcDbCircle
 10
-436.798311
 20
-116.460239
 30
0.0
 40
0.5
100
AcDbArc
 50
180.0
 51
270.0
  0
ARC
  5
59
100
AcDbEntity
  8
0
370
    25
390
0
  6
DASHED
100
AcDbCircle
 10
-436.798311
 20
-117.460239
 30
0.0
 40
0.5
100
AcDbArc
 50
0.0
 51
90.0
  0
ARC
  5
5A
100
AcDbEntity
  8
0
370
    25
390
0
  6
DASHED
100
AcDbCircle
 10
-36.298311
 20
-76.960239
 30
0.0
 40
400.0
100
AcDbArc
 50
178.568016
 51
179.92847
  0
ARC
  5
5B
100
AcDbEntity
  8
0
370
    25
390
0
  6
DASHED
100
AcDbCircle
 10
-436.798311
 20
-77.460239
 30
0.0
 40
0.5
100
AcDbArc
 50
90.0
 51
180.0
  0
ARC
  5
5C
100
AcDbEntity
  8
0
370
    25
390
0
  6
DASHED
100
AcDbCircle
 10
-436.798311
 20
-76.460239
 30
0.0
 40
0.5
100
AcDbArc
 50
270.0
 51
0.0
  0
ARC
  5
5D
100
AcDbEntity
  8
0
370
    25
390
0
  6
DASHED
100
AcDbCircle
 10
-411.298311
 20
-69.460239
 30
0.0
 40
25.0
100
AcDbArc
 50
86.56135
 51
174.269825
  0
ARC
  5
5E
100
AcDbEntity
  8
0
370
    25
390
0
  6
DASHED
100
AcDbCircle
 10
-403.798311
 20
-444.460239
 30
0.0
 40
400.0
100
AcDbArc
 50
90.07153
 51
90.859541
  0
ARC
  5
5F
100
AcDbEntity
  8
0
370
    25
390
0
  6
DASHED
100
AcDbCircle
 10
-404.798311
 20
-43.960239
 30
0.0
 40
0.5
100
AcDbArc
 50
270.0
 51
0.0
  0
ARC
  5
60
100
AcDbEntity
  8
0
370
    25
390
0
  6
DASHED
100
AcDbCircle
 10
-403.798311
 20
-43.960239
 30
0.0
 40
0.5
100
AcDbArc
 50
90.0
 51
180.0
  0
LINE
  5
61
100
AcDbEntity
  8
0
370
    25
390
0
  6
CENTER
100
AcDbLine
 10
-384.298311
 20
-172.311873
 30
0.0
 11
-384.298311
 21
-6.942702
 31
0.0
  0
LINE
  5
62
100
AcDbEntity
  8
0
370
    25
390
0
  6
CENTER
100
AcDbLine
 10
-375.300462
 20
-96.960239
 30
0.0
 11
-395.288402
 21
-96.960239
 31
0.0
  0
LINE
  5
63
100
AcDbEntity
  8
0
370
    25
390
0
  6
Continuous
100
AcDbLine
 10
-421.298311
 20
-20.951512
 30
0.0
 11
-421.298311
 21
-168.968967
 31
0.0
  0
LINE
  5
64
100
AcDbEntity
  8
0
370
    25
390
0
  6
Continuous
100
AcDbLine
 10
-437.298311
 20
-124.477694
 30
0.0
 11
-433.298311
 21
-124.477694
 31
0.0
  0
LINE
  5
65
100
AcDbEntity
  8
0
370
    25
390
0
  6
Continuous
100
AcDbLine
 10
-433.298311
 20
-136.334581
 30
0.0
 11
-433.298311
 21
-21.187155
 31
0.0
  0
LINE
  5
66
100
AcDbEntity
  8
0
370
    25
390
0
  6
Continuous
100
AcDbLine
 10
-335.298311
 20
-136.334581
 30
0.0
 11
-335.298311
 21
-22.295552
 31
0.0
  0
LINE
  5
67
100
AcDbEntity
  8
0
370
    25
390
0
  6
Continuous
100
AcDbLine
 10
-433.298311
 20
-168.768233
 30
0.0
 11
-433.298311
 21
-136.334581
 31
0.0
  0
LINE
  5
68
100
AcDbEntity
  8
0
370
    25
390
0
  6
Continuous
100
AcDbLine
 10
-437.298311
 20
-39.477694
 30
0.0
 11
-437.298311
 21
-124.477694
 31
0.0
  0
LINE
  5
69
100
AcDbEntity
  8
0
370
    25
390
0
  6
Continuous
100
AcDbLine
 10
-335.298311
 20
-167.624927
 30
0.0
 11
-335.298311
 21
-136.334581
 31
0.0
  0
LINE
  5
6A
100
AcDbEntity
  8
0
370
    25
390
0
  6
Continuous
100
AcDbLine
 10
-421.298311
 20
-168.968967
 30
0.0
 11
-345.298311
 21
-167.624927
 31
0.0
  0
LINE
  5
6B
100
AcDbEntity
  8
0
370
    25
390
0
  6
Continuous
100
AcDbLine
 10
-345.298311
 20
-167.624927
 30
0.0
 11
-335.298311
 21
-167.624927
 31
0.0
  0
LINE
  5
6C
100
AcDbEntity
  8
0
370
    25
390
0
  6
Continuous
100
AcDbLine
 10
-345.298311
 20
-22.295552
 30
0.0
 11
-335.298311
 21
-22.295552
 31
0.0
  0
LINE
  5
6D
100
AcDbEntity
  8
0
370
    25
390
0
  6
Continuous
100
AcDbLine
 10
-433.298311
 20
-21.187155
 30
0.0
 11
-421.298311
 21
-20.977694
 31
0.0
  0
LINE
  5
6E
100
AcDbEntity
  8
0
370
    25
390
0
  6
Continuous
100
AcDbLine
 10
-421.298311
 20
-20.951512
 30
0.0
 11
-345.298311
 21
-22.295552
 31
0.0
  0
LINE
  5
6F
100
AcDbEntity
  8
0
370
    25
390
0
  6
Continuous
100
AcDbLine
 10
-437.298311
 20
-39.477694
 30
0.0
 11
-433.298311
 21
-39.477694
 31
0.0
  0
LINE
  5
70
100
AcDbEntity
  8
0
370
    25
390
0
  6
Continuous
100
AcDbLine
 10
-421.298311
 20
-168.977694
 30
0.0
 11
-433.298311
 21
-168.768233
 31
0.0
  0
LINE
  5
71
100
AcDbEntity
  8
0
370
    25
390
0
  6
Continuous
100
AcDbLine
 10
-331.298311
 20
-124.477694
 30
0.0
 11
-331.298311
 21
-39.477694
 31
0.0
  0
LINE
  5
72
100
AcDbEntity
  8
0
370
    25
390
0
  6
Continuous
100
AcDbLine
 10
-335.298311
 20
-39.477694
 30
0.0
 11
-331.298311
 21
-39.477694
 31
0.0
  0
LINE
  5
73
100
AcDbEntity
  8
0
370
    25
390
0
  6
Continuous
100
AcDbLine
 10
-335.298311
 20
-124.477694
 30
0.0
 11
-331.298311
 21
-124.477694
 31
0.0
  0
ARC
  5
74
100
AcDbEntity
  8
0
370
    25
390
0
  6
DASHED
100
AcDbCircle
 10
-36.298311
 20
-116.960239
 30
0.0
 40
400.0
100
AcDbArc
 50
180.07153
 51
181.150994
  0
ARC
  5
75
100
AcDbEntity
  8
0
370
    25
390
0
  6
Continuous
100
AcDbCircle
 10
-359.298311
 20
-16.02147
 30
0.0
 40
5.0
100
AcDbArc
 50
0.0
 51
85.138595
  0
ARC
  5
76
100
AcDbEntity
  8
0
370
    25
390
0
  6
Continuous
100
AcDbCircle
 10
-409.298311
 20
-16.02147
 30
0.0
 40
5.0
100
AcDbArc
 50
94.861405
 51
180.0
  0
LINE
  5
77
100
AcDbEntity
  8
0
370
    25
390
0
  6
Continuous
100
AcDbLine
 10
-354.298311
 20
-22.136389
 30
0.0
 11
-354.298311
 21
-16.02147
 31
0.0
  0
LINE
  5
78
100
AcDbEntity
  8
0
370
    25
390
0
  6
Continuous
100
AcDbLine
 10
-414.298311
 20
-21.075305
 30
0.0
 11
-414.298311
 21
-16.02147
 31
0.0
  0
ARC
  5
79
100
AcDbEntity
  8
0
370
    25
390
0
  6
Continuous
100
AcDbCircle
 10
-384.298311
 20
-309.960239
 30
0.0
 40
300.0
100
AcDbArc
 50
85.138595
 51
94.861405
  0
LINE
  5
7A
100
AcDbEntity
  8
0
370
    25
390
0
  6
Continuous
100
AcDbLine
 10
-386.798311
 20
-9.970656
 30
0.0
 11
-386.798311
 21
-9.460239
 31
0.0
  0
LINE
  5
7B
100
AcDbEntity
  8
0
370
    25
390
0
  6
Continuous
100
AcDbLine
 10
-381.798311
 20
-9.970656
 30
0.0
 11
-381.798311
 21
-9.460239
 31
0.0
  0
LINE
  5
7C
100
AcDbEntity
  8
0
370
    25
390
0
  6
Continuous
100
AcDbLine
 10
-381.798311
 20
-9.460239
 30
0.0
 11
-386.798311
 21
-9.460239
 31
0.0
  0
ARC
  5
7D
100
AcDbEntity
  8
0
370
    25
390
0
  6
Continuous
100
AcDbCircle
 10
-730.898311
 20
-96.960239
 30
0.0
 40
400.6
100
AcDbArc
 50
0.0
 51
0.069016
  0
LINE
  5
7E
100
AcDbEntity
  8
0
370
    25
390
0
  6
Continuous
100
AcDbLine
 10
-335.298311
 20
-142.146862
 30
0.0
 11
-334.20946
 21
-141.058011
 31
0.0
  0
ARC
  5
7F
100
AcDbEntity
  8
0
370
    25
390
0
  6
Continuous
100
AcDbCircle
 10
-730.898311
 20
-96.960239
 30
0.0
 40
400.6
100
AcDbArc
 50
354.256318
 51
0.0
  0
ARC
  5
80
100
AcDbEntity
  8
0
370
    25
390
0
  6
Continuous
100
AcDbCircle
 10
-338.876365
 20
-136.391106
 30
0.0
 40
6.6
100
AcDbArc
 50
315.0
 51
354.256318
  0
ARC
  5
81
100
AcDbEntity
  8
0
370
    25
390
0
  6
Continuous
100
AcDbCircle
 10
-37.698311
 20
-96.960239
 30
0.0
 40
400.6
100
AcDbArc
 50
175.950769
 51
180.0
  0
LINE
  5
82
100
AcDbEntity
  8
0
370
    25
390
0
  6
Continuous
100
AcDbLine
 10
-433.298311
 20
-142.146862
 30
0.0
 11
-434.387163
 21
-141.058011
 31
0.0
  0
ARC
  5
83
100
AcDbEntity
  8
0
370
    25
390
0
  6
Continuous
100
AcDbCircle
 10
-37.698311
 20
-96.960239
 30
0.0
 40
400.6
100
AcDbArc
 50
180.0
 51
185.743682
  0
ARC
  5
84
100
AcDbEntity
  8
0
370
    25
390
0
  6
Continuous
100
AcDbCircle
 10
-429.720258
 20
-136.391106
 30
0.0
 40
6.6
100
AcDbArc
 50
185.743682
 51
225.0
  0
LINE
  5
85
100
AcDbEntity
  8
0
370
    25
390
0
  6
Continuous
100
AcDbLine
 10
-329.298311
 20
-95.977694
 30
0.0
 11
-284.298311
 21
-95.977694
 31
0.0
  0
LINE
  5
86
100
AcDbEntity
  8
0
370
    25
390
0
  6
Continuous
100
AcDbLine
 10
-329.298311
 20
-81.977694
 30
0.0
 11
-329.298311
 21
-96.477694
 31
0.0
  0
LINE
  5
87
100
AcDbEntity
  8
0
370
    25
390
0
  6
Continuous
100
AcDbLine
 10
-329.298311
 20
-81.977694
 30
0.0
 11
-329.298311
 21
-96.477694
 31
0.0
  0
LINE
  5
88
100
AcDbEntity
  8
0
370
    25
390
0
  6
Continuous
100
AcDbLine
 10
-329.298311
 20
-67.977694
 30
0.0
 11
-284.298311
 21
-67.977694
 31
0.0
  0
LINE
  5
89
100
AcDbEntity
  8
0
370
    25
390
0
  6
Continuous
100
AcDbLine
 10
-329.298311
 20
-81.977694
 30
0.0
 11
-329.298311
 21
-67.477694
 31
0.0
  0
LINE
  5
8A
100
AcDbEntity
  8
0
370
    25
390
0
  6
Continuous
100
AcDbLine
 10
-329.298311
 20
-81.977694
 30
0.0
 11
-329.298311
 21
-67.477694
 31
0.0
  0
LINE
  5
8B
100
AcDbEntity
  8
0
370
    25
390
0
  6
Continuous
100
AcDbLine
 10
-329.298311
 20
-67.477694
 30
0.0
 11
-331.298311
 21
-67.477694
 31
0.0
  0
LINE
  5
8C
100
AcDbEntity
  8
0
370
    25
390
0
  6
Continuous
100
AcDbLine
 10
-329.298311
 20
-96.477694
 30
0.0
 11
-331.298311
 21
-96.477694
 31
0.0
  0
LINE
  5
8D
100
AcDbEntity
  8
0
370
    25
390
0
  6
Continuous
100
AcDbLine
 10
-320.298311
 20
-64.977694
 30
0.0
 11
-284.298311
 21
-64.977694
 31
0.0
  0
LINE
  5
8E
100
AcDbEntity
  8
0
370
    25
390
0
  6
Continuous
100
AcDbLine
 10
-320.298311
 20
-67.977694
 30
0.0
 11
-320.298311
 21
-64.977694
 31
0.0
  0
LINE
  5
8F
100
AcDbEntity
  8
0
370
    25
390
0
  6
Continuous
100
AcDbLine
 10
-284.298311
 20
-81.977694
 30
0.0
 11
-284.298311
 21
-95.977694
 31
0.0
  0
LINE
  5
90
100
AcDbEntity
  8
0
370
    25
390
0
  6
Continuous
100
AcDbLine
 10
-284.298311
 20
-81.977694
 30
0.0
 11
-284.298311
 21
-64.977694
 31
0.0
  0
LINE
  5
91
100
AcDbEntity
  8
0
370
    25
390
0
  6
CENTER
100
AcDbLine
 10
-434.744396
 20
-33.977694
 30
0.0
 11
-333.661182
 21
-33.977694
 31
0.0
  0
LINE
  5
92
100
AcDbEntity
  8
0
370
    25
390
0
  6
CENTER
100
AcDbLine
 10
-434.744396
 20
-155.977694
 30
0.0
 11
-333.661182
 21
-155.977694
 31
0.0
  0
LINE
  5
93
100
AcDbEntity
  8
0
370
    25
390
0
  6
Continuous
100
AcDbLine
 10
52.278795
 20
-96.977694
 30
0.0
 11
52.278795
 21
-150.460239
 31
0.0
  0
LINE
  5
94
100
AcDbEntity
  8
0
370
    25
390
0
  6
Continuous
100
AcDbLine
 10
52.278795
 20
-96.977694
 30
0.0
 11
52.278795
 21
-43.495149
 31
0.0
  0
LINE
  5
95
100
AcDbEntity
  8
0
370
    25
390
0
  6
Continuous
100
AcDbLine
 10
-134.621205
 20
-159.977694
 30
0.0
 11
-134.621205
 21
-29.977694
 31
0.0
  0
ARC
  5
96
100
AcDbEntity
  8
0
370
    25
390
0
  6
Continuous
100
AcDbCircle
 10
-127.221205
 20
-29.977694
 30
0.0
 40
7.4
100
AcDbArc
 50
90.0
 51
180.0
  0
LINE
  5
97
100
AcDbEntity
  8
0
370
    25
390
0
  6
Continuous
100
AcDbLine
 10
-127.221205
 20
-22.577694
 30
0.0
 11
14.778795
 21
-22.577694
 31
0.0
  0
ARC
  5
98
100
AcDbEntity
  8
0
370
    25
390
0
  6
Continuous
100
AcDbCircle
 10
-127.221205
 20
-159.977694
 30
0.0
 40
7.4
100
AcDbArc
 50
180.0
 51
270.0
  0
LINE
  5
99
100
AcDbEntity
  8
0
370
    25
390
0
  6
Continuous
100
AcDbLine
 10
14.778795
 20
-167.377694
 30
0.0
 11
-127.221205
 21
-167.377694
 31
0.0
  0
ARC
  5
9A
100
AcDbEntity
  8
0
370
    25
390
0
  6
Continuous
100
AcDbCircle
 10
14.778795
 20
-159.977694
 30
0.0
 40
7.4
100
AcDbArc
 50
270.0
 51
0.0
  0
LINE
  5
9B
100
AcDbEntity
  8
0
370
    25
390
0
  6
Continuous
100
AcDbLine
 10
22.178795
 20
-29.977694
 30
0.0
 11
22.178795
 21
-159.977694
 31
0.0
  0
ARC
  5
9C
100
AcDbEntity
  8
0
370
    25
390
0
  6
Continuous
100
AcDbCircle
 10
14.778795
 20
-29.977694
 30
0.0
 40
7.4
100
AcDbArc
 50
0.0
 51
90.0
  0
ARC
  5
9D
100
AcDbEntity
  8
0
370
    25
390
0
  6
Continuous
100
AcDbCircle
 10
37.278795
 20
-55.477694
 30
0.0
 40
3.0
100
AcDbArc
 50
90.0
 51
180.0
  0
ARC
  5
9E
100
AcDbEntity
  8
0
370
    25
390
0
  6
Continuous
100
AcDbCircle
 10
37.278795
 20
-58.548043
 30
0.0
 40
3.0
100
AcDbArc
 50
90.0
 51
180.0
  0
ARC
  5
9F
100
AcDbEntity
  8
0
370
    25
390
0
  6
Continuous
100
AcDbCircle
 10
37.278795
 20
-138.477694
 30
0.0
 40
3.0
100
AcDbArc
 50
180.0
 51
270.0
  0
ARC
  5
A0
100
AcDbEntity
  8
0
370
    25
390
0
  6
Continuous
100
AcDbCircle
 10
37.278795
 20
-135.407346
 30
0.0
 40
3.0
100
AcDbArc
 50
180.0
 51
270.0
  0
ARC
  5
A1
100
AcDbEntity
  8
0
370
    25
390
0
  6
Continuous
100
AcDbCircle
 10
37.278795
 20
-147.704156
 30
0.0
 40
3.0
100
AcDbArc
 50
180.0
 51
271.0
  0
ARC
  5
A2
100
AcDbEntity
  8
0
370
    25
390
0
  6
Continuous
100
AcDbCircle
 10
37.278795
 20
-46.251233
 30
0.0
 40
3.0
100
AcDbArc
 50
89.0
 51
180.0
  0
LINE
  5
A3
100
AcDbEntity
  8
0
370
    25
390
0
  6
Continuous
100
AcDbLine
 10
34.278795
 20
-46.251233
 30
0.0
 11
34.278795
 21
-147.704156
 31
0.0
  0
CIRCLE
  5
A4
100
AcDbEntity
  8
0
370
    25
390
0
  6
Continuous
100
AcDbCircle
 10
-75.221205
 20
-81.977694
 30
0.0
 40
47.0
  0
ARC
  5
A5
100
AcDbEntity
  8
0
370
    25
390
0
  6
Continuous
100
AcDbCircle
 10
-100.888494
 20
-150.477694
 30
0.0
 40
10.0
100
AcDbArc
 50
193.835224
 51
270.0
  0
ARC
  5
A6
100
AcDbEntity
  8
0
370
    25
390
0
  6
Continuous
100
AcDbCircle
 10
-123.221205
 20
-155.977694
 30
0.0
 40
13.0
100
AcDbArc
 50
13.835224
 51
76.164776
  0
ARC
  5
A7
100
AcDbEntity
  8
0
370
    25
390
0
  6
Continuous
100
AcDbCircle
 10
-117.721205
 20
-133.644983
 30
0.0
 40
10.0
100
AcDbArc
 50
180.0
 51
256.164776
  0
ARC
  5
A8
100
AcDbEntity
  8
0
370
    25
390
0
  6
Continuous
100
AcDbCircle
 10
-117.721205
 20
-56.310406
 30
0.0
 40
10.0
100
AcDbArc
 50
103.835224
 51
180.0
  0
ARC
  5
A9
100
AcDbEntity
  8
0
370
    25
390
0
  6
Continuous
100
AcDbCircle
 10
-123.221205
 20
-33.977694
 30
0.0
 40
13.0
100
AcDbArc
 50
283.835224
 51
346.164776
  0
ARC
  5
AA
100
AcDbEntity
  8
0
370
    25
390
0
  6
Continuous
100
AcDbCircle
 10
-100.888494
 20
-39.477694
 30
0.0
 40
10.0
100
AcDbArc
 50
90.0
 51
166.164776
  0
ARC
  5
AB
100
AcDbEntity
  8
0
370
    25
390
0
  6
Continuous
100
AcDbCircle
 10
-11.553917
 20
-150.477694
 30
0.0
 40
7.5
100
AcDbArc
 50
270.0
 51
346.164776
  0
ARC
  5
AC
100
AcDbEntity
  8
0
370
    25
390
0
  6
Continuous
100
AcDbCircle
 10
-11.553917
 20
-39.477694
 30
0.0
 40
7.5
100
AcDbArc
 50
13.835224
 51
90.0
  0
ARC
  5
AD
100
AcDbEntity
  8
0
370
    25
390
0
  6
Continuous
100
AcDbCircle
 10
-100.888494
 20
-39.477694
 30
0.0
 40
7.5
100
AcDbArc
 50
90.0
 51
166.164776
  0
ARC
  5
AE
100
AcDbEntity
  8
0
370
    25
390
0
  6
Continuous
100
AcDbCircle
 10
-123.221205
 20
-33.977694
 30
0.0
 40
15.5
100
AcDbArc
 50
283.835224
 51
346.164776
  0
ARC
  5
AF
100
AcDbEntity
  8
0
370
    25
390
0
  6
Continuous
100
AcDbCircle
 10
-117.721205
 20
-56.310406
 30
0.0
 40
7.5
100
AcDbArc
 50
103.835224
 51
180.0
  0
ARC
  5
B0
100
AcDbEntity
  8
0
370
    25
390
0
  6
Continuous
100
AcDbCircle
 10
-117.721205
 20
-133.644983
 30
0.0
 40
7.5
100
AcDbArc
 50
180.0
 51
256.164776
  0
ARC
  5
B1
100
AcDbEntity
  8
0
370
    25
390
0
  6
Continuous
100
AcDbCircle
 10
-123.221205
 20
-155.977694
 30
0.0
 40
15.5
100
AcDbArc
 50
13.835224
 51
76.164776
  0
ARC
  5
B2
100
AcDbEntity
  8
0
370
    25
390
0
  6
Continuous
100
AcDbCircle
 10
-100.888494
 20
-150.477694
 30
0.0
 40
7.5
100
AcDbArc
 50
193.835224
 51
270.0
  0
CIRCLE
  5
B3
100
AcDbEntity
  8
0
370
    25
390
0
  6
Continuous
100
AcDbCircle
 10
-75.221205
 20
-81.977694
 30
0.0
 40
49.5
  0
CIRCLE
  5
B4
100
AcDbEntity
  8
0
370
    25
390
0
  6
Continuous
100
AcDbCircle
 10
-75.221205
 20
-81.977694
 30
0.0
 40
30.0
  0
ARC
  5
B5
100
AcDbEntity
  8
0
370
    25
390
0
  6
Continuous
100
AcDbCircle
 10
-127.221205
 20
-159.977694
 30
0.0
 40
9.0
100
AcDbArc
 50
180.0
 51
270.0
  0
ARC
  5
B6
100
AcDbEntity
  8
0
370
    25
390
0
  6
Continuous
100
AcDbCircle
 10
-127.221205
 20
-29.977694
 30
0.0
 40
9.0
100
AcDbArc
 50
90.0
 51
180.0
  0
ARC
  5
B7
100
AcDbEntity
  8
0
370
    25
390
0
  6
Continuous
100
AcDbCircle
 10
10.778795
 20
-33.977694
 30
0.0
 40
15.5
100
AcDbArc
 50
193.835224
 51
256.164776
  0
ARC
  5
B8
100
AcDbEntity
  8
0
370
    25
390
0
  6
Continuous
100
AcDbCircle
 10
10.778795
 20
-155.977694
 30
0.0
 40
15.5
100
AcDbArc
 50
103.835224
 51
166.164776
  0
ARC
  5
B9
100
AcDbEntity
  8
0
370
    25
390
0
  6
Continuous
100
AcDbCircle
 10
-11.553917
 20
-150.477694
 30
0.0
 40
10.0
100
AcDbArc
 50
270.0
 51
346.164776
  0
ARC
  5
BA
100
AcDbEntity
  8
0
370
    25
390
0
  6
Continuous
100
AcDbCircle
 10
10.778795
 20
-155.977694
 30
0.0
 40
13.0
100
AcDbArc
 50
103.835224
 51
166.164776
  0
ARC
  5
BB
100
AcDbEntity
  8
0
370
    25
390
0
  6
Continuous
100
AcDbCircle
 10
10.778795
 20
-33.977694
 30
0.0
 40
13.0
100
AcDbArc
 50
193.835224
 51
256.164776
  0
ARC
  5
BC
100
AcDbEntity
  8
0
370
    25
390
0
  6
Continuous
100
AcDbCircle
 10
-11.553917
 20
-39.477694
 30
0.0
 40
10.0
100
AcDbArc
 50
13.835224
 51
90.0
  0
ARC
  5
BD
100
AcDbEntity
  8
0
370
    25
390
0
  6
Continuous
100
AcDbCircle
 10
44.278795
 20
-144.477694
 30
0.0
 40
3.0
100
AcDbArc
 50
0.0
 51
90.0
  0
ARC
  5
BE
100
AcDbEntity
  8
0
370
    25
390
0
  6
Continuous
100
AcDbCircle
 10
45.278795
 20
-136.407346
 30
0.0
 40
2.0
100
AcDbArc
 50
270.0
 51
0.0
  0
ARC
  5
BF
100
AcDbEntity
  8
0
370
    25
390
0
  6
Continuous
100
AcDbCircle
 10
44.278795
 20
-127.86986
 30
0.0
 40
3.0
100
AcDbArc
 50
270.0
 51
0.0
  0
ARC
  5
C0
100
AcDbEntity
  8
0
370
    25
390
0
  6
Continuous
100
AcDbCircle
 10
49.278795
 20
-148.529755
 30
0.0
 40
2.0
100
AcDbArc
 50
180.0
 51
271.0
  0
ARC
  5
C1
100
AcDbEntity
  8
0
370
    25
390
0
  6
Continuous
100
AcDbCircle
 10
44.278795
 20
-66.085528
 30
0.0
 40
3.0
100
AcDbArc
 50
0.0
 51
90.0
  0
ARC
  5
C2
100
AcDbEntity
  8
0
370
    25
390
0
  6
Continuous
100
AcDbCircle
 10
49.278795
 20
-45.425634
 30
0.0
 40
2.0
100
AcDbArc
 50
89.0
 51
180.0
  0
ARC
  5
C3
100
AcDbEntity
  8
0
370
    25
390
0
  6
Continuous
100
AcDbCircle
 10
44.278795
 20
-49.477694
 30
0.0
 40
3.0
100
AcDbArc
 50
270.0
 51
0.0
  0
ARC
  5
C4
100
AcDbEntity
  8
0
370
    25
390
0
  6
Continuous
100
AcDbCircle
 10
45.278795
 20
-57.548043
 30
0.0
 40
2.0
100
AcDbArc
 50
0.0
 51
90.0
  0
ARC
  5
C5
100
AcDbEntity
  8
0
370
    25
390
0
  6
Continuous
100
AcDbCircle
 10
14.778795
 20
-159.977694
 30
0.0
 40
9.0
100
AcDbArc
 50
270.0
 51
0.0
  0
ARC
  5
C6
100
AcDbEntity
  8
0
370
    25
390
0
  6
Continuous
100
AcDbCircle
 10
5.278795
 20
-56.310406
 30
0.0
 40
7.5
100
AcDbArc
 50
0.0
 51
76.164776
  0
ARC
  5
C7
100
AcDbEntity
  8
0
370
    25
390
0
  6
Continuous
100
AcDbCircle
 10
5.278795
 20
-133.644983
 30
0.0
 40
7.5
100
AcDbArc
 50
283.835224
 51
0.0
  0
ARC
  5
C8
100
AcDbEntity
  8
0
370
    25
390
0
  6
Continuous
100
AcDbCircle
 10
5.278795
 20
-133.644983
 30
0.0
 40
10.0
100
AcDbArc
 50
283.835224
 51
0.0
  0
ARC
  5
C9
100
AcDbEntity
  8
0
370
    25
390
0
  6
Continuous
100
AcDbCircle
 10
5.278795
 20
-56.310406
 30
0.0
 40
10.0
100
AcDbArc
 50
0.0
 51
76.164776
  0
ARC
  5
CA
100
AcDbEntity
  8
0
370
    25
390
0
  6
Continuous
100
AcDbCircle
 10
14.778795
 20
-29.977694
 30
0.0
 40
9.0
100
AcDbArc
 50
0.0
 51
90.0
  0
ARC
  5
CB
100
AcDbEntity
  8
0
370
    25
390
0
  6
Continuous
100
AcDbCircle
 10
26.778795
 20
-40.067041
 30
0.0
 40
3.0
100
AcDbArc
 50
180.0
 51
269.0
  0
ARC
  5
CC
100
AcDbEntity
  8
0
370
    25
390
0
  6
Continuous
100
AcDbCircle
 10
26.778795
 20
-153.888348
 30
0.0
 40
3.0
100
AcDbArc
 50
91.0
 51
180.0
  0
LINE
  5
CD
100
AcDbEntity
  8
0
370
    25
390
0
  6
Continuous
100
AcDbLine
 10
23.778795
 20
-29.977694
 30
0.0
 11
23.778795
 21
-159.977694
 31
0.0
  0
LINE
  5
CE
100
AcDbEntity
  8
0
370
    25
390
0
  6
Continuous
100
AcDbLine
 10
47.278795
 20
-49.477694
 30
0.0
 11
47.278795
 21
-45.425634
 31
0.0
  0
LINE
  5
CF
100
AcDbEntity
  8
0
370
    25
390
0
  6
Continuous
100
AcDbLine
 10
52.278795
 20
-43.460237
 30
0.0
 11
26.726438
 21
-43.066584
 31
0.0
  0
LINE
  5
D0
100
AcDbEntity
  8
0
370
    25
390
0
  6
Continuous
100
AcDbLine
 10
47.278795
 20
-96.977694
 30
0.0
 11
47.278795
 21
-57.548043
 31
0.0
  0
LINE
  5
D1
100
AcDbEntity
  8
0
370
    25
390
0
  6
Continuous
100
AcDbLine
 10
39.213784
 20
-63.085528
 30
0.0
 11
44.278795
 21
-63.085528
 31
0.0
  0
LINE
  5
D2
100
AcDbEntity
  8
0
370
    25
390
0
  6
Continuous
100
AcDbLine
 10
47.278795
 20
-76.977694
 30
0.0
 11
52.278795
 21
-76.977694
 31
0.0
  0
LINE
  5
D3
100
AcDbEntity
  8
0
370
    25
390
0
  6
Continuous
100
AcDbLine
 10
47.278795
 20
-116.977694
 30
0.0
 11
52.278795
 21
-116.977694
 31
0.0
  0
LINE
  5
D4
100
AcDbEntity
  8
0
370
    25
390
0
  6
Continuous
100
AcDbLine
 10
47.278795
 20
-96.977694
 30
0.0
 11
47.278795
 21
-136.407346
 31
0.0
  0
LINE
  5
D5
100
AcDbEntity
  8
0
370
    25
390
0
  6
Continuous
100
AcDbLine
 10
38.974113
 20
-130.86986
 30
0.0
 11
44.278795
 21
-130.86986
 31
0.0
  0
LINE
  5
D6
100
AcDbEntity
  8
0
370
    25
390
0
  6
Continuous
100
AcDbLine
 10
47.278795
 20
-144.477694
 30
0.0
 11
47.278795
 21
-148.529755
 31
0.0
  0
LINE
  5
D7
100
AcDbEntity
  8
0
370
    25
390
0
  6
Continuous
100
AcDbLine
 10
52.278795
 20
-150.495152
 30
0.0
 11
26.726438
 21
-150.888805
 31
0.0
  0
LINE
  5
D8
100
AcDbEntity
  8
0
370
    25
390
0
  6
CENTER
100
AcDbLine
 10
62.694916
 20
-96.977694
 30
0.0
 11
15.109746
 21
-96.977694
 31
0.0
  0
LINE
  5
D9
100
AcDbEntity
  8
0
370
    25
390
0
  6
Continuous
100
AcDbLine
 10
15.278795
 20
-56.310406
 30
0.0
 11
15.278795
 21
-133.644983
 31
0.0
  0
LINE
  5
DA
100
AcDbEntity
  8
0
370
    25
390
0
  6
Continuous
100
AcDbLine
 10
-127.221205
 20
-20.977694
 30
0.0
 11
14.778795
 21
-20.977694
 31
0.0
  0
LINE
  5
DB
100
AcDbEntity
  8
0
370
    25
390
0
  6
Continuous
100
AcDbLine
 10
-136.221205
 20
-159.977694
 30
0.0
 11
-136.221205
 21
-29.977694
 31
0.0
  0
LINE
  5
DC
100
AcDbEntity
  8
0
370
    25
390
0
  6
Continuous
100
AcDbLine
 10
14.778795
 20
-168.977694
 30
0.0
 11
-127.221205
 21
-168.977694
 31
0.0
  0
LINE
  5
DD
100
AcDbEntity
  8
0
370
    25
390
0
  6
CENTER
100
AcDbLine
 10
-139.679864
 20
-81.977694
 30
0.0
 11
-16.531212
 21
-81.977694
 31
0.0
  0
LINE
  5
DE
100
AcDbEntity
  8
0
370
    25
390
0
  6
Continuous
100
AcDbLine
 10
-125.221205
 20
-56.310406
 30
0.0
 11
-125.221205
 21
-133.644983
 31
0.0
  0
LINE
  5
DF
100
AcDbEntity
  8
0
370
    25
390
0
  6
Continuous
100
AcDbLine
 10
-11.553917
 20
-31.977694
 30
0.0
 11
-100.888494
 21
-31.977694
 31
0.0
  0
LINE
  5
E0
100
AcDbEntity
  8
0
370
    25
390
0
  6
Continuous
100
AcDbLine
 10
12.778795
 20
-133.644983
 30
0.0
 11
12.778795
 21
-56.310406
 31
0.0
  0
LINE
  5
E1
100
AcDbEntity
  8
0
370
    25
390
0
  6
Continuous
100
AcDbLine
 10
-100.888494
 20
-157.977694
 30
0.0
 11
-11.553917
 21
-157.977694
 31
0.0
  0
LINE
  5
E2
100
AcDbEntity
  8
0
370
    25
390
0
  6
Continuous
100
AcDbLine
 10
-100.888494
 20
-29.477694
 30
0.0
 11
-11.553917
 21
-29.477694
 31
0.0
  0
LINE
  5
E3
100
AcDbEntity
  8
0
370
    25
390
0
  6
Continuous
100
AcDbLine
 10
-127.721205
 20
-133.644983
 30
0.0
 11
-127.721205
 21
-56.310406
 31
0.0
  0
LINE
  5
E4
100
AcDbEntity
  8
0
370
    25
390
0
  6
Continuous
100
AcDbLine
 10
-11.553917
 20
-160.477694
 30
0.0
 11
-100.888494
 21
-160.477694
 31
0.0
  0
LINE
  5
E5
100
AcDbEntity
  8
0
370
    25
390
0
  6
CENTER
100
AcDbLine
 10
-75.221205
 20
-18.58221
 30
0.0
 11
-75.221205
 21
-173.447073
 31
0.0
  0
LINE
  5
E6
100
AcDbEntity
  8
0
370
    25
390
0
  6
CENTER
100
AcDbLine
 10
1.278795
 20
-155.977694
 30
0.0
 11
20.278795
 21
-155.977694
 31
0.0
  0
LINE
  5
E7
100
AcDbEntity
  8
0
370
    25
390
0
  6
CENTER
100
AcDbLine
 10
10.778795
 20
-146.477694
 30
0.0
 11
10.778795
 21
-165.477694
 31
0.0
  0
LINE
  5
E8
100
AcDbEntity
  8
0
370
    25
390
0
  6
CENTER
100
AcDbLine
 10
1.278795
 20
-33.977694
 30
0.0
 11
20.278795
 21
-33.977694
 31
0.0
  0
LINE
  5
E9
100
AcDbEntity
  8
0
370
    25
390
0
  6
CENTER
100
AcDbLine
 10
10.778795
 20
-24.477694
 30
0.0
 11
10.778795
 21
-43.477694
 31
0.0
  0
LINE
  5
EA
100
AcDbEntity
  8
0
370
    25
390
0
  6
CENTER
100
AcDbLine
 10
-132.721205
 20
-33.977694
 30
0.0
 11
-113.721205
 21
-33.977694
 31
0.0
  0
LINE
  5
EB
100
AcDbEntity
  8
0
370
    25
390
0
  6
CENTER
100
AcDbLine
 10
-123.221205
 20
-24.477694
 30
0.0
 11
-123.221205
 21
-43.477694
 31
0.0
  0
LINE
  5
EC
100
AcDbEntity
  8
0
370
    25
390
0
  6
CENTER
100
AcDbLine
 10
-132.721205
 20
-155.977694
 30
0.0
 11
-113.721205
 21
-155.977694
 31
0.0
  0
LINE
  5
ED
100
AcDbEntity
  8
0
370
    25
390
0
  6
CENTER
100
AcDbLine
 10
-123.221205
 20
-146.477694
 30
0.0
 11
-123.221205
 21
-165.477694
 31
0.0
  0
LINE
  5
EE
100
AcDbEntity
  8
0
370
    25
390
0
  6
Continuous
100
AcDbLine
 10
44.278795
 20
-52.477694
 30
0.0
 11
37.278795
 21
-52.477694
 31
0.0
  0
LINE
  5
EF
100
AcDbEntity
  8
0
370
    25
390
0
  6
Continuous
100
AcDbLine
 10
45.278795
 20
-55.548043
 30
0.0
 11
37.278795
 21
-55.548043
 31
0.0
  0
LINE
  5
F0
100
AcDbEntity
  8
0
370
    25
390
0
  6
Continuous
100
AcDbLine
 10
45.278795
 20
-138.407346
 30
0.0
 11
37.278795
 21
-138.407346
 31
0.0
  0
LINE
  5
F1
100
AcDbEntity
  8
0
370
    25
390
0
  6
Continuous
100
AcDbLine
 10
44.278795
 20
-141.477694
 30
0.0
 11
37.278795
 21
-141.477694
 31
0.0
  0
LINE
  5
F2
100
AcDbEntity
  8
0
370
    25
390
0
  6
Continuous
100
AcDbLine
 10
-71.221205
 20
-64.977694
 30
0.0
 11
-71.221205
 21
-71.977694
 31
0.0
  0
LINE
  5
F3
100
AcDbEntity
  8
0
370
    25
390
0
  6
Continuous
100
AcDbLine
 10
-79.221205
 20
-64.977694
 30
0.0
 11
-79.221205
 21
-71.977694
 31
0.0
  0
LINE
  5
F4
100
AcDbEntity
  8
0
370
    25
390
0
  6
Continuous
100
AcDbLine
 10
-79.221205
 20
-71.977694
 30
0.0
 11
-71.221205
 21
-71.977694
 31
0.0
  0
LINE
  5
F5
100
AcDbEntity
  8
0
370
    25
390
0
  6
Continuous
100
AcDbLine
 10
-79.221205
 20
-64.977694
 30
0.0
 11
-71.221205
 21
-64.977694
 31
0.0
  0
ARC
  5
F6
100
AcDbEntity
  8
0
370
    25
390
0
  6
Continuous
100
AcDbCircle
 10
-75.221205
 20
-81.977694
 30
0.0
 40
14.0
100
AcDbArc
 50
106.60155
 51
73.39845
  0
CIRCLE
  5
F7
100
AcDbEntity
  8
0
370
    25
390
0
  6
Continuous
100
AcDbCircle
 10
-75.221205
 20
-81.977694
 30
0.0
 40
3.5
  0
CIRCLE
  5
F8
100
AcDbEntity
  8
0
370
    25
390
0
  6
Continuous
100
AcDbCircle
 10
-75.221205
 20
-81.977694
 30
0.0
 40
4.0
  0
LINE
  5
F9
100
AcDbEntity
  8
0
370
    25
390
0
  6
Continuous
100
AcDbLine
 10
186.278795
 20
-144.821314
 30
0.0
 11
186.278795
 21
-96.977694
 31
0.0
  0
LINE
  5
FA
100
AcDbEntity
  8
0
370
    25
390
0
  6
Continuous
100
AcDbLine
 10
177.599314
 20
-152.252226
 30
0.0
 11
185.170094
 21
-146.95111
 31
0.0
  0
ARC
  5
FB
100
AcDbEntity
  8
0
370
    25
390
0
  6
Continuous
100
AcDbCircle
 10
183.678795
 20
-144.821314
 30
0.0
 40
2.6
100
AcDbArc
 50
305.0
 51
0.0
  0
ARC
  5
FC
100
AcDbEntity
  8
0
370
    25
390
0
  6
Continuous
100
AcDbCircle
 10
165.78364
 20
-135.377694
 30
0.0
 40
20.6
100
AcDbArc
 50
270.0
 51
305.0
  0
LINE
  5
FD
100
AcDbEntity
  8
0
370
    25
390
0
  6
Continuous
100
AcDbLine
 10
186.278795
 20
-49.134074
 30
0.0
 11
186.278795
 21
-96.977694
 31
0.0
  0
LINE
  5
FE
100
AcDbEntity
  8
0
370
    25
390
0
  6
Continuous
100
AcDbLine
 10
177.599314
 20
-41.703162
 30
0.0
 11
185.170094
 21
-47.004279
 31
0.0
  0
ARC
  5
FF
100
AcDbEntity
  8
0
370
    25
390
0
  6
Continuous
100
AcDbCircle
 10
183.678795
 20
-49.134074
 30
0.0
 40
2.6
100
AcDbArc
 50
0.0
 51
55.0
  0
ARC
  5
100
100
AcDbEntity
  8
0
370
    25
390
0
  6
Continuous
100
AcDbCircle
 10
165.78364
 20
-58.577694
 30
0.0
 40
20.6
100
AcDbArc
 50
55.0
 51
90.0
  0
LINE
  5
101
100
AcDbEntity
  8
0
370
    25
390
0
  6
Continuous
100
AcDbLine
 10
136.278795
 20
-155.977694
 30
0.0
 11
165.78364
 21
-155.977694
 31
0.0
  0
LINE
  5
102
100
AcDbEntity
  8
0
370
    25
390
0
  6
Continuous
100
AcDbLine
 10
146.278795
 20
-37.977694
 30
0.0
 11
165.78364
 21
-37.977694
 31
0.0
  0
LINE
  5
103
100
AcDbEntity
  8
0
370
    25
390
0
  6
Continuous
100
AcDbLine
 10
144.278795
 20
-39.477694
 30
0.0
 11
144.278795
 21
-42.466425
 31
0.0
  0
LINE
  5
104
100
AcDbEntity
  8
0
370
    25
390
0
  6
Continuous
100
AcDbLine
 10
69.278795
 20
-44.477694
 30
0.0
 11
136.512264
 21
-44.477694
 31
0.0
  0
LINE
  5
105
100
AcDbEntity
  8
0
370
    25
390
0
  6
Continuous
100
AcDbLine
 10
136.278795
 20
-45.977694
 30
0.0
 11
52.278795
 21
-45.977694
 31
0.0
  0
LINE
  5
106
100
AcDbEntity
  8
0
370
    25
390
0
  6
Continuous
100
AcDbLine
 10
136.278795
 20
-46.477694
 30
0.0
 11
52.278795
 21
-46.477694
 31
0.0
  0
LINE
  5
107
100
AcDbEntity
  8
0
370
    25
390
0
  6
Continuous
100
AcDbLine
 10
136.278795
 20
-50.844612
 30
0.0
 11
52.278795
 21
-50.844612
 31
0.0
  0
LINE
  5
108
100
AcDbEntity
  8
0
370
    25
390
0
  6
Continuous
100
AcDbLine
 10
136.278795
 20
-55.93578
 30
0.0
 11
52.278795
 21
-55.93578
 31
0.0
  0
LINE
  5
109
100
AcDbEntity
  8
0
370
    25
390
0
  6
Continuous
100
AcDbLine
 10
136.278795
 20
-65.263303
 30
0.0
 11
52.278795
 21
-65.263303
 31
0.0
  0
LINE
  5
10A
100
AcDbEntity
  8
0
370
    25
390
0
  6
Continuous
100
AcDbLine
 10
136.278795
 20
-63.674093
 30
0.0
 11
52.278795
 21
-63.674093
 31
0.0
  0
LINE
  5
10B
100
AcDbEntity
  8
0
370
    25
390
0
  6
Continuous
100
AcDbLine
 10
136.278795
 20
-68.221299
 30
0.0
 11
52.278795
 21
-68.221299
 31
0.0
  0
LINE
  5
10C
100
AcDbEntity
  8
0
370
    25
390
0
  6
Continuous
100
AcDbLine
 10
136.278795
 20
-69.700322
 30
0.0
 11
52.278795
 21
-69.700322
 31
0.0
  0
LINE
  5
10D
100
AcDbEntity
  8
0
370
    25
390
0
  6
Continuous
100
AcDbLine
 10
136.278795
 20
-72.793053
 30
0.0
 11
52.278795
 21
-72.793053
 31
0.0
  0
LINE
  5
10E
100
AcDbEntity
  8
0
370
    25
390
0
  6
Continuous
100
AcDbLine
 10
136.278795
 20
-74.139455
 30
0.0
 11
52.278795
 21
-74.139455
 31
0.0
  0
LINE
  5
10F
100
AcDbEntity
  8
0
370
    25
390
0
  6
Continuous
100
AcDbLine
 10
136.278795
 20
-77.34966
 30
0.0
 11
52.278795
 21
-77.34966
 31
0.0
  0
LINE
  5
110
100
AcDbEntity
  8
0
370
    25
390
0
  6
Continuous
100
AcDbLine
 10
136.278795
 20
-78.591579
 30
0.0
 11
52.278795
 21
-78.591579
 31
0.0
  0
LINE
  5
111
100
AcDbEntity
  8
0
370
    25
390
0
  6
Continuous
100
AcDbLine
 10
136.278795
 20
-82.977694
 30
0.0
 11
52.278795
 21
-82.977694
 31
0.0
  0
LINE
  5
112
100
AcDbEntity
  8
0
370
    25
390
0
  6
Continuous
100
AcDbLine
 10
136.278795
 20
-110.977694
 30
0.0
 11
52.278795
 21
-110.977694
 31
0.0
  0
LINE
  5
113
100
AcDbEntity
  8
0
370
    25
390
0
  6
Continuous
100
AcDbLine
 10
136.278795
 20
-115.363809
 30
0.0
 11
52.278795
 21
-115.363809
 31
0.0
  0
LINE
  5
114
100
AcDbEntity
  8
0
370
    25
390
0
  6
Continuous
100
AcDbLine
 10
136.278795
 20
-116.605729
 30
0.0
 11
52.278795
 21
-116.605729
 31
0.0
  0
LINE
  5
115
100
AcDbEntity
  8
0
370
    25
390
0
  6
Continuous
100
AcDbLine
 10
136.278795
 20
-119.815934
 30
0.0
 11
52.278795
 21
-119.815934
 31
0.0
  0
LINE
  5
116
100
AcDbEntity
  8
0
370
    25
390
0
  6
Continuous
100
AcDbLine
 10
136.278795
 20
-121.162336
 30
0.0
 11
52.278795
 21
-121.162336
 31
0.0
  0
LINE
  5
117
100
AcDbEntity
  8
0
370
    25
390
0
  6
Continuous
100
AcDbLine
 10
136.278795
 20
-124.255067
 30
0.0
 11
52.278795
 21
-124.255067
 31
0.0
  0
LINE
  5
118
100
AcDbEntity
  8
0
370
    25
390
0
  6
Continuous
100
AcDbLine
 10
136.278795
 20
-125.73409
 30
0.0
 11
52.278795
 21
-125.73409
 31
0.0
  0
LINE
  5
119
100
AcDbEntity
  8
0
370
    25
390
0
  6
Continuous
100
AcDbLine
 10
136.278795
 20
-128.692085
 30
0.0
 11
52.278795
 21
-128.692085
 31
0.0
  0
LINE
  5
11A
100
AcDbEntity
  8
0
370
    25
390
0
  6
Continuous
100
AcDbLine
 10
136.278795
 20
-130.281295
 30
0.0
 11
52.278795
 21
-130.281295
 31
0.0
  0
LINE
  5
11B
100
AcDbEntity
  8
0
370
    25
390
0
  6
Continuous
100
AcDbLine
 10
136.278795
 20
-138.019608
 30
0.0
 11
52.278795
 21
-138.019608
 31
0.0
  0
LINE
  5
11C
100
AcDbEntity
  8
0
370
    25
390
0
  6
Continuous
100
AcDbLine
 10
136.278795
 20
-143.110777
 30
0.0
 11
52.278795
 21
-143.110777
 31
0.0
  0
LINE
  5
11D
100
AcDbEntity
  8
0
370
    25
390
0
  6
Continuous
100
AcDbLine
 10
136.278795
 20
-147.477694
 30
0.0
 11
52.278795
 21
-147.477694
 31
0.0
  0
LINE
  5
11E
100
AcDbEntity
  8
0
370
    25
390
0
  6
Continuous
100
AcDbLine
 10
136.278795
 20
-147.977694
 30
0.0
 11
52.278795
 21
-147.977694
 31
0.0
  0
LINE
  5
11F
100
AcDbEntity
  8
0
370
    25
390
0
  6
Continuous
100
AcDbLine
 10
52.278795
 20
-150.477694
 30
0.0
 11
136.278795
 21
-150.477694
 31
0.0
  0
LINE
  5
120
100
AcDbEntity
  8
0
370
    25
390
0
  6
Continuous
100
AcDbLine
 10
147.278795
 20
-146.121615
 30
0.0
 11
149.278795
 21
-144.468974
 31
0.0
  0
LINE
  5
121
100
AcDbEntity
  8
0
370
    25
390
0
  6
Continuous
100
AcDbLine
 10
145.278795
 20
-147.297401
 30
0.0
 11
147.278795
 21
-146.121615
 31
0.0
  0
LINE
  5
122
100
AcDbEntity
  8
0
370
    25
390
0
  6
Continuous
100
AcDbLine
 10
147.278795
 20
-146.121615
 30
0.0
 11
145.278795
 21
-144.468974
 31
0.0
  0
LINE
  5
123
100
AcDbEntity
  8
0
370
    25
390
0
  6
Continuous
100
AcDbLine
 10
149.278795
 20
-147.297401
 30
0.0
 11
147.278795
 21
-146.121615
 31
0.0
  0
LINE
  5
124
100
AcDbEntity
  8
0
370
    25
390
0
  6
Continuous
100
AcDbLine
 10
151.888486
 20
-145.007982
 30
0.0
 11
151.978795
 21
-144.305025
 31
0.0
  0
LINE
  5
125
100
AcDbEntity
  8
0
370
    25
390
0
  6
Continuous
100
AcDbLine
 10
151.621029
 20
-145.683924
 30
0.0
 11
151.888486
 21
-145.007982
 31
0.0
  0
LINE
  5
126
100
AcDbEntity
  8
0
370
    25
390
0
  6
Continuous
100
AcDbLine
 10
151.186702
 20
-146.306876
 30
0.0
 11
151.621029
 21
-145.683924
 31
0.0
  0
LINE
  5
127
100
AcDbEntity
  8
0
370
    25
390
0
  6
Continuous
100
AcDbLine
 10
150.602197
 20
-146.852898
 30
0.0
 11
151.186702
 21
-146.306876
 31
0.0
  0
LINE
  5
128
100
AcDbEntity
  8
0
370
    25
390
0
  6
Continuous
100
AcDbLine
 10
149.889975
 20
-147.301006
 30
0.0
 11
150.602197
 21
-146.852898
 31
0.0
  0
LINE
  5
129
100
AcDbEntity
  8
0
370
    25
390
0
  6
Continuous
100
AcDbLine
 10
149.077407
 20
-147.633981
 30
0.0
 11
149.889975
 21
-147.301006
 31
0.0
  0
LINE
  5
12A
100
AcDbEntity
  8
0
370
    25
390
0
  6
Continuous
100
AcDbLine
 10
148.19572
 20
-147.839026
 30
0.0
 11
149.077407
 21
-147.633981
 31
0.0
  0
LINE
  5
12B
100
AcDbEntity
  8
0
370
    25
390
0
  6
Continuous
100
AcDbLine
 10
147.278795
 20
-147.908261
 30
0.0
 11
148.19572
 21
-147.839026
 31
0.0
  0
LINE
  5
12C
100
AcDbEntity
  8
0
370
    25
390
0
  6
Continuous
100
AcDbLine
 10
146.36187
 20
-147.839026
 30
0.0
 11
147.278795
 21
-147.908261
 31
0.0
  0
LINE
  5
12D
100
AcDbEntity
  8
0
370
    25
390
0
  6
Continuous
100
AcDbLine
 10
145.480183
 20
-147.633981
 30
0.0
 11
146.36187
 21
-147.839026
 31
0.0
  0
LINE
  5
12E
100
AcDbEntity
  8
0
370
    25
390
0
  6
Continuous
100
AcDbLine
 10
144.667615
 20
-147.301006
 30
0.0
 11
145.480183
 21
-147.633981
 31
0.0
  0
LINE
  5
12F
100
AcDbEntity
  8
0
370
    25
390
0
  6
Continuous
100
AcDbLine
 10
143.955393
 20
-146.852898
 30
0.0
 11
144.667615
 21
-147.301006
 31
0.0
  0
LINE
  5
130
100
AcDbEntity
  8
0
370
    25
390
0
  6
Continuous
100
AcDbLine
 10
143.370888
 20
-146.306876
 30
0.0
 11
143.955393
 21
-146.852898
 31
0.0
  0
LINE
  5
131
100
AcDbEntity
  8
0
370
    25
390
0
  6
Continuous
100
AcDbLine
 10
142.936561
 20
-145.683924
 30
0.0
 11
143.370888
 21
-146.306876
 31
0.0
  0
LINE
  5
132
100
AcDbEntity
  8
0
370
    25
390
0
  6
Continuous
100
AcDbLine
 10
142.669104
 20
-145.007982
 30
0.0
 11
142.936561
 21
-145.683924
 31
0.0
  0
LINE
  5
133
100
AcDbEntity
  8
0
370
    25
390
0
  6
Continuous
100
AcDbLine
 10
142.578795
 20
-144.305025
 30
0.0
 11
142.669104
 21
-145.007982
 31
0.0
  0
LINE
  5
134
100
AcDbEntity
  8
0
370
    25
390
0
  6
Continuous
100
AcDbLine
 10
142.669104
 20
-143.602068
 30
0.0
 11
142.578795
 21
-144.305025
 31
0.0
  0
LINE
  5
135
100
AcDbEntity
  8
0
370
    25
390
0
  6
Continuous
100
AcDbLine
 10
142.936561
 20
-142.926126
 30
0.0
 11
142.669104
 21
-143.602068
 31
0.0
  0
LINE
  5
136
100
AcDbEntity
  8
0
370
    25
390
0
  6
Continuous
100
AcDbLine
 10
143.370888
 20
-142.303174
 30
0.0
 11
142.936561
 21
-142.926126
 31
0.0
  0
LINE
  5
137
100
AcDbEntity
  8
0
370
    25
390
0
  6
Continuous
100
AcDbLine
 10
143.955393
 20
-141.757152
 30
0.0
 11
143.370888
 21
-142.303174
 31
0.0
  0
LINE
  5
138
100
AcDbEntity
  8
0
370
    25
390
0
  6
Continuous
100
AcDbLine
 10
144.667615
 20
-141.309044
 30
0.0
 11
143.955393
 21
-141.757152
 31
0.0
  0
LINE
  5
139
100
AcDbEntity
  8
0
370
    25
390
0
  6
Continuous
100
AcDbLine
 10
145.480183
 20
-140.976069
 30
0.0
 11
144.667615
 21
-141.309044
 31
0.0
  0
LINE
  5
13A
100
AcDbEntity
  8
0
370
    25
390
0
  6
Continuous
100
AcDbLine
 10
146.36187
 20
-140.771024
 30
0.0
 11
145.480183
 21
-140.976069
 31
0.0
  0
LINE
  5
13B
100
AcDbEntity
  8
0
370
    25
390
0
  6
Continuous
100
AcDbLine
 10
147.278795
 20
-140.701789
 30
0.0
 11
146.36187
 21
-140.771024
 31
0.0
  0
LINE
  5
13C
100
AcDbEntity
  8
0
370
    25
390
0
  6
Continuous
100
AcDbLine
 10
148.19572
 20
-140.771024
 30
0.0
 11
147.278795
 21
-140.701789
 31
0.0
  0
LINE
  5
13D
100
AcDbEntity
  8
0
370
    25
390
0
  6
Continuous
100
AcDbLine
 10
149.077407
 20
-140.976069
 30
0.0
 11
148.19572
 21
-140.771024
 31
0.0
  0
LINE
  5
13E
100
AcDbEntity
  8
0
370
    25
390
0
  6
Continuous
100
AcDbLine
 10
149.889975
 20
-141.309044
 30
0.0
 11
149.077407
 21
-140.976069
 31
0.0
  0
LINE
  5
13F
100
AcDbEntity
  8
0
370
    25
390
0
  6
Continuous
100
AcDbLine
 10
150.602197
 20
-141.757152
 30
0.0
 11
149.889975
 21
-141.309044
 31
0.0
  0
LINE
  5
140
100
AcDbEntity
  8
0
370
    25
390
0
  6
Continuous
100
AcDbLine
 10
151.186702
 20
-142.303174
 30
0.0
 11
150.602197
 21
-141.757152
 31
0.0
  0
LINE
  5
141
100
AcDbEntity
  8
0
370
    25
390
0
  6
Continuous
100
AcDbLine
 10
151.621029
 20
-142.926126
 30
0.0
 11
151.186702
 21
-142.303174
 31
0.0
  0
LINE
  5
142
100
AcDbEntity
  8
0
370
    25
390
0
  6
Continuous
100
AcDbLine
 10
151.888486
 20
-143.602068
 30
0.0
 11
151.621029
 21
-142.926126
 31
0.0
  0
LINE
  5
143
100
AcDbEntity
  8
0
370
    25
390
0
  6
Continuous
100
AcDbLine
 10
151.978795
 20
-144.305025
 30
0.0
 11
151.888486
 21
-143.602068
 31
0.0
  0
LINE
  5
144
100
AcDbEntity
  8
0
370
    25
390
0
  6
Continuous
100
AcDbLine
 10
136.278795
 20
-155.977694
 30
0.0
 11
136.278795
 21
-96.977694
 31
0.0
  0
LINE
  5
145
100
AcDbEntity
  8
0
370
    25
390
0
  6
Continuous
100
AcDbLine
 10
146.278795
 20
-37.977694
 30
0.0
 11
146.278795
 21
-39.637998
 31
0.0
  0
ARC
  5
146
100
AcDbEntity
  8
0
370
    25
390
0
  6
Continuous
100
AcDbCircle
 10
143.278795
 20
-39.637998
 30
0.0
 40
3.0
100
AcDbArc
 50
270.0
 51
0.0
  0
LINE
  5
147
100
AcDbEntity
  8
0
370
    25
390
0
  6
Continuous
100
AcDbLine
 10
147.278795
 20
-47.833773
 30
0.0
 11
149.278795
 21
-49.486415
 31
0.0
  0
LINE
  5
148
100
AcDbEntity
  8
0
370
    25
390
0
  6
Continuous
100
AcDbLine
 10
145.278795
 20
-46.657988
 30
0.0
 11
147.278795
 21
-47.833773
 31
0.0
  0
LINE
  5
149
100
AcDbEntity
  8
0
370
    25
390
0
  6
Continuous
100
AcDbLine
 10
147.278795
 20
-47.833773
 30
0.0
 11
145.278795
 21
-49.486415
 31
0.0
  0
LINE
  5
14A
100
AcDbEntity
  8
0
370
    25
390
0
  6
Continuous
100
AcDbLine
 10
149.278795
 20
-46.657988
 30
0.0
 11
147.278795
 21
-47.833773
 31
0.0
  0
LINE
  5
14B
100
AcDbEntity
  8
0
370
    25
390
0
  6
Continuous
100
AcDbLine
 10
151.888486
 20
-50.35332
 30
0.0
 11
151.978795
 21
-49.650363
 31
0.0
  0
LINE
  5
14C
100
AcDbEntity
  8
0
370
    25
390
0
  6
Continuous
100
AcDbLine
 10
151.621029
 20
-51.029262
 30
0.0
 11
151.888486
 21
-50.35332
 31
0.0
  0
LINE
  5
14D
100
AcDbEntity
  8
0
370
    25
390
0
  6
Continuous
100
AcDbLine
 10
151.186702
 20
-51.652214
 30
0.0
 11
151.621029
 21
-51.029262
 31
0.0
  0
LINE
  5
14E
100
AcDbEntity
  8
0
370
    25
390
0
  6
Continuous
100
AcDbLine
 10
150.602197
 20
-52.198236
 30
0.0
 11
151.186702
 21
-51.652214
 31
0.0
  0
LINE
  5
14F
100
AcDbEntity
  8
0
370
    25
390
0
  6
Continuous
100
AcDbLine
 10
149.889975
 20
-52.646344
 30
0.0
 11
150.602197
 21
-52.198236
 31
0.0
  0
LINE
  5
150
100
AcDbEntity
  8
0
370
    25
390
0
  6
Continuous
100
AcDbLine
 10
149.077407
 20
-52.979319
 30
0.0
 11
149.889975
 21
-52.646344
 31
0.0
  0
LINE
  5
151
100
AcDbEntity
  8
0
370
    25
390
0
  6
Continuous
100
AcDbLine
 10
148.19572
 20
-53.184364
 30
0.0
 11
149.077407
 21
-52.979319
 31
0.0
  0
LINE
  5
152
100
AcDbEntity
  8
0
370
    25
390
0
  6
Continuous
100
AcDbLine
 10
147.278795
 20
-53.253599
 30
0.0
 11
148.19572
 21
-53.184364
 31
0.0
  0
LINE
  5
153
100
AcDbEntity
  8
0
370
    25
390
0
  6
Continuous
100
AcDbLine
 10
146.36187
 20
-53.184364
 30
0.0
 11
147.278795
 21
-53.253599
 31
0.0
  0
LINE
  5
154
100
AcDbEntity
  8
0
370
    25
390
0
  6
Continuous
100
AcDbLine
 10
145.480183
 20
-52.979319
 30
0.0
 11
146.36187
 21
-53.184364
 31
0.0
  0
LINE
  5
155
100
AcDbEntity
  8
0
370
    25
390
0
  6
Continuous
100
AcDbLine
 10
144.667615
 20
-52.646344
 30
0.0
 11
145.480183
 21
-52.979319
 31
0.0
  0
LINE
  5
156
100
AcDbEntity
  8
0
370
    25
390
0
  6
Continuous
100
AcDbLine
 10
143.955393
 20
-52.198236
 30
0.0
 11
144.667615
 21
-52.646344
 31
0.0
  0
LINE
  5
157
100
AcDbEntity
  8
0
370
    25
390
0
  6
Continuous
100
AcDbLine
 10
143.370888
 20
-51.652214
 30
0.0
 11
143.955393
 21
-52.198236
 31
0.0
  0
LINE
  5
158
100
AcDbEntity
  8
0
370
    25
390
0
  6
Continuous
100
AcDbLine
 10
142.936561
 20
-51.029262
 30
0.0
 11
143.370888
 21
-51.652214
 31
0.0
  0
LINE
  5
159
100
AcDbEntity
  8
0
370
    25
390
0
  6
Continuous
100
AcDbLine
 10
142.669104
 20
-50.35332
 30
0.0
 11
142.936561
 21
-51.029262
 31
0.0
  0
LINE
  5
15A
100
AcDbEntity
  8
0
370
    25
390
0
  6
Continuous
100
AcDbLine
 10
142.578795
 20
-49.650363
 30
0.0
 11
142.669104
 21
-50.35332
 31
0.0
  0
LINE
  5
15B
100
AcDbEntity
  8
0
370
    25
390
0
  6
Continuous
100
AcDbLine
 10
142.669104
 20
-48.947406
 30
0.0
 11
142.578795
 21
-49.650363
 31
0.0
  0
LINE
  5
15C
100
AcDbEntity
  8
0
370
    25
390
0
  6
Continuous
100
AcDbLine
 10
142.936561
 20
-48.271464
 30
0.0
 11
142.669104
 21
-48.947406
 31
0.0
  0
LINE
  5
15D
100
AcDbEntity
  8
0
370
    25
390
0
  6
Continuous
100
AcDbLine
 10
143.370888
 20
-47.648512
 30
0.0
 11
142.936561
 21
-48.271464
 31
0.0
  0
LINE
  5
15E
100
AcDbEntity
  8
0
370
    25
390
0
  6
Continuous
100
AcDbLine
 10
143.955393
 20
-47.10249
 30
0.0
 11
143.370888
 21
-47.648512
 31
0.0
  0
LINE
  5
15F
100
AcDbEntity
  8
0
370
    25
390
0
  6
Continuous
100
AcDbLine
 10
144.667615
 20
-46.654382
 30
0.0
 11
143.955393
 21
-47.10249
 31
0.0
  0
LINE
  5
160
100
AcDbEntity
  8
0
370
    25
390
0
  6
Continuous
100
AcDbLine
 10
145.480183
 20
-46.321407
 30
0.0
 11
144.667615
 21
-46.654382
 31
0.0
  0
LINE
  5
161
100
AcDbEntity
  8
0
370
    25
390
0
  6
Continuous
100
AcDbLine
 10
146.36187
 20
-46.116362
 30
0.0
 11
145.480183
 21
-46.321407
 31
0.0
  0
LINE
  5
162
100
AcDbEntity
  8
0
370
    25
390
0
  6
Continuous
100
AcDbLine
 10
147.278795
 20
-46.047127
 30
0.0
 11
146.36187
 21
-46.116362
 31
0.0
  0
LINE
  5
163
100
AcDbEntity
  8
0
370
    25
390
0
  6
Continuous
100
AcDbLine
 10
148.19572
 20
-46.116362
 30
0.0
 11
147.278795
 21
-46.047127
 31
0.0
  0
LINE
  5
164
100
AcDbEntity
  8
0
370
    25
390
0
  6
Continuous
100
AcDbLine
 10
149.077407
 20
-46.321407
 30
0.0
 11
148.19572
 21
-46.116362
 31
0.0
  0
LINE
  5
165
100
AcDbEntity
  8
0
370
    25
390
0
  6
Continuous
100
AcDbLine
 10
149.889975
 20
-46.654382
 30
0.0
 11
149.077407
 21
-46.321407
 31
0.0
  0
LINE
  5
166
100
AcDbEntity
  8
0
370
    25
390
0
  6
Continuous
100
AcDbLine
 10
150.602197
 20
-47.10249
 30
0.0
 11
149.889975
 21
-46.654382
 31
0.0
  0
LINE
  5
167
100
AcDbEntity
  8
0
370
    25
390
0
  6
Continuous
100
AcDbLine
 10
151.186702
 20
-47.648512
 30
0.0
 11
150.602197
 21
-47.10249
 31
0.0
  0
LINE
  5
168
100
AcDbEntity
  8
0
370
    25
390
0
  6
Continuous
100
AcDbLine
 10
151.621029
 20
-48.271464
 30
0.0
 11
151.186702
 21
-47.648512
 31
0.0
  0
LINE
  5
169
100
AcDbEntity
  8
0
370
    25
390
0
  6
Continuous
100
AcDbLine
 10
151.888486
 20
-48.947406
 30
0.0
 11
151.621029
 21
-48.271464
 31
0.0
  0
LINE
  5
16A
100
AcDbEntity
  8
0
370
    25
390
0
  6
Continuous
100
AcDbLine
 10
151.978795
 20
-49.650363
 30
0.0
 11
151.888486
 21
-48.947406
 31
0.0
  0
LINE
  5
16B
100
AcDbEntity
  8
0
370
    25
390
0
  6
Continuous
100
AcDbLine
 10
143.278795
 20
-42.637998
 30
0.0
 11
139.278795
 21
-42.637998
 31
0.0
  0
ARC
  5
16C
100
AcDbEntity
  8
0
370
    25
390
0
  6
Continuous
100
AcDbCircle
 10
139.278795
 20
-45.637998
 30
0.0
 40
3.0
100
AcDbArc
 50
90.0
 51
180.0
  0
LINE
  5
16D
100
AcDbEntity
  8
0
370
    25
390
0
  6
Continuous
100
AcDbLine
 10
136.278795
 20
-45.637998
 30
0.0
 11
136.278795
 21
-96.977694
 31
0.0
  0
LINE
  5
16E
100
AcDbEntity
  8
0
370
    25
390
0
  6
Continuous
100
AcDbLine
 10
71.278795
 20
-9.977694
 30
0.0
 11
142.278795
 21
-9.977694
 31
0.0
  0
LINE
  5
16F
100
AcDbEntity
  8
0
370
    25
390
0
  6
Continuous
100
AcDbLine
 10
85.278795
 20
-9.477694
 30
0.0
 11
85.278795
 21
-9.977694
 31
0.0
  0
LINE
  5
170
100
AcDbEntity
  8
0
370
    25
390
0
  6
Continuous
100
AcDbLine
 10
85.278795
 20
-9.477694
 30
0.0
 11
77.278795
 21
-9.477694
 31
0.0
  0
LINE
  5
171
100
AcDbEntity
  8
0
370
    25
390
0
  6
Continuous
100
AcDbLine
 10
77.278795
 20
-9.477694
 30
0.0
 11
77.278795
 21
-9.977694
 31
0.0
  0
LINE
  5
172
100
AcDbEntity
  8
0
370
    25
390
0
  6
Continuous
100
AcDbLine
 10
52.278795
 20
-150.477694
 30
0.0
 11
52.278795
 21
-96.977694
 31
0.0
  0
LINE
  5
173
100
AcDbEntity
  8
0
370
    25
390
0
  6
Continuous
100
AcDbLine
 10
52.278795
 20
-43.477694
 30
0.0
 11
69.278795
 21
-43.477694
 31
0.0
  0
ARC
  5
174
100
AcDbEntity
  8
0
370
    25
390
0
  6
Continuous
100
AcDbCircle
 10
71.278795
 20
-10.977694
 30
0.0
 40
1.0
100
AcDbArc
 50
90.0
 51
180.0
  0
ARC
  5
175
100
AcDbEntity
  8
0
370
    25
390
0
  6
Continuous
100
AcDbCircle
 10
142.278795
 20
-10.977694
 30
0.0
 40
1.0
100
AcDbArc
 50
0.0
 51
90.0
  0
LINE
  5
176
100
AcDbEntity
  8
0
370
    25
390
0
  6
Continuous
100
AcDbLine
 10
143.278795
 20
-10.977694
 30
0.0
 11
143.278795
 21
-39.477694
 31
0.0
  0
LINE
  5
177
100
AcDbEntity
  8
0
370
    25
390
0
  6
Continuous
100
AcDbLine
 10
70.278795
 20
-10.977694
 30
0.0
 11
70.278795
 21
-39.477694
 31
0.0
  0
LINE
  5
178
100
AcDbEntity
  8
0
370
    25
390
0
  6
Continuous
100
AcDbLine
 10
69.278795
 20
-39.477694
 30
0.0
 11
69.278795
 21
-44.477694
 31
0.0
  0
LINE
  5
179
100
AcDbEntity
  8
0
370
    25
390
0
  6
Continuous
100
AcDbLine
 10
144.278795
 20
-39.477694
 30
0.0
 11
69.278795
 21
-39.477694
 31
0.0
  0
LINE
  5
17A
100
AcDbEntity
  8
0
370
    25
390
0
  6
Continuous
100
AcDbLine
 10
52.278795
 20
-43.477694
 30
0.0
 11
52.278795
 21
-96.977694
 31
0.0
  0
LINE
  5
17B
100
AcDbEntity
  8
0
370
    25
390
0
  6
CENTER
100
AcDbLine
 10
72.470461
 20
-24.977694
 30
0.0
 11
91.659501
 21
-24.977694
 31
0.0
  0
LINE
  5
17C
100
AcDbEntity
  8
0
370
    25
390
0
  6
CENTER
100
AcDbLine
 10
81.778795
 20
-42.261546
 30
0.0
 11
81.778795
 21
-14.282196
 31
0.0
  0
LINE
  5
17D
100
AcDbEntity
  8
0
370
    25
390
0
  6
DASHED
100
AcDbLine
 10
74.778795
 20
-39.477694
 30
0.0
 11
74.778795
 21
-24.977694
 31
0.0
  0
LINE
  5
17E
100
AcDbEntity
  8
0
370
    25
390
0
  6
DASHED
100
AcDbLine
 10
88.778795
 20
-39.477694
 30
0.0
 11
88.778795
 21
-24.977694
 31
0.0
  0
ARC
  5
17F
100
AcDbEntity
  8
0
370
    25
390
0
  6
DASHED
100
AcDbCircle
 10
81.778795
 20
-24.977694
 30
0.0
 40
7.0
100
AcDbArc
 50
0.0
 51
180.0
  0
CIRCLE
  5
180
100
AcDbEntity
  8
0
370
    25
390
0
  6
DASHED
100
AcDbCircle
 10
81.778795
 20
-24.977694
 30
0.0
 40
6.0
  0
LINE
  5
181
100
AcDbEntity
  8
0
370
    25
390
0
  6
CENTER
100
AcDbLine
 10
121.368496
 20
-24.977694
 30
0.0
 11
141.742678
 21
-24.977694
 31
0.0
  0
LINE
  5
182
100
AcDbEntity
  8
0
370
    25
390
0
  6
CENTER
100
AcDbLine
 10
131.778795
 20
-42.261546
 30
0.0
 11
131.778795
 21
-14.282196
 31
0.0
  0
LINE
  5
183
100
AcDbEntity
  8
0
370
    25
390
0
  6
DASHED
100
AcDbLine
 10
124.778795
 20
-39.477694
 30
0.0
 11
124.778795
 21
-24.977694
 31
0.0
  0
LINE
  5
184
100
AcDbEntity
  8
0
370
    25
390
0
  6
DASHED
100
AcDbLine
 10
138.778795
 20
-39.477694
 30
0.0
 11
138.778795
 21
-24.977694
 31
0.0
  0
ARC
  5
185
100
AcDbEntity
  8
0
370
    25
390
0
  6
DASHED
100
AcDbCircle
 10
131.778795
 20
-24.977694
 30
0.0
 40
7.0
100
AcDbArc
 50
0.0
 51
180.0
  0
LINE
  5
186
100
AcDbEntity
  8
0
370
    25
390
0
  6
CENTER
100
AcDbLine
 10
-144.102526
 20
153.619259
 30
0.0
 11
194.9523
 21
153.619259
 31
0.0
  0
LINE
  5
187
100
AcDbEntity
  8
0
370
    25
390
0
  6
CENTER
100
AcDbLine
 10
5.050269
 20
-96.977694
 30
0.0
 11
193.252072
 21
-96.977694
 31
0.0
  0
LINE
  5
188
100
AcDbEntity
  8
0
370
    25
390
0
  6
CENTER
100
AcDbLine
 10
396.291926
 20
-81.995149
 30
0.0
 11
234.359798
 21
-81.995149
 31
0.0
  0
LINE
  5
189
100
AcDbEntity
  8
0
370
    25
390
0
  6
Continuous
100
AcDbLine
 10
283.495443
 20
-96.495149
 30
0.0
 11
284.495734
 21
-96.495149
 31
0.0
  0
LINE
  5
18A
100
AcDbEntity
  8
0
370
    25
390
0
  6
Continuous
100
AcDbLine
 10
283.495443
 20
-95.995149
 30
0.0
 11
238.495443
 21
-95.995149
 31
0.0
  0
LINE
  5
18B
100
AcDbEntity
  8
0
370
    25
390
0
  6
Continuous
100
AcDbLine
 10
283.495443
 20
-67.995149
 30
0.0
 11
238.495443
 21
-67.995149
 31
0.0
  0
LINE
  5
18C
100
AcDbEntity
  8
0
370
    25
390
0
  6
Continuous
100
AcDbLine
 10
274.495443
 20
-64.995149
 30
0.0
 11
238.495443
 21
-64.995149
 31
0.0
  0
LINE
  5
18D
100
AcDbEntity
  8
0
370
    25
390
0
  6
Continuous
100
AcDbLine
 10
274.495443
 20
-67.995149
 30
0.0
 11
274.495443
 21
-64.995149
 31
0.0
  0
LINE
  5
18E
100
AcDbEntity
  8
0
370
    25
390
0
  6
Continuous
100
AcDbLine
 10
238.495443
 20
-81.995149
 30
0.0
 11
238.495443
 21
-95.995149
 31
0.0
  0
LINE
  5
18F
100
AcDbEntity
  8
0
370
    25
390
0
  6
Continuous
100
AcDbLine
 10
238.495443
 20
-81.995149
 30
0.0
 11
238.495443
 21
-64.995149
 31
0.0
  0
LINE
  5
190
100
AcDbEntity
  8
0
370
    25
390
0
  6
Continuous
100
AcDbLine
 10
283.495443
 20
-81.995149
 30
0.0
 11
283.495443
 21
-67.495149
 31
0.0
  0
LINE
  5
191
100
AcDbEntity
  8
0
370
    25
390
0
  6
Continuous
100
AcDbLine
 10
283.495443
 20
-81.995149
 30
0.0
 11
283.495443
 21
-67.495149
 31
0.0
  0
LINE
  5
192
100
AcDbEntity
  8
0
370
    25
390
0
  6
Continuous
100
AcDbLine
 10
283.495443
 20
-67.495149
 30
0.0
 11
285.495443
 21
-67.495149
 31
0.0
  0
LINE
  5
193
100
AcDbEntity
  8
0
370
    25
390
0
  6
Continuous
100
AcDbLine
 10
283.495443
 20
-81.995149
 30
0.0
 11
283.495443
 21
-96.495149
 31
0.0
  0
LINE
  5
194
100
AcDbEntity
  8
0
370
    25
390
0
  6
Continuous
100
AcDbLine
 10
283.495443
 20
-81.995149
 30
0.0
 11
283.495443
 21
-96.495149
 31
0.0
  0
LINE
  5
195
100
AcDbEntity
  8
0
370
    25
390
0
  6
Continuous
100
AcDbLine
 10
308.495443
 20
-22.153844
 30
0.0
 11
299.495443
 21
-22.313007
 31
0.0
  0
LINE
  5
196
100
AcDbEntity
  8
0
370
    25
390
0
  6
Continuous
100
AcDbLine
 10
375.495443
 20
-20.968967
 30
0.0
 11
368.495443
 21
-21.09276
 31
0.0
  0
LINE
  5
197
100
AcDbEntity
  8
0
370
    25
390
0
  6
Continuous
100
AcDbLine
 10
289.495443
 20
-51.791071
 30
0.0
 11
289.495443
 21
-22.313007
 31
0.0
  0
LINE
  5
198
100
AcDbEntity
  8
0
370
    25
390
0
  6
Continuous
100
AcDbLine
 10
375.495443
 20
-20.968967
 30
0.0
 11
375.495443
 21
-41.42682
 31
0.0
  0
LINE
  5
199
100
AcDbEntity
  8
0
370
    25
390
0
  6
Continuous
100
AcDbLine
 10
387.495443
 20
-51.791071
 30
0.0
 11
387.495443
 21
-21.20461
 31
0.0
  0
LINE
  5
19A
100
AcDbEntity
  8
0
370
    25
390
0
  6
Continuous
100
AcDbLine
 10
289.495443
 20
-167.642382
 30
0.0
 11
289.495443
 21
-142.164318
 31
0.0
  0
LINE
  5
19B
100
AcDbEntity
  8
0
370
    25
390
0
  6
Continuous
100
AcDbLine
 10
375.495443
 20
-152.528568
 30
0.0
 11
375.495443
 21
-168.986422
 31
0.0
  0
LINE
  5
19C
100
AcDbEntity
  8
0
370
    25
390
0
  6
Continuous
100
AcDbLine
 10
387.495443
 20
-168.785689
 30
0.0
 11
387.495443
 21
-142.164318
 31
0.0
  0
LINE
  5
19D
100
AcDbEntity
  8
0
370
    25
390
0
  6
Continuous
100
AcDbLine
 10
285.495443
 20
-68.689888
 30
0.0
 11
285.495443
 21
-39.495149
 31
0.0
  0
LINE
  5
19E
100
AcDbEntity
  8
0
370
    25
390
0
  6
Continuous
100
AcDbLine
 10
391.495443
 20
-39.495149
 30
0.0
 11
391.495443
 21
-68.689888
 31
0.0
  0
LINE
  5
19F
100
AcDbEntity
  8
0
370
    25
390
0
  6
Continuous
100
AcDbLine
 10
375.495443
 20
-168.995149
 30
0.0
 11
387.495443
 21
-168.785689
 31
0.0
  0
LINE
  5
1A0
100
AcDbEntity
  8
0
370
    25
390
0
  6
Continuous
100
AcDbLine
 10
391.495443
 20
-39.495149
 30
0.0
 11
387.495443
 21
-39.495149
 31
0.0
  0
LINE
  5
1A1
100
AcDbEntity
  8
0
370
    25
390
0
  6
Continuous
100
AcDbLine
 10
387.495443
 20
-21.20461
 30
0.0
 11
375.495443
 21
-20.995149
 31
0.0
  0
LINE
  5
1A2
100
AcDbEntity
  8
0
370
    25
390
0
  6
Continuous
100
AcDbLine
 10
299.495443
 20
-22.313007
 30
0.0
 11
289.495443
 21
-22.313007
 31
0.0
  0
LINE
  5
1A3
100
AcDbEntity
  8
0
370
    25
390
0
  6
Continuous
100
AcDbLine
 10
289.495443
 20
-39.495149
 30
0.0
 11
285.495443
 21
-39.495149
 31
0.0
  0
LINE
  5
1A4
100
AcDbEntity
  8
0
370
    25
390
0
  6
Continuous
100
AcDbLine
 10
375.495443
 20
-168.986422
 30
0.0
 11
299.495443
 21
-167.642382
 31
0.0
  0
LINE
  5
1A5
100
AcDbEntity
  8
0
370
    25
390
0
  6
Continuous
100
AcDbLine
 10
299.495443
 20
-167.642382
 30
0.0
 11
289.495443
 21
-167.642382
 31
0.0
  0
LINE
  5
1A6
100
AcDbEntity
  8
0
370
    25
390
0
  6
CENTER
100
AcDbLine
 10
338.495443
 20
-160.218181
 30
0.0
 11
338.495443
 21
-1.724792
 31
0.0
  0
LINE
  5
1A7
100
AcDbEntity
  8
0
370
    25
390
0
  6
CENTER
100
AcDbLine
 10
400.219173
 20
-96.977694
 30
0.0
 11
275.001214
 21
-96.977694
 31
0.0
  0
ARC
  5
1A8
100
AcDbEntity
  8
0
370
    25
390
0
  6
Continuous
100
AcDbCircle
 10
320.839
 20
-93.477694
 30
0.0
 40
1.0
100
AcDbArc
 50
270.0
 51
348.787729
  0
LINE
  5
1A9
100
AcDbEntity
  8
0
370
    25
390
0
  6
Continuous
100
AcDbLine
 10
317.789164
 20
-94.477694
 30
0.0
 11
320.839
 21
-94.477694
 31
0.0
  0
ARC
  5
1AA
100
AcDbEntity
  8
0
370
    25
390
0
  6
Continuous
100
AcDbCircle
 10
317.789164
 20
-93.477694
 30
0.0
 40
1.0
100
AcDbArc
 50
170.405932
 51
270.0
  0
ARC
  5
1AB
100
AcDbEntity
  8
0
370
    25
390
0
  6
Continuous
100
AcDbCircle
 10
312.227592
 20
-93.477694
 30
0.0
 40
1.0
100
AcDbArc
 50
270.0
 51
352.410458
  0
LINE
  5
1AC
100
AcDbEntity
  8
0
370
    25
390
0
  6
Continuous
100
AcDbLine
 10
309.203806
 20
-94.477694
 30
0.0
 11
312.227592
 21
-94.477694
 31
0.0
  0
ARC
  5
1AD
100
AcDbEntity
  8
0
370
    25
390
0
  6
Continuous
100
AcDbCircle
 10
309.203806
 20
-93.477694
 30
0.0
 40
1.0
100
AcDbArc
 50
173.186146
 51
270.0
  0
ARC
  5
1AE
100
AcDbEntity
  8
0
370
    25
390
0
  6
Continuous
100
AcDbCircle
 10
303.670883
 20
-93.477694
 30
0.0
 40
1.0
100
AcDbArc
 50
270.0
 51
354.26083
  0
LINE
  5
1AF
100
AcDbEntity
  8
0
370
    25
390
0
  6
Continuous
100
AcDbLine
 10
300.656971
 20
-94.477694
 30
0.0
 11
303.670883
 21
-94.477694
 31
0.0
  0
ARC
  5
1B0
100
AcDbEntity
  8
0
370
    25
390
0
  6
Continuous
100
AcDbCircle
 10
300.656971
 20
-93.477694
 30
0.0
 40
1.0
100
AcDbArc
 50
174.715267
 51
270.0
  0
ARC
  5
1B1
100
AcDbEntity
  8
0
370
    25
390
0
  6
Continuous
100
AcDbCircle
 10
320.818536
 20
-73.360392
 30
0.0
 40
1.0
100
AcDbArc
 50
30.0
 51
126.813854
  0
LINE
  5
1B2
100
AcDbEntity
  8
0
370
    25
390
0
  6
Continuous
100
AcDbLine
 10
321.684561
 20
-72.860392
 30
0.0
 11
323.196454
 21
-75.479068
 31
0.0
  0
ARC
  5
1B3
100
AcDbEntity
  8
0
370
    25
390
0
  6
Continuous
100
AcDbCircle
 10
322.330429
 20
-75.979068
 30
0.0
 40
1.0
100
AcDbArc
 50
307.589542
 51
30.0
  0
ARC
  5
1B4
100
AcDbEntity
  8
0
370
    25
390
0
  6
Continuous
100
AcDbCircle
 10
316.545118
 20
-65.958616
 30
0.0
 40
1.0
100
AcDbArc
 50
30.0
 51
125.284733
  0
LINE
  5
1B5
100
AcDbEntity
  8
0
370
    25
390
0
  6
Continuous
100
AcDbLine
 10
317.411144
 20
-65.458616
 30
0.0
 11
318.9181
 21
-68.06874
 31
0.0
  0
ARC
  5
1B6
100
AcDbEntity
  8
0
370
    25
390
0
  6
Continuous
100
AcDbCircle
 10
318.052074
 20
-68.56874
 30
0.0
 40
1.0
100
AcDbArc
 50
305.73917
 51
30.0
  0
ARC
  5
1B7
100
AcDbEntity
  8
0
370
    25
390
0
  6
Continuous
100
AcDbCircle
 10
331.048474
 20
-91.079165
 30
0.0
 40
1.0
100
AcDbArc
 50
321.618272
 51
30.0
  0
LINE
  5
1B8
100
AcDbEntity
  8
0
370
    25
390
0
  6
Continuous
100
AcDbLine
 10
330.33038
 20
-87.835389
 30
0.0
 11
331.914499
 21
-90.579165
 31
0.0
  0
ARC
  5
1B9
100
AcDbEntity
  8
0
370
    25
390
0
  6
Continuous
100
AcDbCircle
 10
326.636133
 20
-83.436766
 30
0.0
 40
1.0
100
AcDbArc
 50
311.212271
 51
30.0
  0
LINE
  5
1BA
100
AcDbEntity
  8
0
370
    25
390
0
  6
Continuous
100
AcDbLine
 10
325.97724
 20
-80.29553
 30
0.0
 11
327.502158
 21
-82.936766
 31
0.0
  0
ARC
  5
1BB
100
AcDbEntity
  8
0
370
    25
390
0
  6
Continuous
100
AcDbCircle
 10
325.111215
 20
-80.79553
 30
0.0
 40
1.0
100
AcDbArc
 50
30.0
 51
129.594068
  0
ARC
  5
1BC
100
AcDbEntity
  8
0
370
    25
390
0
  6
Continuous
100
AcDbCircle
 10
329.663682
 20
-93.477694
 30
0.0
 40
1.0
100
AcDbArc
 50
270.0
 51
338.381728
  0
ARC
  5
1BD
100
AcDbEntity
  8
0
370
    25
390
0
  6
Continuous
100
AcDbCircle
 10
338.495443
 20
-96.977694
 30
0.0
 40
8.5
100
AcDbArc
 50
141.618272
 51
158.381728
  0
ARC
  5
1BE
100
AcDbEntity
  8
0
370
    25
390
0
  6
Continuous
100
AcDbCircle
 10
329.464354
 20
-88.335389
 30
0.0
 40
1.0
100
AcDbArc
 50
30.0
 51
136.260205
  0
LINE
  5
1BF
100
AcDbEntity
  8
0
370
    25
390
0
  6
Continuous
100
AcDbLine
 10
326.495443
 20
-94.477694
 30
0.0
 11
329.663682
 21
-94.477694
 31
0.0
  0
ARC
  5
1C0
100
AcDbEntity
  8
0
370
    25
390
0
  6
Continuous
100
AcDbCircle
 10
326.495443
 20
-93.477694
 30
0.0
 40
1.0
100
AcDbArc
 50
163.739795
 51
270.0
  0
ARC
  5
1C1
100
AcDbEntity
  8
0
370
    25
390
0
  6
Continuous
100
AcDbCircle
 10
338.495443
 20
-96.977694
 30
0.0
 40
13.5
100
AcDbArc
 50
136.260205
 51
163.739795
  0
ARC
  5
1C2
100
AcDbEntity
  8
0
370
    25
390
0
  6
Continuous
100
AcDbCircle
 10
338.495443
 20
-96.977694
 30
0.0
 40
17.0
100
AcDbArc
 50
131.212271
 51
168.787729
  0
ARC
  5
1C3
100
AcDbEntity
  8
0
370
    25
390
0
  6
Continuous
100
AcDbCircle
 10
338.495443
 20
-96.977694
 30
0.0
 40
22.0
100
AcDbArc
 50
129.594068
 51
170.405932
  0
ARC
  5
1C4
100
AcDbEntity
  8
0
370
    25
390
0
  6
Continuous
100
AcDbCircle
 10
338.495443
 20
-96.977694
 30
0.0
 40
30.5
100
AcDbArc
 50
126.813854
 51
173.186146
  0
ARC
  5
1C5
100
AcDbEntity
  8
0
370
    25
390
0
  6
Continuous
100
AcDbCircle
 10
338.495443
 20
-96.977694
 30
0.0
 40
25.5
100
AcDbArc
 50
127.589542
 51
172.410458
  0
ARC
  5
1C6
100
AcDbEntity
  8
0
370
    25
390
0
  6
Continuous
100
AcDbCircle
 10
338.495443
 20
-96.977694
 30
0.0
 40
34.0
100
AcDbArc
 50
125.73917
 51
174.26083
  0
ARC
  5
1C7
100
AcDbEntity
  8
0
370
    25
390
0
  6
Continuous
100
AcDbCircle
 10
338.495443
 20
-96.977694
 30
0.0
 40
39.0
100
AcDbArc
 50
125.284733
 51
174.715267
  0
ARC
  5
1C8
100
AcDbEntity
  8
0
370
    25
390
0
  6
Continuous
100
AcDbCircle
 10
326.880714
 20
-69.860392
 30
0.0
 40
1.0
100
AcDbArc
 50
113.186146
 51
210.0
  0
LINE
  5
1C9
100
AcDbEntity
  8
0
370
    25
390
0
  6
Continuous
100
AcDbLine
 10
326.014688
 20
-70.360392
 30
0.0
 11
327.526581
 21
-72.979068
 31
0.0
  0
ARC
  5
1CA
100
AcDbEntity
  8
0
370
    25
390
0
  6
Continuous
100
AcDbCircle
 10
328.392607
 20
-72.479068
 30
0.0
 40
1.0
100
AcDbArc
 50
210.0
 51
292.410458
  0
ARC
  5
1CB
100
AcDbEntity
  8
0
370
    25
390
0
  6
Continuous
100
AcDbCircle
 10
322.607296
 20
-62.458616
 30
0.0
 40
1.0
100
AcDbArc
 50
114.715267
 51
210.0
  0
LINE
  5
1CC
100
AcDbEntity
  8
0
370
    25
390
0
  6
Continuous
100
AcDbLine
 10
321.741271
 20
-62.958616
 30
0.0
 11
323.248227
 21
-65.56874
 31
0.0
  0
ARC
  5
1CD
100
AcDbEntity
  8
0
370
    25
390
0
  6
Continuous
100
AcDbCircle
 10
324.114252
 20
-65.06874
 30
0.0
 40
1.0
100
AcDbArc
 50
210.0
 51
294.26083
  0
ARC
  5
1CE
100
AcDbEntity
  8
0
370
    25
390
0
  6
Continuous
100
AcDbCircle
 10
337.110652
 20
-87.579165
 30
0.0
 40
1.0
100
AcDbArc
 50
210.0
 51
278.381728
  0
LINE
  5
1CF
100
AcDbEntity
  8
0
370
    25
390
0
  6
Continuous
100
AcDbLine
 10
334.660507
 20
-85.335389
 30
0.0
 11
336.244626
 21
-88.079165
 31
0.0
  0
ARC
  5
1D0
100
AcDbEntity
  8
0
370
    25
390
0
  6
Continuous
100
AcDbCircle
 10
332.69831
 20
-79.936766
 30
0.0
 40
1.0
100
AcDbArc
 50
210.0
 51
288.787729
  0
LINE
  5
1D1
100
AcDbEntity
  8
0
370
    25
390
0
  6
Continuous
100
AcDbLine
 10
330.307367
 20
-77.79553
 30
0.0
 11
331.832285
 21
-80.436766
 31
0.0
  0
ARC
  5
1D2
100
AcDbEntity
  8
0
370
    25
390
0
  6
Continuous
100
AcDbCircle
 10
331.173393
 20
-77.29553
 30
0.0
 40
1.0
100
AcDbArc
 50
110.405932
 51
210.0
  0
ARC
  5
1D3
100
AcDbEntity
  8
0
370
    25
390
0
  6
Continuous
100
AcDbCircle
 10
339.880235
 20
-87.579165
 30
0.0
 40
1.0
100
AcDbArc
 50
261.618272
 51
330.0
  0
ARC
  5
1D4
100
AcDbEntity
  8
0
370
    25
390
0
  6
Continuous
100
AcDbCircle
 10
338.495443
 20
-96.977694
 30
0.0
 40
8.5
100
AcDbArc
 50
81.618272
 51
98.381728
  0
ARC
  5
1D5
100
AcDbEntity
  8
0
370
    25
390
0
  6
Continuous
100
AcDbCircle
 10
335.526532
 20
-84.835389
 30
0.0
 40
1.0
100
AcDbArc
 50
103.739795
 51
210.0
  0
LINE
  5
1D6
100
AcDbEntity
  8
0
370
    25
390
0
  6
Continuous
100
AcDbLine
 10
342.33038
 20
-85.335389
 30
0.0
 11
340.74626
 21
-88.079165
 31
0.0
  0
ARC
  5
1D7
100
AcDbEntity
  8
0
370
    25
390
0
  6
Continuous
100
AcDbCircle
 10
341.464354
 20
-84.835389
 30
0.0
 40
1.0
100
AcDbArc
 50
330.0
 51
76.260205
  0
ARC
  5
1D8
100
AcDbEntity
  8
0
370
    25
390
0
  6
Continuous
100
AcDbCircle
 10
338.495443
 20
-96.977694
 30
0.0
 40
13.5
100
AcDbArc
 50
76.260205
 51
103.739795
  0
ARC
  5
1D9
100
AcDbEntity
  8
0
370
    25
390
0
  6
Continuous
100
AcDbCircle
 10
344.292576
 20
-79.936766
 30
0.0
 40
1.0
100
AcDbArc
 50
251.212271
 51
330.0
  0
LINE
  5
1DA
100
AcDbEntity
  8
0
370
    25
390
0
  6
Continuous
100
AcDbLine
 10
346.683519
 20
-77.79553
 30
0.0
 11
345.158602
 21
-80.436766
 31
0.0
  0
ARC
  5
1DB
100
AcDbEntity
  8
0
370
    25
390
0
  6
Continuous
100
AcDbCircle
 10
338.495443
 20
-96.977694
 30
0.0
 40
17.0
100
AcDbArc
 50
71.212271
 51
108.787729
  0
ARC
  5
1DC
100
AcDbEntity
  8
0
370
    25
390
0
  6
Continuous
100
AcDbCircle
 10
345.817494
 20
-77.29553
 30
0.0
 40
1.0
100
AcDbArc
 50
330.0
 51
69.594068
  0
ARC
  5
1DD
100
AcDbEntity
  8
0
370
    25
390
0
  6
Continuous
100
AcDbCircle
 10
348.59828
 20
-72.479068
 30
0.0
 40
1.0
100
AcDbArc
 50
247.589542
 51
330.0
  0
ARC
  5
1DE
100
AcDbEntity
  8
0
370
    25
390
0
  6
Continuous
100
AcDbCircle
 10
352.876635
 20
-65.06874
 30
0.0
 40
1.0
100
AcDbArc
 50
245.73917
 51
330.0
  0
ARC
  5
1DF
100
AcDbEntity
  8
0
370
    25
390
0
  6
Continuous
100
AcDbCircle
 10
338.495443
 20
-96.977694
 30
0.0
 40
22.0
100
AcDbArc
 50
69.594068
 51
110.405932
  0
LINE
  5
1E0
100
AcDbEntity
  8
0
370
    25
390
0
  6
Continuous
100
AcDbLine
 10
350.976198
 20
-70.360392
 30
0.0
 11
349.464305
 21
-72.979068
 31
0.0
  0
ARC
  5
1E1
100
AcDbEntity
  8
0
370
    25
390
0
  6
Continuous
100
AcDbCircle
 10
350.110173
 20
-69.860392
 30
0.0
 40
1.0
100
AcDbArc
 50
330.0
 51
66.813854
  0
ARC
  5
1E2
100
AcDbEntity
  8
0
370
    25
390
0
  6
Continuous
100
AcDbCircle
 10
338.495443
 20
-96.977694
 30
0.0
 40
30.5
100
AcDbArc
 50
66.813854
 51
113.186146
  0
ARC
  5
1E3
100
AcDbEntity
  8
0
370
    25
390
0
  6
Continuous
100
AcDbCircle
 10
338.495443
 20
-96.977694
 30
0.0
 40
25.5
100
AcDbArc
 50
67.589542
 51
112.410458
  0
ARC
  5
1E4
100
AcDbEntity
  8
0
370
    25
390
0
  6
Continuous
100
AcDbCircle
 10
338.495443
 20
-96.977694
 30
0.0
 40
34.0
100
AcDbArc
 50
65.73917
 51
114.26083
  0
ARC
  5
1E5
100
AcDbEntity
  8
0
370
    25
390
0
  6
Continuous
100
AcDbCircle
 10
338.495443
 20
-96.977694
 30
0.0
 40
39.0
100
AcDbArc
 50
65.284733
 51
114.715267
  0
LINE
  5
1E6
100
AcDbEntity
  8
0
370
    25
390
0
  6
Continuous
100
AcDbLine
 10
355.249616
 20
-62.958616
 30
0.0
 11
353.74266
 21
-65.56874
 31
0.0
  0
ARC
  5
1E7
100
AcDbEntity
  8
0
370
    25
390
0
  6
Continuous
100
AcDbCircle
 10
354.383591
 20
-62.458616
 30
0.0
 40
1.0
100
AcDbArc
 50
330.0
 51
65.284733
  0
CIRCLE
  5
1E8
100
AcDbEntity
  8
0
370
    25
390
0
  6
Continuous
100
AcDbCircle
 10
338.495443
 20
-96.977694
 30
0.0
 40
5.0
  0
ARC
  5
1E9
100
AcDbEntity
  8
0
370
    25
390
0
  6
Continuous
100
AcDbCircle
 10
360.445768
 20
-65.958616
 30
0.0
 40
1.0
100
AcDbArc
 50
54.715267
 51
150.0
  0
ARC
  5
1EA
100
AcDbEntity
  8
0
370
    25
390
0
  6
Continuous
100
AcDbCircle
 10
358.938812
 20
-68.56874
 30
0.0
 40
1.0
100
AcDbArc
 50
150.0
 51
234.26083
  0
ARC
  5
1EB
100
AcDbEntity
  8
0
370
    25
390
0
  6
Continuous
100
AcDbCircle
 10
373.320004
 20
-93.477694
 30
0.0
 40
1.0
100
AcDbArc
 50
185.73917
 51
270.0
  0
ARC
  5
1EC
100
AcDbEntity
  8
0
370
    25
390
0
  6
Continuous
100
AcDbCircle
 10
376.333916
 20
-93.477694
 30
0.0
 40
1.0
100
AcDbArc
 50
270.0
 51
5.284733
  0
ARC
  5
1ED
100
AcDbEntity
  8
0
370
    25
390
0
  6
Continuous
100
AcDbCircle
 10
364.763294
 20
-93.477694
 30
0.0
 40
1.0
100
AcDbArc
 50
187.589542
 51
270.0
  0
ARC
  5
1EE
100
AcDbEntity
  8
0
370
    25
390
0
  6
Continuous
100
AcDbCircle
 10
356.172351
 20
-73.360392
 30
0.0
 40
1.0
100
AcDbArc
 50
53.186146
 51
150.0
  0
ARC
  5
1EF
100
AcDbEntity
  8
0
370
    25
390
0
  6
Continuous
100
AcDbCircle
 10
354.660458
 20
-75.979068
 30
0.0
 40
1.0
100
AcDbArc
 50
150.0
 51
232.410458
  0
ARC
  5
1F0
100
AcDbEntity
  8
0
370
    25
390
0
  6
Continuous
100
AcDbCircle
 10
367.78708
 20
-93.477694
 30
0.0
 40
1.0
100
AcDbArc
 50
270.0
 51
6.813854
  0
ARC
  5
1F1
100
AcDbEntity
  8
0
370
    25
390
0
  6
Continuous
100
AcDbCircle
 10
359.201723
 20
-93.477694
 30
0.0
 40
1.0
100
AcDbArc
 50
270.0
 51
9.594068
  0
ARC
  5
1F2
100
AcDbEntity
  8
0
370
    25
390
0
  6
Continuous
100
AcDbCircle
 10
356.151887
 20
-93.477694
 30
0.0
 40
1.0
100
AcDbArc
 50
191.212271
 51
270.0
  0
ARC
  5
1F3
100
AcDbEntity
  8
0
370
    25
390
0
  6
Continuous
100
AcDbCircle
 10
351.879672
 20
-80.79553
 30
0.0
 40
1.0
100
AcDbArc
 50
50.405932
 51
150.0
  0
ARC
  5
1F4
100
AcDbEntity
  8
0
370
    25
390
0
  6
Continuous
100
AcDbCircle
 10
350.354754
 20
-83.436766
 30
0.0
 40
1.0
100
AcDbArc
 50
150.0
 51
228.787729
  0
ARC
  5
1F5
100
AcDbEntity
  8
0
370
    25
390
0
  6
Continuous
100
AcDbCircle
 10
347.526532
 20
-88.335389
 30
0.0
 40
1.0
100
AcDbArc
 50
43.739795
 51
150.0
  0
ARC
  5
1F6
100
AcDbEntity
  8
0
370
    25
390
0
  6
Continuous
100
AcDbCircle
 10
350.495443
 20
-93.477694
 30
0.0
 40
1.0
100
AcDbArc
 50
270.0
 51
16.260205
  0
ARC
  5
1F7
100
AcDbEntity
  8
0
370
    25
390
0
  6
Continuous
100
AcDbCircle
 10
347.327204
 20
-93.477694
 30
0.0
 40
1.0
100
AcDbArc
 50
201.618272
 51
270.0
  0
ARC
  5
1F8
100
AcDbEntity
  8
0
370
    25
390
0
  6
Continuous
100
AcDbCircle
 10
345.942413
 20
-91.079165
 30
0.0
 40
1.0
100
AcDbArc
 50
150.0
 51
218.381728
  0
ARC
  5
1F9
100
AcDbEntity
  8
0
370
    25
390
0
  6
Continuous
100
AcDbCircle
 10
338.495443
 20
-96.977694
 30
0.0
 40
39.0
100
AcDbArc
 50
5.284733
 51
54.715267
  0
ARC
  5
1FA
100
AcDbEntity
  8
0
370
    25
390
0
  6
Continuous
100
AcDbCircle
 10
338.495443
 20
-96.977694
 30
0.0
 40
30.5
100
AcDbArc
 50
6.813854
 51
53.186146
  0
ARC
  5
1FB
100
AcDbEntity
  8
0
370
    25
390
0
  6
Continuous
100
AcDbCircle
 10
338.495443
 20
-96.977694
 30
0.0
 40
34.0
100
AcDbArc
 50
5.73917
 51
54.26083
  0
ARC
  5
1FC
100
AcDbEntity
  8
0
370
    25
390
0
  6
Continuous
100
AcDbCircle
 10
338.495443
 20
-96.977694
 30
0.0
 40
25.5
100
AcDbArc
 50
7.589542
 51
52.410458
  0
ARC
  5
1FD
100
AcDbEntity
  8
0
370
    25
390
0
  6
Continuous
100
AcDbCircle
 10
338.495443
 20
-96.977694
 30
0.0
 40
22.0
100
AcDbArc
 50
9.594068
 51
50.405932
  0
ARC
  5
1FE
100
AcDbEntity
  8
0
370
    25
390
0
  6
Continuous
100
AcDbCircle
 10
338.495443
 20
-96.977694
 30
0.0
 40
17.0
100
AcDbArc
 50
11.212271
 51
48.787729
  0
ARC
  5
1FF
100
AcDbEntity
  8
0
370
    25
390
0
  6
Continuous
100
AcDbCircle
 10
338.495443
 20
-96.977694
 30
0.0
 40
13.5
100
AcDbArc
 50
16.260205
 51
43.739795
  0
ARC
  5
200
100
AcDbEntity
  8
0
370
    25
390
0
  6
Continuous
100
AcDbCircle
 10
338.495443
 20
-96.977694
 30
0.0
 40
8.5
100
AcDbArc
 50
21.618272
 51
38.381728
  0
LINE
  5
201
100
AcDbEntity
  8
0
370
    25
390
0
  6
Continuous
100
AcDbLine
 10
355.306325
 20
-72.860392
 30
0.0
 11
353.794432
 21
-75.479068
 31
0.0
  0
LINE
  5
202
100
AcDbEntity
  8
0
370
    25
390
0
  6
Continuous
100
AcDbLine
 10
376.333916
 20
-94.477694
 30
0.0
 11
373.320004
 21
-94.477694
 31
0.0
  0
LINE
  5
203
100
AcDbEntity
  8
0
370
    25
390
0
  6
Continuous
100
AcDbLine
 10
359.579743
 20
-65.458616
 30
0.0
 11
358.072787
 21
-68.06874
 31
0.0
  0
LINE
  5
204
100
AcDbEntity
  8
0
370
    25
390
0
  6
Continuous
100
AcDbLine
 10
351.013646
 20
-80.29553
 30
0.0
 11
349.488729
 21
-82.936766
 31
0.0
  0
LINE
  5
205
100
AcDbEntity
  8
0
370
    25
390
0
  6
Continuous
100
AcDbLine
 10
346.660507
 20
-87.835389
 30
0.0
 11
345.076387
 21
-90.579165
 31
0.0
  0
LINE
  5
206
100
AcDbEntity
  8
0
370
    25
390
0
  6
Continuous
100
AcDbLine
 10
350.495443
 20
-94.477694
 30
0.0
 11
347.327204
 21
-94.477694
 31
0.0
  0
LINE
  5
207
100
AcDbEntity
  8
0
370
    25
390
0
  6
Continuous
100
AcDbLine
 10
359.201723
 20
-94.477694
 30
0.0
 11
356.151887
 21
-94.477694
 31
0.0
  0
LINE
  5
208
100
AcDbEntity
  8
0
370
    25
390
0
  6
Continuous
100
AcDbLine
 10
367.78708
 20
-94.477694
 30
0.0
 11
364.763294
 21
-94.477694
 31
0.0
  0
ARC
  5
209
100
AcDbEntity
  8
0
370
    25
390
0
  6
Continuous
100
AcDbCircle
 10
338.495443
 20
-96.977694
 30
0.0
 40
39.0
100
AcDbArc
 50
245.284733
 51
294.715267
  0
ARC
  5
20A
100
AcDbEntity
  8
0
370
    25
390
0
  6
Continuous
100
AcDbCircle
 10
338.495443
 20
-96.977694
 30
0.0
 40
34.0
100
AcDbArc
 50
245.73917
 51
294.26083
  0
ARC
  5
20B
100
AcDbEntity
  8
0
370
    25
390
0
  6
Continuous
100
AcDbCircle
 10
338.495443
 20
-96.977694
 30
0.0
 40
25.5
100
AcDbArc
 50
247.589542
 51
292.410458
  0
ARC
  5
20C
100
AcDbEntity
  8
0
370
    25
390
0
  6
Continuous
100
AcDbCircle
 10
338.495443
 20
-96.977694
 30
0.0
 40
30.5
100
AcDbArc
 50
246.813854
 51
293.186146
  0
ARC
  5
20D
100
AcDbEntity
  8
0
370
    25
390
0
  6
Continuous
100
AcDbCircle
 10
338.495443
 20
-96.977694
 30
0.0
 40
22.0
100
AcDbArc
 50
249.594068
 51
290.405932
  0
ARC
  5
20E
100
AcDbEntity
  8
0
370
    25
390
0
  6
Continuous
100
AcDbCircle
 10
338.495443
 20
-96.977694
 30
0.0
 40
17.0
100
AcDbArc
 50
251.212271
 51
288.787729
  0
ARC
  5
20F
100
AcDbEntity
  8
0
370
    25
390
0
  6
Continuous
100
AcDbCircle
 10
338.495443
 20
-96.977694
 30
0.0
 40
13.5
100
AcDbArc
 50
256.260205
 51
283.739795
  0
ARC
  5
210
100
AcDbEntity
  8
0
370
    25
390
0
  6
Continuous
100
AcDbCircle
 10
335.526532
 20
-109.119999
 30
0.0
 40
1.0
100
AcDbArc
 50
150.0
 51
256.260205
  0
ARC
  5
211
100
AcDbEntity
  8
0
370
    25
390
0
  6
Continuous
100
AcDbCircle
 10
331.173393
 20
-116.659858
 30
0.0
 40
1.0
100
AcDbArc
 50
150.0
 51
249.594068
  0
LINE
  5
212
100
AcDbEntity
  8
0
370
    25
390
0
  6
Continuous
100
AcDbLine
 10
330.307367
 20
-116.159858
 30
0.0
 11
331.832285
 21
-113.518623
 31
0.0
  0
ARC
  5
213
100
AcDbEntity
  8
0
370
    25
390
0
  6
Continuous
100
AcDbCircle
 10
332.69831
 20
-114.018623
 30
0.0
 40
1.0
100
AcDbArc
 50
71.212271
 51
150.0
  0
LINE
  5
214
100
AcDbEntity
  8
0
370
    25
390
0
  6
Continuous
100
AcDbLine
 10
334.660507
 20
-108.619999
 30
0.0
 11
336.244626
 21
-105.876224
 31
0.0
  0
ARC
  5
215
100
AcDbEntity
  8
0
370
    25
390
0
  6
Continuous
100
AcDbCircle
 10
337.110652
 20
-106.376224
 30
0.0
 40
1.0
100
AcDbArc
 50
81.618272
 51
150.0
  0
ARC
  5
216
100
AcDbEntity
  8
0
370
    25
390
0
  6
Continuous
100
AcDbCircle
 10
324.114252
 20
-128.886648
 30
0.0
 40
1.0
100
AcDbArc
 50
65.73917
 51
150.0
  0
LINE
  5
217
100
AcDbEntity
  8
0
370
    25
390
0
  6
Continuous
100
AcDbLine
 10
321.741271
 20
-130.996773
 30
0.0
 11
323.248227
 21
-128.386648
 31
0.0
  0
ARC
  5
218
100
AcDbEntity
  8
0
370
    25
390
0
  6
Continuous
100
AcDbCircle
 10
322.607296
 20
-131.496773
 30
0.0
 40
1.0
100
AcDbArc
 50
150.0
 51
245.284733
  0
ARC
  5
219
100
AcDbEntity
  8
0
370
    25
390
0
  6
Continuous
100
AcDbCircle
 10
328.392607
 20
-121.476321
 30
0.0
 40
1.0
100
AcDbArc
 50
67.589542
 51
150.0
  0
LINE
  5
21A
100
AcDbEntity
  8
0
370
    25
390
0
  6
Continuous
100
AcDbLine
 10
326.014688
 20
-123.594996
 30
0.0
 11
327.526581
 21
-120.976321
 31
0.0
  0
ARC
  5
21B
100
AcDbEntity
  8
0
370
    25
390
0
  6
Continuous
100
AcDbCircle
 10
326.880714
 20
-124.094996
 30
0.0
 40
1.0
100
AcDbArc
 50
150.0
 51
246.813854
  0
ARC
  5
21C
100
AcDbEntity
  8
0
370
    25
390
0
  6
Continuous
100
AcDbCircle
 10
338.495443
 20
-96.977694
 30
0.0
 40
39.0
100
AcDbArc
 50
185.284733
 51
234.715267
  0
ARC
  5
21D
100
AcDbEntity
  8
0
370
    25
390
0
  6
Continuous
100
AcDbCircle
 10
338.495443
 20
-96.977694
 30
0.0
 40
34.0
100
AcDbArc
 50
185.73917
 51
234.26083
  0
ARC
  5
21E
100
AcDbEntity
  8
0
370
    25
390
0
  6
Continuous
100
AcDbCircle
 10
338.495443
 20
-96.977694
 30
0.0
 40
25.5
100
AcDbArc
 50
187.589542
 51
232.410458
  0
ARC
  5
21F
100
AcDbEntity
  8
0
370
    25
390
0
  6
Continuous
100
AcDbCircle
 10
338.495443
 20
-96.977694
 30
0.0
 40
30.5
100
AcDbArc
 50
186.813854
 51
233.186146
  0
ARC
  5
220
100
AcDbEntity
  8
0
370
    25
390
0
  6
Continuous
100
AcDbCircle
 10
338.495443
 20
-96.977694
 30
0.0
 40
22.0
100
AcDbArc
 50
189.594068
 51
230.405932
  0
ARC
  5
221
100
AcDbEntity
  8
0
370
    25
390
0
  6
Continuous
100
AcDbCircle
 10
338.495443
 20
-96.977694
 30
0.0
 40
17.0
100
AcDbArc
 50
191.212271
 51
228.787729
  0
ARC
  5
222
100
AcDbEntity
  8
0
370
    25
390
0
  6
Continuous
100
AcDbCircle
 10
338.495443
 20
-96.977694
 30
0.0
 40
13.5
100
AcDbArc
 50
196.260205
 51
223.739795
  0
ARC
  5
223
100
AcDbEntity
  8
0
370
    25
390
0
  6
Continuous
100
AcDbCircle
 10
326.495443
 20
-100.477694
 30
0.0
 40
1.0
100
AcDbArc
 50
90.0
 51
196.260205
  0
LINE
  5
224
100
AcDbEntity
  8
0
370
    25
390
0
  6
Continuous
100
AcDbLine
 10
326.495443
 20
-99.477694
 30
0.0
 11
329.663682
 21
-99.477694
 31
0.0
  0
ARC
  5
225
100
AcDbEntity
  8
0
370
    25
390
0
  6
Continuous
100
AcDbCircle
 10
329.464354
 20
-105.619999
 30
0.0
 40
1.0
100
AcDbArc
 50
223.739795
 51
330.0
  0
ARC
  5
226
100
AcDbEntity
  8
0
370
    25
390
0
  6
Continuous
100
AcDbCircle
 10
338.495443
 20
-96.977694
 30
0.0
 40
8.5
100
AcDbArc
 50
201.618272
 51
218.381728
  0
ARC
  5
227
100
AcDbEntity
  8
0
370
    25
390
0
  6
Continuous
100
AcDbCircle
 10
329.663682
 20
-100.477694
 30
0.0
 40
1.0
100
AcDbArc
 50
21.618272
 51
90.0
  0
ARC
  5
228
100
AcDbEntity
  8
0
370
    25
390
0
  6
Continuous
100
AcDbCircle
 10
325.111215
 20
-113.159858
 30
0.0
 40
1.0
100
AcDbArc
 50
230.405932
 51
330.0
  0
LINE
  5
229
100
AcDbEntity
  8
0
370
    25
390
0
  6
Continuous
100
AcDbLine
 10
325.97724
 20
-113.659858
 30
0.0
 11
327.502158
 21
-111.018623
 31
0.0
  0
ARC
  5
22A
100
AcDbEntity
  8
0
370
    25
390
0
  6
Continuous
100
AcDbCircle
 10
326.636133
 20
-110.518623
 30
0.0
 40
1.0
100
AcDbArc
 50
330.0
 51
48.787729
  0
LINE
  5
22B
100
AcDbEntity
  8
0
370
    25
390
0
  6
Continuous
100
AcDbLine
 10
330.33038
 20
-106.119999
 30
0.0
 11
331.914499
 21
-103.376224
 31
0.0
  0
ARC
  5
22C
100
AcDbEntity
  8
0
370
    25
390
0
  6
Continuous
100
AcDbCircle
 10
331.048474
 20
-102.876224
 30
0.0
 40
1.0
100
AcDbArc
 50
330.0
 51
38.381728
  0
ARC
  5
22D
100
AcDbEntity
  8
0
370
    25
390
0
  6
Continuous
100
AcDbCircle
 10
318.052074
 20
-125.386648
 30
0.0
 40
1.0
100
AcDbArc
 50
330.0
 51
54.26083
  0
LINE
  5
22E
100
AcDbEntity
  8
0
370
    25
390
0
  6
Continuous
100
AcDbLine
 10
317.411144
 20
-128.496773
 30
0.0
 11
318.9181
 21
-125.886648
 31
0.0
  0
ARC
  5
22F
100
AcDbEntity
  8
0
370
    25
390
0
  6
Continuous
100
AcDbCircle
 10
316.545118
 20
-127.996773
 30
0.0
 40
1.0
100
AcDbArc
 50
234.715267
 51
330.0
  0
ARC
  5
230
100
AcDbEntity
  8
0
370
    25
390
0
  6
Continuous
100
AcDbCircle
 10
322.330429
 20
-117.976321
 30
0.0
 40
1.0
100
AcDbArc
 50
330.0
 51
52.410458
  0
LINE
  5
231
100
AcDbEntity
  8
0
370
    25
390
0
  6
Continuous
100
AcDbLine
 10
321.684561
 20
-121.094996
 30
0.0
 11
323.196454
 21
-118.476321
 31
0.0
  0
ARC
  5
232
100
AcDbEntity
  8
0
370
    25
390
0
  6
Continuous
100
AcDbCircle
 10
320.818536
 20
-120.594996
 30
0.0
 40
1.0
100
AcDbArc
 50
233.186146
 51
330.0
  0
ARC
  5
233
100
AcDbEntity
  8
0
370
    25
390
0
  6
Continuous
100
AcDbCircle
 10
300.656971
 20
-100.477694
 30
0.0
 40
1.0
100
AcDbArc
 50
90.0
 51
185.284733
  0
LINE
  5
234
100
AcDbEntity
  8
0
370
    25
390
0
  6
Continuous
100
AcDbLine
 10
300.656971
 20
-99.477694
 30
0.0
 11
303.670883
 21
-99.477694
 31
0.0
  0
ARC
  5
235
100
AcDbEntity
  8
0
370
    25
390
0
  6
Continuous
100
AcDbCircle
 10
303.670883
 20
-100.477694
 30
0.0
 40
1.0
100
AcDbArc
 50
5.73917
 51
90.0
  0
ARC
  5
236
100
AcDbEntity
  8
0
370
    25
390
0
  6
Continuous
100
AcDbCircle
 10
309.203806
 20
-100.477694
 30
0.0
 40
1.0
100
AcDbArc
 50
90.0
 51
186.813854
  0
LINE
  5
237
100
AcDbEntity
  8
0
370
    25
390
0
  6
Continuous
100
AcDbLine
 10
309.203806
 20
-99.477694
 30
0.0
 11
312.227592
 21
-99.477694
 31
0.0
  0
ARC
  5
238
100
AcDbEntity
  8
0
370
    25
390
0
  6
Continuous
100
AcDbCircle
 10
312.227592
 20
-100.477694
 30
0.0
 40
1.0
100
AcDbArc
 50
7.589542
 51
90.0
  0
ARC
  5
239
100
AcDbEntity
  8
0
370
    25
390
0
  6
Continuous
100
AcDbCircle
 10
317.789164
 20
-100.477694
 30
0.0
 40
1.0
100
AcDbArc
 50
90.0
 51
189.594068
  0
LINE
  5
23A
100
AcDbEntity
  8
0
370
    25
390
0
  6
Continuous
100
AcDbLine
 10
317.789164
 20
-99.477694
 30
0.0
 11
320.839
 21
-99.477694
 31
0.0
  0
ARC
  5
23B
100
AcDbEntity
  8
0
370
    25
390
0
  6
Continuous
100
AcDbCircle
 10
320.839
 20
-100.477694
 30
0.0
 40
1.0
100
AcDbArc
 50
11.212271
 51
90.0
  0
ARC
  5
23C
100
AcDbEntity
  8
0
370
    25
390
0
  6
Continuous
100
AcDbCircle
 10
341.464354
 20
-109.119999
 30
0.0
 40
1.0
100
AcDbArc
 50
283.739795
 51
30.0
  0
LINE
  5
23D
100
AcDbEntity
  8
0
370
    25
390
0
  6
Continuous
100
AcDbLine
 10
342.33038
 20
-108.619999
 30
0.0
 11
340.74626
 21
-105.876224
 31
0.0
  0
ARC
  5
23E
100
AcDbEntity
  8
0
370
    25
390
0
  6
Continuous
100
AcDbCircle
 10
338.495443
 20
-96.977694
 30
0.0
 40
8.5
100
AcDbArc
 50
261.618272
 51
278.381728
  0
ARC
  5
23F
100
AcDbEntity
  8
0
370
    25
390
0
  6
Continuous
100
AcDbCircle
 10
339.880235
 20
-106.376224
 30
0.0
 40
1.0
100
AcDbArc
 50
30.0
 51
98.381728
  0
LINE
  5
240
100
AcDbEntity
  8
0
370
    25
390
0
  6
Continuous
100
AcDbLine
 10
367.78708
 20
-99.477694
 30
0.0
 11
364.763294
 21
-99.477694
 31
0.0
  0
LINE
  5
241
100
AcDbEntity
  8
0
370
    25
390
0
  6
Continuous
100
AcDbLine
 10
359.201723
 20
-99.477694
 30
0.0
 11
356.151887
 21
-99.477694
 31
0.0
  0
LINE
  5
242
100
AcDbEntity
  8
0
370
    25
390
0
  6
Continuous
100
AcDbLine
 10
350.495443
 20
-99.477694
 30
0.0
 11
347.327204
 21
-99.477694
 31
0.0
  0
LINE
  5
243
100
AcDbEntity
  8
0
370
    25
390
0
  6
Continuous
100
AcDbLine
 10
346.660507
 20
-106.119999
 30
0.0
 11
345.076387
 21
-103.376224
 31
0.0
  0
LINE
  5
244
100
AcDbEntity
  8
0
370
    25
390
0
  6
Continuous
100
AcDbLine
 10
351.013646
 20
-113.659858
 30
0.0
 11
349.488729
 21
-111.018623
 31
0.0
  0
LINE
  5
245
100
AcDbEntity
  8
0
370
    25
390
0
  6
Continuous
100
AcDbLine
 10
359.579743
 20
-128.496773
 30
0.0
 11
358.072787
 21
-125.886648
 31
0.0
  0
LINE
  5
246
100
AcDbEntity
  8
0
370
    25
390
0
  6
Continuous
100
AcDbLine
 10
355.306325
 20
-121.094996
 30
0.0
 11
353.794432
 21
-118.476321
 31
0.0
  0
ARC
  5
247
100
AcDbEntity
  8
0
370
    25
390
0
  6
Continuous
100
AcDbCircle
 10
338.495443
 20
-96.977694
 30
0.0
 40
8.5
100
AcDbArc
 50
321.618272
 51
338.381728
  0
ARC
  5
248
100
AcDbEntity
  8
0
370
    25
390
0
  6
Continuous
100
AcDbCircle
 10
338.495443
 20
-96.977694
 30
0.0
 40
13.5
100
AcDbArc
 50
316.260205
 51
343.739795
  0
ARC
  5
249
100
AcDbEntity
  8
0
370
    25
390
0
  6
Continuous
100
AcDbCircle
 10
338.495443
 20
-96.977694
 30
0.0
 40
17.0
100
AcDbArc
 50
311.212271
 51
348.787729
  0
ARC
  5
24A
100
AcDbEntity
  8
0
370
    25
390
0
  6
Continuous
100
AcDbCircle
 10
338.495443
 20
-96.977694
 30
0.0
 40
22.0
100
AcDbArc
 50
309.594068
 51
350.405932
  0
ARC
  5
24B
100
AcDbEntity
  8
0
370
    25
390
0
  6
Continuous
100
AcDbCircle
 10
338.495443
 20
-96.977694
 30
0.0
 40
25.5
100
AcDbArc
 50
307.589542
 51
352.410458
  0
ARC
  5
24C
100
AcDbEntity
  8
0
370
    25
390
0
  6
Continuous
100
AcDbCircle
 10
338.495443
 20
-96.977694
 30
0.0
 40
34.0
100
AcDbArc
 50
305.73917
 51
354.26083
  0
ARC
  5
24D
100
AcDbEntity
  8
0
370
    25
390
0
  6
Continuous
100
AcDbCircle
 10
338.495443
 20
-96.977694
 30
0.0
 40
30.5
100
AcDbArc
 50
306.813854
 51
353.186146
  0
ARC
  5
24E
100
AcDbEntity
  8
0
370
    25
390
0
  6
Continuous
100
AcDbCircle
 10
338.495443
 20
-96.977694
 30
0.0
 40
39.0
100
AcDbArc
 50
305.284733
 51
354.715267
  0
ARC
  5
24F
100
AcDbEntity
  8
0
370
    25
390
0
  6
Continuous
100
AcDbCircle
 10
345.942413
 20
-102.876224
 30
0.0
 40
1.0
100
AcDbArc
 50
141.618272
 51
210.0
  0
ARC
  5
250
100
AcDbEntity
  8
0
370
    25
390
0
  6
Continuous
100
AcDbCircle
 10
347.327204
 20
-100.477694
 30
0.0
 40
1.0
100
AcDbArc
 50
90.0
 51
158.381728
  0
ARC
  5
251
100
AcDbEntity
  8
0
370
    25
390
0
  6
Continuous
100
AcDbCircle
 10
350.495443
 20
-100.477694
 30
0.0
 40
1.0
100
AcDbArc
 50
343.739795
 51
90.0
  0
ARC
  5
252
100
AcDbEntity
  8
0
370
    25
390
0
  6
Continuous
100
AcDbCircle
 10
347.526532
 20
-105.619999
 30
0.0
 40
1.0
100
AcDbArc
 50
210.0
 51
316.260205
  0
ARC
  5
253
100
AcDbEntity
  8
0
370
    25
390
0
  6
Continuous
100
AcDbCircle
 10
350.354754
 20
-110.518623
 30
0.0
 40
1.0
100
AcDbArc
 50
131.212271
 51
210.0
  0
ARC
  5
254
100
AcDbEntity
  8
0
370
    25
390
0
  6
Continuous
100
AcDbCircle
 10
351.879672
 20
-113.159858
 30
0.0
 40
1.0
100
AcDbArc
 50
210.0
 51
309.594068
  0
ARC
  5
255
100
AcDbEntity
  8
0
370
    25
390
0
  6
Continuous
100
AcDbCircle
 10
356.151887
 20
-100.477694
 30
0.0
 40
1.0
100
AcDbArc
 50
90.0
 51
168.787729
  0
ARC
  5
256
100
AcDbEntity
  8
0
370
    25
390
0
  6
Continuous
100
AcDbCircle
 10
359.201723
 20
-100.477694
 30
0.0
 40
1.0
100
AcDbArc
 50
350.405932
 51
90.0
  0
ARC
  5
257
100
AcDbEntity
  8
0
370
    25
390
0
  6
Continuous
100
AcDbCircle
 10
354.660458
 20
-117.976321
 30
0.0
 40
1.0
100
AcDbArc
 50
127.589542
 51
210.0
  0
ARC
  5
258
100
AcDbEntity
  8
0
370
    25
390
0
  6
Continuous
100
AcDbCircle
 10
356.172351
 20
-120.594996
 30
0.0
 40
1.0
100
AcDbArc
 50
210.0
 51
306.813854
  0
ARC
  5
259
100
AcDbEntity
  8
0
370
    25
390
0
  6
Continuous
100
AcDbCircle
 10
364.763294
 20
-100.477694
 30
0.0
 40
1.0
100
AcDbArc
 50
90.0
 51
172.410458
  0
ARC
  5
25A
100
AcDbEntity
  8
0
370
    25
390
0
  6
Continuous
100
AcDbCircle
 10
358.938812
 20
-125.386648
 30
0.0
 40
1.0
100
AcDbArc
 50
125.73917
 51
210.0
  0
ARC
  5
25B
100
AcDbEntity
  8
0
370
    25
390
0
  6
Continuous
100
AcDbCircle
 10
360.445768
 20
-127.996773
 30
0.0
 40
1.0
100
AcDbArc
 50
210.0
 51
305.284733
  0
ARC
  5
25C
100
AcDbEntity
  8
0
370
    25
390
0
  6
Continuous
100
AcDbCircle
 10
354.383591
 20
-131.496773
 30
0.0
 40
1.0
100
AcDbArc
 50
294.715267
 51
30.0
  0
LINE
  5
25D
100
AcDbEntity
  8
0
370
    25
390
0
  6
Continuous
100
AcDbLine
 10
355.249616
 20
-130.996773
 30
0.0
 11
353.74266
 21
-128.386648
 31
0.0
  0
ARC
  5
25E
100
AcDbEntity
  8
0
370
    25
390
0
  6
Continuous
100
AcDbCircle
 10
350.110173
 20
-124.094996
 30
0.0
 40
1.0
100
AcDbArc
 50
293.186146
 51
30.0
  0
LINE
  5
25F
100
AcDbEntity
  8
0
370
    25
390
0
  6
Continuous
100
AcDbLine
 10
350.976198
 20
-123.594996
 30
0.0
 11
349.464305
 21
-120.976321
 31
0.0
  0
ARC
  5
260
100
AcDbEntity
  8
0
370
    25
390
0
  6
Continuous
100
AcDbCircle
 10
352.876635
 20
-128.886648
 30
0.0
 40
1.0
100
AcDbArc
 50
30.0
 51
114.26083
  0
ARC
  5
261
100
AcDbEntity
  8
0
370
    25
390
0
  6
Continuous
100
AcDbCircle
 10
348.59828
 20
-121.476321
 30
0.0
 40
1.0
100
AcDbArc
 50
30.0
 51
112.410458
  0
ARC
  5
262
100
AcDbEntity
  8
0
370
    25
390
0
  6
Continuous
100
AcDbCircle
 10
345.817494
 20
-116.659858
 30
0.0
 40
1.0
100
AcDbArc
 50
290.405932
 51
30.0
  0
LINE
  5
263
100
AcDbEntity
  8
0
370
    25
390
0
  6
Continuous
100
AcDbLine
 10
346.683519
 20
-116.159858
 30
0.0
 11
345.158602
 21
-113.518623
 31
0.0
  0
ARC
  5
264
100
AcDbEntity
  8
0
370
    25
390
0
  6
Continuous
100
AcDbCircle
 10
344.292576
 20
-114.018623
 30
0.0
 40
1.0
100
AcDbArc
 50
30.0
 51
108.787729
  0
LINE
  5
265
100
AcDbEntity
  8
0
370
    25
390
0
  6
Continuous
100
AcDbLine
 10
376.333916
 20
-99.477694
 30
0.0
 11
373.320004
 21
-99.477694
 31
0.0
  0
ARC
  5
266
100
AcDbEntity
  8
0
370
    25
390
0
  6
Continuous
100
AcDbCircle
 10
367.78708
 20
-100.477694
 30
0.0
 40
1.0
100
AcDbArc
 50
353.186146
 51
90.0
  0
ARC
  5
267
100
AcDbEntity
  8
0
370
    25
390
0
  6
Continuous
100
AcDbCircle
 10
376.333916
 20
-100.477694
 30
0.0
 40
1.0
100
AcDbArc
 50
354.715267
 51
90.0
  0
ARC
  5
268
100
AcDbEntity
  8
0
370
    25
390
0
  6
Continuous
100
AcDbCircle
 10
373.320004
 20
-100.477694
 30
0.0
 40
1.0
100
AcDbArc
 50
90.0
 51
174.26083
  0
ARC
  5
269
100
AcDbEntity
  8
0
370
    25
390
0
  6
Continuous
100
AcDbCircle
 10
685.095443
 20
-96.977694
 30
0.0
 40
400.6
100
AcDbArc
 50
174.256318
 51
180.0
  0
ARC
  5
26A
100
AcDbEntity
  8
0
370
    25
390
0
  6
Continuous
100
AcDbCircle
 10
293.073497
 20
-57.546827
 30
0.0
 40
6.6
100
AcDbArc
 50
135.0
 51
174.256318
  0
ARC
  5
26B
100
AcDbEntity
  8
0
370
    25
390
0
  6
Continuous
100
AcDbCircle
 10
685.095443
 20
-96.977694
 30
0.0
 40
390.797
100
AcDbArc
 50
174.582036
 51
180.0
  0
ARC
  5
26C
100
AcDbEntity
  8
0
370
    25
390
0
  6
Continuous
100
AcDbCircle
 10
299.030961
 20
-60.361729
 30
0.0
 40
3.0
100
AcDbArc
 50
135.0
 51
174.582036
  0
ARC
  5
26D
100
AcDbEntity
  8
0
370
    25
390
0
  6
Continuous
100
AcDbCircle
 10
377.959925
 20
-60.361729
 30
0.0
 40
3.0
100
AcDbArc
 50
5.417964
 51
45.0
  0
ARC
  5
26E
100
AcDbEntity
  8
0
370
    25
390
0
  6
Continuous
100
AcDbCircle
 10
-8.104557
 20
-96.977694
 30
0.0
 40
390.797
100
AcDbArc
 50
0.0
 51
5.417964
  0
ARC
  5
26F
100
AcDbEntity
  8
0
370
    25
390
0
  6
Continuous
100
AcDbCircle
 10
362.035241
 20
-69.605804
 30
0.0
 40
20.797
100
AcDbArc
 50
45.0
 51
84.99835
  0
LINE
  5
270
100
AcDbEntity
  8
0
370
    25
390
0
  6
Continuous
100
AcDbLine
 10
376.740941
 20
-54.900104
 30
0.0
 11
380.081246
 21
-58.240409
 31
0.0
  0
ARC
  5
271
100
AcDbEntity
  8
0
370
    25
390
0
  6
Continuous
100
AcDbCircle
 10
338.495443
 20
-338.577694
 30
0.0
 40
290.797
100
AcDbArc
 50
84.99835
 51
90.0
  0
ARC
  5
272
100
AcDbEntity
  8
0
370
    25
390
0
  6
Continuous
100
AcDbCircle
 10
377.959925
 20
-133.593659
 30
0.0
 40
3.0
100
AcDbArc
 50
315.0
 51
354.582036
  0
ARC
  5
273
100
AcDbEntity
  8
0
370
    25
390
0
  6
Continuous
100
AcDbCircle
 10
-8.104557
 20
-96.977694
 30
0.0
 40
390.797
100
AcDbArc
 50
354.582036
 51
0.0
  0
ARC
  5
274
100
AcDbEntity
  8
0
370
    25
390
0
  6
Continuous
100
AcDbCircle
 10
362.035241
 20
-124.349585
 30
0.0
 40
20.797
100
AcDbArc
 50
275.00165
 51
315.0
  0
LINE
  5
275
100
AcDbEntity
  8
0
370
    25
390
0
  6
Continuous
100
AcDbLine
 10
376.740941
 20
-139.055285
 30
0.0
 11
380.081246
 21
-135.71498
 31
0.0
  0
ARC
  5
276
100
AcDbEntity
  8
0
370
    25
390
0
  6
Continuous
100
AcDbCircle
 10
338.495443
 20
144.622306
 30
0.0
 40
290.797
100
AcDbArc
 50
270.0
 51
275.00165
  0
ARC
  5
277
100
AcDbEntity
  8
0
370
    25
390
0
  6
Continuous
100
AcDbCircle
 10
299.030961
 20
-133.593659
 30
0.0
 40
3.0
100
AcDbArc
 50
185.417964
 51
225.0
  0
ARC
  5
278
100
AcDbEntity
  8
0
370
    25
390
0
  6
Continuous
100
AcDbCircle
 10
685.095443
 20
-96.977694
 30
0.0
 40
390.797
100
AcDbArc
 50
180.0
 51
185.417964
  0
ARC
  5
279
100
AcDbEntity
  8
0
370
    25
390
0
  6
Continuous
100
AcDbCircle
 10
314.955646
 20
-124.349585
 30
0.0
 40
20.797
100
AcDbArc
 50
225.0
 51
264.99835
  0
LINE
  5
27A
100
AcDbEntity
  8
0
370
    25
390
0
  6
Continuous
100
AcDbLine
 10
300.249946
 20
-139.055285
 30
0.0
 11
296.909641
 21
-135.71498
 31
0.0
  0
ARC
  5
27B
100
AcDbEntity
  8
0
370
    25
390
0
  6
Continuous
100
AcDbCircle
 10
338.495443
 20
144.622306
 30
0.0
 40
290.797
100
AcDbArc
 50
264.99835
 51
270.0
  0
ARC
  5
27C
100
AcDbEntity
  8
0
370
    25
390
0
  6
Continuous
100
AcDbCircle
 10
363.495443
 20
-16.038925
 30
0.0
 40
5.0
100
AcDbArc
 50
0.0
 51
85.138595
  0
ARC
  5
27D
100
AcDbEntity
  8
0
370
    25
390
0
  6
Continuous
100
AcDbCircle
 10
313.495443
 20
-16.038925
 30
0.0
 40
5.0
100
AcDbArc
 50
94.861405
 51
180.0
  0
LINE
  5
27E
100
AcDbEntity
  8
0
370
    25
390
0
  6
Continuous
100
AcDbLine
 10
368.495443
 20
-39.477694
 30
0.0
 11
368.495443
 21
-16.038925
 31
0.0
  0
LINE
  5
27F
100
AcDbEntity
  8
0
370
    25
390
0
  6
Continuous
100
AcDbLine
 10
308.495443
 20
-39.477694
 30
0.0
 11
308.495443
 21
-16.038925
 31
0.0
  0
ARC
  5
280
100
AcDbEntity
  8
0
370
    25
390
0
  6
Continuous
100
AcDbCircle
 10
338.495443
 20
-309.977694
 30
0.0
 40
300.0
100
AcDbArc
 50
85.138595
 51
94.861405
  0
LINE
  5
281
100
AcDbEntity
  8
0
370
    25
390
0
  6
Continuous
100
AcDbLine
 10
335.995443
 20
-9.988111
 30
0.0
 11
335.995443
 21
-9.477694
 31
0.0
  0
LINE
  5
282
100
AcDbEntity
  8
0
370
    25
390
0
  6
Continuous
100
AcDbLine
 10
340.995443
 20
-9.988111
 30
0.0
 11
340.995443
 21
-9.477694
 31
0.0
  0
LINE
  5
283
100
AcDbEntity
  8
0
370
    25
390
0
  6
Continuous
100
AcDbLine
 10
340.995443
 20
-9.477694
 30
0.0
 11
335.995443
 21
-9.477694
 31
0.0
  0
ARC
  5
284
100
AcDbEntity
  8
0
370
    25
390
0
  6
Continuous
100
AcDbCircle
 10
310.431687
 20
-59.987627
 30
0.0
 40
20.6
100
AcDbArc
 50
95.752283
 51
135.0
  0
LINE
  5
285
100
AcDbEntity
  8
0
370
    25
390
0
  6
Continuous
100
AcDbLine
 10
295.865287
 20
-45.421227
 30
0.0
 11
288.406592
 21
-52.879922
 31
0.0
  0
ARC
  5
286
100
AcDbEntity
  8
0
370
    25
390
0
  6
Continuous
100
AcDbCircle
 10
338.495443
 20
-338.577694
 30
0.0
 40
300.6
100
AcDbArc
 50
90.0
 51
95.752283
  0
LINE
  5
287
100
AcDbEntity
  8
0
370
    25
390
0
  6
Continuous
100
AcDbLine
 10
306.995443
 20
-39.676245
 30
0.0
 11
306.995443
 21
-39.477694
 31
0.0
  0
LINE
  5
288
100
AcDbEntity
  8
0
370
    25
390
0
  6
Continuous
100
AcDbLine
 10
308.502944
 20
-39.477694
 30
0.0
 11
306.995443
 21
-39.477694
 31
0.0
  0
ARC
  5
289
100
AcDbEntity
  8
0
370
    25
390
0
  6
Continuous
100
AcDbCircle
 10
310.431687
 20
-59.987627
 30
0.0
 40
10.797
100
AcDbArc
 50
95.752283
 51
135.0
  0
LINE
  5
28A
100
AcDbEntity
  8
0
370
    25
390
0
  6
Continuous
100
AcDbLine
 10
302.797055
 20
-52.352995
 30
0.0
 11
296.909641
 21
-58.240409
 31
0.0
  0
ARC
  5
28B
100
AcDbEntity
  8
0
370
    25
390
0
  6
Continuous
100
AcDbCircle
 10
338.495443
 20
-338.577694
 30
0.0
 40
290.797
100
AcDbArc
 50
90.0
 51
95.752283
  0
ARC
  5
28C
100
AcDbEntity
  8
0
370
    25
390
0
  6
Continuous
100
AcDbCircle
 10
338.495443
 20
-338.577694
 30
0.0
 40
300.6
100
AcDbArc
 50
84.247717
 51
90.0
  0
LINE
  5
28D
100
AcDbEntity
  8
0
370
    25
390
0
  6
Continuous
100
AcDbLine
 10
381.1256
 20
-45.421227
 30
0.0
 11
388.584295
 21
-52.879922
 31
0.0
  0
ARC
  5
28E
100
AcDbEntity
  8
0
370
    25
390
0
  6
Continuous
100
AcDbCircle
 10
366.5592
 20
-59.987627
 30
0.0
 40
20.6
100
AcDbArc
 50
45.0
 51
84.247717
  0
ARC
  5
28F
100
AcDbEntity
  8
0
370
    25
390
0
  6
Continuous
100
AcDbCircle
 10
-8.104557
 20
-96.977694
 30
0.0
 40
400.6
100
AcDbArc
 50
0.0
 51
5.743682
  0
ARC
  5
290
100
AcDbEntity
  8
0
370
    25
390
0
  6
Continuous
100
AcDbCircle
 10
383.91739
 20
-57.546827
 30
0.0
 40
6.6
100
AcDbArc
 50
5.743682
 51
45.0
  0
ARC
  5
291
100
AcDbEntity
  8
0
370
    25
390
0
  6
Continuous
100
AcDbCircle
 10
338.495443
 20
144.622306
 30
0.0
 40
300.6
100
AcDbArc
 50
270.0
 51
275.752283
  0
LINE
  5
292
100
AcDbEntity
  8
0
370
    25
390
0
  6
Continuous
100
AcDbLine
 10
381.1256
 20
-148.534161
 30
0.0
 11
388.584295
 21
-141.075466
 31
0.0
  0
ARC
  5
293
100
AcDbEntity
  8
0
370
    25
390
0
  6
Continuous
100
AcDbCircle
 10
366.5592
 20
-133.967761
 30
0.0
 40
20.6
100
AcDbArc
 50
275.752283
 51
315.0
  0
ARC
  5
294
100
AcDbEntity
  8
0
370
    25
390
0
  6
Continuous
100
AcDbCircle
 10
-8.104557
 20
-96.977694
 30
0.0
 40
400.6
100
AcDbArc
 50
354.256318
 51
0.0
  0
ARC
  5
295
100
AcDbEntity
  8
0
370
    25
390
0
  6
Continuous
100
AcDbCircle
 10
383.91739
 20
-136.408561
 30
0.0
 40
6.6
100
AcDbArc
 50
315.0
 51
354.256318
  0
ARC
  5
296
100
AcDbEntity
  8
0
370
    25
390
0
  6
Continuous
100
AcDbCircle
 10
338.495443
 20
144.622306
 30
0.0
 40
300.6
100
AcDbArc
 50
264.247717
 51
270.0
  0
LINE
  5
297
100
AcDbEntity
  8
0
370
    25
390
0
  6
Continuous
100
AcDbLine
 10
295.865287
 20
-148.534161
 30
0.0
 11
288.406592
 21
-141.075466
 31
0.0
  0
ARC
  5
298
100
AcDbEntity
  8
0
370
    25
390
0
  6
Continuous
100
AcDbCircle
 10
310.431687
 20
-133.967761
 30
0.0
 40
20.6
100
AcDbArc
 50
225.0
 51
264.247717
  0
ARC
  5
299
100
AcDbEntity
  8
0
370
    25
390
0
  6
Continuous
100
AcDbCircle
 10
685.095443
 20
-96.977694
 30
0.0
 40
400.6
100
AcDbArc
 50
180.0
 51
185.743682
  0
ARC
  5
29A
100
AcDbEntity
  8
0
370
    25
390
0
  6
Continuous
100
AcDbCircle
 10
293.073497
 20
-136.408561
 30
0.0
 40
6.6
100
AcDbArc
 50
185.743682
 51
225.0
  0
LINE
  5
29B
100
AcDbEntity
  8
0
370
    25
390
0
  6
Continuous
100
AcDbLine
 10
369.995443
 20
-39.477694
 30
0.0
 11
368.483429
 21
-39.477694
 31
0.0
  0
LINE
  5
29C
100
AcDbEntity
  8
0
370
    25
390
0
  6
Continuous
100
AcDbLine
 10
369.995443
 20
-39.676245
 30
0.0
 11
369.995443
 21
-39.477694
 31
0.0
  0
MTEXT
  5
29E
100
AcDbEntity
  8
0
370
    25
390
0
  6
Continuous
100
AcDbMText
 10
419.760864
 20
-186.265488
 30
0.0
 40
3.3
 41
0.0
 71
     7
 72
     1
  1
\W1.41;  
  7
ZU_SHPTB00001
 11
1.0
 21
0.0
 31
0.0
 73
     1
 44
1.0
  0
MTEXT
  5
29F
100
AcDbEntity
  8
0
370
    25
390
0
  6
Continuous
100
AcDbMText
 10
425.580353
 20
-186.265488
 30
0.0
 40
3.3
 41
0.0
 71
     7
 72
     1
  1
\W0.80;SHY033
  7
ZU_SHPTB00001
 11
1.0
 21
0.0
 31
0.0
 73
     1
 44
1.0
  0
MTEXT
  5
2A0
100
AcDbEntity
  8
0
370
    25
390
0
  6
Continuous
100
AcDbMText
 10
419.760864
 20
-191.565491
 30
0.0
 40
3.3
 41
0.0
 71
     7
 72
     1
  1
\W1.41;  
  7
ZU_SHPTB00001
 11
1.0
 21
0.0
 31
0.0
 73
     1
 44
1.0
  0
MTEXT
  5
2A1
100
AcDbEntity
  8
0
370
    25
390
0
  6
Continuous
100
AcDbMText
 10
425.586243
 20
-191.565491
 30
0.0
 40
3.3
 41
0.0
 71
     7
 72
     1
  1
\W0.74;0.2kW
  7
ZU_SHPTB00001
 11
1.0
 21
0.0
 31
0.0
 73
     1
 44
1.0
  0
MTEXT
  5
2A2
100
AcDbEntity
  8
0
370
    25
390
0
  6
Continuous
100
AcDbMText
 10
419.760864
 20
-196.865479
 30
0.0
 40
3.3
 41
0.0
 71
     7
 72
     1
  1
\W0.81;GM-SHYF-RL
  7
ZU_SHPTB00001
 11
1.0
 21
0.0
 31
0.0
 73
     1
 44
1.0
  0
MTEXT
  5
2A3
100
AcDbEntity
  8
0
370
    25
390
0
  6
Continuous
100
AcDbMText
 10
419.760864
 20
-202.165482
 30
0.0
 40
3.3
 41
0.0
 71
     7
 72
     1
  1
\W0.73;1/80
  7
ZU_SHPTB00001
 11
1.0
 21
0.0
 31
0.0
 73
     1
 44
1.0
  0
MTEXT
  5
2A4
100
AcDbEntity
  8
0
370
    25
390
0
  6
Continuous
100
AcDbMText
 10
430.833038
 20
-202.165482
 30
0.0
 40
3.3
 41
0.0
 71
     7
 72
     1
  1
\W1.18;～
  7
ZU_SHPTB00001
 11
1.0
 21
0.0
 31
0.0
 73
     1
 44
1.0
  0
MTEXT
  5
2A5
100
AcDbEntity
  8
0
370
    25
390
0
  6
Continuous
100
AcDbMText
 10
434.615021
 20
-202.165482
 30
0.0
 40
3.3
 41
0.0
 71
     7
 72
     1
  1
\W0.74;1/240
  7
ZU_SHPTB00001
 11
1.0
 21
0.0
 31
0.0
 73
     1
 44
1.0
  0
MTEXT
  5
2A6
100
AcDbEntity
  8
0
370
    25
390
0
  6
Continuous
100
AcDbMText
 10
419.760864
 20
-207.465485
 30
0.0
 40
3.3
 41
0.0
 71
     7
 72
     1
  1
\W1.54; 
  7
ZU_SHPTB00001
 11
1.0
 21
0.0
 31
0.0
 73
     1
 44
1.0
  0
MTEXT
  5
2A7
100
AcDbEntity
  8
0
370
    25
390
0
  6
Continuous
100
AcDbMText
 10
423.012238
 20
-207.465485
 30
0.0
 40
3.3
 41
0.0
 71
     7
 72
     1
  1
\W0.83;SCALE
  7
ZU_SHPTB00001
 11
1.0
 21
0.0
 31
0.0
 73
     1
 44
1.0
  0
MTEXT
  5
2A8
100
AcDbEntity
  8
0
370
    25
390
0
  6
Continuous
100
AcDbMText
 10
436.062866
 20
-207.465485
 30
0.0
 40
3.3
 41
0.0
 71
     7
 72
     1
  1
\W1.54; 
  7
ZU_SHPTB00001
 11
1.0
 21
0.0
 31
0.0
 73
     1
 44
1.0
  0
MTEXT
  5
2A9
100
AcDbEntity
  8
0
370
    25
390
0
  6
Continuous
100
AcDbMText
 10
438.480865
 20
-207.465485
 30
0.0
 40
3.3
 41
0.0
 71
     7
 72
     1
  1
\W0.66;1/1
  7
ZU_SHPTB00001
 11
1.0
 21
0.0
 31
0.0
 73
     1
 44
1.0
  0
LINE
  5
2AA
100
AcDbEntity
  8
0
370
    25
390
0
  6
Continuous
100
AcDbLine
 10
144.278795
 20
153.619259
 30
0.0
 11
144.278795
 21
124.119259
 31
0.0
  0
LINE
  5
2AB
100
AcDbEntity
  8
0
370
    25
390
0
  6
Continuous
100
AcDbLine
 10
69.278795
 20
153.619259
 30
0.0
 11
69.278795
 21
124.119259
 31
0.0
  0
LINE
  5
2AC
100
AcDbEntity
  8
0
370
    25
390
0
  6
Continuous
100
AcDbLine
 10
71.278795
 20
122.119259
 30
0.0
 11
142.278795
 21
122.119259
 31
0.0
  0
ARC
  5
2AD
100
AcDbEntity
  8
0
370
    25
390
0
  6
Continuous
100
AcDbCircle
 10
71.278795
 20
124.119259
 30
0.0
 40
2.0
100
AcDbArc
 50
180.0
 51
270.0
  0
ARC
  5
2AE
100
AcDbEntity
  8
0
370
    25
390
0
  6
Continuous
100
AcDbCircle
 10
142.278795
 20
124.119259
 30
0.0
 40
2.0
100
AcDbArc
 50
270.0
 51
0.0
  0
LINE
  5
2AF
100
AcDbEntity
  8
0
370
    25
390
0
  6
Continuous
100
AcDbLine
 10
69.278795
 20
133.619259
 30
0.0
 11
52.278795
 21
133.619259
 31
0.0
  0
LINE
  5
2B0
100
AcDbEntity
  8
0
370
    25
390
0
  6
Continuous
100
AcDbLine
 10
69.278795
 20
130.781019
 30
0.0
 11
52.278795
 21
130.781019
 31
0.0
  0
LINE
  5
2B1
100
AcDbEntity
  8
0
370
    25
390
0
  6
Continuous
100
AcDbLine
 10
69.278795
 20
129.434618
 30
0.0
 11
52.278795
 21
129.434618
 31
0.0
  0
LINE
  5
2B2
100
AcDbEntity
  8
0
370
    25
390
0
  6
Continuous
100
AcDbLine
 10
69.278795
 20
126.341887
 30
0.0
 11
52.278795
 21
126.341887
 31
0.0
  0
LINE
  5
2B3
100
AcDbEntity
  8
0
370
    25
390
0
  6
Continuous
100
AcDbLine
 10
69.278795
 20
124.862864
 30
0.0
 11
52.278795
 21
124.862864
 31
0.0
  0
LINE
  5
2B4
100
AcDbEntity
  8
0
370
    25
390
0
  6
Continuous
100
AcDbLine
 10
71.278795
 20
123.619259
 30
0.0
 11
142.278795
 21
123.619259
 31
0.0
  0
ARC
  5
2B5
100
AcDbEntity
  8
0
370
    25
390
0
  6
Continuous
100
AcDbCircle
 10
142.278795
 20
124.619259
 30
0.0
 40
1.0
100
AcDbArc
 50
270.0
 51
0.0
  0
ARC
  5
2B6
100
AcDbEntity
  8
0
370
    25
390
0
  6
Continuous
100
AcDbCircle
 10
71.278795
 20
124.619259
 30
0.0
 40
1.0
100
AcDbArc
 50
180.0
 51
270.0
  0
LINE
  5
2B7
100
AcDbEntity
  8
0
370
    25
390
0
  6
Continuous
100
AcDbLine
 10
146.278795
 20
153.619259
 30
0.0
 11
146.278795
 21
118.619259
 31
0.0
  0
LINE
  5
2B8
100
AcDbEntity
  8
0
370
    25
390
0
  6
Continuous
100
AcDbLine
 10
139.278795
 20
115.619259
 30
0.0
 11
143.278795
 21
115.619259
 31
0.0
  0
ARC
  5
2B9
100
AcDbEntity
  8
0
370
    25
390
0
  6
Continuous
100
AcDbCircle
 10
143.278795
 20
118.619259
 30
0.0
 40
3.0
100
AcDbArc
 50
270.0
 51
0.0
  0
LINE
  5
2BA
100
AcDbEntity
  8
0
370
    25
390
0
  6
Continuous
100
AcDbLine
 10
136.278795
 20
99.619259
 30
0.0
 11
136.278795
 21
112.619259
 31
0.0
  0
ARC
  5
2BB
100
AcDbEntity
  8
0
370
    25
390
0
  6
Continuous
100
AcDbCircle
 10
139.278795
 20
112.619259
 30
0.0
 40
3.0
100
AcDbArc
 50
90.0
 51
180.0
  0
LINE
  5
2BC
100
AcDbEntity
  8
0
370
    25
390
0
  6
Continuous
100
AcDbLine
 10
151.888486
 20
105.588971
 30
0.0
 11
151.978795
 21
106.291928
 31
0.0
  0
LINE
  5
2BD
100
AcDbEntity
  8
0
370
    25
390
0
  6
Continuous
100
AcDbLine
 10
151.621029
 20
104.913029
 30
0.0
 11
151.888486
 21
105.588971
 31
0.0
  0
LINE
  5
2BE
100
AcDbEntity
  8
0
370
    25
390
0
  6
Continuous
100
AcDbLine
 10
151.186702
 20
104.290077
 30
0.0
 11
151.621029
 21
104.913029
 31
0.0
  0
LINE
  5
2BF
100
AcDbEntity
  8
0
370
    25
390
0
  6
Continuous
100
AcDbLine
 10
150.602197
 20
103.744055
 30
0.0
 11
151.186702
 21
104.290077
 31
0.0
  0
LINE
  5
2C0
100
AcDbEntity
  8
0
370
    25
390
0
  6
Continuous
100
AcDbLine
 10
149.889975
 20
103.295947
 30
0.0
 11
150.602197
 21
103.744055
 31
0.0
  0
LINE
  5
2C1
100
AcDbEntity
  8
0
370
    25
390
0
  6
Continuous
100
AcDbLine
 10
149.077407
 20
102.962972
 30
0.0
 11
149.889975
 21
103.295947
 31
0.0
  0
LINE
  5
2C2
100
AcDbEntity
  8
0
370
    25
390
0
  6
Continuous
100
AcDbLine
 10
148.19572
 20
102.757927
 30
0.0
 11
149.077407
 21
102.962972
 31
0.0
  0
LINE
  5
2C3
100
AcDbEntity
  8
0
370
    25
390
0
  6
Continuous
100
AcDbLine
 10
147.278795
 20
102.688692
 30
0.0
 11
148.19572
 21
102.757927
 31
0.0
  0
LINE
  5
2C4
100
AcDbEntity
  8
0
370
    25
390
0
  6
Continuous
100
AcDbLine
 10
146.36187
 20
102.757927
 30
0.0
 11
147.278795
 21
102.688692
 31
0.0
  0
LINE
  5
2C5
100
AcDbEntity
  8
0
370
    25
390
0
  6
Continuous
100
AcDbLine
 10
145.480183
 20
102.962972
 30
0.0
 11
146.36187
 21
102.757927
 31
0.0
  0
LINE
  5
2C6
100
AcDbEntity
  8
0
370
    25
390
0
  6
Continuous
100
AcDbLine
 10
144.667615
 20
103.295947
 30
0.0
 11
145.480183
 21
102.962972
 31
0.0
  0
LINE
  5
2C7
100
AcDbEntity
  8
0
370
    25
390
0
  6
Continuous
100
AcDbLine
 10
143.955393
 20
103.744055
 30
0.0
 11
144.667615
 21
103.295947
 31
0.0
  0
LINE
  5
2C8
100
AcDbEntity
  8
0
370
    25
390
0
  6
Continuous
100
AcDbLine
 10
143.370888
 20
104.290077
 30
0.0
 11
143.955393
 21
103.744055
 31
0.0
  0
LINE
  5
2C9
100
AcDbEntity
  8
0
370
    25
390
0
  6
Continuous
100
AcDbLine
 10
142.936561
 20
104.913029
 30
0.0
 11
143.370888
 21
104.290077
 31
0.0
  0
LINE
  5
2CA
100
AcDbEntity
  8
0
370
    25
390
0
  6
Continuous
100
AcDbLine
 10
142.669104
 20
105.588971
 30
0.0
 11
142.936561
 21
104.913029
 31
0.0
  0
LINE
  5
2CB
100
AcDbEntity
  8
0
370
    25
390
0
  6
Continuous
100
AcDbLine
 10
142.578795
 20
106.291928
 30
0.0
 11
142.669104
 21
105.588971
 31
0.0
  0
LINE
  5
2CC
100
AcDbEntity
  8
0
370
    25
390
0
  6
Continuous
100
AcDbLine
 10
142.669104
 20
106.994885
 30
0.0
 11
142.578795
 21
106.291928
 31
0.0
  0
LINE
  5
2CD
100
AcDbEntity
  8
0
370
    25
390
0
  6
Continuous
100
AcDbLine
 10
142.936561
 20
107.670827
 30
0.0
 11
142.669104
 21
106.994885
 31
0.0
  0
LINE
  5
2CE
100
AcDbEntity
  8
0
370
    25
390
0
  6
Continuous
100
AcDbLine
 10
143.370888
 20
108.293779
 30
0.0
 11
142.936561
 21
107.670827
 31
0.0
  0
LINE
  5
2CF
100
AcDbEntity
  8
0
370
    25
390
0
  6
Continuous
100
AcDbLine
 10
143.955393
 20
108.839801
 30
0.0
 11
143.370888
 21
108.293779
 31
0.0
  0
LINE
  5
2D0
100
AcDbEntity
  8
0
370
    25
390
0
  6
Continuous
100
AcDbLine
 10
144.667615
 20
109.287909
 30
0.0
 11
143.955393
 21
108.839801
 31
0.0
  0
LINE
  5
2D1
100
AcDbEntity
  8
0
370
    25
390
0
  6
Continuous
100
AcDbLine
 10
145.480183
 20
109.620884
 30
0.0
 11
144.667615
 21
109.287909
 31
0.0
  0
LINE
  5
2D2
100
AcDbEntity
  8
0
370
    25
390
0
  6
Continuous
100
AcDbLine
 10
146.36187
 20
109.825929
 30
0.0
 11
145.480183
 21
109.620884
 31
0.0
  0
LINE
  5
2D3
100
AcDbEntity
  8
0
370
    25
390
0
  6
Continuous
100
AcDbLine
 10
147.278795
 20
109.895164
 30
0.0
 11
146.36187
 21
109.825929
 31
0.0
  0
LINE
  5
2D4
100
AcDbEntity
  8
0
370
    25
390
0
  6
Continuous
100
AcDbLine
 10
148.19572
 20
109.825929
 30
0.0
 11
147.278795
 21
109.895164
 31
0.0
  0
LINE
  5
2D5
100
AcDbEntity
  8
0
370
    25
390
0
  6
Continuous
100
AcDbLine
 10
149.077407
 20
109.620884
 30
0.0
 11
148.19572
 21
109.825929
 31
0.0
  0
LINE
  5
2D6
100
AcDbEntity
  8
0
370
    25
390
0
  6
Continuous
100
AcDbLine
 10
149.889975
 20
109.287909
 30
0.0
 11
149.077407
 21
109.620884
 31
0.0
  0
LINE
  5
2D7
100
AcDbEntity
  8
0
370
    25
390
0
  6
Continuous
100
AcDbLine
 10
150.602197
 20
108.839801
 30
0.0
 11
149.889975
 21
109.287909
 31
0.0
  0
LINE
  5
2D8
100
AcDbEntity
  8
0
370
    25
390
0
  6
Continuous
100
AcDbLine
 10
151.186702
 20
108.293779
 30
0.0
 11
150.602197
 21
108.839801
 31
0.0
  0
LINE
  5
2D9
100
AcDbEntity
  8
0
370
    25
390
0
  6
Continuous
100
AcDbLine
 10
151.621029
 20
107.670827
 30
0.0
 11
151.186702
 21
108.293779
 31
0.0
  0
LINE
  5
2DA
100
AcDbEntity
  8
0
370
    25
390
0
  6
Continuous
100
AcDbLine
 10
151.888486
 20
106.994885
 30
0.0
 11
151.621029
 21
107.670827
 31
0.0
  0
LINE
  5
2DB
100
AcDbEntity
  8
0
370
    25
390
0
  6
Continuous
100
AcDbLine
 10
151.978795
 20
106.291928
 30
0.0
 11
151.888486
 21
106.994885
 31
0.0
  0
LINE
  5
2DC
100
AcDbEntity
  8
0
370
    25
390
0
  6
Continuous
100
AcDbLine
 10
149.278795
 20
103.299553
 30
0.0
 11
147.278795
 21
104.475338
 31
0.0
  0
LINE
  5
2DD
100
AcDbEntity
  8
0
370
    25
390
0
  6
Continuous
100
AcDbLine
 10
147.278795
 20
104.475338
 30
0.0
 11
145.278795
 21
106.12798
 31
0.0
  0
LINE
  5
2DE
100
AcDbEntity
  8
0
370
    25
390
0
  6
Continuous
100
AcDbLine
 10
145.278795
 20
103.299553
 30
0.0
 11
147.278795
 21
104.475338
 31
0.0
  0
LINE
  5
2DF
100
AcDbEntity
  8
0
370
    25
390
0
  6
Continuous
100
AcDbLine
 10
147.278795
 20
104.475338
 30
0.0
 11
149.278795
 21
106.12798
 31
0.0
  0
LINE
  5
2E0
100
AcDbEntity
  8
0
370
    25
390
0
  6
Continuous
100
AcDbLine
 10
52.278795
 20
101.119259
 30
0.0
 11
136.278795
 21
101.119259
 31
0.0
  0
LINE
  5
2E1
100
AcDbEntity
  8
0
370
    25
390
0
  6
Continuous
100
AcDbLine
 10
136.278795
 20
103.119259
 30
0.0
 11
52.278795
 21
103.119259
 31
0.0
  0
LINE
  5
2E2
100
AcDbEntity
  8
0
370
    25
390
0
  6
Continuous
100
AcDbLine
 10
136.278795
 20
102.619259
 30
0.0
 11
52.278795
 21
102.619259
 31
0.0
  0
LINE
  5
2E3
100
AcDbEntity
  8
0
370
    25
390
0
  6
Continuous
100
AcDbLine
 10
136.278795
 20
107.486176
 30
0.0
 11
52.278795
 21
107.486176
 31
0.0
  0
LINE
  5
2E4
100
AcDbEntity
  8
0
370
    25
390
0
  6
Continuous
100
AcDbLine
 10
136.278795
 20
109.114604
 30
0.0
 11
52.278795
 21
109.114604
 31
0.0
  0
LINE
  5
2E5
100
AcDbEntity
  8
0
370
    25
390
0
  6
Continuous
100
AcDbLine
 10
136.278795
 20
112.577345
 30
0.0
 11
52.278795
 21
112.577345
 31
0.0
  0
LINE
  5
2E6
100
AcDbEntity
  8
0
370
    25
390
0
  6
Continuous
100
AcDbLine
 10
136.436395
 20
113.578824
 30
0.0
 11
52.278795
 21
113.578824
 31
0.0
  0
LINE
  5
2E7
100
AcDbEntity
  8
0
370
    25
390
0
  6
Continuous
100
AcDbLine
 10
146.278795
 20
120.315658
 30
0.0
 11
52.278795
 21
120.315658
 31
0.0
  0
LINE
  5
2E8
100
AcDbEntity
  8
0
370
    25
390
0
  6
Continuous
100
AcDbLine
 10
146.278795
 20
121.904868
 30
0.0
 11
52.278795
 21
121.904868
 31
0.0
  0
LINE
  5
2E9
100
AcDbEntity
  8
0
370
    25
390
0
  6
Continuous
100
AcDbLine
 10
146.278795
 20
124.862864
 30
0.0
 11
144.278795
 21
124.862864
 31
0.0
  0
LINE
  5
2EA
100
AcDbEntity
  8
0
370
    25
390
0
  6
Continuous
100
AcDbLine
 10
146.278795
 20
126.341887
 30
0.0
 11
144.278795
 21
126.341887
 31
0.0
  0
LINE
  5
2EB
100
AcDbEntity
  8
0
370
    25
390
0
  6
Continuous
100
AcDbLine
 10
146.278795
 20
129.434618
 30
0.0
 11
144.278795
 21
129.434618
 31
0.0
  0
LINE
  5
2EC
100
AcDbEntity
  8
0
370
    25
390
0
  6
Continuous
100
AcDbLine
 10
146.278795
 20
130.781019
 30
0.0
 11
144.278795
 21
130.781019
 31
0.0
  0
LINE
  5
2ED
100
AcDbEntity
  8
0
370
    25
390
0
  6
Continuous
100
AcDbLine
 10
146.278795
 20
133.619259
 30
0.0
 11
144.278795
 21
133.619259
 31
0.0
  0
LINE
  5
2EE
100
AcDbEntity
  8
0
370
    25
390
0
  6
Continuous
100
AcDbLine
 10
136.278795
 20
99.619259
 30
0.0
 11
165.78364
 21
99.619259
 31
0.0
  0
ARC
  5
2EF
100
AcDbEntity
  8
0
370
    25
390
0
  6
Continuous
100
AcDbCircle
 10
165.78364
 20
120.219259
 30
0.0
 40
20.6
100
AcDbArc
 50
270.0
 51
305.0
  0
ARC
  5
2F0
100
AcDbEntity
  8
0
370
    25
390
0
  6
Continuous
100
AcDbCircle
 10
183.678795
 20
110.775639
 30
0.0
 40
2.6
100
AcDbArc
 50
305.0
 51
0.0
  0
LINE
  5
2F1
100
AcDbEntity
  8
0
370
    25
390
0
  6
Continuous
100
AcDbLine
 10
186.278795
 20
110.775639
 30
0.0
 11
186.278795
 21
153.619259
 31
0.0
  0
LINE
  5
2F2
100
AcDbEntity
  8
0
370
    25
390
0
  6
Continuous
100
AcDbLine
 10
177.599314
 20
103.344727
 30
0.0
 11
185.170094
 21
108.645844
 31
0.0
  0
LINE
  5
2F3
100
AcDbEntity
  8
0
370
    25
390
0
  6
Continuous
100
AcDbLine
 10
143.278795
 20
153.619259
 30
0.0
 11
143.278795
 21
124.619259
 31
0.0
  0
LINE
  5
2F4
100
AcDbEntity
  8
0
370
    25
390
0
  6
Continuous
100
AcDbLine
 10
70.278795
 20
124.619259
 30
0.0
 11
70.278795
 21
153.619259
 31
0.0
  0
LINE
  5
2F5
100
AcDbEntity
  8
0
370
    25
390
0
  6
Continuous
100
AcDbLine
 10
146.278795
 20
153.619259
 30
0.0
 11
146.278795
 21
188.619259
 31
0.0
  0
LINE
  5
2F6
100
AcDbEntity
  8
0
370
    25
390
0
  6
Continuous
100
AcDbLine
 10
139.278795
 20
191.619259
 30
0.0
 11
143.278795
 21
191.619259
 31
0.0
  0
ARC
  5
2F7
100
AcDbEntity
  8
0
370
    25
390
0
  6
Continuous
100
AcDbCircle
 10
143.278795
 20
188.619259
 30
0.0
 40
3.0
100
AcDbArc
 50
0.0
 51
90.0
  0
LINE
  5
2F8
100
AcDbEntity
  8
0
370
    25
390
0
  6
Continuous
100
AcDbLine
 10
136.278795
 20
207.619259
 30
0.0
 11
136.278795
 21
194.619259
 31
0.0
  0
ARC
  5
2F9
100
AcDbEntity
  8
0
370
    25
390
0
  6
Continuous
100
AcDbCircle
 10
139.278795
 20
194.619259
 30
0.0
 40
3.0
100
AcDbArc
 50
180.0
 51
270.0
  0
LINE
  5
2FA
100
AcDbEntity
  8
0
370
    25
390
0
  6
Continuous
100
AcDbLine
 10
151.888486
 20
200.243633
 30
0.0
 11
151.978795
 21
200.94659
 31
0.0
  0
LINE
  5
2FB
100
AcDbEntity
  8
0
370
    25
390
0
  6
Continuous
100
AcDbLine
 10
151.621029
 20
199.567691
 30
0.0
 11
151.888486
 21
200.243633
 31
0.0
  0
LINE
  5
2FC
100
AcDbEntity
  8
0
370
    25
390
0
  6
Continuous
100
AcDbLine
 10
151.186702
 20
198.944739
 30
0.0
 11
151.621029
 21
199.567691
 31
0.0
  0
LINE
  5
2FD
100
AcDbEntity
  8
0
370
    25
390
0
  6
Continuous
100
AcDbLine
 10
150.602197
 20
198.398717
 30
0.0
 11
151.186702
 21
198.944739
 31
0.0
  0
LINE
  5
2FE
100
AcDbEntity
  8
0
370
    25
390
0
  6
Continuous
100
AcDbLine
 10
149.889975
 20
197.950609
 30
0.0
 11
150.602197
 21
198.398717
 31
0.0
  0
LINE
  5
2FF
100
AcDbEntity
  8
0
370
    25
390
0
  6
Continuous
100
AcDbLine
 10
149.077407
 20
197.617634
 30
0.0
 11
149.889975
 21
197.950609
 31
0.0
  0
LINE
  5
300
100
AcDbEntity
  8
0
370
    25
390
0
  6
Continuous
100
AcDbLine
 10
148.19572
 20
197.412589
 30
0.0
 11
149.077407
 21
197.617634
 31
0.0
  0
LINE
  5
301
100
AcDbEntity
  8
0
370
    25
390
0
  6
Continuous
100
AcDbLine
 10
147.278795
 20
197.343354
 30
0.0
 11
148.19572
 21
197.412589
 31
0.0
  0
LINE
  5
302
100
AcDbEntity
  8
0
370
    25
390
0
  6
Continuous
100
AcDbLine
 10
146.36187
 20
197.412589
 30
0.0
 11
147.278795
 21
197.343354
 31
0.0
  0
LINE
  5
303
100
AcDbEntity
  8
0
370
    25
390
0
  6
Continuous
100
AcDbLine
 10
145.480183
 20
197.617634
 30
0.0
 11
146.36187
 21
197.412589
 31
0.0
  0
LINE
  5
304
100
AcDbEntity
  8
0
370
    25
390
0
  6
Continuous
100
AcDbLine
 10
144.667615
 20
197.950609
 30
0.0
 11
145.480183
 21
197.617634
 31
0.0
  0
LINE
  5
305
100
AcDbEntity
  8
0
370
    25
390
0
  6
Continuous
100
AcDbLine
 10
143.955393
 20
198.398717
 30
0.0
 11
144.667615
 21
197.950609
 31
0.0
  0
LINE
  5
306
100
AcDbEntity
  8
0
370
    25
390
0
  6
Continuous
100
AcDbLine
 10
143.370888
 20
198.944739
 30
0.0
 11
143.955393
 21
198.398717
 31
0.0
  0
LINE
  5
307
100
AcDbEntity
  8
0
370
    25
390
0
  6
Continuous
100
AcDbLine
 10
142.936561
 20
199.567691
 30
0.0
 11
143.370888
 21
198.944739
 31
0.0
  0
LINE
  5
308
100
AcDbEntity
  8
0
370
    25
390
0
  6
Continuous
100
AcDbLine
 10
142.669104
 20
200.243633
 30
0.0
 11
142.936561
 21
199.567691
 31
0.0
  0
LINE
  5
309
100
AcDbEntity
  8
0
370
    25
390
0
  6
Continuous
100
AcDbLine
 10
142.578795
 20
200.94659
 30
0.0
 11
142.669104
 21
200.243633
 31
0.0
  0
LINE
  5
30A
100
AcDbEntity
  8
0
370
    25
390
0
  6
Continuous
100
AcDbLine
 10
142.669104
 20
201.649547
 30
0.0
 11
142.578795
 21
200.94659
 31
0.0
  0
LINE
  5
30B
100
AcDbEntity
  8
0
370
    25
390
0
  6
Continuous
100
AcDbLine
 10
142.936561
 20
202.325489
 30
0.0
 11
142.669104
 21
201.649547
 31
0.0
  0
LINE
  5
30C
100
AcDbEntity
  8
0
370
    25
390
0
  6
Continuous
100
AcDbLine
 10
143.370888
 20
202.948441
 30
0.0
 11
142.936561
 21
202.325489
 31
0.0
  0
LINE
  5
30D
100
AcDbEntity
  8
0
370
    25
390
0
  6
Continuous
100
AcDbLine
 10
143.955393
 20
203.494463
 30
0.0
 11
143.370888
 21
202.948441
 31
0.0
  0
LINE
  5
30E
100
AcDbEntity
  8
0
370
    25
390
0
  6
Continuous
100
AcDbLine
 10
144.667615
 20
203.942571
 30
0.0
 11
143.955393
 21
203.494463
 31
0.0
  0
LINE
  5
30F
100
AcDbEntity
  8
0
370
    25
390
0
  6
Continuous
100
AcDbLine
 10
145.480183
 20
204.275546
 30
0.0
 11
144.667615
 21
203.942571
 31
0.0
  0
LINE
  5
310
100
AcDbEntity
  8
0
370
    25
390
0
  6
Continuous
100
AcDbLine
 10
146.36187
 20
204.480591
 30
0.0
 11
145.480183
 21
204.275546
 31
0.0
  0
LINE
  5
311
100
AcDbEntity
  8
0
370
    25
390
0
  6
Continuous
100
AcDbLine
 10
147.278795
 20
204.549826
 30
0.0
 11
146.36187
 21
204.480591
 31
0.0
  0
LINE
  5
312
100
AcDbEntity
  8
0
370
    25
390
0
  6
Continuous
100
AcDbLine
 10
148.19572
 20
204.480591
 30
0.0
 11
147.278795
 21
204.549826
 31
0.0
  0
LINE
  5
313
100
AcDbEntity
  8
0
370
    25
390
0
  6
Continuous
100
AcDbLine
 10
149.077407
 20
204.275546
 30
0.0
 11
148.19572
 21
204.480591
 31
0.0
  0
LINE
  5
314
100
AcDbEntity
  8
0
370
    25
390
0
  6
Continuous
100
AcDbLine
 10
149.889975
 20
203.942571
 30
0.0
 11
149.077407
 21
204.275546
 31
0.0
  0
LINE
  5
315
100
AcDbEntity
  8
0
370
    25
390
0
  6
Continuous
100
AcDbLine
 10
150.602197
 20
203.494463
 30
0.0
 11
149.889975
 21
203.942571
 31
0.0
  0
LINE
  5
316
100
AcDbEntity
  8
0
370
    25
390
0
  6
Continuous
100
AcDbLine
 10
151.186702
 20
202.948441
 30
0.0
 11
150.602197
 21
203.494463
 31
0.0
  0
LINE
  5
317
100
AcDbEntity
  8
0
370
    25
390
0
  6
Continuous
100
AcDbLine
 10
151.621029
 20
202.325489
 30
0.0
 11
151.186702
 21
202.948441
 31
0.0
  0
LINE
  5
318
100
AcDbEntity
  8
0
370
    25
390
0
  6
Continuous
100
AcDbLine
 10
151.888486
 20
201.649547
 30
0.0
 11
151.621029
 21
202.325489
 31
0.0
  0
LINE
  5
319
100
AcDbEntity
  8
0
370
    25
390
0
  6
Continuous
100
AcDbLine
 10
151.978795
 20
200.94659
 30
0.0
 11
151.888486
 21
201.649547
 31
0.0
  0
LINE
  5
31A
100
AcDbEntity
  8
0
370
    25
390
0
  6
Continuous
100
AcDbLine
 10
149.278795
 20
203.938966
 30
0.0
 11
147.278795
 21
202.76318
 31
0.0
  0
LINE
  5
31B
100
AcDbEntity
  8
0
370
    25
390
0
  6
Continuous
100
AcDbLine
 10
147.278795
 20
202.76318
 30
0.0
 11
145.278795
 21
201.110538
 31
0.0
  0
LINE
  5
31C
100
AcDbEntity
  8
0
370
    25
390
0
  6
Continuous
100
AcDbLine
 10
145.278795
 20
203.938966
 30
0.0
 11
147.278795
 21
202.76318
 31
0.0
  0
LINE
  5
31D
100
AcDbEntity
  8
0
370
    25
390
0
  6
Continuous
100
AcDbLine
 10
147.278795
 20
202.76318
 30
0.0
 11
149.278795
 21
201.110538
 31
0.0
  0
ARC
  5
31E
100
AcDbEntity
  8
0
370
    25
390
0
  6
Continuous
100
AcDbCircle
 10
165.78364
 20
187.019259
 30
0.0
 40
20.6
100
AcDbArc
 50
55.0
 51
90.0
  0
ARC
  5
31F
100
AcDbEntity
  8
0
370
    25
390
0
  6
Continuous
100
AcDbCircle
 10
183.678795
 20
196.462879
 30
0.0
 40
2.6
100
AcDbArc
 50
0.0
 51
55.0
  0
LINE
  5
320
100
AcDbEntity
  8
0
370
    25
390
0
  6
Continuous
100
AcDbLine
 10
186.278795
 20
196.462879
 30
0.0
 11
186.278795
 21
153.619259
 31
0.0
  0
LINE
  5
321
100
AcDbEntity
  8
0
370
    25
390
0
  6
Continuous
100
AcDbLine
 10
177.599314
 20
203.893791
 30
0.0
 11
185.170094
 21
198.592675
 31
0.0
  0
LINE
  5
322
100
AcDbEntity
  8
0
370
    25
390
0
  6
Continuous
100
AcDbLine
 10
136.278795
 20
207.619259
 30
0.0
 11
165.78364
 21
207.619259
 31
0.0
  0
LINE
  5
323
100
AcDbEntity
  8
0
370
    25
390
0
  6
Continuous
100
AcDbLine
 10
52.278795
 20
206.119259
 30
0.0
 11
136.278795
 21
206.119259
 31
0.0
  0
LINE
  5
324
100
AcDbEntity
  8
0
370
    25
390
0
  6
Continuous
100
AcDbLine
 10
144.278795
 20
153.619259
 30
0.0
 11
144.278795
 21
183.119259
 31
0.0
  0
LINE
  5
325
100
AcDbEntity
  8
0
370
    25
390
0
  6
Continuous
100
AcDbLine
 10
69.278795
 20
153.619259
 30
0.0
 11
69.278795
 21
183.119259
 31
0.0
  0
LINE
  5
326
100
AcDbEntity
  8
0
370
    25
390
0
  6
Continuous
100
AcDbLine
 10
71.278795
 20
185.119259
 30
0.0
 11
142.278795
 21
185.119259
 31
0.0
  0
ARC
  5
327
100
AcDbEntity
  8
0
370
    25
390
0
  6
Continuous
100
AcDbCircle
 10
71.278795
 20
183.119259
 30
0.0
 40
2.0
100
AcDbArc
 50
90.0
 51
180.0
  0
ARC
  5
328
100
AcDbEntity
  8
0
370
    25
390
0
  6
Continuous
100
AcDbCircle
 10
142.278795
 20
183.119259
 30
0.0
 40
2.0
100
AcDbArc
 50
0.0
 51
90.0
  0
LINE
  5
329
100
AcDbEntity
  8
0
370
    25
390
0
  6
Continuous
100
AcDbLine
 10
136.278795
 20
204.119259
 30
0.0
 11
52.278795
 21
204.119259
 31
0.0
  0
LINE
  5
32A
100
AcDbEntity
  8
0
370
    25
390
0
  6
Continuous
100
AcDbLine
 10
136.278795
 20
204.619259
 30
0.0
 11
52.278795
 21
204.619259
 31
0.0
  0
LINE
  5
32B
100
AcDbEntity
  8
0
370
    25
390
0
  6
Continuous
100
AcDbLine
 10
136.278795
 20
199.752342
 30
0.0
 11
52.278795
 21
199.752342
 31
0.0
  0
LINE
  5
32C
100
AcDbEntity
  8
0
370
    25
390
0
  6
Continuous
100
AcDbLine
 10
136.278795
 20
194.661173
 30
0.0
 11
52.278795
 21
194.661173
 31
0.0
  0
LINE
  5
32D
100
AcDbEntity
  8
0
370
    25
390
0
  6
Continuous
100
AcDbLine
 10
146.278795
 20
173.619259
 30
0.0
 11
144.278795
 21
173.619259
 31
0.0
  0
LINE
  5
32E
100
AcDbEntity
  8
0
370
    25
390
0
  6
Continuous
100
AcDbLine
 10
146.278795
 20
186.92286
 30
0.0
 11
52.278795
 21
186.92286
 31
0.0
  0
LINE
  5
32F
100
AcDbEntity
  8
0
370
    25
390
0
  6
Continuous
100
AcDbLine
 10
146.278795
 20
185.33365
 30
0.0
 11
52.278795
 21
185.33365
 31
0.0
  0
LINE
  5
330
100
AcDbEntity
  8
0
370
    25
390
0
  6
Continuous
100
AcDbLine
 10
146.278795
 20
182.375655
 30
0.0
 11
144.278795
 21
182.375655
 31
0.0
  0
LINE
  5
331
100
AcDbEntity
  8
0
370
    25
390
0
  6
Continuous
100
AcDbLine
 10
146.278795
 20
180.896631
 30
0.0
 11
144.278795
 21
180.896631
 31
0.0
  0
LINE
  5
332
100
AcDbEntity
  8
0
370
    25
390
0
  6
Continuous
100
AcDbLine
 10
146.278795
 20
177.8039
 30
0.0
 11
144.278795
 21
177.8039
 31
0.0
  0
LINE
  5
333
100
AcDbEntity
  8
0
370
    25
390
0
  6
Continuous
100
AcDbLine
 10
146.278795
 20
176.457499
 30
0.0
 11
144.278795
 21
176.457499
 31
0.0
  0
LINE
  5
334
100
AcDbEntity
  8
0
370
    25
390
0
  6
Continuous
100
AcDbLine
 10
136.278795
 20
198.123915
 30
0.0
 11
52.278795
 21
198.123915
 31
0.0
  0
LINE
  5
335
100
AcDbEntity
  8
0
370
    25
390
0
  6
Continuous
100
AcDbLine
 10
136.436395
 20
193.659694
 30
0.0
 11
52.278795
 21
193.659694
 31
0.0
  0
LINE
  5
336
100
AcDbEntity
  8
0
370
    25
390
0
  6
Continuous
100
AcDbLine
 10
69.278795
 20
173.619259
 30
0.0
 11
52.278795
 21
173.619259
 31
0.0
  0
LINE
  5
337
100
AcDbEntity
  8
0
370
    25
390
0
  6
Continuous
100
AcDbLine
 10
69.278795
 20
176.457499
 30
0.0
 11
52.278795
 21
176.457499
 31
0.0
  0
LINE
  5
338
100
AcDbEntity
  8
0
370
    25
390
0
  6
Continuous
100
AcDbLine
 10
69.278795
 20
177.8039
 30
0.0
 11
52.278795
 21
177.8039
 31
0.0
  0
LINE
  5
339
100
AcDbEntity
  8
0
370
    25
390
0
  6
Continuous
100
AcDbLine
 10
69.278795
 20
180.896631
 30
0.0
 11
52.278795
 21
180.896631
 31
0.0
  0
LINE
  5
33A
100
AcDbEntity
  8
0
370
    25
390
0
  6
Continuous
100
AcDbLine
 10
69.278795
 20
182.375655
 30
0.0
 11
52.278795
 21
182.375655
 31
0.0
  0
LINE
  5
33B
100
AcDbEntity
  8
0
370
    25
390
0
  6
Continuous
100
AcDbLine
 10
71.278795
 20
183.619259
 30
0.0
 11
142.278795
 21
183.619259
 31
0.0
  0
LINE
  5
33C
100
AcDbEntity
  8
0
370
    25
390
0
  6
Continuous
100
AcDbLine
 10
143.278795
 20
153.619259
 30
0.0
 11
143.278795
 21
182.619259
 31
0.0
  0
LINE
  5
33D
100
AcDbEntity
  8
0
370
    25
390
0
  6
Continuous
100
AcDbLine
 10
70.278795
 20
182.619259
 30
0.0
 11
70.278795
 21
153.619259
 31
0.0
  0
ARC
  5
33E
100
AcDbEntity
  8
0
370
    25
390
0
  6
Continuous
100
AcDbCircle
 10
142.278795
 20
182.619259
 30
0.0
 40
1.0
100
AcDbArc
 50
0.0
 51
90.0
  0
ARC
  5
33F
100
AcDbEntity
  8
0
370
    25
390
0
  6
Continuous
100
AcDbCircle
 10
71.278795
 20
182.619259
 30
0.0
 40
1.0
100
AcDbArc
 50
90.0
 51
180.0
  0
LINE
  5
340
100
AcDbEntity
  8
0
370
    25
390
0
  6
Continuous
100
AcDbLine
 10
52.278795
 20
153.619259
 30
0.0
 11
52.278795
 21
207.119259
 31
0.0
  0
LINE
  5
341
100
AcDbEntity
  8
0
370
    25
390
0
  6
Continuous
100
AcDbLine
 10
52.278795
 20
153.619259
 30
0.0
 11
52.278795
 21
206.119259
 31
0.0
  0
LINE
  5
342
100
AcDbEntity
  8
0
370
    25
390
0
  6
Continuous
100
AcDbLine
 10
52.278795
 20
153.619259
 30
0.0
 11
52.278795
 21
100.119259
 31
0.0
  0
LINE
  5
343
100
AcDbEntity
  8
0
370
    25
390
0
  6
Continuous
100
AcDbLine
 10
52.278795
 20
153.619259
 30
0.0
 11
52.278795
 21
101.119259
 31
0.0
  0
LINE
  5
344
100
AcDbEntity
  8
0
370
    25
390
0
  6
Continuous
100
AcDbLine
 10
-60.721205
 20
98.619259
 30
0.0
 11
-60.721205
 21
100.619259
 31
0.0
  0
LINE
  5
345
100
AcDbEntity
  8
0
370
    25
390
0
  6
Continuous
100
AcDbLine
 10
-75.221205
 20
98.619259
 30
0.0
 11
-60.721205
 21
98.619259
 31
0.0
  0
LINE
  5
346
100
AcDbEntity
  8
0
370
    25
390
0
  6
Continuous
100
AcDbLine
 10
-75.221205
 20
98.619259
 30
0.0
 11
-60.721205
 21
98.619259
 31
0.0
  0
LINE
  5
347
100
AcDbEntity
  8
0
370
    25
390
0
  6
Continuous
100
AcDbLine
 10
-89.721205
 20
98.619259
 30
0.0
 11
-89.721205
 21
100.619259
 31
0.0
  0
LINE
  5
348
100
AcDbEntity
  8
0
370
    25
390
0
  6
Continuous
100
AcDbLine
 10
-75.221205
 20
98.619259
 30
0.0
 11
-89.721205
 21
98.619259
 31
0.0
  0
LINE
  5
349
100
AcDbEntity
  8
0
370
    25
390
0
  6
Continuous
100
AcDbLine
 10
-75.221205
 20
98.619259
 30
0.0
 11
-89.721205
 21
98.619259
 31
0.0
  0
LINE
  5
34A
100
AcDbEntity
  8
0
370
    25
390
0
  6
Continuous
100
AcDbLine
 10
-89.221205
 20
98.619259
 30
0.0
 11
-89.221205
 21
53.619259
 31
0.0
  0
LINE
  5
34B
100
AcDbEntity
  8
0
370
    25
390
0
  6
Continuous
100
AcDbLine
 10
-61.221205
 20
98.619259
 30
0.0
 11
-61.221205
 21
53.619259
 31
0.0
  0
ARC
  5
34C
100
AcDbEntity
  8
0
370
    25
390
0
  6
Continuous
100
AcDbCircle
 10
-75.221205
 20
89.619259
 30
0.0
 40
4.0
100
AcDbArc
 50
0.0
 51
180.0
  0
LINE
  5
34D
100
AcDbEntity
  8
0
370
    25
390
0
  6
CENTER
100
AcDbLine
 10
-75.221205
 20
45.341055
 30
0.0
 11
-75.221205
 21
215.792153
 31
0.0
  0
LINE
  5
34E
100
AcDbEntity
  8
0
370
    25
390
0
  6
Continuous
100
AcDbLine
 10
52.278795
 20
100.119256
 30
0.0
 11
37.331152
 21
99.858344
 31
0.0
  0
LINE
  5
34F
100
AcDbEntity
  8
0
370
    25
390
0
  6
Continuous
100
AcDbLine
 10
52.278795
 20
207.154172
 30
0.0
 11
37.331152
 21
207.415084
 31
0.0
  0
LINE
  5
350
100
AcDbEntity
  8
0
370
    25
390
0
  6
Continuous
100
AcDbLine
 10
24.635488
 20
114.119259
 30
0.0
 11
31.278795
 21
114.119259
 31
0.0
  0
ARC
  5
351
100
AcDbEntity
  8
0
370
    25
390
0
  6
Continuous
100
AcDbCircle
 10
37.278795
 20
204.415541
 30
0.0
 40
3.0
100
AcDbArc
 50
89.0
 51
180.0
  0
ARC
  5
352
100
AcDbEntity
  8
0
370
    25
390
0
  6
Continuous
100
AcDbCircle
 10
37.278795
 20
102.857887
 30
0.0
 40
3.0
100
AcDbArc
 50
180.0
 51
271.0
  0
ARC
  5
353
100
AcDbEntity
  8
0
370
    25
390
0
  6
Continuous
100
AcDbCircle
 10
24.635488
 20
112.119259
 30
0.0
 40
2.0
100
AcDbArc
 50
90.0
 51
180.0
  0
ARC
  5
354
100
AcDbEntity
  8
0
370
    25
390
0
  6
Continuous
100
AcDbCircle
 10
25.971105
 20
190.619259
 30
0.0
 40
2.0
100
AcDbArc
 50
179.0
 51
270.0
  0
LINE
  5
355
100
AcDbEntity
  8
0
370
    25
390
0
  6
Continuous
100
AcDbLine
 10
-32.721205
 20
100.619259
 30
0.0
 11
-117.721205
 21
100.619259
 31
0.0
  0
LINE
  5
356
100
AcDbEntity
  8
0
370
    25
390
0
  6
Continuous
100
AcDbLine
 10
-32.721205
 20
104.619259
 30
0.0
 11
-32.721205
 21
100.619259
 31
0.0
  0
LINE
  5
357
100
AcDbEntity
  8
0
370
    25
390
0
  6
Continuous
100
AcDbLine
 10
-117.721205
 20
206.619259
 30
0.0
 11
-117.721205
 21
202.619259
 31
0.0
  0
LINE
  5
358
100
AcDbEntity
  8
0
370
    25
390
0
  6
Continuous
100
AcDbLine
 10
-117.721205
 20
104.619259
 30
0.0
 11
-117.721205
 21
100.619259
 31
0.0
  0
LINE
  5
359
100
AcDbEntity
  8
0
370
    25
390
0
  6
Continuous
100
AcDbLine
 10
-136.011744
 20
190.619259
 30
0.0
 11
23.979528
 21
190.619259
 31
0.0
  0
LINE
  5
35A
100
AcDbEntity
  8
0
370
    25
390
0
  6
Continuous
100
AcDbLine
 10
-32.721205
 20
206.619259
 30
0.0
 11
-32.721205
 21
202.619259
 31
0.0
  0
LINE
  5
35B
100
AcDbEntity
  8
0
370
    25
390
0
  6
Continuous
100
AcDbLine
 10
-20.628675
 20
202.619259
 30
0.0
 11
-135.776101
 21
202.619259
 31
0.0
  0
LINE
  5
35C
100
AcDbEntity
  8
0
370
    25
390
0
  6
Continuous
100
AcDbLine
 10
-20.628675
 20
104.619259
 30
0.0
 11
-134.667704
 21
104.619259
 31
0.0
  0
LINE
  5
35D
100
AcDbEntity
  8
0
370
    25
390
0
  6
Continuous
100
AcDbLine
 10
23.778795
 20
202.619259
 30
0.0
 11
-20.628675
 21
202.619259
 31
0.0
  0
LINE
  5
35E
100
AcDbEntity
  8
0
370
    25
390
0
  6
Continuous
100
AcDbLine
 10
-117.721205
 20
206.619259
 30
0.0
 11
-32.721205
 21
206.619259
 31
0.0
  0
LINE
  5
35F
100
AcDbEntity
  8
0
370
    25
390
0
  6
Continuous
100
AcDbLine
 10
22.635488
 20
104.619259
 30
0.0
 11
-20.628675
 21
104.619259
 31
0.0
  0
LINE
  5
360
100
AcDbEntity
  8
0
370
    25
390
0
  6
Continuous
100
AcDbLine
 10
23.979528
 20
190.619259
 30
0.0
 11
22.635488
 21
114.619259
 31
0.0
  0
LINE
  5
361
100
AcDbEntity
  8
0
370
    25
390
0
  6
Continuous
100
AcDbLine
 10
22.635488
 20
114.619259
 30
0.0
 11
22.635488
 21
104.619259
 31
0.0
  0
LINE
  5
362
100
AcDbEntity
  8
0
370
    25
390
0
  6
Continuous
100
AcDbLine
 10
-134.667704
 20
114.619259
 30
0.0
 11
-134.667704
 21
104.619259
 31
0.0
  0
LINE
  5
363
100
AcDbEntity
  8
0
370
    25
390
0
  6
Continuous
100
AcDbLine
 10
-135.776101
 20
202.619259
 30
0.0
 11
-135.985562
 21
190.619259
 31
0.0
  0
LINE
  5
364
100
AcDbEntity
  8
0
370
    25
390
0
  6
Continuous
100
AcDbLine
 10
-136.011744
 20
190.619259
 30
0.0
 11
-134.667704
 21
114.619259
 31
0.0
  0
LINE
  5
365
100
AcDbEntity
  8
0
370
    25
390
0
  6
Continuous
100
AcDbLine
 10
23.988256
 20
190.619259
 30
0.0
 11
23.778795
 21
202.619259
 31
0.0
  0
LINE
  5
366
100
AcDbEntity
  8
0
370
    25
390
0
  6
Continuous
100
AcDbLine
 10
47.278795
 20
106.136714
 30
0.0
 11
47.278795
 21
102.084654
 31
0.0
  0
ARC
  5
367
100
AcDbEntity
  8
0
370
    25
390
0
  6
Continuous
100
AcDbCircle
 10
49.278795
 20
102.084654
 30
0.0
 40
2.0
100
AcDbArc
 50
180.0
 51
271.0
  0
ARC
  5
368
100
AcDbEntity
  8
0
370
    25
390
0
  6
Continuous
100
AcDbCircle
 10
44.278795
 20
106.136714
 30
0.0
 40
3.0
100
AcDbArc
 50
0.0
 51
90.0
  0
LINE
  5
369
100
AcDbEntity
  8
0
370
    25
390
0
  6
Continuous
100
AcDbLine
 10
47.278795
 20
153.636714
 30
0.0
 11
47.278795
 21
114.207063
 31
0.0
  0
ARC
  5
36A
100
AcDbEntity
  8
0
370
    25
390
0
  6
Continuous
100
AcDbCircle
 10
45.278795
 20
114.207063
 30
0.0
 40
2.0
100
AcDbArc
 50
270.0
 51
0.0
  0
ARC
  5
36B
100
AcDbEntity
  8
0
370
    25
390
0
  6
Continuous
100
AcDbCircle
 10
44.278795
 20
122.744548
 30
0.0
 40
3.0
100
AcDbArc
 50
270.0
 51
0.0
  0
LINE
  5
36C
100
AcDbEntity
  8
0
370
    25
390
0
  6
Continuous
100
AcDbLine
 10
39.213784
 20
119.744548
 30
0.0
 11
44.278795
 21
119.744548
 31
0.0
  0
LINE
  5
36D
100
AcDbEntity
  8
0
370
    25
390
0
  6
Continuous
100
AcDbLine
 10
44.278795
 20
109.136714
 30
0.0
 11
37.278795
 21
109.136714
 31
0.0
  0
LINE
  5
36E
100
AcDbEntity
  8
0
370
    25
390
0
  6
Continuous
100
AcDbLine
 10
45.278795
 20
112.207063
 30
0.0
 11
37.278795
 21
112.207063
 31
0.0
  0
ARC
  5
36F
100
AcDbEntity
  8
0
370
    25
390
0
  6
Continuous
100
AcDbCircle
 10
37.278795
 20
112.136714
 30
0.0
 40
3.0
100
AcDbArc
 50
180.0
 51
270.0
  0
ARC
  5
370
100
AcDbEntity
  8
0
370
    25
390
0
  6
Continuous
100
AcDbCircle
 10
37.278795
 20
115.207063
 30
0.0
 40
3.0
100
AcDbArc
 50
180.0
 51
270.0
  0
LINE
  5
371
100
AcDbEntity
  8
0
370
    25
390
0
  6
Continuous
100
AcDbLine
 10
34.278795
 20
102.857887
 30
0.0
 11
34.278795
 21
204.415541
 31
0.0
  0
LINE
  5
372
100
AcDbEntity
  8
0
370
    25
390
0
  6
Continuous
100
AcDbLine
 10
47.278795
 20
153.636714
 30
0.0
 11
47.278795
 21
193.066366
 31
0.0
  0
LINE
  5
373
100
AcDbEntity
  8
0
370
    25
390
0
  6
Continuous
100
AcDbLine
 10
47.278795
 20
173.636714
 30
0.0
 11
52.278795
 21
173.636714
 31
0.0
  0
ARC
  5
374
100
AcDbEntity
  8
0
370
    25
390
0
  6
Continuous
100
AcDbCircle
 10
44.278795
 20
201.136714
 30
0.0
 40
3.0
100
AcDbArc
 50
270.0
 51
0.0
  0
LINE
  5
375
100
AcDbEntity
  8
0
370
    25
390
0
  6
Continuous
100
AcDbLine
 10
38.974113
 20
187.52888
 30
0.0
 11
44.278795
 21
187.52888
 31
0.0
  0
ARC
  5
376
100
AcDbEntity
  8
0
370
    25
390
0
  6
Continuous
100
AcDbCircle
 10
45.278795
 20
193.066366
 30
0.0
 40
2.0
100
AcDbArc
 50
0.0
 51
90.0
  0
ARC
  5
377
100
AcDbEntity
  8
0
370
    25
390
0
  6
Continuous
100
AcDbCircle
 10
44.278795
 20
184.52888
 30
0.0
 40
3.0
100
AcDbArc
 50
0.0
 51
90.0
  0
LINE
  5
378
100
AcDbEntity
  8
0
370
    25
390
0
  6
Continuous
100
AcDbLine
 10
47.278795
 20
201.136714
 30
0.0
 11
47.278795
 21
205.188775
 31
0.0
  0
ARC
  5
379
100
AcDbEntity
  8
0
370
    25
390
0
  6
Continuous
100
AcDbCircle
 10
49.278795
 20
205.188775
 30
0.0
 40
2.0
100
AcDbArc
 50
89.0
 51
180.0
  0
LINE
  5
37A
100
AcDbEntity
  8
0
370
    25
390
0
  6
Continuous
100
AcDbLine
 10
45.278795
 20
195.066366
 30
0.0
 11
37.278795
 21
195.066366
 31
0.0
  0
LINE
  5
37B
100
AcDbEntity
  8
0
370
    25
390
0
  6
Continuous
100
AcDbLine
 10
44.278795
 20
198.136714
 30
0.0
 11
37.278795
 21
198.136714
 31
0.0
  0
ARC
  5
37C
100
AcDbEntity
  8
0
370
    25
390
0
  6
Continuous
100
AcDbCircle
 10
37.278795
 20
195.136714
 30
0.0
 40
3.0
100
AcDbArc
 50
90.0
 51
180.0
  0
ARC
  5
37D
100
AcDbEntity
  8
0
370
    25
390
0
  6
Continuous
100
AcDbCircle
 10
37.278795
 20
192.066366
 30
0.0
 40
3.0
100
AcDbArc
 50
90.0
 51
180.0
  0
ARC
  5
37E
100
AcDbEntity
  8
0
370
    25
390
0
  6
Continuous
100
AcDbCircle
 10
31.278795
 20
191.619259
 30
0.0
 40
3.0
100
AcDbArc
 50
270.0
 51
0.0
  0
LINE
  5
37F
100
AcDbEntity
  8
0
370
    25
390
0
  6
Continuous
100
AcDbLine
 10
31.278795
 20
188.619259
 30
0.0
 11
25.971105
 21
188.619259
 31
0.0
  0
ARC
  5
380
100
AcDbEntity
  8
0
370
    25
390
0
  6
Continuous
100
AcDbCircle
 10
31.278795
 20
111.119259
 30
0.0
 40
3.0
100
AcDbArc
 50
0.0
 51
90.0
  0
LINE
  5
381
100
AcDbEntity
  8
0
370
    25
390
0
  6
Continuous
100
AcDbLine
 10
52.278795
 20
153.636714
 30
0.0
 11
52.278795
 21
100.136714
 31
0.0
  0
LINE
  5
382
100
AcDbEntity
  8
0
370
    25
390
0
  6
Continuous
100
AcDbLine
 10
52.278795
 20
153.636714
 30
0.0
 11
52.278795
 21
207.136714
 31
0.0
  0
LINE
  5
383
100
AcDbEntity
  8
0
370
    25
390
0
  6
Continuous
100
AcDbLine
 10
-71.221205
 20
89.619259
 30
0.0
 11
-71.221205
 21
53.619259
 31
0.0
  0
LINE
  5
384
100
AcDbEntity
  8
0
370
    25
390
0
  6
Continuous
100
AcDbLine
 10
-79.221205
 20
89.619259
 30
0.0
 11
-79.221205
 21
53.619259
 31
0.0
  0
LINE
  5
385
100
AcDbEntity
  8
0
370
    25
390
0
  6
Continuous
100
AcDbLine
 10
-61.221205
 20
53.619259
 30
0.0
 11
-89.221205
 21
53.619259
 31
0.0
  0
LINE
  5
386
100
AcDbEntity
  8
0
370
    25
390
0
  6
Continuous
100
AcDbLine
 10
-79.221205
 20
89.619259
 30
0.0
 11
-71.221205
 21
89.619259
 31
0.0
  0
ARC
  5
387
100
AcDbEntity
  8
0
370
    25
390
0
  6
DASHED
100
AcDbCircle
 10
-331.798311
 20
-77.460239
 30
0.0
 40
0.5
100
AcDbArc
 50
0.0
 51
90.0
  0
LINE
  5
388
100
AcDbEntity
  8
0
370
    25
390
0
  6
DASHED
100
AcDbLine
 10
-433.298311
 20
-147.477694
 30
0.0
 11
-420.298311
 21
-147.477694
 31
0.0
  0
LINE
  5
389
100
AcDbEntity
  8
0
370
    25
390
0
  6
DASHED
100
AcDbLine
 10
-420.298311
 20
-147.477694
 30
0.0
 11
-420.298311
 21
-164.477694
 31
0.0
  0
LINE
  5
38A
100
AcDbEntity
  8
0
370
    25
390
0
  6
DASHED
100
AcDbLine
 10
-433.298311
 20
-164.477694
 30
0.0
 11
-420.298311
 21
-164.477694
 31
0.0
  0
LINE
  5
38B
100
AcDbEntity
  8
0
370
    25
390
0
  6
DASHED
100
AcDbLine
 10
-420.298311
 20
-161.477694
 30
0.0
 11
-348.298311
 21
-161.477694
 31
0.0
  0
LINE
  5
38C
100
AcDbEntity
  8
0
370
    25
390
0
  6
DASHED
100
AcDbLine
 10
-348.298311
 20
-164.477694
 30
0.0
 11
-335.298311
 21
-164.477694
 31
0.0
  0
LINE
  5
38D
100
AcDbEntity
  8
0
370
    25
390
0
  6
DASHED
100
AcDbLine
 10
-348.298311
 20
-147.477694
 30
0.0
 11
-335.298311
 21
-147.477694
 31
0.0
  0
LINE
  5
38E
100
AcDbEntity
  8
0
370
    25
390
0
  6
DASHED
100
AcDbLine
 10
-420.298311
 20
-150.477694
 30
0.0
 11
-348.298311
 21
-150.477694
 31
0.0
  0
LINE
  5
38F
100
AcDbEntity
  8
0
370
    25
390
0
  6
DASHED
100
AcDbLine
 10
-348.298311
 20
-147.477694
 30
0.0
 11
-348.298311
 21
-164.477694
 31
0.0
  0
LINE
  5
390
100
AcDbEntity
  8
0
370
    25
390
0
  6
DASHED
100
AcDbLine
 10
-348.298311
 20
-42.477694
 30
0.0
 11
-335.298311
 21
-42.477694
 31
0.0
  0
LINE
  5
391
100
AcDbEntity
  8
0
370
    25
390
0
  6
DASHED
100
AcDbLine
 10
-348.298311
 20
-25.477694
 30
0.0
 11
-348.298311
 21
-42.477694
 31
0.0
  0
LINE
  5
392
100
AcDbEntity
  8
0
370
    25
390
0
  6
DASHED
100
AcDbLine
 10
-348.298311
 20
-25.477694
 30
0.0
 11
-335.298311
 21
-25.477694
 31
0.0
  0
LINE
  5
393
100
AcDbEntity
  8
0
370
    25
390
0
  6
DASHED
100
AcDbLine
 10
-433.298311
 20
-42.477694
 30
0.0
 11
-420.298311
 21
-42.477694
 31
0.0
  0
LINE
  5
394
100
AcDbEntity
  8
0
370
    25
390
0
  6
DASHED
100
AcDbLine
 10
-420.298311
 20
-39.477694
 30
0.0
 11
-348.298311
 21
-39.477694
 31
0.0
  0
LINE
  5
395
100
AcDbEntity
  8
0
370
    25
390
0
  6
DASHED
100
AcDbLine
 10
-420.298311
 20
-25.477694
 30
0.0
 11
-420.298311
 21
-42.477694
 31
0.0
  0
LINE
  5
396
100
AcDbEntity
  8
0
370
    25
390
0
  6
DASHED
100
AcDbLine
 10
-433.298311
 20
-25.477694
 30
0.0
 11
-420.298311
 21
-25.477694
 31
0.0
  0
LINE
  5
397
100
AcDbEntity
  8
0
370
    25
390
0
  6
DASHED
100
AcDbLine
 10
-420.298311
 20
-28.477694
 30
0.0
 11
-348.298311
 21
-28.477694
 31
0.0
  0
ENDSEC
  0
SECTION
  2
OBJECTS
  0
DICTIONARY
  5
19
100
AcDbDictionary
280
     0
281
     1
  3
ACAD_GROUP
350
1A
  3
ACAD_MLINESTYLE
350
1B
  3
ACAD_LAYOUT
350
1E
  3
ACAD_PLOTSETTINGS
350
22
  3
ACAD_PLOTSTYLENAME
350
1F
  3
ACAD_WIPEOUT_VARS
350
23
  3
DWGPROPS
350
398
  0
DICTIONARY
  5
1A
102
{ACAD_REACTORS
330
19
102
}
100
AcDbDictionary
280
     0
281
     1
  0
DICTIONARY
  5
1B
102
{ACAD_REACTORS
330
19
102
}
100
AcDbDictionary
280
     0
281
     1
  3
Standard
350
1C
  0
MLINESTYLE
  5
1C
102
{ACAD_REACTORS
330
1B
102
}
100
AcDbMlineStyle
  2
Standard
 70
     0
  3

 62
     0
 51
90.0
 52
90.0
 71
     2
 49
0.5
 62
   256
  6
ByLayer
 49
-0.5
 62
   256
  6
ByLayer
  0
ACDBDICTIONARYWDFLT
  5
1F
102
{ACAD_REACTORS
330
19
102
}
100
AcDbDictionary
281
     1
  3
Normal
350
1D
100
AcDbDictionaryWithDefault
340
1D
  0
ACDBPLACEHOLDER
  5
1D
102
{ACAD_REACTORS
330
1F
102
}
  0
LAYOUT
  5
20
102
{ACAD_REACTORS
330
1E
102
}
100
AcDbPlotSettings
  1

  2

  4

  6

 40
0.0
 41
0.0
 42
0.0
 43
0.0
 44
0.0
 45
0.0
 46
0.0
 47
0.0
 48
0.0
 49
0.0
140
0.0
141
0.0
142
1.0
143
1.0
 70
  1024
 72
     0
 73
     0
 74
     0
  7

 75
     0
147
1.0
148
0.0
149
0.0
100
AcDbLayout
  1
Model
 70
     0
 71
     0
 10
0.0
 20
0.0
 11
0.0
 21
0.0
 12
0.0
 22
0.0
 32
0.0
 14
0.0
 24
0.0
 34
0.0
 15
0.0
 25
0.0
 35
0.0
146
0.0
 13
0.0
 23
0.0
 33
0.0
 16
0.0
 26
0.0
 36
0.0
 17
0.0
 27
0.0
 37
0.0
 76
     0
330
A
331
0
345
0
346
0
  0
LAYOUT
  5
21
102
{ACAD_REACTORS
330
1E
102
}
100
AcDbPlotSettings
  1

  2

  4

  6

 40
0.0
 41
0.0
 42
0.0
 43
0.0
 44
0.0
 45
0.0
 46
0.0
 47
0.0
 48
0.0
 49
0.0
140
0.0
141
0.0
142
1.0
143
1.0
 70
     0
 72
     0
 73
     0
 74
     0
  7

 75
     0
147
1.0
148
0.0
149
0.0
100
AcDbLayout
  1
Layout1
 70
     0
 71
     0
 10
0.0
 20
0.0
 11
0.0
 21
0.0
 12
0.0
 22
0.0
 32
0.0
 14
0.0
 24
0.0
 34
0.0
 15
0.0
 25
0.0
 35
0.0
146
0.0
 13
0.0
 23
0.0
 33
0.0
 16
0.0
 26
0.0
 36
0.0
 17
0.0
 27
0.0
 37
0.0
 76
     0
330
B
331
0
345
0
346
0
  0
DICTIONARY
  5
1E
102
{ACAD_REACTORS
330
19
102
}
100
AcDbDictionary
280
     0
281
     1
  3
Layout1
350
21
  3
Model
350
20
  0
DICTIONARY
  5
22
102
{ACAD_REACTORS
330
19
102
}
100
AcDbDictionary
280
     0
281
     1
  0
WIPEOUTVARIABLES
  5
23
100
AcDbWipeoutVariables
 70
     1
  0
XRECORD
  5
398
100
AcDbXrecord
280
     1
  1
DWGPROPS COOKIE
  2

  3

  4

  6

  7

  8
FS12240
  9

300
=
301
=
302
=
303
=
304
=
305
=
306
=
307
=
308
=
309
=
 40
0.0
 41
2457412.457882
 42
2457412.457882
  1

 90
        0
  0
ENDSEC
  0
EOF
