  0
SECTION
  2
HEADER
  9
$TEXTSIZE
 40
2.5
  9
$ACADVER
  1
AC1009
  9
$DIMASZ
 40
3.863703297614046
  9
$DIMEXE
 40
2.000000000000000
  9
$DIMEXO
 40
1.000000000000000
  9
$DIMLFAC
 40
1.000000000000000
  9
$DIMSCALE
 40
1.000000000000000
  9
$DIMTAD
 70
1
  9
$DIMTFAC
 40
0.625000000000000
  9
$DIMTXT
 40
3.200000047683716
  9
$LUPREC
 70
3
  9
$REGENMODE
 70
1
  9
$TEXTSTYLE
  7
STANDARD1
  0
ENDSEC
  0
SECTION
  2
TABLES
  0
TABLE
  2
LTYPE
 70
4
  0
LTYPE
  2
CONTINUOUS
 70
64
  3
Solid line
 72
65
 73
0
 40
0.0
  0
LTYPE
  2
DASHED
 70
64
  3
-- -- -- -- -- -- -- -- -- -- -- -- -- -- --
 72
65
 73
2
 40
0.75
 49
0.5
 49
-0.25
  0
LTYPE
  2
DASHDOT
 70
64
  3
__ . __ . __ . __ . __ . __ . __ . __ . __ . __
 72
65
 73
4
 40
1.0
 49
0.5
 49
-0.25
 49
0.0
 49
-0.25
  0
LTYPE
  2
DIVIDE
 70
64
  3
__ . . __ . . __ . . __ . . __ . . __ . . __
 72
65
 73
6
 40
1.25
 49
0.5
 49
-0.25
 49
0.0
 49
-0.25
 49
0.0
 49
-0.25
  0
ENDTAB
  0
TABLE
  2
LAYER
 70
4
  0
LAYER
  2
0
 70
64
 62
53
  6
CONTINUOUS
  0
LAYER
  2
1
 70
64
 62
102
  6
CONTINUOUS
  0
LAYER
  2
2
 70
64
 62
42
  6
CONTINUOUS
  0
LAYER
  2
3
 70
64
 62
7
  6
CONTINUOUS
  0
ENDTAB
  0
TABLE
  2
STYLE
 70
4
  0
STYLE
  2
STANDARD1
 70
64
 40
0.0
 41
1.0
 50
0.0
 71
0
 42
3.200000047683716
  3
MONOTXT
  4
BIGFONT
  0
STYLE
  2
STANDARD2
 70
68
 40
0.0
 41
1.0
 50
0.0
 71
0
 42
3.200000047683716
  3
MONOTXT
  4
BIGFONT
  0
STYLE
  2
STANDARD3
 70
64
 40
0.0
 41
1.0
 50
0.0
 71
0
 42
3.200000047683716
  3
MONOTXT
  4

  0
STYLE
  2
STANDARD4
 70
68
 40
0.0
 41
1.0
 50
0.0
 71
0
 42
3.200000047683716
  3
MONOTXT
  4

  0
ENDTAB
  0
TABLE
  2
VIEW
 70
0
  0
ENDTAB
  0
ENDSEC
  0
SECTION
  2
BLOCKS
  0
ENDSEC
  0
SECTION
  2
ENTITIES
  0
TEXT
  8
0
  6
CONTINUOUS
 62
256
 10
544.095031738281250
 20
-240.115310668945310
 40
3.299999952316284
  1
1/1
 50
0.000002504478167
 41
0.850909097352304
  7
STANDARD1
  0
TEXT
  8
0
  6
CONTINUOUS
 62
256
 10
541.677062988281250
 20
-240.115310668945310
 40
3.299999952316284
  1
 
 50
0.000002504478167
 41
1.733333298293026
  7
STANDARD1
  0
TEXT
  8
0
  6
CONTINUOUS
 62
256
 10
528.626403808593750
 20
-240.115310668945310
 40
3.299999952316284
  1
SCALE
 50
0.000002504478167
 41
0.821052645401140
  7
STANDARD1
  0
TEXT
  8
0
  6
CONTINUOUS
 62
256
 10
525.375061035156250
 20
-240.115310668945310
 40
3.299999952316284
  1
 
 50
0.000002504478167
 41
1.733333298293026
  7
STANDARD1
  0
TEXT
  8
0
  6
CONTINUOUS
 62
256
 10
540.229248046875000
 20
-234.815307617187500
 40
3.299999952316284
  1
1/240
 50
0.000002504478167
 41
0.821052645401140
  7
STANDARD1
  0
TEXT
  8
0
  6
CONTINUOUS
 62
256
 10
536.447204589843750
 20
-234.815307617187500
 40
3.299999952316284
  1
ü`
 50
0.000002504478167
 41
1.176000019651471
  7
STANDARD1
  0
TEXT
  8
0
  6
CONTINUOUS
 62
256
 10
525.375061035156250
 20
-234.815307617187500
 40
3.299999952316284
  1
1/80
 50
0.000002504478167
 41
0.832000075658163
  7
STANDARD1
  0
TEXT
  8
0
  6
CONTINUOUS
 62
256
 10
528.609069824218750
 20
-229.515304565429690
 40
3.299999952316284
  1
GM-SHYF-RL
 50
0.000002504478167
 41
0.799999980493025
  7
STANDARD1
  0
TEXT
  8
0
  6
CONTINUOUS
 62
256
 10
525.375061035156250
 20
-229.515304565429690
 40
3.299999952316284
  1
 
 50
0.000002504478167
 41
1.733333298293026
  7
STANDARD1
  0
TEXT
  8
0
  6
CONTINUOUS
 62
256
 10
531.200439453125000
 20
-224.215316772460940
 40
3.299999952316284
  1
0.4kW
 50
0.000002504478167
 41
0.821052645401140
  7
STANDARD1
  0
TEXT
  8
0
  6
CONTINUOUS
 62
256
 10
525.375061035156250
 20
-224.215316772460940
 40
3.299999952316284
  1
  
 50
0.000002504478167
 41
1.485714400175845
  7
STANDARD1
  0
TEXT
  8
0
  6
CONTINUOUS
 62
256
 10
531.194519042968750
 20
-218.915313720703130
 40
3.299999952316284
  1
SHY035
 50
0.000002504478167
 41
0.813913121261144
  7
STANDARD1
  0
TEXT
  8
0
  6
CONTINUOUS
 62
256
 10
525.375061035156250
 20
-218.915313720703130
 40
3.299999952316284
  1
  
 50
0.000002504478167
 41
1.485714400175845
  7
STANDARD1
  0
CIRCLE
  8
0
  6
CONTINUOUS
 62
256
 10
45.155613000000002
 20
-188.840507000000000
 40
7.000000000000000
  0
CIRCLE
  8
0
  6
CONTINUOUS
 62
256
 10
45.155613000000002
 20
-188.840507000000000
 40
10.000000000000000
  0
CIRCLE
  8
0
  6
CONTINUOUS
 62
256
 10
45.155613000000002
 20
-42.840507000000002
 40
7.000000000000000
  0
CIRCLE
  8
0
  6
CONTINUOUS
 62
256
 10
45.155613000000002
 20
-42.840507000000002
 40
10.000000000000000
  0
CIRCLE
  8
0
  6
CONTINUOUS
 62
256
 10
-113.844387000000000
 20
-42.840507000000002
 40
7.000000000000000
  0
CIRCLE
  8
0
  6
CONTINUOUS
 62
256
 10
-113.844387000000000
 20
-42.840507000000002
 40
10.000000000000000
  0
CIRCLE
  8
0
  6
CONTINUOUS
 62
256
 10
-113.844387000000000
 20
-188.840507000000000
 40
7.000000000000000
  0
CIRCLE
  8
0
  6
CONTINUOUS
 62
256
 10
-113.844387000000000
 20
-188.840507000000000
 40
10.000000000000000
  0
LINE
  8
0
  6
DASHED
 62
256
 10
-422.246129000000000
 20
-42.840507000000002
 11
-422.246129000000000
 21
-32.840507000000002
  0
LINE
  8
0
  6
DASHED
 62
256
 10
-338.246129000000000
 20
-35.840507000000002
 11
-422.246129000000000
 21
-35.840507000000002
  0
LINE
  8
0
  6
DASHED
 62
256
 10
-422.246129000000000
 20
-32.840507000000002
 11
-438.246129000000000
 21
-32.840507000000002
  0
LINE
  8
0
  6
DASHED
 62
256
 10
-338.246129000000000
 20
-49.840507000000002
 11
-422.246129000000000
 21
-49.840507000000002
  0
LINE
  8
0
  6
DASHED
 62
256
 10
-422.246129000000000
 20
-42.840507000000002
 11
-422.246129000000000
 21
-52.840507000000002
  0
LINE
  8
0
  6
DASHED
 62
256
 10
-422.246129000000000
 20
-52.840507000000002
 11
-438.246129000000000
 21
-52.840507000000002
  0
LINE
  8
0
  6
DASHED
 62
256
 10
-322.246129000000000
 20
-32.840507000000002
 11
-338.246129000000000
 21
-32.840507000000002
  0
LINE
  8
0
  6
DASHED
 62
256
 10
-338.246129000000000
 20
-42.840507000000002
 11
-338.246129000000000
 21
-32.840507000000002
  0
LINE
  8
0
  6
DASHED
 62
256
 10
-322.246129000000000
 20
-52.840507000000002
 11
-338.246129000000000
 21
-52.840507000000002
  0
LINE
  8
0
  6
DASHED
 62
256
 10
-338.246129000000000
 20
-42.840507000000002
 11
-338.246129000000000
 21
-52.840507000000002
  0
LINE
  8
0
  6
DASHED
 62
256
 10
-338.246129000000000
 20
-181.840507000000000
 11
-422.246129000000000
 21
-181.840507000000000
  0
LINE
  8
0
  6
DASHED
 62
256
 10
-338.246129000000000
 20
-188.840507000000000
 11
-338.246129000000000
 21
-178.840507000000000
  0
LINE
  8
0
  6
DASHED
 62
256
 10
-322.246129000000000
 20
-178.840507000000000
 11
-338.246129000000000
 21
-178.840507000000000
  0
LINE
  8
0
  6
DASHED
 62
256
 10
-338.246129000000000
 20
-188.840507000000000
 11
-338.246129000000000
 21
-198.840507000000000
  0
LINE
  8
0
  6
DASHED
 62
256
 10
-322.246129000000000
 20
-198.840507000000000
 11
-338.246129000000000
 21
-198.840507000000000
  0
LINE
  8
0
  6
DASHED
 62
256
 10
-422.246129000000000
 20
-188.840507000000000
 11
-422.246129000000000
 21
-178.840507000000000
  0
LINE
  8
0
  6
DASHED
 62
256
 10
-422.246129000000000
 20
-178.840507000000000
 11
-438.246129000000000
 21
-178.840507000000000
  0
LINE
  8
0
  6
DASHED
 62
256
 10
-422.246129000000000
 20
-188.840507000000000
 11
-422.246129000000000
 21
-198.840507000000000
  0
LINE
  8
0
  6
DASHED
 62
256
 10
-422.246129000000000
 20
-198.840507000000000
 11
-438.246129000000000
 21
-198.840507000000000
  0
LINE
  8
0
  6
DASHED
 62
256
 10
-338.246129000000000
 20
-195.840507000000000
 11
-422.246129000000000
 21
-195.840507000000000
  0
ARC
  8
0
  6
CONTINUOUS
 62
256
 10
-56.844386999999998
 20
113.362644000000000
 40
5.000000000000000
 50
0.000000000000000
 51
180.000000000000000
  0
LINE
  8
0
  6
CONTINUOUS
 62
256
 10
-51.844386999999998
 20
73.362644000000003
 11
-51.844386999999998
 21
113.362644000000000
  0
LINE
  8
0
  6
CONTINUOUS
 62
256
 10
-51.844386999999998
 20
113.362644000000000
 11
-61.844386999999998
 21
113.362644000000000
  0
LINE
  8
0
  6
CONTINUOUS
 62
256
 10
-61.844386999999998
 20
73.362644000000003
 11
-61.844386999999998
 21
113.362644000000000
  0
ARC
  8
0
  6
CONTINUOUS
 62
256
 10
-72.043989999999994
 20
74.162644000000000
 40
0.799999999999997
 50
180.000000000000000
 51
270.000000000000000
  0
LINE
  8
0
  6
CONTINUOUS
 62
256
 10
-72.843990000000005
 20
127.962576000000000
 11
-72.843990000000005
 21
74.162644000000000
  0
ARC
  8
0
  6
CONTINUOUS
 62
256
 10
-73.243989999999997
 20
127.962576000000000
 40
0.400000000000006
 50
0.000000000000000
 51
90.000000000000000
  0
ARC
  8
0
  6
CONTINUOUS
 62
256
 10
-73.943989999999999
 20
128.762576000000000
 40
0.400000000000006
 50
180.000000000000000
 51
270.000000000000000
  0
LINE
  8
0
  6
CONTINUOUS
 62
256
 10
-40.843989999999998
 20
73.362644000000003
 11
-72.043989999999994
 21
73.362644000000003
  0
ARC
  8
0
  6
CONTINUOUS
 62
256
 10
-41.643990000000002
 20
74.162644000000000
 40
0.799999999999997
 50
270.000000000000000
 51
0.000000000000000
  0
LINE
  8
0
  6
CONTINUOUS
 62
256
 10
-39.743989999999997
 20
128.362575999999990
 11
-73.943989999999999
 21
128.362575999999990
  0
LINE
  8
0
  6
CONTINUOUS
 62
256
 10
-40.843989999999998
 20
127.962576000000000
 11
-40.843989999999998
 21
74.162644000000000
  0
ARC
  8
0
  6
CONTINUOUS
 62
256
 10
-40.443989999999999
 20
127.962576000000000
 40
0.399999999999991
 50
90.000000000000000
 51
180.000000000000000
  0
ARC
  8
0
  6
CONTINUOUS
 62
256
 10
-39.743989999999997
 20
128.762576000000000
 40
0.400000000000006
 50
270.000000000000000
 51
0.000000000000000
  0
LINE
  8
0
  6
CONTINUOUS
 62
256
 10
-74.343990000000005
 20
130.362438999999990
 11
-74.343990000000005
 21
128.762576000000000
  0
LINE
  8
0
  6
CONTINUOUS
 62
256
 10
-39.343989999999998
 20
130.362438999999990
 11
-39.343989999999998
 21
128.762576000000000
  0
LINE
  8
0
  6
CONTINUOUS
 62
256
 10
-9.344386999999999
 20
256.362837000000010
 11
-9.344386999999999
 21
251.362837000000010
  0
LINE
  8
0
  6
CONTINUOUS
 62
256
 10
-104.344387000000000
 20
256.362837000000010
 11
-104.344387000000000
 21
251.362837000000010
  0
LINE
  8
0
  6
CONTINUOUS
 62
256
 10
-104.344387000000000
 20
256.362837000000010
 11
-9.344386999999999
 21
256.362837000000010
  0
LINE
  8
0
  6
CONTINUOUS
 62
256
 10
-57.073059999999998
 20
130.362438999999990
 11
-9.344386999999999
 21
130.362438999999990
  0
LINE
  8
0
  6
CONTINUOUS
 62
256
 10
-9.344386999999999
 20
130.362438999999990
 11
-9.344386999999999
 21
135.362837000000010
  0
LINE
  8
0
  6
CONTINUOUS
 62
256
 10
-57.073059999999998
 20
130.362438999999990
 11
-104.344387000000000
 21
130.362438999999990
  0
LINE
  8
0
  6
CONTINUOUS
 62
256
 10
-104.344387000000000
 20
130.362438999999990
 11
-104.344387000000000
 21
135.362837000000010
  0
LINE
  8
0
  6
CONTINUOUS
 62
256
 10
68.655613000000002
 20
237.362438999999990
 11
62.365378000000000
 21
237.362438999999990
  0
LINE
  8
0
  6
CONTINUOUS
 62
256
 10
88.655613000000002
 20
252.845382000000000
 11
74.706984000000006
 21
253.101396999999990
  0
LINE
  8
0
  6
CONTINUOUS
 62
256
 10
88.655613000000002
 20
133.880292000000000
 11
74.706984000000006
 21
133.624276000000010
  0
LINE
  8
0
  6
CONTINUOUS
 62
256
 10
88.655613000000002
 20
193.362837000000010
 11
88.655613000000002
 21
133.862837000000010
  0
LINE
  8
0
  6
CONTINUOUS
 62
256
 10
88.655613000000002
 20
193.362837000000010
 11
88.655613000000002
 21
252.862837000000010
  0
ARC
  8
0
  6
CONTINUOUS
 62
256
 10
60.759518999999997
 20
147.362837000000010
 40
2.000000000000000
 50
90.000000000000000
 51
178.999999999999860
  0
ARC
  8
0
  6
CONTINUOUS
 62
256
 10
62.365378000000000
 20
239.362438999999990
 40
1.999999999999998
 50
178.999999999999860
 51
270.000000000000000
  0
LINE
  8
0
  6
DASHDOT
 62
256
 10
-56.844386999999998
 20
270.078579999999990
 11
-56.844386999999998
 21
68.721974000000003
  0
LINE
  8
0
  6
CONTINUOUS
 62
256
 10
88.655613000000002
 20
213.362837000000010
 11
82.655613000000002
 21
213.362837000000010
  0
LINE
  8
0
  6
CONTINUOUS
 62
256
 10
88.655613000000002
 20
173.362837000000010
 11
82.655613000000002
 21
173.362837000000010
  0
LINE
  8
0
  6
CONTINUOUS
 62
256
 10
79.655613000000002
 20
245.459144000000010
 11
74.655613000000002
 21
245.459144000000010
  0
LINE
  8
0
  6
CONTINUOUS
 62
256
 10
79.655613000000002
 20
238.547568000000010
 11
74.655613000000002
 21
238.547568000000010
  0
LINE
  8
0
  6
CONTINUOUS
 62
256
 10
79.655613000000002
 20
148.178106000000010
 11
74.655613000000002
 21
148.178106000000010
  0
LINE
  8
0
  6
CONTINUOUS
 62
256
 10
79.655613000000002
 20
141.266528999999990
 11
74.655613000000002
 21
141.266528999999990
  0
LINE
  8
0
  6
CONTINUOUS
 62
256
 10
82.655613000000002
 20
137.862837000000010
 11
82.655613000000002
 21
136.862837000000010
  0
LINE
  8
0
  6
CONTINUOUS
 62
256
 10
79.655613000000002
 20
154.361570000000000
 11
74.655613000000002
 21
154.361570000000000
  0
LINE
  8
0
  6
CONTINUOUS
 62
256
 10
82.655613000000002
 20
151.178106000000010
 11
82.655613000000002
 21
193.362837000000010
  0
LINE
  8
0
  6
CONTINUOUS
 62
256
 10
82.655613000000002
 20
137.862837000000010
 11
82.655613000000002
 21
138.266528999999990
  0
LINE
  8
0
  6
CONTINUOUS
 62
256
 10
82.655613000000002
 20
248.862837000000010
 11
82.655613000000002
 21
249.862837000000010
  0
LINE
  8
0
  6
CONTINUOUS
 62
256
 10
82.655613000000002
 20
248.862837000000010
 11
82.655613000000002
 21
248.459144000000010
  0
LINE
  8
0
  6
CONTINUOUS
 62
256
 10
82.655613000000002
 20
248.862837000000010
 11
82.655613000000002
 21
248.459144000000010
  0
LINE
  8
0
  6
CONTINUOUS
 62
256
 10
79.655613000000002
 20
232.364104000000000
 11
74.655613000000002
 21
232.364104000000000
  0
LINE
  8
0
  6
CONTINUOUS
 62
256
 10
82.655613000000002
 20
235.547568000000010
 11
82.655613000000002
 21
193.362837000000010
  0
ARC
  8
0
  6
CONTINUOUS
 62
256
 10
79.655613000000002
 20
138.266528999999990
 40
3.000000000000000
 50
0.000000000000000
 51
90.000000000000000
  0
ARC
  8
0
  6
CONTINUOUS
 62
256
 10
79.655613000000002
 20
151.178106000000010
 40
3.000000000000000
 50
270.000000000000000
 51
0.000000000000000
  0
ARC
  8
0
  6
CONTINUOUS
 62
256
 10
79.655613000000002
 20
157.361570000000000
 40
3.000000000000000
 50
270.000000000000000
 51
0.000000000000000
  0
ARC
  8
0
  6
CONTINUOUS
 62
256
 10
85.655613000000002
 20
136.862837000000010
 40
3.000000000000000
 50
180.000000000000000
 51
270.000000000000000
  0
ARC
  8
0
  6
CONTINUOUS
 62
256
 10
85.655613000000002
 20
249.862837000000010
 40
3.000000000000000
 50
90.000000000000000
 51
180.000000000000000
  0
ARC
  8
0
  6
CONTINUOUS
 62
256
 10
79.655613000000002
 20
235.547568000000010
 40
3.000000000000000
 50
0.000000000000000
 51
90.000000000000000
  0
ARC
  8
0
  6
CONTINUOUS
 62
256
 10
79.655613000000002
 20
248.459144000000010
 40
3.000000000000000
 50
270.000000000000000
 51
0.000000000000000
  0
ARC
  8
0
  6
CONTINUOUS
 62
256
 10
79.655613000000002
 20
229.364104000000000
 40
3.000000000000000
 50
0.000000000000000
 51
90.000000000000000
  0
ARC
  8
0
  6
CONTINUOUS
 62
256
 10
74.655613000000002
 20
136.623836000000010
 40
3.000000000000000
 50
180.000000000000000
 51
270.981172999999960
  0
ARC
  8
0
  6
CONTINUOUS
 62
256
 10
74.655613000000002
 20
250.101836999999990
 40
2.999999999999992
 50
89.018827000000030
 51
180.000000000000000
  0
ARC
  8
0
  6
CONTINUOUS
 62
256
 10
74.655613000000002
 20
242.459144000000010
 40
3.000000000000000
 50
90.000000000000000
 51
180.000000000000000
  0
ARC
  8
0
  6
CONTINUOUS
 62
256
 10
74.655613000000002
 20
235.547568000000010
 40
3.000000000000000
 50
90.000000000000000
 51
180.000000000000000
  0
ARC
  8
0
  6
CONTINUOUS
 62
256
 10
74.655613000000002
 20
144.266528999999990
 40
3.000000000000000
 50
180.000000000000000
 51
270.000000000000000
  0
ARC
  8
0
  6
CONTINUOUS
 62
256
 10
74.655613000000002
 20
151.178106000000010
 40
3.000000000000000
 50
180.000000000000000
 51
270.000000000000000
  0
ARC
  8
0
  6
CONTINUOUS
 62
256
 10
68.655613000000002
 20
240.362438999999990
 40
3.000000000000000
 50
270.000000000000000
 51
0.000000000000000
  0
LINE
  8
0
  6
CONTINUOUS
 62
256
 10
60.759518999999997
 20
149.362837000000010
 11
68.655613000000002
 21
149.362837000000010
  0
ARC
  8
0
  6
CONTINUOUS
 62
256
 10
68.655613000000002
 20
146.362837000000010
 40
3.000000000000000
 50
0.000000000000000
 51
90.000000000000000
  0
LINE
  8
0
  6
CONTINUOUS
 62
256
 10
71.655613000000002
 20
250.101836999999990
 11
71.655613000000002
 21
136.623836000000010
  0
LINE
  8
0
  6
CONTINUOUS
 62
256
 10
-40.643490999999997
 20
135.362837000000010
 11
-126.985416000000000
 21
135.362837000000010
  0
LINE
  8
0
  6
CONTINUOUS
 62
256
 10
-40.643490999999997
 20
239.362837000000010
 11
-128.634919999999990
 21
239.362837000000010
  0
LINE
  8
0
  6
CONTINUOUS
 62
256
 10
-40.643490999999997
 20
251.363234000000010
 11
-127.925528000000000
 21
251.363234000000010
  0
LINE
  8
0
  6
CONTINUOUS
 62
256
 10
-40.643490999999997
 20
251.363234000000010
 11
60.155613000000002
 21
251.363234000000010
  0
LINE
  8
0
  6
CONTINUOUS
 62
256
 10
60.365079999999999
 20
239.362837000000010
 11
-40.643490999999997
 21
239.362837000000010
  0
LINE
  8
0
  6
CONTINUOUS
 62
256
 10
58.715577000000003
 20
135.362837000000010
 11
-40.643490999999997
 21
135.362837000000010
  0
LINE
  8
0
  6
CONTINUOUS
 62
256
 10
-128.634919999999990
 20
239.362837000000010
 11
-126.985416000000000
 21
144.862837000000010
  0
LINE
  8
0
  6
CONTINUOUS
 62
256
 10
-126.985416000000000
 20
144.862837000000010
 11
-126.985416000000000
 21
135.362837000000010
  0
LINE
  8
0
  6
CONTINUOUS
 62
256
 10
-128.434177000000010
 20
250.863386999999990
 11
-128.634919999999990
 21
239.362837000000010
  0
LINE
  8
0
  6
CONTINUOUS
 62
256
 10
60.365079999999999
 20
239.362837000000010
 11
58.715577000000003
 21
144.862837000000010
  0
LINE
  8
0
  6
CONTINUOUS
 62
256
 10
58.715577000000003
 20
144.862837000000010
 11
58.715577000000003
 21
135.362837000000010
  0
LINE
  8
0
  6
CONTINUOUS
 62
256
 10
60.155613000000002
 20
251.363234000000010
 11
60.365079999999999
 21
239.362837000000010
  0
LINE
  8
0
  6
CONTINUOUS
 62
256
 10
-56.844386999999998
 20
256.363233999999980
 11
-9.344386999999999
 21
256.363233999999980
  0
LINE
  8
0
  6
CONTINUOUS
 62
256
 10
-127.925528000000000
 20
251.363234000000010
 11
-128.434177000000010
 21
250.863386999999990
  0
LINE
  8
0
  6
CONTINUOUS
 62
256
 10
192.655612999999990
 20
222.362837000000010
 11
192.655612999999990
 21
193.362837000000010
  0
LINE
  8
0
  6
CONTINUOUS
 62
256
 10
119.655613000000000
 20
222.362837000000010
 11
119.655613000000000
 21
193.362837000000010
  0
LINE
  8
0
  6
CONTINUOUS
 62
256
 10
118.815016000000000
 20
223.645271000000010
 11
88.655613000000002
 21
223.645271000000010
  0
LINE
  8
0
  6
CONTINUOUS
 62
256
 10
195.655612999999990
 20
223.645271000000010
 11
193.496208999999990
 21
223.645271000000010
  0
LINE
  8
0
  6
CONTINUOUS
 62
256
 10
118.655613000000000
 20
218.192890000000010
 11
88.655613000000002
 21
218.192890000000010
  0
LINE
  8
0
  6
CONTINUOUS
 62
256
 10
195.655612999999990
 20
218.192890000000010
 11
193.655612999999990
 21
218.192890000000010
  0
LINE
  8
0
  6
CONTINUOUS
 62
256
 10
118.655613000000000
 20
219.554769999999990
 11
88.655613000000002
 21
219.554769999999990
  0
LINE
  8
0
  6
CONTINUOUS
 62
256
 10
195.655612999999990
 20
219.554769999999990
 11
193.655612999999990
 21
219.554769999999990
  0
LINE
  8
0
  6
CONTINUOUS
 62
256
 10
118.655613000000000
 20
213.362837000000010
 11
88.655613000000002
 21
213.362837000000010
  0
LINE
  8
0
  6
CONTINUOUS
 62
256
 10
195.655612999999990
 20
213.362837000000010
 11
193.655612999999990
 21
213.362837000000010
  0
LINE
  8
0
  6
CONTINUOUS
 62
256
 10
185.655612999999990
 20
250.362837000000010
 11
88.655613000000002
 21
250.362837000000010
  0
LINE
  8
0
  6
CONTINUOUS
 62
256
 10
185.655612999999990
 20
250.862837000000010
 11
88.655613000000002
 21
250.862837000000010
  0
LINE
  8
0
  6
CONTINUOUS
 62
256
 10
185.655612999999990
 20
249.362837000000010
 11
88.655613000000002
 21
249.362837000000010
  0
LINE
  8
0
  6
CONTINUOUS
 62
256
 10
185.655612999999990
 20
248.362837000000010
 11
88.655613000000002
 21
248.362837000000010
  0
LINE
  8
0
  6
CONTINUOUS
 62
256
 10
185.655612999999990
 20
243.678371000000000
 11
88.655613000000002
 21
243.678371000000000
  0
LINE
  8
0
  6
CONTINUOUS
 62
256
 10
185.655612999999990
 20
238.728623000000000
 11
88.655613000000002
 21
238.728623000000000
  0
LINE
  8
0
  6
CONTINUOUS
 62
256
 10
194.558605000000000
 20
230.682021999999990
 11
88.655613000000002
 21
230.682021999999990
  0
LINE
  8
0
  6
CONTINUOUS
 62
256
 10
195.569276000000000
 20
229.077373999999990
 11
88.655613000000002
 21
229.077373999999990
  0
LINE
  8
0
  6
CONTINUOUS
 62
256
 10
195.655612999999990
 20
225.113628000000010
 11
88.655613000000002
 21
225.113628000000010
  0
LINE
  8
0
  6
CONTINUOUS
 62
256
 10
120.655613000000000
 20
223.362837000000010
 11
191.655612999999990
 21
223.362837000000010
  0
ARC
  8
0
  6
CONTINUOUS
 62
256
 10
191.655612999999990
 20
222.362837000000010
 40
1.000000000000000
 50
0.000000000000000
 51
90.000000000000000
  0
ARC
  8
0
  6
CONTINUOUS
 62
256
 10
120.655613000000000
 20
222.362837000000010
 40
1.000000000000000
 50
90.000000000000000
 51
180.000000000000000
  0
ARC
  8
0
  6
CONTINUOUS
 62
256
 10
120.655613000000000
 20
222.862837000000010
 40
2.000000000000000
 50
90.000000000000000
 51
180.000000000000000
  0
LINE
  8
0
  6
CONTINUOUS
 62
256
 10
118.655613000000000
 20
193.362837000000010
 11
118.655613000000000
 21
222.862837000000010
  0
LINE
  8
0
  6
CONTINUOUS
 62
256
 10
193.655612999999990
 20
193.362837000000010
 11
193.655612999999990
 21
222.862837000000010
  0
ARC
  8
0
  6
CONTINUOUS
 62
256
 10
191.655612999999990
 20
222.862837000000010
 40
2.000000000000000
 50
0.000000000000000
 51
90.000000000000000
  0
LINE
  8
0
  6
CONTINUOUS
 62
256
 10
120.655613000000000
 20
224.862837000000010
 11
191.655612999999990
 21
224.862837000000010
  0
LINE
  8
0
  6
CONTINUOUS
 62
256
 10
185.655612999999990
 20
234.362837000000010
 11
185.655612999999990
 21
253.362837000000010
  0
ARC
  8
0
  6
CONTINUOUS
 62
256
 10
192.655612999999990
 20
228.362837000000010
 40
3.000000000000000
 50
0.000000000000000
 51
90.000000000000000
  0
LINE
  8
0
  6
CONTINUOUS
 62
256
 10
188.655612999999990
 20
231.362837000000010
 11
192.655612999999990
 21
231.362837000000010
  0
ARC
  8
0
  6
CONTINUOUS
 62
256
 10
188.655612999999990
 20
234.362837000000010
 40
3.000000000000000
 50
180.000000000000000
 51
270.000000000000000
  0
LINE
  8
0
  6
CONTINUOUS
 62
256
 10
195.655612999999990
 20
228.362837000000010
 11
195.655612999999990
 21
193.362837000000010
  0
LINE
  8
0
  6
CONTINUOUS
 62
256
 10
88.655613000000002
 20
251.862837000000010
 11
185.655612999999990
 21
251.862837000000010
  0
LINE
  8
0
  6
CONTINUOUS
 62
256
 10
185.655612999999990
 20
253.362837000000010
 11
214.349637000000000
 21
253.362837000000010
  0
LINE
  8
0
  6
CONTINUOUS
 62
256
 10
236.655612999999990
 20
193.362837000000010
 11
236.655612999999990
 21
240.806041999999990
  0
ARC
  8
0
  6
CONTINUOUS
 62
256
 10
214.349637000000000
 20
233.362837000000010
 40
20.000000000000004
 50
55.000000000000050
 51
90.000000000000000
  0
LINE
  8
0
  6
CONTINUOUS
 62
256
 10
225.821166000000010
 20
249.745878000000000
 11
235.546910999999990
 21
242.935836999999990
  0
ARC
  8
0
  6
CONTINUOUS
 62
256
 10
234.055612999999990
 20
240.806041999999990
 40
2.599999999999994
 50
0.000000000000000
 51
54.999999999999801
  0
LINE
  8
0
  6
CONTINUOUS
 62
256
 10
192.655612999999990
 20
164.362837000000010
 11
192.655612999999990
 21
193.362837000000010
  0
LINE
  8
0
  6
CONTINUOUS
 62
256
 10
119.655613000000000
 20
164.362837000000010
 11
119.655613000000000
 21
193.362837000000010
  0
LINE
  8
0
  6
CONTINUOUS
 62
256
 10
118.815016000000000
 20
163.080401999999990
 11
88.655613000000002
 21
163.080401999999990
  0
LINE
  8
0
  6
CONTINUOUS
 62
256
 10
195.655612999999990
 20
163.080401999999990
 11
193.496208999999990
 21
163.080401999999990
  0
LINE
  8
0
  6
CONTINUOUS
 62
256
 10
118.655613000000000
 20
168.532782999999990
 11
88.655613000000002
 21
168.532782999999990
  0
LINE
  8
0
  6
CONTINUOUS
 62
256
 10
195.655612999999990
 20
168.532782999999990
 11
193.655612999999990
 21
168.532782999999990
  0
LINE
  8
0
  6
CONTINUOUS
 62
256
 10
118.655613000000000
 20
167.170903000000010
 11
88.655613000000002
 21
167.170903000000010
  0
LINE
  8
0
  6
CONTINUOUS
 62
256
 10
195.655612999999990
 20
167.170903000000010
 11
193.655612999999990
 21
167.170903000000010
  0
LINE
  8
0
  6
CONTINUOUS
 62
256
 10
118.655613000000000
 20
173.362837000000010
 11
88.655613000000002
 21
173.362837000000010
  0
LINE
  8
0
  6
CONTINUOUS
 62
256
 10
195.655612999999990
 20
173.362837000000010
 11
193.655612999999990
 21
173.362837000000010
  0
LINE
  8
0
  6
CONTINUOUS
 62
256
 10
185.655612999999990
 20
136.362837000000010
 11
88.655613000000002
 21
136.362837000000010
  0
LINE
  8
0
  6
CONTINUOUS
 62
256
 10
185.655612999999990
 20
135.862837000000010
 11
88.655613000000002
 21
135.862837000000010
  0
LINE
  8
0
  6
CONTINUOUS
 62
256
 10
185.655612999999990
 20
137.362837000000010
 11
88.655613000000002
 21
137.362837000000010
  0
LINE
  8
0
  6
CONTINUOUS
 62
256
 10
185.655612999999990
 20
138.362837000000010
 11
88.655613000000002
 21
138.362837000000010
  0
LINE
  8
0
  6
CONTINUOUS
 62
256
 10
185.655612999999990
 20
143.047303000000000
 11
88.655613000000002
 21
143.047303000000000
  0
LINE
  8
0
  6
CONTINUOUS
 62
256
 10
185.655612999999990
 20
147.997050000000000
 11
88.655613000000002
 21
147.997050000000000
  0
LINE
  8
0
  6
CONTINUOUS
 62
256
 10
194.558605000000000
 20
156.043652000000010
 11
88.655613000000002
 21
156.043652000000010
  0
LINE
  8
0
  6
CONTINUOUS
 62
256
 10
195.569276000000000
 20
157.648300000000010
 11
88.655613000000002
 21
157.648300000000010
  0
LINE
  8
0
  6
CONTINUOUS
 62
256
 10
195.655612999999990
 20
161.612044999999990
 11
88.655613000000002
 21
161.612044999999990
  0
LINE
  8
0
  6
CONTINUOUS
 62
256
 10
120.655613000000000
 20
163.362837000000010
 11
191.655612999999990
 21
163.362837000000010
  0
ARC
  8
0
  6
CONTINUOUS
 62
256
 10
191.655612999999990
 20
164.362837000000010
 40
1.000000000000000
 50
270.000000000000000
 51
0.000000000000000
  0
ARC
  8
0
  6
CONTINUOUS
 62
256
 10
120.655613000000000
 20
164.362837000000010
 40
1.000000000000000
 50
180.000000000000000
 51
270.000000000000000
  0
ARC
  8
0
  6
CONTINUOUS
 62
256
 10
120.655613000000000
 20
163.862837000000010
 40
2.000000000000000
 50
180.000000000000000
 51
270.000000000000000
  0
LINE
  8
0
  6
CONTINUOUS
 62
256
 10
118.655613000000000
 20
193.362837000000010
 11
118.655613000000000
 21
163.862837000000010
  0
LINE
  8
0
  6
CONTINUOUS
 62
256
 10
193.655612999999990
 20
193.362837000000010
 11
193.655612999999990
 21
163.862837000000010
  0
ARC
  8
0
  6
CONTINUOUS
 62
256
 10
191.655612999999990
 20
163.862837000000010
 40
2.000000000000000
 50
270.000000000000000
 51
0.000000000000000
  0
LINE
  8
0
  6
CONTINUOUS
 62
256
 10
120.655613000000000
 20
161.862837000000010
 11
191.655612999999990
 21
161.862837000000010
  0
LINE
  8
0
  6
CONTINUOUS
 62
256
 10
185.655612999999990
 20
152.362837000000010
 11
185.655612999999990
 21
133.362837000000010
  0
ARC
  8
0
  6
CONTINUOUS
 62
256
 10
192.655612999999990
 20
158.362837000000010
 40
3.000000000000000
 50
270.000000000000000
 51
0.000000000000000
  0
LINE
  8
0
  6
CONTINUOUS
 62
256
 10
188.655612999999990
 20
155.362837000000010
 11
192.655612999999990
 21
155.362837000000010
  0
ARC
  8
0
  6
CONTINUOUS
 62
256
 10
188.655612999999990
 20
152.362837000000010
 40
3.000000000000000
 50
90.000000000000000
 51
180.000000000000000
  0
LINE
  8
0
  6
CONTINUOUS
 62
256
 10
195.655612999999990
 20
158.362837000000010
 11
195.655612999999990
 21
193.362837000000010
  0
LINE
  8
0
  6
CONTINUOUS
 62
256
 10
88.655613000000002
 20
134.862837000000010
 11
185.655612999999990
 21
134.862837000000010
  0
LINE
  8
0
  6
CONTINUOUS
 62
256
 10
185.655612999999990
 20
133.362837000000010
 11
214.349637000000000
 21
133.362837000000010
  0
LINE
  8
0
  6
CONTINUOUS
 62
256
 10
236.655612999999990
 20
193.362837000000010
 11
236.655612999999990
 21
145.919632000000010
  0
ARC
  8
0
  6
CONTINUOUS
 62
256
 10
214.349637000000000
 20
153.362837000000010
 40
20.000000000000000
 50
270.000000000000000
 51
304.999999999999940
  0
LINE
  8
0
  6
CONTINUOUS
 62
256
 10
225.821166000000010
 20
136.979795999999990
 11
235.546910999999990
 21
143.789836000000010
  0
ARC
  8
0
  6
CONTINUOUS
 62
256
 10
234.055612999999990
 20
145.919632000000010
 40
2.599999999999996
 50
305.000000000000230
 51
0.000000000000000
  0
POLYLINE
  8
0
  6
CONTINUOUS
 62
256
 66
1
 70
1
  0
VERTEX
  8
0
  6
CONTINUOUS
 62
256
 10
201.355612999999980
 20
245.286362000000000
  0
VERTEX
  8
0
  6
CONTINUOUS
 62
256
 10
201.265303817895160
 20
245.989318510558180
  0
VERTEX
  8
0
  6
CONTINUOUS
 62
256
 10
200.997846802803020
 20
246.665260796638140
  0
VERTEX
  8
0
  6
CONTINUOUS
 62
256
 10
200.563520177821940
 20
247.288212775258670
  0
VERTEX
  8
0
  6
CONTINUOUS
 62
256
 10
199.979014871576770
 20
247.834234751236830
  0
VERTEX
  8
0
  6
CONTINUOUS
 62
256
 10
199.266793095192100
 20
248.282343406248490
  0
VERTEX
  8
0
  6
CONTINUOUS
 62
256
 10
198.454225132115910
 20
248.615318175983730
  0
VERTEX
  8
0
  6
CONTINUOUS
 62
256
 10
197.572537513475790
 20
248.820363026776080
  0
VERTEX
  8
0
  6
CONTINUOUS
 62
256
 10
196.655612999999990
 20
248.889598199999990
  0
VERTEX
  8
0
  6
CONTINUOUS
 62
256
 10
195.738688486524180
 20
248.820363026776080
  0
VERTEX
  8
0
  6
CONTINUOUS
 62
256
 10
194.857000867884070
 20
248.615318175983730
  0
VERTEX
  8
0
  6
CONTINUOUS
 62
256
 10
194.044432904807880
 20
248.282343406248490
  0
VERTEX
  8
0
  6
CONTINUOUS
 62
256
 10
193.332211128423210
 20
247.834234751236830
  0
VERTEX
  8
0
  6
CONTINUOUS
 62
256
 10
192.747705822178030
 20
247.288212775258670
  0
VERTEX
  8
0
  6
CONTINUOUS
 62
256
 10
192.313379197196950
 20
246.665260796638140
  0
VERTEX
  8
0
  6
CONTINUOUS
 62
256
 10
192.045922182104820
 20
245.989318510558180
  0
VERTEX
  8
0
  6
CONTINUOUS
 62
256
 10
191.955613000000000
 20
245.286362000000000
  0
VERTEX
  8
0
  6
CONTINUOUS
 62
256
 10
192.045922182104820
 20
244.583405489441820
  0
VERTEX
  8
0
  6
CONTINUOUS
 62
256
 10
192.313379197196950
 20
243.907463203361860
  0
VERTEX
  8
0
  6
CONTINUOUS
 62
256
 10
192.747705822178030
 20
243.284511224741320
  0
VERTEX
  8
0
  6
CONTINUOUS
 62
256
 10
193.332211128423210
 20
242.738489248763160
  0
VERTEX
  8
0
  6
CONTINUOUS
 62
256
 10
194.044432904807880
 20
242.290380593751510
  0
VERTEX
  8
0
  6
CONTINUOUS
 62
256
 10
194.857000867884070
 20
241.957405824016260
  0
VERTEX
  8
0
  6
CONTINUOUS
 62
256
 10
195.738688486524180
 20
241.752360973223940
  0
VERTEX
  8
0
  6
CONTINUOUS
 62
256
 10
196.655612999999990
 20
241.683125800000000
  0
VERTEX
  8
0
  6
CONTINUOUS
 62
256
 10
197.572537513475790
 20
241.752360973223940
  0
VERTEX
  8
0
  6
CONTINUOUS
 62
256
 10
198.454225132115910
 20
241.957405824016260
  0
VERTEX
  8
0
  6
CONTINUOUS
 62
256
 10
199.266793095192100
 20
242.290380593751510
  0
VERTEX
  8
0
  6
CONTINUOUS
 62
256
 10
199.979014871576740
 20
242.738489248763160
  0
VERTEX
  8
0
  6
CONTINUOUS
 62
256
 10
200.563520177821940
 20
243.284511224741320
  0
VERTEX
  8
0
  6
CONTINUOUS
 62
256
 10
200.997846802803020
 20
243.907463203361860
  0
VERTEX
  8
0
  6
CONTINUOUS
 62
256
 10
201.265303817895160
 20
244.583405489441820
  0
SEQEND
  8
0
  6
CONTINUOUS
 62
256
  0
LINE
  8
0
  6
CONTINUOUS
 62
256
 10
198.655612999999990
 20
248.278737000000010
 11
196.655612999999990
 21
247.102951999999990
  0
LINE
  8
0
  6
CONTINUOUS
 62
256
 10
196.655612999999990
 20
247.102951999999990
 11
194.655612999999990
 21
245.450310000000000
  0
LINE
  8
0
  6
CONTINUOUS
 62
256
 10
194.655612999999990
 20
248.278737000000010
 11
196.655612999999990
 21
247.102951999999990
  0
LINE
  8
0
  6
CONTINUOUS
 62
256
 10
196.655612999999990
 20
247.102951999999990
 11
198.655612999999990
 21
245.450310000000000
  0
POLYLINE
  8
0
  6
CONTINUOUS
 62
256
 66
1
 70
1
  0
VERTEX
  8
0
  6
CONTINUOUS
 62
256
 10
201.355612999999980
 20
141.439312000000000
  0
VERTEX
  8
0
  6
CONTINUOUS
 62
256
 10
201.265303817895160
 20
142.142268510558180
  0
VERTEX
  8
0
  6
CONTINUOUS
 62
256
 10
200.997846802803020
 20
142.818210796638140
  0
VERTEX
  8
0
  6
CONTINUOUS
 62
256
 10
200.563520177821940
 20
143.441162775258680
  0
VERTEX
  8
0
  6
CONTINUOUS
 62
256
 10
199.979014871576770
 20
143.987184751236840
  0
VERTEX
  8
0
  6
CONTINUOUS
 62
256
 10
199.266793095192100
 20
144.435293406248490
  0
VERTEX
  8
0
  6
CONTINUOUS
 62
256
 10
198.454225132115910
 20
144.768268175983740
  0
VERTEX
  8
0
  6
CONTINUOUS
 62
256
 10
197.572537513475790
 20
144.973313026776080
  0
VERTEX
  8
0
  6
CONTINUOUS
 62
256
 10
196.655612999999990
 20
145.042548200000000
  0
VERTEX
  8
0
  6
CONTINUOUS
 62
256
 10
195.738688486524180
 20
144.973313026776080
  0
VERTEX
  8
0
  6
CONTINUOUS
 62
256
 10
194.857000867884070
 20
144.768268175983740
  0
VERTEX
  8
0
  6
CONTINUOUS
 62
256
 10
194.044432904807880
 20
144.435293406248490
  0
VERTEX
  8
0
  6
CONTINUOUS
 62
256
 10
193.332211128423210
 20
143.987184751236840
  0
VERTEX
  8
0
  6
CONTINUOUS
 62
256
 10
192.747705822178030
 20
143.441162775258680
  0
VERTEX
  8
0
  6
CONTINUOUS
 62
256
 10
192.313379197196950
 20
142.818210796638140
  0
VERTEX
  8
0
  6
CONTINUOUS
 62
256
 10
192.045922182104820
 20
142.142268510558180
  0
VERTEX
  8
0
  6
CONTINUOUS
 62
256
 10
191.955613000000000
 20
141.439312000000000
  0
VERTEX
  8
0
  6
CONTINUOUS
 62
256
 10
192.045922182104820
 20
140.736355489441820
  0
VERTEX
  8
0
  6
CONTINUOUS
 62
256
 10
192.313379197196950
 20
140.060413203361860
  0
VERTEX
  8
0
  6
CONTINUOUS
 62
256
 10
192.747705822178030
 20
139.437461224741330
  0
VERTEX
  8
0
  6
CONTINUOUS
 62
256
 10
193.332211128423210
 20
138.891439248763160
  0
VERTEX
  8
0
  6
CONTINUOUS
 62
256
 10
194.044432904807880
 20
138.443330593751510
  0
VERTEX
  8
0
  6
CONTINUOUS
 62
256
 10
194.857000867884070
 20
138.110355824016270
  0
VERTEX
  8
0
  6
CONTINUOUS
 62
256
 10
195.738688486524180
 20
137.905310973223950
  0
VERTEX
  8
0
  6
CONTINUOUS
 62
256
 10
196.655612999999990
 20
137.836075800000000
  0
VERTEX
  8
0
  6
CONTINUOUS
 62
256
 10
197.572537513475790
 20
137.905310973223950
  0
VERTEX
  8
0
  6
CONTINUOUS
 62
256
 10
198.454225132115910
 20
138.110355824016270
  0
VERTEX
  8
0
  6
CONTINUOUS
 62
256
 10
199.266793095192100
 20
138.443330593751510
  0
VERTEX
  8
0
  6
CONTINUOUS
 62
256
 10
199.979014871576740
 20
138.891439248763160
  0
VERTEX
  8
0
  6
CONTINUOUS
 62
256
 10
200.563520177821940
 20
139.437461224741330
  0
VERTEX
  8
0
  6
CONTINUOUS
 62
256
 10
200.997846802803020
 20
140.060413203361860
  0
VERTEX
  8
0
  6
CONTINUOUS
 62
256
 10
201.265303817895160
 20
140.736355489441820
  0
SEQEND
  8
0
  6
CONTINUOUS
 62
256
  0
LINE
  8
0
  6
CONTINUOUS
 62
256
 10
198.655612999999990
 20
138.446935999999990
 11
196.655612999999990
 21
139.622722000000010
  0
LINE
  8
0
  6
CONTINUOUS
 62
256
 10
196.655612999999990
 20
139.622722000000010
 11
194.655612999999990
 21
141.275363000000000
  0
LINE
  8
0
  6
CONTINUOUS
 62
256
 10
194.655612999999990
 20
138.446935999999990
 11
196.655612999999990
 21
139.622722000000010
  0
LINE
  8
0
  6
CONTINUOUS
 62
256
 10
196.655612999999990
 20
139.622722000000010
 11
198.655612999999990
 21
141.275363000000000
  0
LINE
  8
0
  6
DASHDOT
 62
256
 10
-138.766673999999990
 20
193.362837000000010
 11
250.652237000000010
 21
193.362837000000010
  0
ARC
  8
0
  6
CONTINUOUS
 62
256
 10
169.000150999999990
 20
-115.840350000000000
 40
289.396999999999990
 50
352.102011000000000
 51
0.000000000000000
  0
ARC
  8
0
  6
CONTINUOUS
 62
256
 10
449.708928000000010
 20
-154.781868000000000
 40
5.999999999999989
 50
314.999999999999770
 51
352.102010999999950
  0
LINE
  8
0
  6
CONTINUOUS
 62
256
 10
453.951569000000010
 20
-159.024508999999990
 11
449.375503999999980
 21
-163.600573999999990
  0
ARC
  8
0
  6
CONTINUOUS
 62
256
 10
409.600150999999980
 20
119.759649999999990
 40
289.396999999999990
 50
270.000000000000000
 51
276.051985000000000
  0
LINE
  8
0
  6
CONTINUOUS
 62
256
 10
378.100150999999980
 20
-52.495355000000004
 11
378.100150999999980
 21
-52.340350000000001
  0
LINE
  8
0
  6
CONTINUOUS
 62
256
 10
439.592649999999990
 20
-52.340350000000001
 11
441.100150999999980
 21
-52.340350000000001
  0
LINE
  8
0
  6
CONTINUOUS
 62
256
 10
378.100150999999980
 20
-52.340350000000001
 11
379.607651999999970
 21
-52.340350000000001
  0
LINE
  8
0
  6
CONTINUOUS
 62
256
 10
439.600150999999980
 20
-28.901581000000000
 11
439.600150999999980
 21
-52.341102999999997
  0
LINE
  8
0
  6
CONTINUOUS
 62
256
 10
441.100150999999980
 20
-52.495355000000004
 11
441.100150999999980
 21
-52.340350000000001
  0
LINE
  8
0
  6
CONTINUOUS
 62
256
 10
407.100150999999980
 20
-22.340350000000001
 11
412.100150999999980
 21
-22.340350000000001
  0
LINE
  8
0
  6
CONTINUOUS
 62
256
 10
407.100150999999980
 20
-22.340350000000001
 11
407.100150999999980
 21
-22.850767000000001
  0
LINE
  8
0
  6
CONTINUOUS
 62
256
 10
412.100150999999980
 20
-22.340350000000001
 11
412.100150999999980
 21
-22.850767000000001
  0
ARC
  8
0
  6
CONTINUOUS
 62
256
 10
409.600150999999980
 20
-322.840350000000000
 40
300.000000000000000
 50
85.138594999999995
 51
90.000000000000000
  0
ARC
  8
0
  6
CONTINUOUS
 62
256
 10
434.600150999999980
 20
-28.901581000000000
 40
5.000000000000000
 50
0.000000000000000
 51
85.138594999999953
  0
ARC
  8
0
  6
CONTINUOUS
 62
256
 10
384.600150999999980
 20
-28.901581000000000
 40
5.000000000000003
 50
94.861405000000062
 51
180.000000000000000
  0
LINE
  8
0
  6
CONTINUOUS
 62
256
 10
379.600150999999980
 20
-28.901581000000000
 11
379.600150999999980
 21
-52.340350000000001
  0
ARC
  8
0
  6
CONTINUOUS
 62
256
 10
409.600150999999980
 20
-322.840350000000000
 40
300.000000000000000
 50
90.000000000000000
 51
94.861405000000005
  0
ARC
  8
0
  6
CONTINUOUS
 62
256
 10
459.696765000000030
 20
-159.788938000000000
 40
6.600000000000017
 50
315.000000000000170
 51
351.402917999999940
  0
ARC
  8
0
  6
CONTINUOUS
 62
256
 10
438.322964000000010
 20
-119.840350000000000
 40
1.500000000000000
 50
90.000000000000000
 51
172.071857999999850
  0
ARC
  8
0
  6
CONTINUOUS
 62
256
 10
409.600150999999980
 20
-115.840350000000000
 40
33.499999999999972
 50
307.180755999999920
 51
352.819244000000030
  0
ARC
  8
0
  6
CONTINUOUS
 62
256
 10
409.600150999999980
 20
-115.840350000000000
 40
43.000000000000021
 50
305.531071999999990
 51
354.468928000000010
  0
ARC
  8
0
  6
CONTINUOUS
 62
256
 10
409.600150999999980
 20
-115.840350000000000
 40
36.999999999999993
 50
305.963570000000000
 51
354.036429999999940
  0
ARC
  8
0
  6
CONTINUOUS
 62
256
 10
427.425659000000000
 20
-138.715036000000000
 40
1.500000000000018
 50
127.928142000000730
 51
210.000000000000510
  0
ARC
  8
0
  6
CONTINUOUS
 62
256
 10
428.938760000000000
 20
-141.335804999999990
 40
1.499999999999975
 50
210.000000000000510
 51
307.180756000000090
  0
ARC
  8
0
  6
CONTINUOUS
 62
256
 10
432.210074000000020
 20
-147.001887000000010
 40
1.500000000000007
 50
125.963570000000810
 51
210.000000000000510
  0
LINE
  8
0
  6
CONTINUOUS
 62
256
 10
426.126621000000000
 20
-139.465036000000000
 11
427.639722000000010
 21
-142.085804999999990
  0
LINE
  8
0
  6
CONTINUOUS
 62
256
 10
430.911036000000020
 20
-147.751887000000010
 11
432.418604000000020
 21
-150.363069999999990
  0
ARC
  8
0
  6
CONTINUOUS
 62
256
 10
433.717642000000010
 20
-149.613069999999990
 40
1.499999999999975
 50
210.000000000000510
 51
305.531071999999480
  0
ARC
  8
0
  6
CONTINUOUS
 62
256
 10
397.189744000000020
 20
-145.335804999999990
 40
1.500000000000025
 50
150.000000000000540
 51
247.180756000001140
  0
LINE
  8
0
  6
CONTINUOUS
 62
256
 10
395.890706000000020
 20
-144.585804999999990
 11
397.403808000000030
 21
-141.965036000000000
  0
ARC
  8
0
  6
CONTINUOUS
 62
256
 10
393.918430000000000
 20
-151.001887000000010
 40
1.499999999999986
 50
65.963570000000146
 51
149.999999999999460
  0
LINE
  8
0
  6
CONTINUOUS
 62
256
 10
391.111825000000010
 20
-152.863069999999990
 11
392.619392000000000
 21
-150.251887000000010
  0
ARC
  8
0
  6
CONTINUOUS
 62
256
 10
392.410863000000010
 20
-153.613069999999990
 40
1.499999999999975
 50
149.999999999999460
 51
245.531072000000020
  0
ARC
  8
0
  6
CONTINUOUS
 62
256
 10
398.702846000000020
 20
-142.715036000000000
 40
1.499999999999998
 50
67.928142000000889
 51
150.000000000000540
  0
ARC
  8
0
  6
CONTINUOUS
 62
256
 10
409.600150999999980
 20
-115.840350000000000
 40
33.500000000000007
 50
247.180756000000030
 51
292.819243999999970
  0
ARC
  8
0
  6
CONTINUOUS
 62
256
 10
409.600150999999980
 20
-115.840350000000000
 40
43.000000000000021
 50
245.531072000000020
 51
294.468927999999950
  0
ARC
  8
0
  6
CONTINUOUS
 62
256
 10
409.600150999999980
 20
-115.840350000000000
 40
37.000000000000021
 50
245.963569999999950
 51
294.036429999999940
  0
ARC
  8
0
  6
CONTINUOUS
 62
256
 10
409.600150999999980
 20
-115.840350000000000
 40
27.500000000000014
 50
247.928142000000040
 51
292.071857999999960
  0
ARC
  8
0
  6
CONTINUOUS
 62
256
 10
420.497456000000000
 20
-142.715036000000000
 40
1.499999999999975
 50
30.000000000000544
 51
112.071857999999120
  0
ARC
  8
0
  6
CONTINUOUS
 62
256
 10
422.010557000000010
 20
-145.335804999999990
 40
1.500000000000002
 50
292.819243999998830
 51
30.000000000000544
  0
ARC
  8
0
  6
CONTINUOUS
 62
256
 10
425.281871000000020
 20
-151.001887000000010
 40
1.500000000000025
 50
29.999999999999456
 51
114.036429999999850
  0
LINE
  8
0
  6
CONTINUOUS
 62
256
 10
421.796494000000000
 20
-141.965036000000000
 11
423.309595000000000
 21
-144.585804999999990
  0
LINE
  8
0
  6
CONTINUOUS
 62
256
 10
426.580909000000020
 20
-150.251887000000010
 11
428.088477000000010
 21
-152.863069999999990
  0
ARC
  8
0
  6
CONTINUOUS
 62
256
 10
426.789439000000020
 20
-153.613069999999990
 40
1.499999999999989
 50
294.468928000000010
 51
29.999999999999456
  0
ARC
  8
0
  6
CONTINUOUS
 62
256
 10
390.261541000000020
 20
-141.335804999999990
 40
1.499999999999994
 50
232.819243999999940
 51
329.999999999999490
  0
LINE
  8
0
  6
CONTINUOUS
 62
256
 10
391.560579000000020
 20
-142.085804999999990
 11
393.073681000000020
 21
-139.465036000000000
  0
ARC
  8
0
  6
CONTINUOUS
 62
256
 10
386.990227000000000
 20
-147.001887000000010
 40
1.499999999999975
 50
329.999999999999490
 51
54.036429999999186
  0
LINE
  8
0
  6
CONTINUOUS
 62
256
 10
386.781698000000010
 20
-150.363069999999990
 11
388.289265000000000
 21
-147.751887000000010
  0
ARC
  8
0
  6
CONTINUOUS
 62
256
 10
385.482660000000010
 20
-149.613069999999990
 40
1.499999999999989
 50
234.468928000000520
 51
329.999999999999490
  0
ARC
  8
0
  6
CONTINUOUS
 62
256
 10
391.774641999999970
 20
-138.715036000000000
 40
1.499999999999975
 50
329.999999999999490
 51
52.071857999999288
  0
ARC
  8
0
  6
CONTINUOUS
 62
256
 10
409.600150999999980
 20
-115.840350000000000
 40
33.500000000000007
 50
187.180756000000000
 51
232.819244000000000
  0
ARC
  8
0
  6
CONTINUOUS
 62
256
 10
409.600150999999980
 20
-115.840350000000000
 40
42.999999999999979
 50
185.531071999999990
 51
234.468927999999950
  0
ARC
  8
0
  6
CONTINUOUS
 62
256
 10
409.600150999999980
 20
-115.840350000000000
 40
36.999999999999979
 50
185.963570000000000
 51
234.036429999999970
  0
ARC
  8
0
  6
CONTINUOUS
 62
256
 10
409.600150999999980
 20
-115.840350000000000
 40
27.499999999999989
 50
187.928142000000010
 51
232.071858000000050
  0
ARC
  8
0
  6
CONTINUOUS
 62
256
 10
380.877337000000010
 20
-119.840350000000000
 40
1.500000000000004
 50
7.928142000000149
 51
90.000000000000000
  0
ARC
  8
0
  6
CONTINUOUS
 62
256
 10
377.851135000000000
 20
-119.840350000000000
 40
1.500000000000000
 50
90.000000000000000
 51
187.180756000000090
  0
ARC
  8
0
  6
CONTINUOUS
 62
256
 10
371.308507000000020
 20
-119.840350000000000
 40
1.500000000000012
 50
5.963569999999792
 51
90.000000000000000
  0
LINE
  8
0
  6
CONTINUOUS
 62
256
 10
380.877337000000010
 20
-118.340350000000000
 11
377.851135000000000
 21
-118.340350000000000
  0
LINE
  8
0
  6
CONTINUOUS
 62
256
 10
371.308507000000020
 20
-118.340350000000000
 11
368.293371999999980
 21
-118.340350000000000
  0
ARC
  8
0
  6
CONTINUOUS
 62
256
 10
368.293371999999980
 20
-119.840350000000000
 40
1.500000000000000
 50
90.000000000000000
 51
185.531072000000280
  0
ARC
  8
0
  6
CONTINUOUS
 62
256
 10
390.261541000000020
 20
-90.344896000000006
 40
1.499999999999975
 50
30.000000000000544
 51
127.180756000000090
  0
LINE
  8
0
  6
CONTINUOUS
 62
256
 10
391.560579000000020
 20
-89.594896000000006
 11
393.073681000000020
 21
-92.215664000000004
  0
ARC
  8
0
  6
CONTINUOUS
 62
256
 10
386.990227000000000
 20
-84.678814000000003
 40
1.500000000000007
 50
305.963570000000860
 51
29.999999999999456
  0
ARC
  8
0
  6
CONTINUOUS
 62
256
 10
391.774641999999970
 20
-92.965664000000004
 40
1.500000000000018
 50
307.928142000000720
 51
29.999999999999456
  0
ARC
  8
0
  6
CONTINUOUS
 62
256
 10
409.600150999999980
 20
-115.840350000000000
 40
33.500000000000007
 50
127.180756000000020
 51
172.819244000000000
  0
ARC
  8
0
  6
CONTINUOUS
 62
256
 10
409.600150999999980
 20
-115.840350000000000
 40
43.000000000000014
 50
125.531072000000020
 51
174.468928000000010
  0
ARC
  8
0
  6
CONTINUOUS
 62
256
 10
409.600150999999980
 20
-115.840350000000000
 40
37.000000000000000
 50
125.963569999999990
 51
174.036430000000000
  0
ARC
  8
0
  6
CONTINUOUS
 62
256
 10
409.600150999999980
 20
-115.840350000000000
 40
27.500000000000004
 50
127.928141999999990
 51
172.071857999999990
  0
ARC
  8
0
  6
CONTINUOUS
 62
256
 10
380.877337000000010
 20
-111.840350000000000
 40
1.500000000000000
 50
270.000000000000000
 51
352.071857999999850
  0
ARC
  8
0
  6
CONTINUOUS
 62
256
 10
377.851135000000000
 20
-111.840350000000000
 40
1.500000000000028
 50
172.819243999999910
 51
270.000000000000000
  0
ARC
  8
0
  6
CONTINUOUS
 62
256
 10
371.308507000000020
 20
-111.840350000000000
 40
1.500000000000000
 50
270.000000000000000
 51
354.036430000000220
  0
LINE
  8
0
  6
CONTINUOUS
 62
256
 10
380.877337000000010
 20
-113.340350000000000
 11
377.851135000000000
 21
-113.340350000000000
  0
LINE
  8
0
  6
CONTINUOUS
 62
256
 10
371.308507000000020
 20
-113.340350000000000
 11
368.293371999999980
 21
-113.340350000000000
  0
ARC
  8
0
  6
CONTINUOUS
 62
256
 10
368.293371999999980
 20
-111.840350000000000
 40
1.499999999999979
 50
174.468927999999720
 51
270.000000000000000
  0
ARC
  8
0
  6
CONTINUOUS
 62
256
 10
397.189744000000020
 20
-86.344896000000006
 40
1.499999999999989
 50
112.819243999999050
 51
210.000000000000510
  0
LINE
  8
0
  6
CONTINUOUS
 62
256
 10
395.890706000000020
 20
-87.094896000000006
 11
397.403808000000030
 21
-89.715664000000004
  0
ARC
  8
0
  6
CONTINUOUS
 62
256
 10
398.702846000000020
 20
-88.965664000000004
 40
1.499999999999975
 50
210.000000000000510
 51
292.071857999999110
  0
ARC
  8
0
  6
CONTINUOUS
 62
256
 10
409.600150999999980
 20
-115.840350000000000
 40
33.500000000000000
 50
67.180756000000002
 51
112.819244000000000
  0
ARC
  8
0
  6
CONTINUOUS
 62
256
 10
409.600150999999980
 20
-115.840350000000000
 40
27.499999999999989
 50
67.928142000000008
 51
112.071857999999980
  0
ARC
  8
0
  6
CONTINUOUS
 62
256
 10
420.497456000000000
 20
-88.965664000000004
 40
1.499999999999998
 50
247.928142000000830
 51
329.999999999999490
  0
ARC
  8
0
  6
CONTINUOUS
 62
256
 10
422.010557000000010
 20
-86.344896000000006
 40
1.499999999999975
 50
329.999999999999490
 51
67.180756000000954
  0
LINE
  8
0
  6
CONTINUOUS
 62
256
 10
421.796494000000000
 20
-89.715664000000004
 11
423.309595000000000
 21
-87.094896000000006
  0
ARC
  8
0
  6
CONTINUOUS
 62
256
 10
409.600150999999980
 20
-115.840350000000000
 40
33.500000000000007
 50
7.180755999999994
 51
52.819243999999983
  0
ARC
  8
0
  6
CONTINUOUS
 62
256
 10
409.600150999999980
 20
-115.840350000000000
 40
36.999999999999979
 50
5.963570000000011
 51
54.036430000000010
  0
ARC
  8
0
  6
CONTINUOUS
 62
256
 10
432.210074000000020
 20
-84.678814000000003
 40
1.499999999999975
 50
149.999999999999460
 51
234.036429999999170
  0
ARC
  8
0
  6
CONTINUOUS
 62
256
 10
428.938760000000000
 20
-90.344896000000006
 40
1.499999999999994
 50
52.819243999999927
 51
150.000000000000540
  0
ARC
  8
0
  6
CONTINUOUS
 62
256
 10
409.600150999999980
 20
-115.840350000000000
 40
27.499999999999986
 50
7.928141999999994
 51
52.071858000000006
  0
ARC
  8
0
  6
CONTINUOUS
 62
256
 10
438.322964000000010
 20
-111.840350000000000
 40
1.500000000000004
 50
187.928142000000150
 51
270.000000000000000
  0
LINE
  8
0
  6
CONTINUOUS
 62
256
 10
426.126621000000000
 20
-92.215664000000004
 11
427.639722000000010
 21
-89.594896000000006
  0
ARC
  8
0
  6
CONTINUOUS
 62
256
 10
427.425659000000000
 20
-92.965664000000004
 40
1.500000000000025
 50
150.000000000000540
 51
232.071857999999280
  0
CIRCLE
  8
0
  6
CONTINUOUS
 62
256
 10
409.600150999999980
 20
-115.840350000000000
 40
5.000000000000000
  0
ARC
  8
0
  6
CONTINUOUS
 62
256
 10
417.646828000000030
 20
-109.903096000000010
 40
1.500000000000025
 50
150.000000000000540
 51
216.421821999999960
  0
ARC
  8
0
  6
CONTINUOUS
 62
256
 10
418.765302000000020
 20
-111.840350000000000
 40
1.499999999999984
 50
203.578178000000380
 51
270.000000000000000
  0
ARC
  8
0
  6
CONTINUOUS
 62
256
 10
424.135046999999990
 20
-98.665171000000001
 40
1.499999999999991
 50
49.759652000000230
 51
150.000000000000540
  0
ARC
  8
0
  6
CONTINUOUS
 62
256
 10
421.969468000000010
 20
-111.840350000000000
 40
1.500000000000000
 50
270.000000000000000
 51
17.920212999999450
  0
ARC
  8
0
  6
CONTINUOUS
 62
256
 10
428.685485000000030
 20
-111.840350000000000
 40
1.499999999999997
 50
191.837003999999810
 51
270.000000000000000
  0
ARC
  8
0
  6
CONTINUOUS
 62
256
 10
422.606920000000000
 20
-101.311966000000000
 40
1.499999999999975
 50
149.999999999999460
 51
228.162996000000190
  0
ARC
  8
0
  6
CONTINUOUS
 62
256
 10
431.741740999999990
 20
-111.840350000000000
 40
1.500000000000000
 50
270.000000000000000
 51
10.240347999999715
  0
ARC
  8
0
  6
CONTINUOUS
 62
256
 10
419.248911000000020
 20
-107.128208000000000
 40
1.499999999999994
 50
42.079787000000181
 51
150.000000000000540
  0
LINE
  8
0
  6
CONTINUOUS
 62
256
 10
421.307882000000010
 20
-100.561966000000000
 11
422.836008999999990
 21
-97.915171000000001
  0
ARC
  8
0
  6
CONTINUOUS
 62
256
 10
409.600150999999980
 20
-115.840350000000000
 40
14.500000000000014
 50
17.920213000000000
 51
42.079786999999946
  0
LINE
  8
0
  6
CONTINUOUS
 62
256
 10
421.969468000000010
 20
-113.340350000000000
 11
418.765302000000020
 21
-113.340350000000000
  0
LINE
  8
0
  6
CONTINUOUS
 62
256
 10
431.741740999999990
 20
-113.340350000000000
 11
428.685485000000030
 21
-113.340350000000000
  0
LINE
  8
0
  6
CONTINUOUS
 62
256
 10
416.347789999999970
 20
-109.153096000000010
 11
417.949873000000030
 21
-106.378208000000000
  0
ARC
  8
0
  6
CONTINUOUS
 62
256
 10
409.600150999999980
 20
-115.840350000000000
 40
23.999999999999993
 50
10.240347999999988
 51
49.759652000000010
  0
ARC
  8
0
  6
CONTINUOUS
 62
256
 10
409.600150999999980
 20
-115.840350000000000
 40
8.499999999999991
 50
23.578178000000058
 51
36.421822000000063
  0
ARC
  8
0
  6
CONTINUOUS
 62
256
 10
406.879594000000000
 20
-103.128208000000000
 40
1.499999999999989
 50
102.079786999999230
 51
210.000000000000510
  0
LINE
  8
0
  6
CONTINUOUS
 62
256
 10
405.580556000000000
 20
-103.878208000000000
 11
407.182638999999990
 21
-106.653096000000010
  0
ARC
  8
0
  6
CONTINUOUS
 62
256
 10
408.481676999999990
 20
-105.903096000000010
 40
1.499999999999975
 50
210.000000000000510
 51
276.421821999999220
  0
ARC
  8
0
  6
CONTINUOUS
 62
256
 10
409.600150999999980
 20
-115.840350000000000
 40
8.500000000000007
 50
83.578177999999994
 51
96.421822000000020
  0
ARC
  8
0
  6
CONTINUOUS
 62
256
 10
410.718624999999970
 20
-105.903096000000010
 40
1.500000000000001
 50
263.578178000000780
 51
329.999999999999490
  0
LINE
  8
0
  6
CONTINUOUS
 62
256
 10
412.017663000000030
 20
-106.653096000000010
 11
413.619746000000020
 21
-103.878208000000000
  0
ARC
  8
0
  6
CONTINUOUS
 62
256
 10
412.320708000000020
 20
-103.128208000000000
 40
1.499999999999975
 50
329.999999999999490
 51
77.920213000000771
  0
ARC
  8
0
  6
CONTINUOUS
 62
256
 10
409.600150999999980
 20
-115.840350000000000
 40
14.500000000000002
 50
77.920213000000032
 51
102.079786999999980
  0
ARC
  8
0
  6
CONTINUOUS
 62
256
 10
401.993456999999980
 20
-94.665171000000001
 40
1.500000000000012
 50
109.759652000000680
 51
210.000000000000510
  0
LINE
  8
0
  6
CONTINUOUS
 62
256
 10
400.694418999999980
 20
-95.415171000000001
 11
402.222547000000020
 21
-98.061965999999998
  0
ARC
  8
0
  6
CONTINUOUS
 62
256
 10
403.521585000000020
 20
-97.311965999999998
 40
1.499999999999975
 50
210.000000000000510
 51
288.162996000000310
  0
ARC
  8
0
  6
CONTINUOUS
 62
256
 10
409.600150999999980
 20
-115.840350000000000
 40
17.999999999999996
 50
71.837004000000007
 51
108.162996000000010
  0
ARC
  8
0
  6
CONTINUOUS
 62
256
 10
415.678716000000010
 20
-97.311965999999998
 40
1.500000000000007
 50
251.837003999999720
 51
329.999999999999490
  0
LINE
  8
0
  6
CONTINUOUS
 62
256
 10
416.977755000000000
 20
-98.061965999999998
 11
418.505881999999990
 21
-95.415171000000001
  0
ARC
  8
0
  6
CONTINUOUS
 62
256
 10
417.206843999999990
 20
-94.665171000000001
 40
1.499999999999975
 50
329.999999999999490
 51
70.240347999999329
  0
ARC
  8
0
  6
CONTINUOUS
 62
256
 10
409.600150999999980
 20
-115.840350000000000
 40
23.999999999999993
 50
70.240348000000012
 51
109.759651999999990
  0
ARC
  8
0
  6
CONTINUOUS
 62
256
 10
406.879594000000000
 20
-128.552493000000000
 40
1.500000000000025
 50
150.000000000000540
 51
257.920213000000730
  0
LINE
  8
0
  6
CONTINUOUS
 62
256
 10
405.580556000000000
 20
-127.802493000000000
 11
407.182638999999990
 21
-125.027604000000000
  0
ARC
  8
0
  6
CONTINUOUS
 62
256
 10
408.481676999999990
 20
-125.777604000000000
 40
1.500000000000001
 50
83.578178000000747
 51
150.000000000000540
  0
ARC
  8
0
  6
CONTINUOUS
 62
256
 10
409.600150999999980
 20
-115.840350000000000
 40
8.500000000000007
 50
263.578177999999980
 51
276.421822000000020
  0
ARC
  8
0
  6
CONTINUOUS
 62
256
 10
410.718624999999970
 20
-125.777604000000000
 40
1.500000000000025
 50
29.999999999999456
 51
96.421821999999253
  0
LINE
  8
0
  6
CONTINUOUS
 62
256
 10
412.017663000000030
 20
-125.027604000000000
 11
413.619746000000020
 21
-127.802493000000000
  0
ARC
  8
0
  6
CONTINUOUS
 62
256
 10
412.320708000000020
 20
-128.552493000000000
 40
1.499999999999989
 50
282.079786999999270
 51
30.000000000000544
  0
ARC
  8
0
  6
CONTINUOUS
 62
256
 10
409.600150999999980
 20
-115.840350000000000
 40
14.499999999999986
 50
257.920212999999990
 51
282.079786999999950
  0
ARC
  8
0
  6
CONTINUOUS
 62
256
 10
401.993456999999980
 20
-137.015530000000010
 40
1.499999999999975
 50
149.999999999999460
 51
250.240347999999300
  0
LINE
  8
0
  6
CONTINUOUS
 62
256
 10
400.694418999999980
 20
-136.265530000000010
 11
402.222547000000020
 21
-133.618734999999990
  0
ARC
  8
0
  6
CONTINUOUS
 62
256
 10
403.521585000000020
 20
-134.368734999999990
 40
1.500000000000007
 50
71.837003999999709
 51
149.999999999999460
  0
ARC
  8
0
  6
CONTINUOUS
 62
256
 10
409.600150999999980
 20
-115.840350000000000
 40
17.999999999999996
 50
251.837003999999980
 51
288.162995999999960
  0
ARC
  8
0
  6
CONTINUOUS
 62
256
 10
415.678716000000010
 20
-134.368734999999990
 40
1.500000000000025
 50
29.999999999999456
 51
108.162996000000290
  0
LINE
  8
0
  6
CONTINUOUS
 62
256
 10
416.977755000000000
 20
-133.618734999999990
 11
418.505881999999990
 21
-136.265530000000010
  0
ARC
  8
0
  6
CONTINUOUS
 62
256
 10
417.206843999999990
 20
-137.015530000000010
 40
1.500000000000012
 50
289.759652000000640
 51
30.000000000000544
  0
ARC
  8
0
  6
CONTINUOUS
 62
256
 10
409.600150999999980
 20
-115.840350000000000
 40
23.999999999999993
 50
250.240348000000010
 51
289.759652000000020
  0
ARC
  8
0
  6
CONTINUOUS
 62
256
 10
399.951391000000000
 20
-124.552493000000000
 40
1.499999999999994
 50
222.079787000000180
 51
329.999999999999490
  0
LINE
  8
0
  6
CONTINUOUS
 62
256
 10
401.250429000000000
 20
-125.302493000000000
 11
402.852510999999990
 21
-122.527604000000000
  0
ARC
  8
0
  6
CONTINUOUS
 62
256
 10
401.553473000000000
 20
-121.777604000000000
 40
1.499999999999975
 50
329.999999999999490
 51
36.421821999999963
  0
ARC
  8
0
  6
CONTINUOUS
 62
256
 10
409.600150999999980
 20
-115.840350000000000
 40
8.499999999999991
 50
203.578178000000070
 51
216.421822000000050
  0
ARC
  8
0
  6
CONTINUOUS
 62
256
 10
400.434999000000000
 20
-119.840350000000000
 40
1.499999999999984
 50
23.578178000000403
 51
90.000000000000000
  0
LINE
  8
0
  6
CONTINUOUS
 62
256
 10
400.434999000000000
 20
-118.340350000000000
 11
397.230834000000020
 21
-118.340350000000000
  0
ARC
  8
0
  6
CONTINUOUS
 62
256
 10
397.230834000000020
 20
-119.840350000000000
 40
1.500000000000000
 50
90.000000000000000
 51
197.920212999999450
  0
ARC
  8
0
  6
CONTINUOUS
 62
256
 10
409.600150999999980
 20
-115.840350000000000
 40
14.500000000000011
 50
197.920212999999930
 51
222.079786999999930
  0
ARC
  8
0
  6
CONTINUOUS
 62
256
 10
395.065253999999980
 20
-133.015530000000010
 40
1.499999999999991
 50
229.759652000000220
 51
329.999999999999490
  0
LINE
  8
0
  6
CONTINUOUS
 62
256
 10
396.364291999999980
 20
-133.765530000000010
 11
397.892420000000020
 21
-131.118734999999990
  0
ARC
  8
0
  6
CONTINUOUS
 62
256
 10
396.593382000000020
 20
-130.368734999999990
 40
1.499999999999975
 50
329.999999999999490
 51
48.162996000000220
  0
ARC
  8
0
  6
CONTINUOUS
 62
256
 10
409.600150999999980
 20
-115.840350000000000
 40
17.999999999999975
 50
191.837004000000010
 51
228.162996000000080
  0
ARC
  8
0
  6
CONTINUOUS
 62
256
 10
390.514816000000000
 20
-119.840350000000000
 40
1.499999999999997
 50
11.837003999999803
 51
90.000000000000000
  0
LINE
  8
0
  6
CONTINUOUS
 62
256
 10
390.514816000000000
 20
-118.340350000000000
 11
387.458560999999970
 21
-118.340350000000000
  0
ARC
  8
0
  6
CONTINUOUS
 62
256
 10
387.458560999999970
 20
-119.840350000000000
 40
1.500000000000000
 50
90.000000000000000
 51
190.240347999999700
  0
ARC
  8
0
  6
CONTINUOUS
 62
256
 10
409.600150999999980
 20
-115.840350000000000
 40
23.999999999999996
 50
190.240348000000040
 51
229.759652000000020
  0
ARC
  8
0
  6
CONTINUOUS
 62
256
 10
399.951391000000000
 20
-107.128208000000000
 40
1.499999999999975
 50
30.000000000000544
 51
137.920212999999820
  0
LINE
  8
0
  6
CONTINUOUS
 62
256
 10
401.250429000000000
 20
-106.378208000000000
 11
402.852510999999990
 21
-109.153096000000010
  0
ARC
  8
0
  6
CONTINUOUS
 62
256
 10
401.553473000000000
 20
-109.903096000000010
 40
1.500000000000000
 50
323.578178000000040
 51
30.000000000000544
  0
ARC
  8
0
  6
CONTINUOUS
 62
256
 10
409.600150999999980
 20
-115.840350000000000
 40
8.499999999999989
 50
143.578177999999950
 51
156.421821999999930
  0
ARC
  8
0
  6
CONTINUOUS
 62
256
 10
400.434999000000000
 20
-111.840350000000000
 40
1.500000000000000
 50
270.000000000000000
 51
336.421821999999620
  0
LINE
  8
0
  6
CONTINUOUS
 62
256
 10
400.434999000000000
 20
-113.340350000000000
 11
397.230834000000020
 21
-113.340350000000000
  0
ARC
  8
0
  6
CONTINUOUS
 62
256
 10
397.230834000000020
 20
-111.840350000000000
 40
1.500000000000024
 50
162.079787000000550
 51
270.000000000000000
  0
ARC
  8
0
  6
CONTINUOUS
 62
256
 10
409.600150999999980
 20
-115.840350000000000
 40
14.500000000000012
 50
137.920213000000070
 51
162.079787000000070
  0
ARC
  8
0
  6
CONTINUOUS
 62
256
 10
395.065253999999980
 20
-98.665171000000001
 40
1.500000000000025
 50
29.999999999999456
 51
130.240347999999780
  0
LINE
  8
0
  6
CONTINUOUS
 62
256
 10
396.364291999999980
 20
-97.915171000000001
 11
397.892420000000020
 21
-100.561966000000000
  0
ARC
  8
0
  6
CONTINUOUS
 62
256
 10
396.593382000000020
 20
-101.311966000000000
 40
1.499999999999989
 50
311.837003999999810
 51
29.999999999999456
  0
ARC
  8
0
  6
CONTINUOUS
 62
256
 10
409.600150999999980
 20
-115.840350000000000
 40
17.999999999999989
 50
131.837003999999920
 51
168.162995999999990
  0
ARC
  8
0
  6
CONTINUOUS
 62
256
 10
390.514816000000000
 20
-111.840350000000000
 40
1.500000000000000
 50
270.000000000000000
 51
348.162996000000190
  0
LINE
  8
0
  6
CONTINUOUS
 62
256
 10
390.514816000000000
 20
-113.340350000000000
 11
387.458560999999970
 21
-113.340350000000000
  0
ARC
  8
0
  6
CONTINUOUS
 62
256
 10
387.458560999999970
 20
-111.840350000000000
 40
1.500000000000009
 50
169.759652000000300
 51
270.000000000000000
  0
ARC
  8
0
  6
CONTINUOUS
 62
256
 10
409.600150999999980
 20
-115.840350000000000
 40
24.000000000000004
 50
130.240347999999980
 51
169.759651999999960
  0
ARC
  8
0
  6
CONTINUOUS
 62
256
 10
421.969468000000010
 20
-119.840350000000000
 40
1.500000000000024
 50
342.079787000000580
 51
90.000000000000000
  0
LINE
  8
0
  6
CONTINUOUS
 62
256
 10
421.969468000000010
 20
-118.340350000000000
 11
418.765302000000020
 21
-118.340350000000000
  0
ARC
  8
0
  6
CONTINUOUS
 62
256
 10
418.765302000000020
 20
-119.840350000000000
 40
1.500000000000000
 50
90.000000000000000
 51
156.421821999999620
  0
ARC
  8
0
  6
CONTINUOUS
 62
256
 10
409.600150999999980
 20
-115.840350000000000
 40
8.499999999999989
 50
323.578177999999920
 51
336.421821999999910
  0
ARC
  8
0
  6
CONTINUOUS
 62
256
 10
417.646828000000030
 20
-121.777604000000000
 40
1.500000000000000
 50
143.578178000000040
 51
210.000000000000510
  0
LINE
  8
0
  6
CONTINUOUS
 62
256
 10
416.347789999999970
 20
-122.527604000000000
 11
417.949873000000030
 21
-125.302493000000000
  0
ARC
  8
0
  6
CONTINUOUS
 62
256
 10
419.248911000000020
 20
-124.552493000000000
 40
1.499999999999975
 50
210.000000000000510
 51
317.920212999999820
  0
ARC
  8
0
  6
CONTINUOUS
 62
256
 10
409.600150999999980
 20
-115.840350000000000
 40
14.500000000000021
 50
317.920213000000050
 51
342.079787000000010
  0
ARC
  8
0
  6
CONTINUOUS
 62
256
 10
431.741740999999990
 20
-119.840350000000000
 40
1.500000000000009
 50
349.759652000000300
 51
90.000000000000000
  0
LINE
  8
0
  6
CONTINUOUS
 62
256
 10
431.741740999999990
 20
-118.340350000000000
 11
428.685485000000030
 21
-118.340350000000000
  0
ARC
  8
0
  6
CONTINUOUS
 62
256
 10
428.685485000000030
 20
-119.840350000000000
 40
1.500000000000000
 50
90.000000000000000
 51
168.162996000000190
  0
ARC
  8
0
  6
CONTINUOUS
 62
256
 10
409.600150999999980
 20
-115.840350000000000
 40
17.999999999999989
 50
311.837003999999920
 51
348.162995999999960
  0
ARC
  8
0
  6
CONTINUOUS
 62
256
 10
422.606920000000000
 20
-130.368734999999990
 40
1.499999999999989
 50
131.837003999999810
 51
210.000000000000510
  0
LINE
  8
0
  6
CONTINUOUS
 62
256
 10
421.307882000000010
 20
-131.118734999999990
 11
422.836008999999990
 21
-133.765530000000010
  0
ARC
  8
0
  6
CONTINUOUS
 62
256
 10
424.135046999999990
 20
-133.015530000000010
 40
1.499999999999975
 50
210.000000000000510
 51
310.240347999999810
  0
ARC
  8
0
  6
CONTINUOUS
 62
256
 10
409.600150999999980
 20
-115.840350000000000
 40
24.000000000000004
 50
310.240347999999980
 51
349.759652000000020
  0
ARC
  8
0
  6
CONTINUOUS
 62
256
 10
441.349166000000030
 20
-119.840350000000000
 40
1.500000000000028
 50
352.819243999999910
 51
90.000000000000000
  0
LINE
  8
0
  6
CONTINUOUS
 62
256
 10
441.349166000000030
 20
-118.340350000000000
 11
438.322964000000010
 21
-118.340350000000000
  0
ARC
  8
0
  6
CONTINUOUS
 62
256
 10
447.891795000000000
 20
-119.840350000000000
 40
1.500000000000000
 50
90.000000000000000
 51
174.036430000000220
  0
LINE
  8
0
  6
CONTINUOUS
 62
256
 10
450.906929999999990
 20
-118.340350000000000
 11
447.891795000000000
 21
-118.340350000000000
  0
LINE
  8
0
  6
CONTINUOUS
 62
256
 10
386.781698000000010
 20
-81.317629999999994
 11
388.289265000000000
 21
-83.928814000000003
  0
ARC
  8
0
  6
CONTINUOUS
 62
256
 10
385.482660000000010
 20
-82.067629999999994
 40
1.500000000000025
 50
29.999999999999456
 51
125.531071999999480
  0
ARC
  8
0
  6
CONTINUOUS
 62
256
 10
393.918430000000000
 20
-80.678814000000003
 40
1.499999999999975
 50
210.000000000000510
 51
294.036429999999600
  0
LINE
  8
0
  6
CONTINUOUS
 62
256
 10
391.111825000000010
 20
-78.817629999999994
 11
392.619392000000000
 21
-81.428814000000003
  0
ARC
  8
0
  6
CONTINUOUS
 62
256
 10
392.410863000000010
 20
-78.067629999999994
 40
1.500000000000002
 50
114.468927999999780
 51
210.000000000000510
  0
ARC
  8
0
  6
CONTINUOUS
 62
256
 10
409.600150999999980
 20
-115.840350000000000
 40
43.000000000000007
 50
65.531071999999980
 51
114.468928000000030
  0
ARC
  8
0
  6
CONTINUOUS
 62
256
 10
409.600150999999980
 20
-115.840350000000000
 40
37.000000000000000
 50
65.963570000000033
 51
114.036429999999970
  0
ARC
  8
0
  6
CONTINUOUS
 62
256
 10
425.281871000000020
 20
-80.678814000000003
 40
1.499999999999999
 50
245.963570000000350
 51
329.999999999999490
  0
LINE
  8
0
  6
CONTINUOUS
 62
256
 10
426.580909000000020
 20
-81.428814000000003
 11
428.088477000000010
 21
-78.817629999999994
  0
ARC
  8
0
  6
CONTINUOUS
 62
256
 10
426.789439000000020
 20
-78.067629999999994
 40
1.499999999999975
 50
329.999999999999490
 51
65.531072000000222
  0
ARC
  8
0
  6
CONTINUOUS
 62
256
 10
409.600150999999980
 20
-115.840350000000000
 40
42.999999999999979
 50
5.531071999999997
 51
54.468927999999977
  0
ARC
  8
0
  6
CONTINUOUS
 62
256
 10
433.717642000000010
 20
-82.067629999999994
 40
1.499999999999989
 50
54.468928000000517
 51
149.999999999999460
  0
ARC
  8
0
  6
CONTINUOUS
 62
256
 10
447.891795000000000
 20
-111.840350000000000
 40
1.500000000000012
 50
185.963569999999780
 51
270.000000000000000
  0
ARC
  8
0
  6
CONTINUOUS
 62
256
 10
441.349166000000030
 20
-111.840350000000000
 40
1.500000000000000
 50
270.000000000000000
 51
7.180756000000089
  0
LINE
  8
0
  6
CONTINUOUS
 62
256
 10
441.349166000000030
 20
-113.340350000000000
 11
438.322964000000010
 21
-113.340350000000000
  0
LINE
  8
0
  6
CONTINUOUS
 62
256
 10
430.911036000000020
 20
-83.928814000000003
 11
432.418604000000020
 21
-81.317629999999994
  0
LINE
  8
0
  6
CONTINUOUS
 62
256
 10
450.906929999999990
 20
-113.340350000000000
 11
447.891795000000000
 21
-113.340350000000000
  0
ARC
  8
0
  6
CONTINUOUS
 62
256
 10
409.600150999999980
 20
-115.840350000000000
 40
27.500000000000014
 50
307.928141999999980
 51
352.071858000000020
  0
ARC
  8
0
  6
CONTINUOUS
 62
256
 10
409.600150999999980
 20
-115.840350000000000
 40
17.999999999999975
 50
11.837004000000027
 51
48.162996000000071
  0
ARC
  8
0
  6
CONTINUOUS
 62
256
 10
450.906929999999990
 20
-119.840350000000000
 40
1.499999999999979
 50
354.468927999999720
 51
90.000000000000000
  0
ARC
  8
0
  6
CONTINUOUS
 62
256
 10
450.906929999999990
 20
-111.840350000000000
 40
1.500000000000000
 50
270.000000000000000
 51
5.531072000000276
  0
LINE
  8
0
  6
CONTINUOUS
 62
256
 10
354.836631000000010
 20
-164.455842999999990
 11
361.903080999999990
 21
-171.522291999999990
  0
LINE
  8
0
  6
CONTINUOUS
 62
256
 10
464.363670000000010
 20
-67.224857999999998
 11
457.297220999999980
 21
-60.158408999999999
  0
ARC
  8
0
  6
CONTINUOUS
 62
256
 10
409.600150999999980
 20
119.759649999999990
 40
300.600000000000020
 50
263.948015000000000
 51
276.051985000000000
  0
ARC
  8
0
  6
CONTINUOUS
 62
256
 10
169.000150999999990
 20
-115.840350000000000
 40
300.600000000000020
 50
351.402918000000000
 51
0.000000000000000
  0
ARC
  8
0
  6
CONTINUOUS
 62
256
 10
650.200151000000010
 20
-115.840350000000000
 40
300.600000000000020
 50
171.402918000000000
 51
180.000000000000000
  0
ARC
  8
0
  6
CONTINUOUS
 62
256
 10
459.696765000000030
 20
-71.891762999999997
 40
6.600000000000019
 50
8.597081999999919
 51
44.999999999999829
  0
ARC
  8
0
  6
CONTINUOUS
 62
256
 10
169.000150999999990
 20
-115.840350000000000
 40
300.600000000000020
 50
0.000000000000000
 51
8.597081999999999
  0
ARC
  8
0
  6
CONTINUOUS
 62
256
 10
409.600150999999980
 20
-351.440350000000020
 40
300.600000000000020
 50
83.948014999999998
 51
96.051985000000002
  0
LINE
  8
0
  6
CONTINUOUS
 62
256
 10
354.836631000000010
 20
-67.224857999999998
 11
361.903080999999990
 21
-60.158408999999999
  0
ARC
  8
0
  6
CONTINUOUS
 62
256
 10
359.503536000000000
 20
-71.891762999999997
 40
6.600000000000017
 50
135.000000000000170
 51
171.402918000000080
  0
ARC
  8
0
  6
CONTINUOUS
 62
256
 10
650.200151000000010
 20
-115.840350000000000
 40
300.600000000000020
 50
180.000000000000000
 51
188.597082000000000
  0
ARC
  8
0
  6
CONTINUOUS
 62
256
 10
359.503536000000000
 20
-159.788938000000000
 40
6.600000000000022
 50
188.597082000000030
 51
224.999999999999830
  0
LINE
  8
0
  6
CONTINUOUS
 62
256
 10
464.363670000000010
 20
-164.455842999999990
 11
457.297220999999980
 21
-171.522291999999990
  0
LINE
  8
0
  6
DASHDOT
 62
256
 10
409.600150999999980
 20
-206.713197000000010
 11
409.600150999999980
 21
-4.134839000000000
  0
LINE
  8
0
  6
DASHDOT
 62
256
 10
343.594867000000020
 20
-115.840350000000000
 11
474.429377999999990
 21
-115.840350000000000
  0
ARC
  8
0
  6
CONTINUOUS
 62
256
 10
438.488180000000000
 20
-78.967449000000002
 40
26.600000000000016
 50
44.999999999999957
 51
83.948015000000026
  0
ARC
  8
0
  6
CONTINUOUS
 62
256
 10
438.488180000000000
 20
-152.713251000000010
 40
26.600000000000009
 50
276.051984999999950
 51
315.000000000000060
  0
ARC
  8
0
  6
CONTINUOUS
 62
256
 10
380.712121000000020
 20
-152.713251000000010
 40
26.600000000000016
 50
224.999999999999940
 51
263.948015000000050
  0
ARC
  8
0
  6
CONTINUOUS
 62
256
 10
380.712121000000020
 20
-78.967449000000002
 40
26.599999999999994
 50
96.051984999999974
 51
134.999999999999970
  0
ARC
  8
0
  6
CONTINUOUS
 62
256
 10
438.488180000000000
 20
-152.713251000000010
 40
15.397000000000000
 50
276.051984999999890
 51
314.999999999999940
  0
ARC
  8
0
  6
CONTINUOUS
 62
256
 10
409.600150999999980
 20
-351.440350000000020
 40
289.396999999999990
 50
83.948014999999998
 51
90.000000000000000
  0
ARC
  8
0
  6
CONTINUOUS
 62
256
 10
438.488180000000000
 20
-78.967449000000002
 40
15.397000000000016
 50
44.999999999999929
 51
83.948015000000069
  0
LINE
  8
0
  6
CONTINUOUS
 62
256
 10
453.951569000000010
 20
-72.656192000000004
 11
449.375503999999980
 21
-68.080126000000007
  0
ARC
  8
0
  6
CONTINUOUS
 62
256
 10
449.708928000000010
 20
-76.898831999999999
 40
5.999999999999990
 50
7.897989000000010
 51
45.000000000000192
  0
ARC
  8
0
  6
CONTINUOUS
 62
256
 10
169.000150999999990
 20
-115.840350000000000
 40
289.397000000000050
 50
0.000000000000000
 51
7.897989000000000
  0
ARC
  8
0
  6
CONTINUOUS
 62
256
 10
409.600150999999980
 20
-351.440350000000020
 40
289.396999999999990
 50
90.000000000000000
 51
96.051985000000002
  0
ARC
  8
0
  6
CONTINUOUS
 62
256
 10
380.712121000000020
 20
-78.967449000000002
 40
15.397000000000000
 50
96.051984999999931
 51
135.000000000000090
  0
LINE
  8
0
  6
CONTINUOUS
 62
256
 10
365.248732000000020
 20
-72.656192000000004
 11
369.824797999999990
 21
-68.080126000000007
  0
ARC
  8
0
  6
CONTINUOUS
 62
256
 10
369.491373000000010
 20
-76.898831999999999
 40
5.999999999999989
 50
134.999999999999830
 51
172.102011000000000
  0
ARC
  8
0
  6
CONTINUOUS
 62
256
 10
650.200151000000010
 20
-115.840350000000000
 40
289.396999999999990
 50
172.102011000000030
 51
180.000000000000000
  0
ARC
  8
0
  6
CONTINUOUS
 62
256
 10
409.600150999999980
 20
119.759649999999990
 40
289.397000000000050
 50
263.948015000000000
 51
270.000000000000000
  0
ARC
  8
0
  6
CONTINUOUS
 62
256
 10
380.712121000000020
 20
-152.713251000000010
 40
15.397000000000016
 50
224.999999999999910
 51
263.948015000000110
  0
LINE
  8
0
  6
CONTINUOUS
 62
256
 10
365.248732000000020
 20
-159.024508999999990
 11
369.824797999999990
 21
-163.600573999999990
  0
ARC
  8
0
  6
CONTINUOUS
 62
256
 10
369.491373000000010
 20
-154.781868000000000
 40
5.999999999999990
 50
187.897989000000000
 51
225.000000000000170
  0
ARC
  8
0
  6
CONTINUOUS
 62
256
 10
650.200151000000010
 20
-115.840350000000000
 40
289.396999999999990
 50
180.000000000000000
 51
187.897988999999970
  0
LINE
  8
0
  6
CONTINUOUS
 62
256
 10
467.100701000000020
 20
-203.631035999999990
 11
455.600150999999980
 21
-203.831779000000010
  0
LINE
  8
0
  6
CONTINUOUS
 62
256
 10
467.600548000000000
 20
-203.122388000000000
 11
467.100701000000020
 21
-203.631035999999990
  0
LINE
  8
0
  6
CONTINUOUS
 62
256
 10
472.600548000000000
 20
-99.840507000000002
 11
472.600548000000000
 21
-147.340507000000000
  0
LINE
  8
0
  6
CONTINUOUS
 62
256
 10
472.600548000000000
 20
-99.840507000000002
 11
472.600548000000000
 21
-52.340507000000002
  0
LINE
  8
0
  6
CONTINUOUS
 62
256
 10
467.600548000000000
 20
-28.058702000000000
 11
455.600150999999980
 21
-27.849233999999999
  0
LINE
  8
0
  6
CONTINUOUS
 62
256
 10
361.100150999999980
 20
-202.182276000000000
 11
351.600150999999980
 21
-202.182276000000000
  0
LINE
  8
0
  6
CONTINUOUS
 62
256
 10
361.100150999999980
 20
-29.498737999999999
 11
351.600150999999980
 21
-29.498737999999999
  0
LINE
  8
0
  6
CONTINUOUS
 62
256
 10
455.600150999999980
 20
-203.831779000000010
 11
361.100150999999980
 21
-202.182276000000000
  0
LINE
  8
0
  6
CONTINUOUS
 62
256
 10
346.600150999999980
 20
-52.340507000000002
 11
346.600150999999980
 21
-147.340507000000000
  0
LINE
  8
0
  6
CONTINUOUS
 62
256
 10
351.600150999999980
 20
-29.498737999999999
 11
351.600150999999980
 21
-81.222436000000002
  0
LINE
  8
0
  6
CONTINUOUS
 62
256
 10
350.100150999999980
 20
-133.170959000000010
 11
350.100150999999980
 21
-135.340350000000000
  0
LINE
  8
0
  6
CONTINUOUS
 62
256
 10
350.100150999999980
 20
-98.509742000000003
 11
350.100150999999980
 21
-96.340350000000001
  0
ARC
  8
0
  6
CONTINUOUS
 62
256
 10
350.600150999999980
 20
-96.340350000000001
 40
0.500000000000015
 50
133.310430000002040
 51
180.000000000000000
  0
LINE
  8
0
  6
CONTINUOUS
 62
256
 10
346.600150999999980
 20
-52.340507000000002
 11
351.600150999999980
 21
-52.340507000000002
  0
LINE
  8
0
  6
CONTINUOUS
 62
256
 10
467.600548000000000
 20
-52.340507000000002
 11
472.600548000000000
 21
-52.340507000000002
  0
LINE
  8
0
  6
CONTINUOUS
 62
256
 10
351.600150999999980
 20
-150.458265000000010
 11
351.600150999999980
 21
-202.182276000000000
  0
ARC
  8
0
  6
CONTINUOUS
 62
256
 10
350.600150999999980
 20
-135.340350000000000
 40
0.500000000000000
 50
180.000000000000000
 51
226.689569999999090
  0
LINE
  8
0
  6
CONTINUOUS
 62
256
 10
346.600150999999980
 20
-147.340507000000000
 11
351.255172000000020
 21
-147.340507000000000
  0
LINE
  8
0
  6
CONTINUOUS
 62
256
 10
455.600150999999980
 20
-173.078429000000000
 11
455.600150999999980
 21
-203.831779000000010
  0
LINE
  8
0
  6
CONTINUOUS
 62
256
 10
467.600548000000000
 20
-150.454835000000000
 11
467.600548000000000
 21
-203.122388000000000
  0
LINE
  8
0
  6
CONTINUOUS
 62
256
 10
467.945129000000010
 20
-147.340507000000000
 11
472.600548000000000
 21
-147.340507000000000
  0
ARC
  8
0
  6
CONTINUOUS
 62
256
 10
468.600150999999980
 20
-135.340350000000000
 40
0.500000000000026
 50
313.310430000000960
 51
0.000000000000000
  0
LINE
  8
0
  6
CONTINUOUS
 62
256
 10
469.100150999999980
 20
-133.170959000000010
 11
469.100150999999980
 21
-135.340350000000000
  0
ARC
  8
0
  6
CONTINUOUS
 62
256
 10
468.600150999999980
 20
-96.340350000000001
 40
0.500000000000000
 50
0.000000000000000
 51
46.689569999997964
  0
LINE
  8
0
  6
CONTINUOUS
 62
256
 10
469.100150999999980
 20
-98.509742000000003
 11
469.100150999999980
 21
-96.340350000000001
  0
LINE
  8
0
  6
CONTINUOUS
 62
256
 10
455.600150999999980
 20
-27.849233999999999
 11
455.600150999999980
 21
-58.602271000000002
  0
LINE
  8
0
  6
CONTINUOUS
 62
256
 10
467.600548000000000
 20
-81.225865999999996
 11
467.600548000000000
 21
-28.058702000000000
  0
LINE
  8
0
  6
CONTINUOUS
 62
256
 10
455.600150999999980
 20
-27.849233999999999
 11
439.600150999999980
 21
-28.128515000000000
  0
LINE
  8
0
  6
CONTINUOUS
 62
256
 10
379.600150999999980
 20
-29.175819000000001
 11
361.100150999999980
 21
-29.498737999999999
  0
LINE
  8
0
  6
CONTINUOUS
 62
256
 10
346.600150999999980
 20
-82.340507000000002
 11
345.000287000000010
 21
-82.340507000000002
  0
ARC
  8
0
  6
CONTINUOUS
 62
256
 10
345.000287000000010
 20
-82.740506999999994
 40
0.400000000000006
 50
90.000000000000000
 51
180.000000000000000
  0
ARC
  8
0
  6
CONTINUOUS
 62
256
 10
344.200287000000000
 20
-83.440506999999997
 40
0.400000000000006
 50
270.000000000000000
 51
0.000000000000000
  0
LINE
  8
0
  6
CONTINUOUS
 62
256
 10
346.600150999999980
 20
-117.340507000000000
 11
345.000287000000010
 21
-117.340507000000000
  0
ARC
  8
0
  6
CONTINUOUS
 62
256
 10
345.000287000000010
 20
-116.940507000000000
 40
0.399999999999977
 50
180.000000000000000
 51
270.000000000000000
  0
ARC
  8
0
  6
CONTINUOUS
 62
256
 10
344.200287000000000
 20
-116.240506999999990
 40
0.399999999999977
 50
0.000000000000000
 51
90.000000000000000
  0
LINE
  8
0
  6
CONTINUOUS
 62
256
 10
344.600286999999980
 20
-82.740506999999994
 11
344.600286999999980
 21
-116.940507000000000
  0
LINE
  8
0
  6
CONTINUOUS
 62
256
 10
329.600355999999980
 20
-80.840507000000002
 11
329.600355999999980
 21
-83.840507000000002
  0
LINE
  8
0
  6
CONTINUOUS
 62
256
 10
329.600355999999980
 20
-80.840507000000002
 11
289.600355999999980
 21
-80.840507000000002
  0
LINE
  8
0
  6
CONTINUOUS
 62
256
 10
344.200287000000000
 20
-83.840507000000002
 11
290.400355999999990
 21
-83.840507000000002
  0
LINE
  8
0
  6
CONTINUOUS
 62
256
 10
344.200287000000000
 20
-115.840507000000000
 11
290.400355999999990
 21
-115.840507000000000
  0
LINE
  8
0
  6
DASHDOT
 62
256
 10
286.546763000000000
 20
-99.840507000000002
 11
480.969565999999990
 21
-99.840507000000002
  0
ARC
  8
0
  6
CONTINUOUS
 62
256
 10
290.400355999999990
 20
-84.640506999999999
 40
0.799999999999997
 50
90.000000000000000
 51
180.000000000000000
  0
ARC
  8
0
  6
CONTINUOUS
 62
256
 10
290.400355999999990
 20
-115.040507000000010
 40
0.800000000000011
 50
180.000000000000000
 51
270.000000000000000
  0
LINE
  8
0
  6
CONTINUOUS
 62
256
 10
289.600355999999980
 20
-80.840507000000002
 11
289.600355999999980
 21
-115.040507000000010
  0
ARC
  8
0
  6
DASHED
 62
256
 10
181.155846000000000
 20
-37.840350000000001
 40
7.000000000000000
 50
0.000000000000000
 51
180.000000000000000
  0
LINE
  8
0
  6
DASHED
 62
256
 10
188.155846000000000
 20
-52.340350000000001
 11
188.155846000000000
 21
-37.840350000000001
  0
LINE
  8
0
  6
DASHED
 62
256
 10
174.155846000000000
 20
-52.340350000000001
 11
174.155846000000000
 21
-37.840350000000001
  0
LINE
  8
0
  6
DASHDOT
 62
256
 10
181.155846000000000
 20
-55.124201999999997
 11
181.155846000000000
 21
-27.144852000000000
  0
LINE
  8
0
  6
DASHDOT
 62
256
 10
170.745546999999990
 20
-37.840350000000001
 11
191.119729000000010
 21
-37.840350000000001
  0
CIRCLE
  8
0
  6
DASHED
 62
256
 10
131.155846000000000
 20
-37.840350000000001
 40
6.000000000000000
  0
ARC
  8
0
  6
DASHED
 62
256
 10
131.155846000000000
 20
-37.840350000000001
 40
7.000000000000000
 50
0.000000000000000
 51
180.000000000000000
  0
LINE
  8
0
  6
DASHED
 62
256
 10
138.155846000000000
 20
-52.340350000000001
 11
138.155846000000000
 21
-37.840350000000001
  0
LINE
  8
0
  6
DASHED
 62
256
 10
124.155846000000000
 20
-52.340350000000001
 11
124.155846000000000
 21
-37.840350000000001
  0
LINE
  8
0
  6
DASHDOT
 62
256
 10
131.155846000000000
 20
-55.124201999999997
 11
131.155846000000000
 21
-27.144852000000000
  0
LINE
  8
0
  6
DASHDOT
 62
256
 10
121.847511999999990
 20
-37.840350000000001
 11
141.036552000000000
 21
-37.840350000000001
  0
LINE
  8
0
  6
DASHDOT
 62
256
 10
81.679849000000004
 20
-115.840350000000000
 11
246.585058000000000
 21
-115.840350000000000
  0
POLYLINE
  8
0
  6
CONTINUOUS
 62
256
 66
1
 70
1
  0
VERTEX
  8
0
  6
CONTINUOUS
 62
256
 10
201.355845999999990
 20
-63.916825000000003
  0
VERTEX
  8
0
  6
CONTINUOUS
 62
256
 10
201.265536817895170
 20
-63.213868489441836
  0
VERTEX
  8
0
  6
CONTINUOUS
 62
256
 10
200.998079802803030
 20
-62.537926203361863
  0
VERTEX
  8
0
  6
CONTINUOUS
 62
256
 10
200.563753177821950
 20
-61.914974224741343
  0
VERTEX
  8
0
  6
CONTINUOUS
 62
256
 10
199.979247871576770
 20
-61.368952248763165
  0
VERTEX
  8
0
  6
CONTINUOUS
 62
256
 10
199.267026095192110
 20
-60.920843593751513
  0
VERTEX
  8
0
  6
CONTINUOUS
 62
256
 10
198.454458132115920
 20
-60.587868824016269
  0
VERTEX
  8
0
  6
CONTINUOUS
 62
256
 10
197.572770513475800
 20
-60.382823973223942
  0
VERTEX
  8
0
  6
CONTINUOUS
 62
256
 10
196.655846000000000
 20
-60.313588800000012
  0
VERTEX
  8
0
  6
CONTINUOUS
 62
256
 10
195.738921486524190
 20
-60.382823973223942
  0
VERTEX
  8
0
  6
CONTINUOUS
 62
256
 10
194.857233867884080
 20
-60.587868824016269
  0
VERTEX
  8
0
  6
CONTINUOUS
 62
256
 10
194.044665904807890
 20
-60.920843593751513
  0
VERTEX
  8
0
  6
CONTINUOUS
 62
256
 10
193.332444128423220
 20
-61.368952248763165
  0
VERTEX
  8
0
  6
CONTINUOUS
 62
256
 10
192.747938822178040
 20
-61.914974224741343
  0
VERTEX
  8
0
  6
CONTINUOUS
 62
256
 10
192.313612197196960
 20
-62.537926203361863
  0
VERTEX
  8
0
  6
CONTINUOUS
 62
256
 10
192.046155182104830
 20
-63.213868489441836
  0
VERTEX
  8
0
  6
CONTINUOUS
 62
256
 10
191.955846000000010
 20
-63.916825000000003
  0
VERTEX
  8
0
  6
CONTINUOUS
 62
256
 10
192.046155182104830
 20
-64.619781510558170
  0
VERTEX
  8
0
  6
CONTINUOUS
 62
256
 10
192.313612197196960
 20
-65.295723796638143
  0
VERTEX
  8
0
  6
CONTINUOUS
 62
256
 10
192.747938822178040
 20
-65.918675775258663
  0
VERTEX
  8
0
  6
CONTINUOUS
 62
256
 10
193.332444128423220
 20
-66.464697751236841
  0
VERTEX
  8
0
  6
CONTINUOUS
 62
256
 10
194.044665904807890
 20
-66.912806406248492
  0
VERTEX
  8
0
  6
CONTINUOUS
 62
256
 10
194.857233867884080
 20
-67.245781175983737
  0
VERTEX
  8
0
  6
CONTINUOUS
 62
256
 10
195.738921486524190
 20
-67.450826026776056
  0
VERTEX
  8
0
  6
CONTINUOUS
 62
256
 10
196.655846000000000
 20
-67.520061199999986
  0
VERTEX
  8
0
  6
CONTINUOUS
 62
256
 10
197.572770513475800
 20
-67.450826026776056
  0
VERTEX
  8
0
  6
CONTINUOUS
 62
256
 10
198.454458132115920
 20
-67.245781175983737
  0
VERTEX
  8
0
  6
CONTINUOUS
 62
256
 10
199.267026095192110
 20
-66.912806406248492
  0
VERTEX
  8
0
  6
CONTINUOUS
 62
256
 10
199.979247871576750
 20
-66.464697751236841
  0
VERTEX
  8
0
  6
CONTINUOUS
 62
256
 10
200.563753177821950
 20
-65.918675775258663
  0
VERTEX
  8
0
  6
CONTINUOUS
 62
256
 10
200.998079802803030
 20
-65.295723796638143
  0
VERTEX
  8
0
  6
CONTINUOUS
 62
256
 10
201.265536817895170
 20
-64.619781510558170
  0
SEQEND
  8
0
  6
CONTINUOUS
 62
256
  0
LINE
  8
0
  6
CONTINUOUS
 62
256
 10
198.655846000000000
 20
-60.924450000000000
 11
196.655846000000000
 21
-62.100234999999998
  0
LINE
  8
0
  6
CONTINUOUS
 62
256
 10
196.655846000000000
 20
-62.100234999999998
 11
194.655846000000000
 21
-63.752876999999998
  0
LINE
  8
0
  6
CONTINUOUS
 62
256
 10
194.655846000000000
 20
-60.924450000000000
 11
196.655846000000000
 21
-62.100234999999998
  0
LINE
  8
0
  6
CONTINUOUS
 62
256
 10
196.655846000000000
 20
-62.100234999999998
 11
198.655846000000000
 21
-63.752876999999998
  0
POLYLINE
  8
0
  6
CONTINUOUS
 62
256
 66
1
 70
1
  0
VERTEX
  8
0
  6
CONTINUOUS
 62
256
 10
201.355845999999990
 20
-167.763875000000010
  0
VERTEX
  8
0
  6
CONTINUOUS
 62
256
 10
201.265536817895170
 20
-167.060918489441830
  0
VERTEX
  8
0
  6
CONTINUOUS
 62
256
 10
200.998079802803030
 20
-166.384976203361870
  0
VERTEX
  8
0
  6
CONTINUOUS
 62
256
 10
200.563753177821950
 20
-165.762024224741340
  0
VERTEX
  8
0
  6
CONTINUOUS
 62
256
 10
199.979247871576770
 20
-165.216002248763170
  0
VERTEX
  8
0
  6
CONTINUOUS
 62
256
 10
199.267026095192110
 20
-164.767893593751520
  0
VERTEX
  8
0
  6
CONTINUOUS
 62
256
 10
198.454458132115920
 20
-164.434918824016280
  0
VERTEX
  8
0
  6
CONTINUOUS
 62
256
 10
197.572770513475800
 20
-164.229873973223930
  0
VERTEX
  8
0
  6
CONTINUOUS
 62
256
 10
196.655846000000000
 20
-164.160638800000020
  0
VERTEX
  8
0
  6
CONTINUOUS
 62
256
 10
195.738921486524190
 20
-164.229873973223930
  0
VERTEX
  8
0
  6
CONTINUOUS
 62
256
 10
194.857233867884080
 20
-164.434918824016280
  0
VERTEX
  8
0
  6
CONTINUOUS
 62
256
 10
194.044665904807890
 20
-164.767893593751520
  0
VERTEX
  8
0
  6
CONTINUOUS
 62
256
 10
193.332444128423220
 20
-165.216002248763170
  0
VERTEX
  8
0
  6
CONTINUOUS
 62
256
 10
192.747938822178040
 20
-165.762024224741340
  0
VERTEX
  8
0
  6
CONTINUOUS
 62
256
 10
192.313612197196960
 20
-166.384976203361870
  0
VERTEX
  8
0
  6
CONTINUOUS
 62
256
 10
192.046155182104830
 20
-167.060918489441830
  0
VERTEX
  8
0
  6
CONTINUOUS
 62
256
 10
191.955846000000010
 20
-167.763875000000010
  0
VERTEX
  8
0
  6
CONTINUOUS
 62
256
 10
192.046155182104830
 20
-168.466831510558190
  0
VERTEX
  8
0
  6
CONTINUOUS
 62
256
 10
192.313612197196960
 20
-169.142773796638150
  0
VERTEX
  8
0
  6
CONTINUOUS
 62
256
 10
192.747938822178040
 20
-169.765725775258690
  0
VERTEX
  8
0
  6
CONTINUOUS
 62
256
 10
193.332444128423220
 20
-170.311747751236850
  0
VERTEX
  8
0
  6
CONTINUOUS
 62
256
 10
194.044665904807890
 20
-170.759856406248500
  0
VERTEX
  8
0
  6
CONTINUOUS
 62
256
 10
194.857233867884080
 20
-171.092831175983750
  0
VERTEX
  8
0
  6
CONTINUOUS
 62
256
 10
195.738921486524190
 20
-171.297876026776070
  0
VERTEX
  8
0
  6
CONTINUOUS
 62
256
 10
196.655846000000000
 20
-171.367111200000010
  0
VERTEX
  8
0
  6
CONTINUOUS
 62
256
 10
197.572770513475800
 20
-171.297876026776070
  0
VERTEX
  8
0
  6
CONTINUOUS
 62
256
 10
198.454458132115920
 20
-171.092831175983750
  0
VERTEX
  8
0
  6
CONTINUOUS
 62
256
 10
199.267026095192110
 20
-170.759856406248500
  0
VERTEX
  8
0
  6
CONTINUOUS
 62
256
 10
199.979247871576750
 20
-170.311747751236850
  0
VERTEX
  8
0
  6
CONTINUOUS
 62
256
 10
200.563753177821950
 20
-169.765725775258690
  0
VERTEX
  8
0
  6
CONTINUOUS
 62
256
 10
200.998079802803030
 20
-169.142773796638150
  0
VERTEX
  8
0
  6
CONTINUOUS
 62
256
 10
201.265536817895170
 20
-168.466831510558190
  0
SEQEND
  8
0
  6
CONTINUOUS
 62
256
  0
LINE
  8
0
  6
CONTINUOUS
 62
256
 10
198.655846000000000
 20
-170.756250999999990
 11
196.655846000000000
 21
-169.580465000000000
  0
LINE
  8
0
  6
CONTINUOUS
 62
256
 10
196.655846000000000
 20
-169.580465000000000
 11
194.655846000000000
 21
-167.927823999999990
  0
LINE
  8
0
  6
CONTINUOUS
 62
256
 10
194.655846000000000
 20
-170.756250999999990
 11
196.655846000000000
 21
-169.580465000000000
  0
LINE
  8
0
  6
CONTINUOUS
 62
256
 10
196.655846000000000
 20
-169.580465000000000
 11
198.655846000000000
 21
-167.927823999999990
  0
LINE
  8
0
  6
CONTINUOUS
 62
256
 10
185.655846000000000
 20
-115.840350000000000
 11
185.655846000000000
 21
-180.840350000000000
  0
LINE
  8
0
  6
CONTINUOUS
 62
256
 10
88.655845999999997
 20
-175.340350000000000
 11
88.655845999999997
 21
-115.840350000000000
  0
LINE
  8
0
  6
CONTINUOUS
 62
256
 10
185.655846000000000
 20
-180.840350000000000
 11
214.349870000000010
 21
-180.840350000000000
  0
LINE
  8
0
  6
CONTINUOUS
 62
256
 10
236.655846000000000
 20
-115.840350000000000
 11
236.655846000000000
 21
-168.283555000000010
  0
ARC
  8
0
  6
CONTINUOUS
 62
256
 10
214.349870000000010
 20
-160.840350000000000
 40
20.000000000000000
 50
270.000000000000000
 51
304.999999999999940
  0
LINE
  8
0
  6
CONTINUOUS
 62
256
 10
225.821399000000010
 20
-177.223390999999990
 11
235.547145000000000
 21
-170.413351000000010
  0
ARC
  8
0
  6
CONTINUOUS
 62
256
 10
234.055846000000000
 20
-168.283555000000010
 40
2.599999999999996
 50
305.000000000000230
 51
0.000000000000000
  0
LINE
  8
0
  6
CONTINUOUS
 62
256
 10
185.655846000000000
 20
-115.840350000000000
 11
185.655846000000000
 21
-57.221128999999998
  0
LINE
  8
0
  6
CONTINUOUS
 62
256
 10
88.655845999999997
 20
-56.340350000000001
 11
88.655845999999997
 21
-115.840350000000000
  0
LINE
  8
0
  6
CONTINUOUS
 62
256
 10
236.655846000000000
 20
-115.840350000000000
 11
236.655846000000000
 21
-63.397145000000002
  0
LINE
  8
0
  6
CONTINUOUS
 62
256
 10
225.821399000000010
 20
-54.457309000000002
 11
235.547145000000000
 21
-61.267350000000000
  0
ARC
  8
0
  6
CONTINUOUS
 62
256
 10
234.055846000000000
 20
-63.397145000000002
 40
2.599999999999994
 50
0.000000000000000
 51
54.999999999999886
  0
LINE
  8
0
  6
CONTINUOUS
 62
256
 10
195.655846000000000
 20
-50.840350000000001
 11
214.349870000000010
 21
-50.840350000000001
  0
ARC
  8
0
  6
CONTINUOUS
 62
256
 10
214.349870000000010
 20
-70.840350000000001
 40
19.999999999999993
 50
55.000000000000028
 51
90.000000000000000
  0
LINE
  8
0
  6
CONTINUOUS
 62
256
 10
193.655846000000000
 20
-52.340350000000001
 11
193.655846000000000
 21
-54.049557000000000
  0
LINE
  8
0
  6
CONTINUOUS
 62
256
 10
118.655846000000000
 20
-57.340350000000001
 11
185.655846000000000
 21
-57.340350000000001
  0
LINE
  8
0
  6
CONTINUOUS
 62
256
 10
118.655846000000000
 20
-52.340350000000001
 11
193.655846000000000
 21
-52.340350000000001
  0
LINE
  8
0
  6
CONTINUOUS
 62
256
 10
192.655846000000000
 20
-23.840350000000001
 11
192.655846000000000
 21
-52.340350000000001
  0
LINE
  8
0
  6
CONTINUOUS
 62
256
 10
119.655846000000000
 20
-23.840350000000001
 11
119.655846000000000
 21
-52.340350000000001
  0
ARC
  8
0
  6
CONTINUOUS
 62
256
 10
120.655846000000000
 20
-23.840350000000001
 40
1.000000000000000
 50
90.000000000000000
 51
180.000000000000000
  0
ARC
  8
0
  6
CONTINUOUS
 62
256
 10
191.655846000000000
 20
-23.840350000000001
 40
1.000000000000000
 50
0.000000000000000
 51
90.000000000000000
  0
LINE
  8
0
  6
CONTINUOUS
 62
256
 10
120.655846000000000
 20
-22.840350000000001
 11
191.655846000000000
 21
-22.840350000000001
  0
LINE
  8
0
  6
CONTINUOUS
 62
256
 10
126.655846000000000
 20
-22.840350000000001
 11
126.655846000000000
 21
-22.340350000000001
  0
LINE
  8
0
  6
CONTINUOUS
 62
256
 10
129.155846000000000
 20
-22.840350000000001
 11
129.155846000000000
 21
-22.340350000000001
  0
LINE
  8
0
  6
CONTINUOUS
 62
256
 10
134.655846000000000
 20
-22.840350000000001
 11
134.655846000000000
 21
-22.340350000000001
  0
LINE
  8
0
  6
CONTINUOUS
 62
256
 10
126.655846000000000
 20
-22.340350000000001
 11
134.655846000000000
 21
-22.340350000000001
  0
LINE
  8
0
  6
CONTINUOUS
 62
256
 10
118.655846000000000
 20
-52.340350000000001
 11
118.655846000000000
 21
-57.340350000000001
  0
LINE
  8
0
  6
CONTINUOUS
 62
256
 10
192.655846000000000
 20
-54.221128999999998
 11
188.655846000000000
 21
-54.221128999999998
  0
LINE
  8
0
  6
CONTINUOUS
 62
256
 10
195.655846000000000
 20
-50.840350000000001
 11
195.655846000000000
 21
-51.221128999999998
  0
ARC
  8
0
  6
CONTINUOUS
 62
256
 10
188.655846000000000
 20
-57.221128999999998
 40
3.000000000000000
 50
90.000000000000000
 51
180.000000000000000
  0
ARC
  8
0
  6
CONTINUOUS
 62
256
 10
192.655846000000000
 20
-51.221128999999998
 40
3.000000000000000
 50
270.000000000000000
 51
0.000000000000000
  0
LINE
  8
0
  6
CONTINUOUS
 62
256
 10
185.655846000000000
 20
-175.340350000000000
 11
88.655845999999997
 21
-175.340350000000000
  0
LINE
  8
0
  6
CONTINUOUS
 62
256
 10
118.655846000000000
 20
-56.340350000000001
 11
88.655845999999997
 21
-56.340350000000001
  0
LINE
  8
0
  6
CONTINUOUS
 62
256
 10
185.655846000000000
 20
-58.840350000000001
 11
88.655845999999997
 21
-58.840350000000001
  0
LINE
  8
0
  6
CONTINUOUS
 62
256
 10
185.655846000000000
 20
-59.840350000000001
 11
88.655845999999997
 21
-59.840350000000001
  0
LINE
  8
0
  6
CONTINUOUS
 62
256
 10
185.655846000000000
 20
-60.840350000000001
 11
88.655845999999997
 21
-60.840350000000001
  0
LINE
  8
0
  6
CONTINUOUS
 62
256
 10
185.655846000000000
 20
-65.524816000000001
 11
88.655845999999997
 21
-65.524816000000001
  0
LINE
  8
0
  6
CONTINUOUS
 62
256
 10
185.655846000000000
 20
-70.474564000000001
 11
88.655845999999997
 21
-70.474564000000001
  0
LINE
  8
0
  6
CONTINUOUS
 62
256
 10
185.655846000000000
 20
-78.521164999999996
 11
88.655845999999997
 21
-78.521164999999996
  0
LINE
  8
0
  6
CONTINUOUS
 62
256
 10
185.655846000000000
 20
-80.125812999999994
 11
88.655845999999997
 21
-80.125812999999994
  0
LINE
  8
0
  6
CONTINUOUS
 62
256
 10
185.655846000000000
 20
-84.089558999999994
 11
88.655845999999997
 21
-84.089558999999994
  0
LINE
  8
0
  6
CONTINUOUS
 62
256
 10
185.655846000000000
 20
-85.557916000000006
 11
88.655845999999997
 21
-85.557916000000006
  0
LINE
  8
0
  6
CONTINUOUS
 62
256
 10
185.655846000000000
 20
-89.648416999999995
 11
88.655845999999997
 21
-89.648416999999995
  0
LINE
  8
0
  6
CONTINUOUS
 62
256
 10
185.655846000000000
 20
-91.010296999999994
 11
88.655845999999997
 21
-91.010296999999994
  0
LINE
  8
0
  6
CONTINUOUS
 62
256
 10
185.655846000000000
 20
-95.200851000000000
 11
88.655845999999997
 21
-95.200851000000000
  0
LINE
  8
0
  6
CONTINUOUS
 62
256
 10
185.655846000000000
 20
-96.467089000000001
 11
88.655845999999997
 21
-96.467089000000001
  0
LINE
  8
0
  6
CONTINUOUS
 62
256
 10
185.655846000000000
 20
-100.840350000000000
 11
88.655845999999997
 21
-100.840350000000000
  0
LINE
  8
0
  6
CONTINUOUS
 62
256
 10
185.655846000000000
 20
-153.159535000000010
 11
88.655845999999997
 21
-153.159535000000010
  0
LINE
  8
0
  6
CONTINUOUS
 62
256
 10
185.655846000000000
 20
-151.554888000000010
 11
88.655845999999997
 21
-151.554888000000010
  0
LINE
  8
0
  6
CONTINUOUS
 62
256
 10
185.655846000000000
 20
-147.591141999999990
 11
88.655845999999997
 21
-147.591141999999990
  0
LINE
  8
0
  6
CONTINUOUS
 62
256
 10
185.655846000000000
 20
-146.122784999999990
 11
88.655845999999997
 21
-146.122784999999990
  0
LINE
  8
0
  6
CONTINUOUS
 62
256
 10
185.655846000000000
 20
-142.032284000000000
 11
88.655845999999997
 21
-142.032284000000000
  0
LINE
  8
0
  6
CONTINUOUS
 62
256
 10
185.655846000000000
 20
-140.670403999999990
 11
88.655845999999997
 21
-140.670403999999990
  0
LINE
  8
0
  6
CONTINUOUS
 62
256
 10
185.655846000000000
 20
-136.479850000000000
 11
88.655845999999997
 21
-136.479850000000000
  0
LINE
  8
0
  6
CONTINUOUS
 62
256
 10
185.655846000000000
 20
-135.213612000000010
 11
88.655845999999997
 21
-135.213612000000010
  0
LINE
  8
0
  6
CONTINUOUS
 62
256
 10
185.655846000000000
 20
-130.840350000000000
 11
88.655845999999997
 21
-130.840350000000000
  0
LINE
  8
0
  6
CONTINUOUS
 62
256
 10
185.655846000000000
 20
-161.206137000000010
 11
88.655845999999997
 21
-161.206137000000010
  0
LINE
  8
0
  6
CONTINUOUS
 62
256
 10
185.655846000000000
 20
-166.155885000000010
 11
88.655845999999997
 21
-166.155885000000010
  0
LINE
  8
0
  6
CONTINUOUS
 62
256
 10
185.655846000000000
 20
-170.840350000000000
 11
88.655845999999997
 21
-170.840350000000000
  0
LINE
  8
0
  6
CONTINUOUS
 62
256
 10
185.655846000000000
 20
-171.840350000000000
 11
88.655845999999997
 21
-171.840350000000000
  0
LINE
  8
0
  6
CONTINUOUS
 62
256
 10
185.655846000000000
 20
-172.840350000000000
 11
88.655845999999997
 21
-172.840350000000000
  0
LINE
  8
0
  6
CONTINUOUS
 62
256
 10
118.655846000000000
 20
-175.340350000000000
 11
88.655845999999997
 21
-175.340350000000000
  0
LINE
  8
0
  6
CONTINUOUS
 62
256
 10
-51.844386999999998
 20
-80.840507000000002
 11
-51.844386999999998
 21
-88.840507000000002
  0
LINE
  8
0
  6
CONTINUOUS
 62
256
 10
-61.844386999999998
 20
-88.840507000000002
 11
-51.844386999999998
 21
-88.840507000000002
  0
LINE
  8
0
  6
CONTINUOUS
 62
256
 10
-61.844386999999998
 20
-80.840507000000002
 11
-61.844386999999998
 21
-88.840507000000002
  0
LINE
  8
0
  6
CONTINUOUS
 62
256
 10
-51.844386999999998
 20
-80.840507000000002
 11
-61.844386999999998
 21
-80.840507000000002
  0
CIRCLE
  8
0
  6
CONTINUOUS
 62
256
 10
-56.844386999999998
 20
-99.840507000000002
 40
3.500000000000000
  0
CIRCLE
  8
0
  6
CONTINUOUS
 62
256
 10
-56.844386999999998
 20
-99.840507000000002
 40
4.000000000000000
  0
ARC
  8
0
  6
CONTINUOUS
 62
256
 10
-56.844386999999998
 20
-99.840507000000002
 40
16.000000000000007
 50
108.209957000000000
 51
71.790043000000011
  0
POINT
  8
0
  6
CONTINUOUS
 62
256
 10
-56.844386999999998
 20
-99.840507000000002
  0
LINE
  8
0
  6
CONTINUOUS
 62
256
 10
79.655845999999997
 20
-167.936657999999990
 11
74.655845999999997
 21
-167.936657999999990
  0
LINE
  8
0
  6
CONTINUOUS
 62
256
 10
79.655845999999997
 20
-161.025082000000000
 11
74.655845999999997
 21
-161.025082000000000
  0
LINE
  8
0
  6
CONTINUOUS
 62
256
 10
79.655845999999997
 20
-70.655619000000002
 11
74.655845999999997
 21
-70.655619000000002
  0
LINE
  8
0
  6
CONTINUOUS
 62
256
 10
79.655845999999997
 20
-63.744042999999998
 11
74.655845999999997
 21
-63.744042999999998
  0
LINE
  8
0
  6
CONTINUOUS
 62
256
 10
82.655845999999997
 20
-60.340350000000001
 11
82.655845999999997
 21
-59.340350000000001
  0
LINE
  8
0
  6
CONTINUOUS
 62
256
 10
79.655845999999997
 20
-76.839083000000002
 11
74.655845999999997
 21
-76.839083000000002
  0
LINE
  8
0
  6
CONTINUOUS
 62
256
 10
82.655845999999997
 20
-73.655619000000002
 11
82.655845999999997
 21
-115.840350000000000
  0
LINE
  8
0
  6
CONTINUOUS
 62
256
 10
82.655845999999997
 20
-60.340350000000001
 11
82.655845999999997
 21
-60.744042999999998
  0
LINE
  8
0
  6
CONTINUOUS
 62
256
 10
82.655845999999997
 20
-171.340350000000000
 11
82.655845999999997
 21
-172.340350000000000
  0
LINE
  8
0
  6
CONTINUOUS
 62
256
 10
82.655845999999997
 20
-171.340350000000000
 11
82.655845999999997
 21
-170.936657999999990
  0
LINE
  8
0
  6
CONTINUOUS
 62
256
 10
82.655845999999997
 20
-171.340350000000000
 11
82.655845999999997
 21
-170.936657999999990
  0
LINE
  8
0
  6
CONTINUOUS
 62
256
 10
79.655845999999997
 20
-154.841617000000010
 11
74.655845999999997
 21
-154.841617000000010
  0
LINE
  8
0
  6
CONTINUOUS
 62
256
 10
82.655845999999997
 20
-158.025082000000000
 11
82.655845999999997
 21
-115.840350000000000
  0
LINE
  8
0
  6
CONTINUOUS
 62
256
 10
88.655845999999997
 20
-56.357804999999999
 11
63.103254999999997
 21
-55.903055999999999
  0
LINE
  8
0
  6
CONTINUOUS
 62
256
 10
88.655845999999997
 20
-175.322894999999990
 11
63.103254999999997
 21
-175.777645000000010
  0
LINE
  8
0
  6
CONTINUOUS
 62
256
 10
-117.344387000000000
 20
-67.518432000000004
 11
-117.344387000000000
 21
-164.162581999999990
  0
LINE
  8
0
  6
CONTINUOUS
 62
256
 10
-89.166461999999996
 20
-192.340507000000000
 11
20.477687000000000
 21
-192.340507000000000
  0
LINE
  8
0
  6
CONTINUOUS
 62
256
 10
48.655613000000002
 20
-67.518432000000004
 11
48.655613000000002
 21
-164.162581999999990
  0
LINE
  8
0
  6
CONTINUOUS
 62
256
 10
-89.166461999999996
 20
-39.340507000000002
 11
20.477687000000000
 21
-39.340507000000002
  0
LINE
  8
0
  6
CONTINUOUS
 62
256
 10
-119.844387000000000
 20
-67.518432000000004
 11
-119.844387000000000
 21
-164.162581999999990
  0
LINE
  8
0
  6
CONTINUOUS
 62
256
 10
51.155613000000002
 20
-67.518432000000004
 11
51.155613000000002
 21
-164.162581999999990
  0
LINE
  8
0
  6
CONTINUOUS
 62
256
 10
-89.166461999999996
 20
-36.840507000000002
 11
20.477687000000000
 21
-36.840507000000002
  0
LINE
  8
0
  6
CONTINUOUS
 62
256
 10
-89.166461999999996
 20
-194.840507000000000
 11
20.477687000000000
 21
-194.840507000000000
  0
LINE
  8
0
  6
CONTINUOUS
 62
256
 10
88.655845999999997
 20
-175.322894999999990
 11
88.655845999999997
 21
-56.340350000000001
  0
LINE
  8
0
  6
CONTINUOUS
 62
256
 10
58.325612999999997
 20
-115.840350000000000
 11
58.325612999999997
 21
-192.622235999999990
  0
LINE
  8
0
  6
CONTINUOUS
 62
256
 10
48.937341000000004
 20
-202.010506999999990
 11
-117.626116000000000
 21
-202.010506999999990
  0
LINE
  8
0
  6
CONTINUOUS
 62
256
 10
-127.014387000000000
 20
-192.622235999999990
 11
-127.014387000000000
 21
-39.058777999999997
  0
LINE
  8
0
  6
CONTINUOUS
 62
256
 10
-117.626116000000000
 20
-29.670507000000001
 11
48.937341000000004
 21
-29.670507000000001
  0
LINE
  8
0
  6
CONTINUOUS
 62
256
 10
58.325612999999997
 20
-39.058777999999997
 11
58.325612999999997
 21
-115.840350000000000
  0
LINE
  8
0
  6
DASHDOT
 62
256
 10
38.109349000000002
 20
-115.840350000000000
 11
96.597803999999996
 21
-115.840350000000000
  0
LINE
  8
0
  6
CONTINUOUS
 62
256
 10
60.155613000000002
 20
-39.840507000000002
 11
60.155613000000002
 21
-115.840350000000000
  0
LINE
  8
0
  6
CONTINUOUS
 62
256
 10
-116.844387000000000
 20
-27.840506999999999
 11
48.155613000000002
 21
-27.840506999999999
  0
LINE
  8
0
  6
CONTINUOUS
 62
256
 10
-128.844387000000010
 20
-191.840507000000000
 11
-128.844387000000010
 21
-39.840507000000002
  0
LINE
  8
0
  6
CONTINUOUS
 62
256
 10
48.155613000000002
 20
-203.840507000000000
 11
-116.844387000000000
 21
-203.840507000000000
  0
LINE
  8
0
  6
DASHDOT
 62
256
 10
-113.844387000000000
 20
-30.840506999999999
 11
-113.844387000000000
 21
-54.840507000000002
  0
LINE
  8
0
  6
DASHDOT
 62
256
 10
-125.844387000000000
 20
-42.840507000000002
 11
-101.844387000000000
 21
-42.840507000000002
  0
LINE
  8
0
  6
DASHDOT
 62
256
 10
-113.844387000000000
 20
-176.840507000000000
 11
-113.844387000000000
 21
-200.840507000000000
  0
LINE
  8
0
  6
DASHDOT
 62
256
 10
-125.844387000000000
 20
-188.840507000000000
 11
-101.844387000000000
 21
-188.840507000000000
  0
LINE
  8
0
  6
DASHDOT
 62
256
 10
45.155613000000002
 20
-176.840507000000000
 11
45.155613000000002
 21
-200.840507000000000
  0
LINE
  8
0
  6
DASHDOT
 62
256
 10
33.155613000000002
 20
-188.840507000000000
 11
57.155613000000002
 21
-188.840507000000000
  0
LINE
  8
0
  6
DASHDOT
 62
256
 10
45.155613000000002
 20
-30.840506999999999
 11
45.155613000000002
 21
-54.840507000000002
  0
LINE
  8
0
  6
DASHDOT
 62
256
 10
33.155613000000002
 20
-42.840507000000002
 11
57.155613000000002
 21
-42.840507000000002
  0
LINE
  8
0
  6
DASHDOT
 62
256
 10
-56.844386999999998
 20
-23.632500000000000
 11
-56.844386999999998
 21
-206.265404999999990
  0
LINE
  8
0
  6
DASHDOT
 62
256
 10
-130.830153000000000
 20
-99.840507000000002
 11
8.186613000000000
 21
-99.840507000000002
  0
LINE
  8
0
  6
CONTINUOUS
 62
256
 10
60.155613000000002
 20
-115.840350000000000
 11
60.155613000000002
 21
-191.840507000000000
  0
ARC
  8
0
  6
CONTINUOUS
 62
256
 10
79.655845999999997
 20
-60.744042999999998
 40
3.000000000000000
 50
270.000000000000000
 51
0.000000000000000
  0
ARC
  8
0
  6
CONTINUOUS
 62
256
 10
79.655845999999997
 20
-73.655619000000002
 40
3.000000000000000
 50
0.000000000000000
 51
90.000000000000000
  0
ARC
  8
0
  6
CONTINUOUS
 62
256
 10
79.655845999999997
 20
-79.839083000000002
 40
3.000000000000000
 50
0.000000000000000
 51
90.000000000000000
  0
ARC
  8
0
  6
CONTINUOUS
 62
256
 10
85.655845999999997
 20
-59.340350000000001
 40
3.000000000000000
 50
90.000000000000000
 51
180.000000000000000
  0
ARC
  8
0
  6
CONTINUOUS
 62
256
 10
85.655845999999997
 20
-172.340350000000000
 40
3.000000000000000
 50
180.000000000000000
 51
270.000000000000000
  0
ARC
  8
0
  6
CONTINUOUS
 62
256
 10
79.655845999999997
 20
-158.025082000000000
 40
3.000000000000000
 50
270.000000000000000
 51
0.000000000000000
  0
ARC
  8
0
  6
CONTINUOUS
 62
256
 10
79.655845999999997
 20
-170.936657999999990
 40
3.000000000000000
 50
0.000000000000000
 51
90.000000000000000
  0
ARC
  8
0
  6
CONTINUOUS
 62
256
 10
79.655845999999997
 20
-151.841617000000010
 40
3.000000000000000
 50
270.000000000000000
 51
0.000000000000000
  0
ARC
  8
0
  6
CONTINUOUS
 62
256
 10
-113.844387000000000
 20
-42.840507000000002
 40
17.500000000000000
 50
279.206895999999920
 51
350.793104000000030
  0
ARC
  8
0
  6
CONTINUOUS
 62
256
 10
-109.844387000000000
 20
-67.518432000000004
 40
7.500000000000000
 50
99.206896000000029
 51
180.000000000000000
  0
ARC
  8
0
  6
CONTINUOUS
 62
256
 10
-109.844387000000000
 20
-164.162581999999990
 40
7.500000000000000
 50
180.000000000000000
 51
260.793103999999970
  0
ARC
  8
0
  6
CONTINUOUS
 62
256
 10
-113.844387000000000
 20
-188.840507000000000
 40
17.500000000000007
 50
9.206895999999960
 51
80.793104000000000
  0
ARC
  8
0
  6
CONTINUOUS
 62
256
 10
-89.166461999999996
 20
-184.840507000000000
 40
7.500000000000000
 50
189.206896000000030
 51
270.000000000000000
  0
ARC
  8
0
  6
CONTINUOUS
 62
256
 10
20.477687000000000
 20
-184.840507000000000
 40
7.500000000000000
 50
270.000000000000000
 51
350.793103999999970
  0
ARC
  8
0
  6
CONTINUOUS
 62
256
 10
45.155613000000002
 20
-188.840507000000000
 40
17.499999999999996
 50
99.206896000000015
 51
170.793103999999940
  0
ARC
  8
0
  6
CONTINUOUS
 62
256
 10
41.155613000000002
 20
-164.162581999999990
 40
7.500000000000013
 50
279.206895999999920
 51
0.000000000000000
  0
ARC
  8
0
  6
CONTINUOUS
 62
256
 10
-89.166461999999996
 20
-46.840507000000002
 40
7.500000000000000
 50
90.000000000000000
 51
170.793103999999970
  0
ARC
  8
0
  6
CONTINUOUS
 62
256
 10
20.477687000000000
 20
-46.840507000000002
 40
7.500000000000000
 50
9.206896000000024
 51
90.000000000000000
  0
ARC
  8
0
  6
CONTINUOUS
 62
256
 10
45.155613000000002
 20
-42.840507000000002
 40
17.500000000000000
 50
189.206895999999970
 51
260.793104000000030
  0
ARC
  8
0
  6
CONTINUOUS
 62
256
 10
41.155613000000002
 20
-67.518432000000004
 40
7.500000000000000
 50
0.000000000000000
 51
80.793103999999985
  0
ARC
  8
0
  6
CONTINUOUS
 62
256
 10
-89.166461999999996
 20
-46.840507000000002
 40
10.000000000000000
 50
90.000000000000000
 51
170.793104000000000
  0
ARC
  8
0
  6
CONTINUOUS
 62
256
 10
-109.844387000000000
 20
-67.518432000000004
 40
10.000000000000002
 50
99.206896000000000
 51
180.000000000000000
  0
ARC
  8
0
  6
CONTINUOUS
 62
256
 10
-109.844387000000000
 20
-164.162581999999990
 40
10.000000000000000
 50
180.000000000000000
 51
260.793104000000030
  0
ARC
  8
0
  6
CONTINUOUS
 62
256
 10
-89.166461999999996
 20
-184.840507000000000
 40
9.999999999999993
 50
189.206895999999920
 51
270.000000000000000
  0
ARC
  8
0
  6
CONTINUOUS
 62
256
 10
20.477687000000000
 20
-184.840507000000000
 40
10.000000000000000
 50
270.000000000000000
 51
350.793104000000080
  0
ARC
  8
0
  6
CONTINUOUS
 62
256
 10
41.155613000000002
 20
-164.162581999999990
 40
10.000000000000007
 50
279.206895999999920
 51
0.000000000000000
  0
ARC
  8
0
  6
CONTINUOUS
 62
256
 10
41.155613000000002
 20
-67.518432000000004
 40
10.000000000000000
 50
0.000000000000000
 51
80.793104000000014
  0
ARC
  8
0
  6
CONTINUOUS
 62
256
 10
20.477687000000000
 20
-46.840507000000002
 40
9.999999999999998
 50
9.206895999999999
 51
90.000000000000000
  0
ARC
  8
0
  6
CONTINUOUS
 62
256
 10
-113.844387000000000
 20
-42.840507000000002
 40
14.999999999999998
 50
279.206895999999970
 51
350.793104000000030
  0
ARC
  8
0
  6
CONTINUOUS
 62
256
 10
-113.844387000000000
 20
-188.840507000000000
 40
15.000000000000000
 50
9.206896000000024
 51
80.793103999999985
  0
ARC
  8
0
  6
CONTINUOUS
 62
256
 10
45.155613000000002
 20
-188.840507000000000
 40
14.999999999999998
 50
99.206896000000000
 51
170.793103999999970
  0
ARC
  8
0
  6
CONTINUOUS
 62
256
 10
45.155613000000002
 20
-42.840507000000002
 40
14.999999999999998
 50
189.206896000000000
 51
260.793103999999970
  0
CIRCLE
  8
0
  6
CONTINUOUS
 62
256
 10
-56.844386999999998
 20
-99.840507000000002
 40
55.000000000000000
  0
CIRCLE
  8
0
  6
CONTINUOUS
 62
256
 10
-56.844386999999998
 20
-99.840507000000002
 40
30.500000000000000
  0
CIRCLE
  8
0
  6
CONTINUOUS
 62
256
 10
-56.844386999999998
 20
-99.840507000000002
 40
52.500000000000000
  0
ARC
  8
0
  6
CONTINUOUS
 62
256
 10
63.155613000000002
 20
-52.903512999999997
 40
3.000000000000000
 50
180.000000000000000
 51
268.999999999999940
  0
ARC
  8
0
  6
CONTINUOUS
 62
256
 10
63.155613000000002
 20
-178.777188000000000
 40
3.000000000000011
 50
91.000000000000014
 51
180.000000000000000
  0
ARC
  8
0
  6
CONTINUOUS
 62
256
 10
48.155613000000002
 20
-39.840507000000002
 40
12.000000000000000
 50
0.000000000000000
 51
90.000000000000000
  0
ARC
  8
0
  6
CONTINUOUS
 62
256
 10
48.155613000000002
 20
-191.840507000000000
 40
12.000000000000000
 50
270.000000000000000
 51
0.000000000000000
  0
ARC
  8
0
  6
CONTINUOUS
 62
256
 10
-116.844387000000000
 20
-191.840507000000000
 40
11.999999999999986
 50
180.000000000000000
 51
270.000000000000000
  0
ARC
  8
0
  6
CONTINUOUS
 62
256
 10
-116.844387000000000
 20
-39.840507000000002
 40
12.000000000000000
 50
90.000000000000000
 51
180.000000000000000
  0
ARC
  8
0
  6
CONTINUOUS
 62
256
 10
48.155613000000002
 20
-39.840507000000002
 40
10.200000000000003
 50
0.000000000000000
 51
90.000000000000000
  0
ARC
  8
0
  6
CONTINUOUS
 62
256
 10
48.155613000000002
 20
-191.840507000000000
 40
10.199999999999989
 50
270.000000000000000
 51
0.000000000000000
  0
ARC
  8
0
  6
CONTINUOUS
 62
256
 10
-116.844387000000000
 20
-191.840507000000000
 40
10.200000000000003
 50
180.000000000000000
 51
270.000000000000000
  0
ARC
  8
0
  6
CONTINUOUS
 62
256
 10
-116.844387000000000
 20
-39.840507000000002
 40
10.199999999999999
 50
90.000000000000000
 51
180.000000000000000
  0
LINE
  8
0
  6
CONTINUOUS
 62
256
 10
71.655845999999997
 20
-172.579351000000000
 11
71.655845999999997
 21
-59.101349999999996
  0
ARC
  8
0
  6
CONTINUOUS
 62
256
 10
74.655845999999997
 20
-59.101349999999996
 40
2.999999999999999
 50
89.018827000000030
 51
180.000000000000000
  0
ARC
  8
0
  6
CONTINUOUS
 62
256
 10
74.655845999999997
 20
-172.579351000000000
 40
3.000000000000000
 50
180.000000000000000
 51
270.981172999999960
  0
ARC
  8
0
  6
CONTINUOUS
 62
256
 10
74.655845999999997
 20
-164.936657999999990
 40
3.000000000000000
 50
180.000000000000000
 51
270.000000000000000
  0
ARC
  8
0
  6
CONTINUOUS
 62
256
 10
74.655845999999997
 20
-158.025082000000000
 40
3.000000000000000
 50
180.000000000000000
 51
270.000000000000000
  0
ARC
  8
0
  6
CONTINUOUS
 62
256
 10
74.655845999999997
 20
-66.744043000000005
 40
3.000000000000000
 50
90.000000000000000
 51
180.000000000000000
  0
ARC
  8
0
  6
CONTINUOUS
 62
256
 10
74.655845999999997
 20
-73.655619000000002
 40
3.000000000000000
 50
90.000000000000000
 51
180.000000000000000
  0
LINE
  8
0
  6
CONTINUOUS
 62
256
 10
82.655845999999997
 20
-95.840350000000001
 11
88.655845999999997
 21
-95.840350000000001
  0
LINE
  8
0
  6
CONTINUOUS
 62
256
 10
82.655845999999997
 20
-135.840350000000000
 11
88.655845999999997
 21
-135.840350000000000
  0
LINE
  8
0
  6
CONTINUOUS
 62
256
 10
-377.746129000000000
 20
-22.340506999999999
 11
-382.746129000000000
 21
-22.340506999999999
  0
LINE
  8
0
  6
CONTINUOUS
 62
256
 10
-377.746129000000000
 20
-22.340506999999999
 11
-377.746129000000000
 21
-22.850923999999999
  0
LINE
  8
0
  6
CONTINUOUS
 62
256
 10
-382.746129000000000
 20
-22.340506999999999
 11
-382.746129000000000
 21
-22.850923999999999
  0
ARC
  8
0
  6
CONTINUOUS
 62
256
 10
-380.246129000000000
 20
-322.840507000000000
 40
300.000000000000000
 50
90.000000000000000
 51
94.861405000000005
  0
ARC
  8
0
  6
CONTINUOUS
 62
256
 10
-405.246129000000000
 20
-28.901738000000002
 40
5.000000000000003
 50
94.861405000000062
 51
171.117778000000020
  0
ARC
  8
0
  6
CONTINUOUS
 62
256
 10
-355.246129000000000
 20
-28.901738000000002
 40
5.000000000000000
 50
0.000000000000000
 51
85.138594999999953
  0
LINE
  8
0
  6
CONTINUOUS
 62
256
 10
-350.246129000000000
 20
-28.901738000000002
 11
-350.246129000000000
 21
-29.175975999999999
  0
ARC
  8
0
  6
CONTINUOUS
 62
256
 10
-380.246129000000000
 20
-322.840507000000000
 40
300.000000000000000
 50
85.138594999999995
 51
90.000000000000000
  0
ARC
  8
0
  6
CONTINUOUS
 62
256
 10
-139.646129000000000
 20
-115.840507000000000
 40
300.600000000000020
 50
186.015092000000010
 51
186.612352999999980
  0
ARC
  8
0
  6
CONTINUOUS
 62
256
 10
-620.846129000000020
 20
-115.840507000000000
 40
300.600000000000020
 50
353.386989000000030
 51
353.984908000000020
  0
LINE
  8
0
  6
DASHDOT
 62
256
 10
-319.702529000000030
 20
-188.840507000000000
 11
-441.002892999999970
 21
-188.840507000000000
  0
LINE
  8
0
  6
DASHDOT
 62
256
 10
-319.702529000000030
 20
-42.840507000000002
 11
-441.002892999999970
 21
-42.840507000000002
  0
LINE
  8
0
  6
CONTINUOUS
 62
256
 10
-317.246129000000000
 20
-82.340507000000002
 11
-315.646266000000030
 21
-82.340507000000002
  0
ARC
  8
0
  6
CONTINUOUS
 62
256
 10
-315.646266000000030
 20
-82.740506999999994
 40
0.399999999999977
 50
0.000000000000000
 51
90.000000000000000
  0
ARC
  8
0
  6
CONTINUOUS
 62
256
 10
-314.846266000000010
 20
-83.440506999999997
 40
0.399999999999977
 50
180.000000000000000
 51
270.000000000000000
  0
LINE
  8
0
  6
CONTINUOUS
 62
256
 10
-317.246129000000000
 20
-117.340507000000000
 11
-315.646266000000030
 21
-117.340507000000000
  0
ARC
  8
0
  6
CONTINUOUS
 62
256
 10
-315.646266000000030
 20
-116.940507000000000
 40
0.400000000000006
 50
270.000000000000000
 51
0.000000000000000
  0
ARC
  8
0
  6
CONTINUOUS
 62
256
 10
-314.846266000000010
 20
-116.240506999999990
 40
0.400000000000006
 50
90.000000000000000
 51
180.000000000000000
  0
LINE
  8
0
  6
CONTINUOUS
 62
256
 10
-315.246265999999990
 20
-82.740506999999994
 11
-315.246265999999990
 21
-116.940507000000000
  0
LINE
  8
0
  6
CONTINUOUS
 62
256
 10
-300.246333999999990
 20
-80.840507000000002
 11
-300.246333999999990
 21
-83.840507000000002
  0
LINE
  8
0
  6
CONTINUOUS
 62
256
 10
-300.246333999999990
 20
-80.840507000000002
 11
-260.246333999999990
 21
-80.840507000000002
  0
LINE
  8
0
  6
CONTINUOUS
 62
256
 10
-314.846266000000010
 20
-83.840507000000002
 11
-261.046334000000000
 21
-83.840507000000002
  0
LINE
  8
0
  6
CONTINUOUS
 62
256
 10
-314.846266000000010
 20
-115.840507000000000
 11
-261.046334000000000
 21
-115.840507000000000
  0
ARC
  8
0
  6
CONTINUOUS
 62
256
 10
-261.046334000000000
 20
-84.640506999999999
 40
0.800000000000011
 50
0.000000000000000
 51
90.000000000000000
  0
ARC
  8
0
  6
CONTINUOUS
 62
256
 10
-261.046334000000000
 20
-115.040507000000010
 40
0.799999999999997
 50
270.000000000000000
 51
0.000000000000000
  0
LINE
  8
0
  6
CONTINUOUS
 62
256
 10
-260.246333999999990
 20
-80.840507000000002
 11
-260.246333999999990
 21
-115.040507000000010
  0
LINE
  8
0
  6
CONTINUOUS
 62
256
 10
-437.746678999999970
 20
-203.402364000000010
 11
-426.246129000000000
 21
-203.603106000000000
  0
LINE
  8
0
  6
CONTINUOUS
 62
256
 10
-426.246129000000000
 20
-115.611677000000000
 11
-426.246129000000000
 21
-203.603106000000000
  0
LINE
  8
0
  6
CONTINUOUS
 62
256
 10
-331.746129000000000
 20
-201.953602999999990
 11
-322.246129000000000
 21
-201.953602999999990
  0
LINE
  8
0
  6
CONTINUOUS
 62
256
 10
-322.246129000000000
 20
-115.611677000000000
 11
-322.246129000000000
 21
-201.953602999999990
  0
LINE
  8
0
  6
CONTINUOUS
 62
256
 10
-331.746129000000000
 20
-29.270064999999999
 11
-322.246129000000000
 21
-29.270064999999999
  0
LINE
  8
0
  6
CONTINUOUS
 62
256
 10
-317.246129000000000
 20
-52.340507000000002
 11
-317.246129000000000
 21
-147.340507000000000
  0
LINE
  8
0
  6
CONTINUOUS
 62
256
 10
-322.246129000000000
 20
-29.270064999999999
 11
-322.246129000000000
 21
-115.611677000000000
  0
LINE
  8
0
  6
CONTINUOUS
 62
256
 10
-426.246129000000000
 20
-27.620560999999999
 11
-331.746129000000000
 21
-29.270064999999999
  0
LINE
  8
0
  6
CONTINUOUS
 62
256
 10
-426.246129000000000
 20
-27.620560999999999
 11
-426.246129000000000
 21
-115.611677000000000
  0
LINE
  8
0
  6
CONTINUOUS
 62
256
 10
-438.246527000000010
 20
-27.830029000000000
 11
-426.246129000000000
 21
-27.620560999999999
  0
LINE
  8
0
  6
CONTINUOUS
 62
256
 10
-438.246527000000010
 20
-202.893714999999990
 11
-437.746678999999970
 21
-203.402364000000010
  0
LINE
  8
0
  6
CONTINUOUS
 62
256
 10
-438.246527000000010
 20
-115.611677000000000
 11
-438.246527000000010
 21
-202.893714999999990
  0
LINE
  8
0
  6
CONTINUOUS
 62
256
 10
-443.246527000000010
 20
-99.611834000000002
 11
-443.246527000000010
 21
-147.340507000000000
  0
LINE
  8
0
  6
CONTINUOUS
 62
256
 10
-443.246527000000010
 20
-99.611834000000002
 11
-443.246527000000010
 21
-52.340507000000002
  0
LINE
  8
0
  6
CONTINUOUS
 62
256
 10
-438.246527000000010
 20
-115.611677000000000
 11
-438.246527000000010
 21
-27.830029000000000
  0
LINE
  8
0
  6
DASHDOT
 62
256
 10
-391.487354999999980
 20
-115.840507000000000
 11
-369.248161999999980
 21
-115.840507000000000
  0
LINE
  8
0
  6
DASHED
 62
256
 10
-400.246129000000000
 20
-56.840507000000002
 11
-400.246129000000000
 21
-58.365507999999998
  0
LINE
  8
0
  6
DASHED
 62
256
 10
-380.246129000000000
 20
-56.340507000000002
 11
-399.746129000000000
 21
-56.340507000000002
  0
LINE
  8
0
  6
DASHED
 62
256
 10
-439.246129000000000
 20
-95.840507000000002
 11
-437.721129000000020
 21
-95.840507000000002
  0
LINE
  8
0
  6
DASHED
 62
256
 10
-439.746129000000000
 20
-115.840507000000000
 11
-439.746129000000000
 21
-96.340507000000002
  0
LINE
  8
0
  6
DASHED
 62
256
 10
-439.246129000000000
 20
-135.840507000000000
 11
-437.721129000000020
 21
-135.840507000000000
  0
LINE
  8
0
  6
DASHED
 62
256
 10
-439.746129000000000
 20
-115.840507000000000
 11
-439.746129000000000
 21
-135.340507000000000
  0
LINE
  8
0
  6
DASHED
 62
256
 10
-400.246129000000000
 20
-174.840507000000000
 11
-400.246129000000000
 21
-173.315506000000000
  0
LINE
  8
0
  6
DASHED
 62
256
 10
-380.246129000000000
 20
-175.340507000000000
 11
-399.746129000000000
 21
-175.340507000000000
  0
LINE
  8
0
  6
DASHED
 62
256
 10
-400.246129000000000
 20
-174.840507000000000
 11
-400.246129000000000
 21
-173.315506000000000
  0
LINE
  8
0
  6
DASHED
 62
256
 10
-380.246129000000000
 20
-175.340507000000000
 11
-399.746129000000000
 21
-175.340507000000000
  0
LINE
  8
0
  6
DASHED
 62
256
 10
-360.246129000000000
 20
-174.840507000000000
 11
-360.246129000000000
 21
-173.315506000000000
  0
LINE
  8
0
  6
DASHED
 62
256
 10
-380.246129000000000
 20
-175.340507000000000
 11
-360.746129000000000
 21
-175.340507000000000
  0
LINE
  8
0
  6
DASHED
 62
256
 10
-321.246129000000000
 20
-135.840507000000000
 11
-322.771130000000030
 21
-135.840507000000000
  0
LINE
  8
0
  6
DASHED
 62
256
 10
-320.746129000000000
 20
-115.840507000000000
 11
-320.746129000000000
 21
-135.340507000000000
  0
LINE
  8
0
  6
DASHED
 62
256
 10
-320.746129000000000
 20
-115.840507000000000
 11
-320.746129000000000
 21
-96.340507000000002
  0
LINE
  8
0
  6
DASHED
 62
256
 10
-321.246129000000000
 20
-95.840507000000002
 11
-322.771130000000030
 21
-95.840507000000002
  0
LINE
  8
0
  6
DASHED
 62
256
 10
-360.246129000000000
 20
-56.840507000000002
 11
-360.246129000000000
 21
-58.365507999999998
  0
LINE
  8
0
  6
DASHED
 62
256
 10
-380.246129000000000
 20
-56.340507000000002
 11
-360.746129000000000
 21
-56.340507000000002
  0
LINE
  8
0
  6
DASHDOT
 62
256
 10
-380.246129000000000
 20
-19.071784000000001
 11
-380.246129000000000
 21
-208.240816000000000
  0
ARC
  8
0
  6
DASHED
 62
256
 10
-322.771130000000030
 20
-95.340507000000002
 40
0.500000000000028
 50
182.934025000000020
 51
270.000000000000000
  0
ARC
  8
0
  6
DASHED
 62
256
 10
-359.746129000000000
 20
-58.365507999999998
 40
0.500000000000000
 50
180.000000000000000
 51
267.065974999999810
  0
ARC
  8
0
  6
DASHED
 62
256
 10
-400.746129000000000
 20
-58.365507999999998
 40
0.499999999999999
 50
272.934025000000190
 51
0.000000000000000
  0
ARC
  8
0
  6
DASHED
 62
256
 10
-399.746129000000000
 20
-56.840507000000002
 40
0.500000000000000
 50
90.000000000000000
 51
180.000000000000000
  0
ARC
  8
0
  6
DASHED
 62
256
 10
-380.246129000000000
 20
-458.340507000000000
 40
400.000000000000000
 50
92.934025000000005
 51
94.114345000000000
  0
ARC
  8
0
  6
DASHED
 62
256
 10
-406.792583999999980
 20
-89.294051999999994
 40
30.000000000000004
 50
94.114344999999972
 51
175.885655000000010
  0
ARC
  8
0
  6
DASHED
 62
256
 10
-37.746129000000003
 20
-115.840507000000000
 40
400.000000000000060
 50
175.885655000000010
 51
177.065975000000010
  0
ARC
  8
0
  6
DASHED
 62
256
 10
-437.721129000000020
 20
-95.340507000000002
 40
0.500000000000000
 50
270.000000000000000
 51
357.065974999999980
  0
ARC
  8
0
  6
DASHED
 62
256
 10
-439.246129000000000
 20
-96.340507000000002
 40
0.500000000000000
 50
90.000000000000000
 51
180.000000000000000
  0
ARC
  8
0
  6
DASHED
 62
256
 10
-437.721129000000020
 20
-95.340507000000002
 40
0.500000000000000
 50
270.000000000000000
 51
357.065974999999980
  0
ARC
  8
0
  6
DASHED
 62
256
 10
-439.246129000000000
 20
-96.340507000000002
 40
0.500000000000000
 50
90.000000000000000
 51
180.000000000000000
  0
ARC
  8
0
  6
DASHED
 62
256
 10
-437.721129000000020
 20
-136.340507000000000
 40
0.500000000000028
 50
2.934025000000031
 51
90.000000000000000
  0
ARC
  8
0
  6
DASHED
 62
256
 10
-437.721129000000020
 20
-136.340507000000000
 40
0.500000000000028
 50
2.934025000000031
 51
90.000000000000000
  0
ARC
  8
0
  6
DASHED
 62
256
 10
-439.246129000000000
 20
-135.340507000000000
 40
0.500000000000000
 50
180.000000000000000
 51
270.000000000000000
  0
ARC
  8
0
  6
DASHED
 62
256
 10
-37.746129000000003
 20
-115.840507000000000
 40
400.000000000000000
 50
182.934025000000020
 51
184.114344999999960
  0
ARC
  8
0
  6
DASHED
 62
256
 10
-406.792583999999980
 20
-142.386962000000010
 40
30.000000000000018
 50
184.114344999999960
 51
265.885655000000040
  0
ARC
  8
0
  6
DASHED
 62
256
 10
-380.246129000000000
 20
226.659493000000000
 40
399.999999999999940
 50
265.885654999999990
 51
267.065974999999980
  0
ARC
  8
0
  6
DASHED
 62
256
 10
-400.746129000000000
 20
-173.315506000000000
 40
0.500000000000000
 50
0.000000000000000
 51
87.065974999999796
  0
ARC
  8
0
  6
DASHED
 62
256
 10
-399.746129000000000
 20
-174.840507000000000
 40
0.500000000000000
 50
180.000000000000000
 51
270.000000000000000
  0
ARC
  8
0
  6
DASHED
 62
256
 10
-400.746129000000000
 20
-173.315506000000000
 40
0.500000000000000
 50
0.000000000000000
 51
87.065974999999796
  0
ARC
  8
0
  6
DASHED
 62
256
 10
-399.746129000000000
 20
-174.840507000000000
 40
0.500000000000000
 50
180.000000000000000
 51
270.000000000000000
  0
ARC
  8
0
  6
DASHED
 62
256
 10
-359.746129000000000
 20
-173.315506000000000
 40
0.499999999999999
 50
92.934025000000204
 51
180.000000000000000
  0
ARC
  8
0
  6
DASHED
 62
256
 10
-360.746129000000000
 20
-174.840507000000000
 40
0.500000000000000
 50
270.000000000000000
 51
0.000000000000000
  0
ARC
  8
0
  6
DASHED
 62
256
 10
-380.246129000000000
 20
226.659493000000000
 40
400.000000000000000
 50
272.934025000000020
 51
274.114345000000010
  0
ARC
  8
0
  6
DASHED
 62
256
 10
-353.699675000000010
 20
-142.386962000000010
 40
29.999999999999989
 50
274.114344999999960
 51
355.885654999999990
  0
ARC
  8
0
  6
DASHED
 62
256
 10
-722.746129000000000
 20
-115.840507000000000
 40
400.000000000000000
 50
2.934025000000001
 51
4.114344999999999
  0
ARC
  8
0
  6
DASHED
 62
256
 10
-322.771130000000030
 20
-136.340507000000000
 40
0.500000000000000
 50
90.000000000000000
 51
177.065974999999950
  0
ARC
  8
0
  6
DASHED
 62
256
 10
-722.746129000000000
 20
-115.840507000000000
 40
399.999999999999940
 50
355.885654999999990
 51
357.065974999999980
  0
ARC
  8
0
  6
DASHED
 62
256
 10
-321.246129000000000
 20
-135.340507000000000
 40
0.500000000000000
 50
270.000000000000000
 51
0.000000000000000
  0
ARC
  8
0
  6
DASHED
 62
256
 10
-321.246129000000000
 20
-96.340507000000002
 40
0.500000000000000
 50
0.000000000000000
 51
90.000000000000000
  0
ARC
  8
0
  6
DASHED
 62
256
 10
-353.699675000000010
 20
-89.294051999999994
 40
30.000000000000018
 50
4.114344999999991
 51
85.885655000000028
  0
ARC
  8
0
  6
DASHED
 62
256
 10
-380.246129000000000
 20
-458.340507000000000
 40
400.000000000000060
 50
85.885655000000000
 51
87.065974999999995
  0
ARC
  8
0
  6
DASHED
 62
256
 10
-360.746129000000000
 20
-56.840507000000002
 40
0.500000000000000
 50
0.000000000000000
 51
90.000000000000000
  0
LINE
  8
0
  6
CONTINUOUS
 62
256
 10
-426.246129000000000
 20
-203.602792999999990
 11
-331.746129000000000
 21
-201.953290000000010
  0
LINE
  8
0
  6
DASHDOT
 62
256
 10
-257.192742000000010
 20
-99.840507000000002
 11
-451.615544000000000
 21
-99.840507000000002
  0
LINE
  8
0
  6
CONTINUOUS
 62
256
 10
-317.246129000000000
 20
-52.340507000000002
 11
-322.246129000000000
 21
-52.340507000000002
  0
LINE
  8
0
  6
CONTINUOUS
 62
256
 10
-317.246129000000000
 20
-147.340507000000000
 11
-322.246129000000000
 21
-147.340507000000000
  0
LINE
  8
0
  6
CONTINUOUS
 62
256
 10
-443.246527000000010
 20
-147.340507000000000
 11
-438.246129000000000
 21
-147.340507000000000
  0
LINE
  8
0
  6
CONTINUOUS
 62
256
 10
-443.246527000000010
 20
-52.340507000000002
 11
-438.246129000000000
 21
-52.340507000000002
  0
LINE
  8
0
  6
DASHDOT
 62
256
 10
-174.744136999999990
 20
-99.840507000000002
 11
-215.840911000000010
 21
-99.840507000000002
  0
LINE
  8
0
  6
DASHDOT
 62
256
 10
-195.963956000000000
 20
-76.342494000000002
 11
-195.963956000000000
 21
-120.863999000000010
  0
LINE
  8
0
  6
CONTINUOUS
 62
256
 10
-190.963956000000000
 20
-80.840507000000002
 11
-190.963956000000000
 21
-88.840507000000002
  0
LINE
  8
0
  6
CONTINUOUS
 62
256
 10
-190.963956000000000
 20
-80.840507000000002
 11
-200.963956000000000
 21
-80.840507000000002
  0
LINE
  8
0
  6
CONTINUOUS
 62
256
 10
-200.963956000000000
 20
-80.840507000000002
 11
-200.963956000000000
 21
-88.840507000000002
  0
LINE
  8
0
  6
CONTINUOUS
 62
256
 10
-200.963956000000000
 20
-88.840507000000002
 11
-190.963956000000000
 21
-88.840507000000002
  0
ARC
  8
0
  6
CONTINUOUS
 62
256
 10
-195.963956000000000
 20
-99.840507000000002
 40
16.000000000000004
 50
108.209956999999970
 51
71.790043000000040
  0
CIRCLE
  8
0
  6
CONTINUOUS
 62
256
 10
-195.963956000000000
 20
-99.840507000000002
 40
4.000000000000000
  0
CIRCLE
  8
0
  6
CONTINUOUS
 62
256
 10
-195.963956000000000
 20
-99.840507000000002
 40
3.500000000000000
  0
POINT
  8
0
  6
CONTINUOUS
 62
256
 10
-195.963956000000000
 20
-83.840507000000002
  0
CIRCLE
  8
0
  6
CONTINUOUS
 62
256
 10
-56.844386999999998
 20
-99.840507000000002
 40
47.500000000000000
  0
ENDSEC
  0
EOF
