  0
SECTION
  2
HEADER
  9
$TEXTSIZE
 40
2.5
  9
$ACADVER
  1
AC1009
  9
$DIMASZ
 40
3.863703297614046
  9
$DIMEXE
 40
2.000000000000000
  9
$DIMEXO
 40
1.000000000000000
  9
$DIMLFAC
 40
1.000000000000000
  9
$DIMSCALE
 40
1.000000000000000
  9
$DIMTAD
 70
1
  9
$DIMTFAC
 40
0.625000000000000
  9
$DIMTXT
 40
3.200000047683716
  9
$LUPREC
 70
3
  9
$REGENMODE
 70
1
  9
$TEXTSTYLE
  7
STANDARD1
  0
ENDSEC
  0
SECTION
  2
TABLES
  0
TABLE
  2
LTYPE
 70
4
  0
LTYPE
  2
CONTINUOUS
 70
64
  3
Solid line
 72
65
 73
0
 40
0.0
  0
LTYPE
  2
DASHED
 70
64
  3
-- -- -- -- -- -- -- -- -- -- -- -- -- -- --
 72
65
 73
2
 40
0.75
 49
0.5
 49
-0.25
  0
LTYPE
  2
DASHDOT
 70
64
  3
__ . __ . __ . __ . __ . __ . __ . __ . __ . __
 72
65
 73
4
 40
1.0
 49
0.5
 49
-0.25
 49
0.0
 49
-0.25
  0
LTYPE
  2
DIVIDE
 70
64
  3
__ . . __ . . __ . . __ . . __ . . __ . . __
 72
65
 73
6
 40
1.25
 49
0.5
 49
-0.25
 49
0.0
 49
-0.25
 49
0.0
 49
-0.25
  0
ENDTAB
  0
TABLE
  2
LAYER
 70
2
  0
LAYER
  2
0
 70
64
 62
53
  6
CONTINUOUS
  0
LAYER
  2
1
 70
64
 62
102
  6
CONTINUOUS
  0
ENDTAB
  0
TABLE
  2
STYLE
 70
4
  0
STYLE
  2
STANDARD1
 70
64
 40
0.0
 41
1.0
 50
0.0
 71
0
 42
3.200000047683716
  3
MONOTXT
  4
BIGFONT
  0
STYLE
  2
STANDARD2
 70
68
 40
0.0
 41
1.0
 50
0.0
 71
0
 42
3.200000047683716
  3
MONOTXT
  4
BIGFONT
  0
STYLE
  2
STANDARD3
 70
64
 40
0.0
 41
1.0
 50
0.0
 71
0
 42
3.200000047683716
  3
MONOTXT
  4

  0
STYLE
  2
STANDARD4
 70
68
 40
0.0
 41
1.0
 50
0.0
 71
0
 42
3.200000047683716
  3
MONOTXT
  4

  0
ENDTAB
  0
TABLE
  2
VIEW
 70
0
  0
ENDTAB
  0
ENDSEC
  0
SECTION
  2
BLOCKS
  0
BLOCK
  8
0
  2
ZU_SYM_1
 70
64
 10
0.000000000000000
 20
0.000000000000000
  0
POINT
  8
0
  6
CONTINUOUS
 62
256
 10
0.000000000000000
 20
0.000000000000000
  0
LINE
  8
0
  6
CONTINUOUS
 62
256
 10
-0.000025000000000
 20
-4.599994000000000
 11
-4.300015000000000
 21
-4.599977000000000
  0
LINE
  8
0
  6
CONTINUOUS
 62
256
 10
-4.299996000000000
 20
-4.599962000000000
 11
-4.799990000000000
 21
-3.899959000000000
  0
LINE
  8
0
  6
CONTINUOUS
 62
256
 10
-4.800010000000000
 20
-3.899973000000000
 11
-4.799979000000000
 21
3.900012000000000
  0
LINE
  8
0
  6
CONTINUOUS
 62
256
 10
-4.799962000000000
 20
3.900001000000000
 11
-4.299962000000000
 21
4.599999000000000
  0
LINE
  8
0
  6
CONTINUOUS
 62
256
 10
-4.299978000000000
 20
4.600015000000000
 11
0.000013000000000
 21
4.599998000000000
  0
LINE
  8
0
  6
CONTINUOUS
 62
256
 10
0.000016000000000
 20
4.599992000000000
 11
-0.000021000000000
 21
-4.599992000000000
  0
LINE
  8
0
  6
CONTINUOUS
 62
256
 10
-4.300006000000000
 20
-2.299980000000000
 11
-1.300007000000000
 21
-2.299992000000000
  0
LINE
  8
0
  6
CONTINUOUS
 62
256
 10
-4.299987000000000
 20
2.300014000000000
 11
-1.299990000000000
 21
2.300004000000000
  0
ARC
  8
0
  6
CONTINUOUS
 62
256
 10
-3.230014000000000
 20
-3.449986000000000
 40
1.570000000000000
 50
132.899744000000000
 51
179.999744999999990
  0
ARC
  8
0
  6
CONTINUOUS
 62
256
 10
-3.229986000000000
 20
3.450012000000000
 40
1.570000000000000
 50
179.999744999999990
 51
227.099745999999980
  0
ARC
  8
0
  6
CONTINUOUS
 62
256
 10
0.740001000000000
 20
-0.000003000000000
 40
5.539999000000000
 50
155.470187000000040
 51
204.529249999999960
  0
LINE
  8
0
  6
CONTINUOUS
 62
256
 10
-1.300018000000000
 20
-4.599993000000000
 11
-1.299981000000000
 21
4.600004000000000
  0
LINE
  8
0
  6
CONTINUOUS
 62
256
 10
-1.300000000000000
 20
-0.299995000000000
 11
-0.000004000000000
 21
-0.000001000000000
  0
LINE
  8
0
  6
CONTINUOUS
 62
256
 10
-1.299999000000000
 20
0.300007000000000
 11
-0.000001000000000
 21
0.600002000000000
  0
ENDBLK
  8
0
  0
BLOCK
  8
0
  2
ZU_SYM_2
 70
64
 10
0.000000000000000
 20
0.000000000000000
  0
POINT
  8
0
  6
CONTINUOUS
 62
256
 10
0.000000000000000
 20
0.000000000000000
  0
LINE
  8
0
  6
CONTINUOUS
 62
256
 10
-0.000025000000000
 20
-4.599994000000000
 11
-4.300015000000000
 21
-4.599977000000000
  0
LINE
  8
0
  6
CONTINUOUS
 62
256
 10
-4.299996000000000
 20
-4.599962000000000
 11
-4.799990000000000
 21
-3.899959000000000
  0
LINE
  8
0
  6
CONTINUOUS
 62
256
 10
-4.800010000000000
 20
-3.899973000000000
 11
-4.799979000000000
 21
3.900012000000000
  0
LINE
  8
0
  6
CONTINUOUS
 62
256
 10
-4.799962000000000
 20
3.900001000000000
 11
-4.299962000000000
 21
4.599999000000000
  0
LINE
  8
0
  6
CONTINUOUS
 62
256
 10
-4.299978000000000
 20
4.600015000000000
 11
0.000013000000000
 21
4.599998000000000
  0
LINE
  8
0
  6
CONTINUOUS
 62
256
 10
0.000016000000000
 20
4.599992000000000
 11
-0.000021000000000
 21
-4.599992000000000
  0
LINE
  8
0
  6
CONTINUOUS
 62
256
 10
-4.300006000000000
 20
-2.299980000000000
 11
-1.300007000000000
 21
-2.299992000000000
  0
LINE
  8
0
  6
CONTINUOUS
 62
256
 10
-4.299987000000000
 20
2.300014000000000
 11
-1.299990000000000
 21
2.300004000000000
  0
ARC
  8
0
  6
CONTINUOUS
 62
256
 10
-3.230014000000000
 20
-3.449986000000000
 40
1.570000000000000
 50
132.899744000000000
 51
179.999744999999990
  0
ARC
  8
0
  6
CONTINUOUS
 62
256
 10
-3.229986000000000
 20
3.450012000000000
 40
1.570000000000000
 50
179.999744999999990
 51
227.099745999999980
  0
ARC
  8
0
  6
CONTINUOUS
 62
256
 10
0.740001000000000
 20
-0.000003000000000
 40
5.539999000000000
 50
155.470187000000040
 51
204.529249999999960
  0
LINE
  8
0
  6
CONTINUOUS
 62
256
 10
-1.300018000000000
 20
-4.599993000000000
 11
-1.299981000000000
 21
4.600004000000000
  0
LINE
  8
0
  6
CONTINUOUS
 62
256
 10
-1.300000000000000
 20
-0.299995000000000
 11
-0.000004000000000
 21
-0.000001000000000
  0
LINE
  8
0
  6
CONTINUOUS
 62
256
 10
-1.299999000000000
 20
0.300007000000000
 11
-0.000001000000000
 21
0.600002000000000
  0
ENDBLK
  8
0
  0
BLOCK
  8
0
  2
ZU_SYM_3
 70
64
 10
0.000000000000000
 20
0.000000000000000
  0
LINE
  8
0
  6
CONTINUOUS
 62
256
 10
-1.299999000000000
 20
0.300007000000000
 11
-0.000001000000000
 21
0.600002000000000
  0
LINE
  8
0
  6
CONTINUOUS
 62
256
 10
-1.300000000000000
 20
-0.299995000000000
 11
-0.000004000000000
 21
-0.000001000000000
  0
LINE
  8
0
  6
CONTINUOUS
 62
256
 10
-1.300018000000000
 20
-4.599993000000000
 11
-1.299981000000000
 21
4.600004000000000
  0
ARC
  8
0
  6
CONTINUOUS
 62
256
 10
0.740001000000000
 20
-0.000003000000000
 40
5.539999000000000
 50
155.470187000000040
 51
204.529249999999960
  0
ARC
  8
0
  6
CONTINUOUS
 62
256
 10
-3.229986000000000
 20
3.450012000000000
 40
1.570000000000000
 50
179.999744999999990
 51
227.099745999999980
  0
ARC
  8
0
  6
CONTINUOUS
 62
256
 10
-3.230014000000000
 20
-3.449986000000000
 40
1.570000000000000
 50
132.899744000000000
 51
179.999744999999990
  0
LINE
  8
0
  6
CONTINUOUS
 62
256
 10
-4.299987000000000
 20
2.300014000000000
 11
-1.299990000000000
 21
2.300004000000000
  0
LINE
  8
0
  6
CONTINUOUS
 62
256
 10
-4.300006000000000
 20
-2.299980000000000
 11
-1.300007000000000
 21
-2.299992000000000
  0
LINE
  8
0
  6
CONTINUOUS
 62
256
 10
0.000016000000000
 20
4.599992000000000
 11
-0.000021000000000
 21
-4.599992000000000
  0
LINE
  8
0
  6
CONTINUOUS
 62
256
 10
-4.299978000000000
 20
4.600015000000000
 11
0.000013000000000
 21
4.599998000000000
  0
LINE
  8
0
  6
CONTINUOUS
 62
256
 10
-4.799962000000000
 20
3.900001000000000
 11
-4.299962000000000
 21
4.599999000000000
  0
LINE
  8
0
  6
CONTINUOUS
 62
256
 10
-4.800010000000000
 20
-3.899973000000000
 11
-4.799979000000000
 21
3.900012000000000
  0
LINE
  8
0
  6
CONTINUOUS
 62
256
 10
-4.299996000000000
 20
-4.599962000000000
 11
-4.799990000000000
 21
-3.899959000000000
  0
LINE
  8
0
  6
CONTINUOUS
 62
256
 10
-0.000025000000000
 20
-4.599994000000000
 11
-4.300015000000000
 21
-4.599977000000000
  0
POINT
  8
0
  6
CONTINUOUS
 62
256
 10
0.000000000000000
 20
0.000000000000000
  0
ENDBLK
  8
0
  0
BLOCK
  8
0
  2
ZU_SYM_4
 70
64
 10
0.000000000000000
 20
0.000000000000000
  0
LINE
  8
0
  6
CONTINUOUS
 62
256
 10
-1.299999000000000
 20
0.300007000000000
 11
-0.000001000000000
 21
0.600002000000000
  0
LINE
  8
0
  6
CONTINUOUS
 62
256
 10
-1.300000000000000
 20
-0.299995000000000
 11
-0.000004000000000
 21
-0.000001000000000
  0
LINE
  8
0
  6
CONTINUOUS
 62
256
 10
-1.300018000000000
 20
-4.599993000000000
 11
-1.299981000000000
 21
4.600004000000000
  0
ARC
  8
0
  6
CONTINUOUS
 62
256
 10
0.740001000000000
 20
-0.000003000000000
 40
5.539999000000000
 50
155.470187000000040
 51
204.529249999999960
  0
ARC
  8
0
  6
CONTINUOUS
 62
256
 10
-3.229986000000000
 20
3.450012000000000
 40
1.570000000000000
 50
179.999744999999990
 51
227.099745999999980
  0
ARC
  8
0
  6
CONTINUOUS
 62
256
 10
-3.230014000000000
 20
-3.449986000000000
 40
1.570000000000000
 50
132.899744000000000
 51
179.999744999999990
  0
LINE
  8
0
  6
CONTINUOUS
 62
256
 10
-4.299987000000000
 20
2.300014000000000
 11
-1.299990000000000
 21
2.300004000000000
  0
LINE
  8
0
  6
CONTINUOUS
 62
256
 10
-4.300006000000000
 20
-2.299980000000000
 11
-1.300007000000000
 21
-2.299992000000000
  0
LINE
  8
0
  6
CONTINUOUS
 62
256
 10
0.000016000000000
 20
4.599992000000000
 11
-0.000021000000000
 21
-4.599992000000000
  0
LINE
  8
0
  6
CONTINUOUS
 62
256
 10
-4.299978000000000
 20
4.600015000000000
 11
0.000013000000000
 21
4.599998000000000
  0
LINE
  8
0
  6
CONTINUOUS
 62
256
 10
-4.799962000000000
 20
3.900001000000000
 11
-4.299962000000000
 21
4.599999000000000
  0
LINE
  8
0
  6
CONTINUOUS
 62
256
 10
-4.800010000000000
 20
-3.899973000000000
 11
-4.799979000000000
 21
3.900012000000000
  0
LINE
  8
0
  6
CONTINUOUS
 62
256
 10
-4.299996000000000
 20
-4.599962000000000
 11
-4.799990000000000
 21
-3.899959000000000
  0
LINE
  8
0
  6
CONTINUOUS
 62
256
 10
-0.000025000000000
 20
-4.599994000000000
 11
-4.300015000000000
 21
-4.599977000000000
  0
POINT
  8
0
  6
CONTINUOUS
 62
256
 10
0.000000000000000
 20
0.000000000000000
  0
ENDBLK
  8
0
  0
BLOCK
  8
0
  2
ZU_SYM_5
 70
64
 10
0.000000000000000
 20
0.000000000000000
  0
POINT
  8
0
  6
CONTINUOUS
 62
256
 10
0.000000000000000
 20
0.000000000000000
  0
LINE
  8
0
  6
CONTINUOUS
 62
256
 10
-2.300001000000000
 20
-4.000000000000000
 11
-4.600000000000000
 21
-0.000001000000000
  0
LINE
  8
0
  6
CONTINUOUS
 62
256
 10
-4.600000000000000
 20
0.000001000000000
 11
-2.300001000000000
 21
4.000000000000000
  0
LINE
  8
0
  6
CONTINUOUS
 62
256
 10
-2.299999000000000
 20
4.000000000000000
 11
2.299999000000000
 21
4.000000000000000
  0
LINE
  8
0
  6
CONTINUOUS
 62
256
 10
2.300001000000000
 20
4.000000000000000
 11
4.600000000000000
 21
0.000001000000000
  0
LINE
  8
0
  6
CONTINUOUS
 62
256
 10
4.600000000000000
 20
-0.000001000000000
 11
2.300001000000000
 21
-4.000000000000000
  0
LINE
  8
0
  6
CONTINUOUS
 62
256
 10
2.299999000000000
 20
-4.000000000000000
 11
-2.299999000000000
 21
-4.000000000000000
  0
CIRCLE
  8
0
  6
CONTINUOUS
 62
256
 10
0.000000000000000
 20
0.000000000000000
 40
4.000000000000000
  0
ENDBLK
  8
0
  0
BLOCK
  8
0
  2
ZU_SYM_6
 70
64
 10
0.000000000000000
 20
0.000000000000000
  0
POINT
  8
0
  6
CONTINUOUS
 62
256
 10
0.000000000000000
 20
0.000000000000000
  0
LINE
  8
0
  6
CONTINUOUS
 62
256
 10
-2.300001000000000
 20
-4.000000000000000
 11
-4.600000000000000
 21
-0.000001000000000
  0
LINE
  8
0
  6
CONTINUOUS
 62
256
 10
-4.600000000000000
 20
0.000001000000000
 11
-2.300001000000000
 21
4.000000000000000
  0
LINE
  8
0
  6
CONTINUOUS
 62
256
 10
-2.299999000000000
 20
4.000000000000000
 11
2.299999000000000
 21
4.000000000000000
  0
LINE
  8
0
  6
CONTINUOUS
 62
256
 10
2.300001000000000
 20
4.000000000000000
 11
4.600000000000000
 21
0.000001000000000
  0
LINE
  8
0
  6
CONTINUOUS
 62
256
 10
4.600000000000000
 20
-0.000001000000000
 11
2.300001000000000
 21
-4.000000000000000
  0
LINE
  8
0
  6
CONTINUOUS
 62
256
 10
2.299999000000000
 20
-4.000000000000000
 11
-2.299999000000000
 21
-4.000000000000000
  0
CIRCLE
  8
0
  6
CONTINUOUS
 62
256
 10
0.000000000000000
 20
0.000000000000000
 40
4.000000000000000
  0
ENDBLK
  8
0
  0
BLOCK
  8
0
  2
ZU_SYM_7
 70
64
 10
0.000000000000000
 20
0.000000000000000
  0
POINT
  8
0
  6
CONTINUOUS
 62
256
 10
0.000000000000000
 20
0.000000000000000
  0
LINE
  8
0
  6
CONTINUOUS
 62
256
 10
-2.300001000000000
 20
-4.000000000000000
 11
-4.600000000000000
 21
-0.000001000000000
  0
LINE
  8
0
  6
CONTINUOUS
 62
256
 10
-4.600000000000000
 20
0.000001000000000
 11
-2.300001000000000
 21
4.000000000000000
  0
LINE
  8
0
  6
CONTINUOUS
 62
256
 10
-2.299999000000000
 20
4.000000000000000
 11
2.299999000000000
 21
4.000000000000000
  0
LINE
  8
0
  6
CONTINUOUS
 62
256
 10
2.300001000000000
 20
4.000000000000000
 11
4.600000000000000
 21
0.000001000000000
  0
LINE
  8
0
  6
CONTINUOUS
 62
256
 10
4.600000000000000
 20
-0.000001000000000
 11
2.300001000000000
 21
-4.000000000000000
  0
LINE
  8
0
  6
CONTINUOUS
 62
256
 10
2.299999000000000
 20
-4.000000000000000
 11
-2.299999000000000
 21
-4.000000000000000
  0
CIRCLE
  8
0
  6
CONTINUOUS
 62
256
 10
0.000000000000000
 20
0.000000000000000
 40
4.000000000000000
  0
ENDBLK
  8
0
  0
BLOCK
  8
0
  2
ZU_SYM_8
 70
64
 10
0.000000000000000
 20
0.000000000000000
  0
POINT
  8
0
  6
CONTINUOUS
 62
256
 10
0.000000000000000
 20
0.000000000000000
  0
LINE
  8
0
  6
CONTINUOUS
 62
256
 10
-2.300001000000000
 20
-4.000000000000000
 11
-4.600000000000000
 21
-0.000001000000000
  0
LINE
  8
0
  6
CONTINUOUS
 62
256
 10
-4.600000000000000
 20
0.000001000000000
 11
-2.300001000000000
 21
4.000000000000000
  0
LINE
  8
0
  6
CONTINUOUS
 62
256
 10
-2.299999000000000
 20
4.000000000000000
 11
2.299999000000000
 21
4.000000000000000
  0
LINE
  8
0
  6
CONTINUOUS
 62
256
 10
2.300001000000000
 20
4.000000000000000
 11
4.600000000000000
 21
0.000001000000000
  0
LINE
  8
0
  6
CONTINUOUS
 62
256
 10
4.600000000000000
 20
-0.000001000000000
 11
2.300001000000000
 21
-4.000000000000000
  0
LINE
  8
0
  6
CONTINUOUS
 62
256
 10
2.299999000000000
 20
-4.000000000000000
 11
-2.299999000000000
 21
-4.000000000000000
  0
CIRCLE
  8
0
  6
CONTINUOUS
 62
256
 10
0.000000000000000
 20
0.000000000000000
 40
4.000000000000000
  0
ENDBLK
  8
0
  0
ENDSEC
  0
SECTION
  2
ENTITIES
  0
CIRCLE
  8
0
  6
DASHED
 62
256
 10
88.260103000000001
 20
3.392641000000000
 40
6.000000000000000
  0
ARC
  8
0
  6
DASHED
 62
256
 10
88.260103000000001
 20
3.392641000000000
 40
7.000000000000000
 50
0.000000000000000
 51
180.000000000000000
  0
LINE
  8
0
  6
DASHED
 62
256
 10
81.260103000000001
 20
-11.107359000000001
 11
81.260103000000001
 21
3.392641000000000
  0
LINE
  8
0
  6
DASHED
 62
256
 10
95.260103000000001
 20
-11.107359000000001
 11
95.260103000000001
 21
3.392641000000000
  0
LINE
  8
0
  6
DASHDOT
 62
256
 10
78.951768999999999
 20
3.392641000000000
 11
98.140809000000004
 21
3.392641000000000
  0
LINE
  8
0
  6
DASHDOT
 62
256
 10
88.260103000000001
 20
-13.891211000000000
 11
88.260103000000001
 21
14.088139000000000
  0
ARC
  8
0
  6
CONTINUOUS
 62
256
 10
-281.047185000000010
 20
5.388567000000000
 40
3.000000000000000
 50
0.000000000000000
 51
89.000000000000412
  0
LINE
  8
0
  6
CONTINUOUS
 62
256
 10
-348.047185000000010
 20
9.558514000000001
 11
-280.994827999999980
 21
8.388111000000000
  0
CIRCLE
  8
0
  6
CONTINUOUS
 62
256
 10
-153.785564999999990
 20
-46.441214000000002
 40
3.500000000000000
  0
CIRCLE
  8
0
  6
CONTINUOUS
 62
256
 10
-153.785564999999990
 20
-46.441214000000002
 40
4.000000000000000
  0
LINE
  8
0
  6
DASHDOT
 62
256
 10
-167.741998999999990
 20
-46.441214000000002
 11
-139.131267000000010
 21
-46.441214000000002
  0
LINE
  8
0
  6
DASHDOT
 62
256
 10
-153.785564999999990
 20
-29.853117000000001
 11
-153.785564999999990
 21
-60.529606000000001
  0
LINE
  8
0
  6
CONTINUOUS
 62
256
 10
-156.785564999999990
 20
-38.941214000000002
 11
-150.785564999999990
 21
-38.941214000000002
  0
LINE
  8
0
  6
CONTINUOUS
 62
256
 10
-156.785564999999990
 20
-32.941214000000002
 11
-150.785564999999990
 21
-32.941214000000002
  0
LINE
  8
0
  6
CONTINUOUS
 62
256
 10
-156.785564999999990
 20
-32.941214000000002
 11
-156.785564999999990
 21
-38.941214000000002
  0
LINE
  8
0
  6
CONTINUOUS
 62
256
 10
-150.785564999999990
 20
-32.941214000000002
 11
-150.785564999999990
 21
-38.941214000000002
  0
ARC
  8
0
  6
CONTINUOUS
 62
256
 10
-153.785564999999990
 20
-46.441214000000002
 40
11.000000000000004
 50
105.826619999999990
 51
74.173380000000009
  0
ARC
  8
0
  6
CONTINUOUS
 62
256
 10
31.769138999999999
 20
-136.441214000000000
 40
1.999999999999996
 50
0.000000000000000
 51
90.000000000000000
  0
ARC
  8
0
  6
CONTINUOUS
 62
256
 10
45.760103000000001
 20
-32.177708000000003
 40
5.000000000000000
 50
90.000000000000000
 51
180.000000000000000
  0
LINE
  8
0
  6
CONTINUOUS
 62
256
 10
43.760103000000001
 20
-34.715192999999999
 11
50.760103000000001
 21
-34.715192999999999
  0
ARC
  8
0
  6
CONTINUOUS
 62
256
 10
77.760103000000001
 20
17.392641000000001
 40
1.000000000000000
 50
90.000000000000000
 51
180.000000000000000
  0
LINE
  8
0
  6
CONTINUOUS
 62
256
 10
58.760103000000001
 20
-15.107359000000001
 11
58.760103000000001
 21
-68.607359000000002
  0
LINE
  8
0
  6
CONTINUOUS
 62
256
 10
75.760103000000001
 20
-11.107359000000001
 11
75.760103000000001
 21
-16.107358999999999
  0
LINE
  8
0
  6
CONTINUOUS
 62
256
 10
76.760103000000001
 20
17.392641000000001
 11
76.760103000000001
 21
-11.107359000000001
  0
LINE
  8
0
  6
CONTINUOUS
 62
256
 10
58.760103000000001
 20
-15.107359000000001
 11
75.760103000000001
 21
-15.107359000000001
  0
LINE
  8
0
  6
CONTINUOUS
 62
256
 10
58.760103000000001
 20
-122.107359000000000
 11
58.760103000000001
 21
-68.607359000000002
  0
LINE
  8
0
  6
CONTINUOUS
 62
256
 10
58.760103000000001
 20
-68.607359000000002
 11
58.760103000000001
 21
-121.107359000000000
  0
LINE
  8
0
  6
CONTINUOUS
 62
256
 10
58.760103000000001
 20
-68.607359000000002
 11
58.760103000000001
 21
-16.107358999999999
  0
LINE
  8
0
  6
CONTINUOUS
 62
256
 10
58.760103000000001
 20
-121.107359000000000
 11
58.760103000000001
 21
-16.107358999999999
  0
LINE
  8
0
  6
CONTINUOUS
 62
256
 10
58.760103000000001
 20
-121.107359000000000
 11
58.760103000000001
 21
-16.107358999999999
  0
LINE
  8
0
  6
CONTINUOUS
 62
256
 10
58.760103000000001
 20
-16.107358999999999
 11
58.760103000000001
 21
-18.357358999999999
  0
LINE
  8
0
  6
CONTINUOUS
 62
256
 10
58.760103000000001
 20
-121.098631999999990
 11
58.760103000000001
 21
-68.607359000000002
  0
LINE
  8
0
  6
CONTINUOUS
 62
256
 10
58.760103000000001
 20
-16.116087000000000
 11
58.760103000000001
 21
-68.607359000000002
  0
CIRCLE
  8
0
  6
CONTINUOUS
 62
256
 10
-28.239588999999999
 20
-46.441214000000002
 40
4.000000000000000
  0
CIRCLE
  8
0
  6
CONTINUOUS
 62
256
 10
-28.239588999999999
 20
-46.441214000000002
 40
3.500000000000000
  0
LINE
  8
0
  6
CONTINUOUS
 62
256
 10
-31.239588999999999
 20
-32.941214000000002
 11
-31.239588999999999
 21
-38.941214000000002
  0
LINE
  8
0
  6
CONTINUOUS
 62
256
 10
-31.239588999999999
 20
-38.941214000000002
 11
-25.239588999999999
 21
-38.941214000000002
  0
LINE
  8
0
  6
CONTINUOUS
 62
256
 10
-31.239588999999999
 20
-32.941214000000002
 11
-25.239588999999999
 21
-32.941214000000002
  0
LINE
  8
0
  6
CONTINUOUS
 62
256
 10
-25.239588999999999
 20
-32.941214000000002
 11
-25.239588999999999
 21
-38.941214000000002
  0
ARC
  8
0
  6
CONTINUOUS
 62
256
 10
-28.239588999999999
 20
-46.441214000000002
 40
11.000000000000004
 50
105.826619999999990
 51
74.173379999999995
  0
LINE
  8
0
  6
CONTINUOUS
 62
256
 10
36.716782000000002
 20
-122.500854000000000
 11
58.760103000000001
 21
-122.107359000000000
  0
LINE
  8
0
  6
CONTINUOUS
 62
256
 10
58.760103000000001
 20
-118.589410000000000
 11
58.760103000000001
 21
-68.607359000000002
  0
ARC
  8
0
  6
CONTINUOUS
 62
256
 10
43.760103000000001
 20
-119.368728000000000
 40
3.000000000000000
 50
180.000000000000000
 51
271.000000000000060
  0
LINE
  8
0
  6
CONTINUOUS
 62
256
 10
53.760103000000001
 20
-116.107359000000000
 11
53.760103000000001
 21
-119.141812000000000
  0
ARC
  8
0
  6
CONTINUOUS
 62
256
 10
56.760103000000001
 20
-119.141812000000000
 40
3.000000000000000
 50
180.000000000000000
 51
271.000000000000060
  0
LINE
  8
0
  6
CONTINUOUS
 62
256
 10
50.760103000000001
 20
-113.107359000000000
 11
45.760103000000001
 21
-113.107359000000000
  0
LINE
  8
0
  6
CONTINUOUS
 62
256
 10
51.760103000000001
 20
-110.037011000000010
 11
45.760103000000001
 21
-110.037011000000010
  0
LINE
  8
0
  6
CONTINUOUS
 62
256
 10
40.760103000000001
 20
-105.499525000000010
 11
40.760103000000001
 21
-108.107359000000000
  0
LINE
  8
0
  6
CONTINUOUS
 62
256
 10
43.760103000000001
 20
-102.499525000000010
 11
50.760103000000001
 21
-102.499525000000010
  0
LINE
  8
0
  6
CONTINUOUS
 62
256
 10
53.760103000000001
 20
-88.607359000000002
 11
57.461784999999999
 21
-88.607359000000002
  0
LINE
  8
0
  6
CONTINUOUS
 62
256
 10
53.760103000000001
 20
-68.607359000000002
 11
53.760103000000001
 21
-108.037011000000010
  0
ARC
  8
0
  6
CONTINUOUS
 62
256
 10
50.760103000000001
 20
-99.499525000000006
 40
3.000000000000000
 50
270.000000000000000
 51
0.000000000000000
  0
ARC
  8
0
  6
CONTINUOUS
 62
256
 10
50.760103000000001
 20
-116.107359000000000
 40
3.000000000000000
 50
0.000000000000000
 51
90.000000000000000
  0
ARC
  8
0
  6
CONTINUOUS
 62
256
 10
51.760103000000001
 20
-108.037011000000010
 40
2.000000000000000
 50
270.000000000000000
 51
0.000000000000000
  0
ARC
  8
0
  6
CONTINUOUS
 62
256
 10
45.760103000000001
 20
-105.037011000000010
 40
5.000000000000000
 50
180.000000000000000
 51
270.000000000000000
  0
ARC
  8
0
  6
CONTINUOUS
 62
256
 10
45.760103000000001
 20
-108.107359000000000
 40
5.000000000000000
 50
180.000000000000000
 51
270.000000000000000
  0
LINE
  8
0
  6
CONTINUOUS
 62
256
 10
40.760103000000001
 20
-119.368728000000000
 11
40.760103000000001
 21
-68.607359000000002
  0
ARC
  8
0
  6
CONTINUOUS
 62
256
 10
43.760103000000001
 20
-99.499525000000006
 40
3.000000000000000
 50
180.000000000000000
 51
270.000000000000000
  0
LINE
  8
0
  6
CONTINUOUS
 62
256
 10
35.536217000000001
 20
-14.693256999999999
 11
58.760103000000001
 21
-15.107359000000001
  0
LINE
  8
0
  6
CONTINUOUS
 62
256
 10
53.760103000000001
 20
-48.607359000000002
 11
57.896576000000003
 21
-48.607359000000002
  0
LINE
  8
0
  6
CONTINUOUS
 62
256
 10
53.760103000000001
 20
-68.607359000000002
 11
53.760103000000001
 21
-29.177707999999999
  0
ARC
  8
0
  6
CONTINUOUS
 62
256
 10
56.760103000000001
 20
-18.072906000000000
 40
3.000000000000000
 50
89.000000000000000
 51
180.000000000000000
  0
ARC
  8
0
  6
CONTINUOUS
 62
256
 10
43.760103000000001
 20
-17.845990000000000
 40
3.000000000000000
 50
89.000000000000000
 51
180.000000000000000
  0
LINE
  8
0
  6
CONTINUOUS
 62
256
 10
40.760103000000001
 20
-31.715192999999999
 11
40.760103000000001
 21
-29.107358999999999
  0
LINE
  8
0
  6
CONTINUOUS
 62
256
 10
50.760103000000001
 20
-24.107358999999999
 11
45.760103000000001
 21
-24.107358999999999
  0
LINE
  8
0
  6
CONTINUOUS
 62
256
 10
51.760103000000001
 20
-27.177707999999999
 11
45.760103000000001
 21
-27.177707999999999
  0
ARC
  8
0
  6
CONTINUOUS
 62
256
 10
50.760103000000001
 20
-37.715192999999999
 40
3.000000000000000
 50
0.000000000000000
 51
90.000000000000000
  0
ARC
  8
0
  6
CONTINUOUS
 62
256
 10
45.760103000000001
 20
-29.107358999999999
 40
5.000000000000000
 50
90.000000000000000
 51
180.000000000000000
  0
ARC
  8
0
  6
CONTINUOUS
 62
256
 10
51.760103000000001
 20
-29.177707999999999
 40
2.000000000000000
 50
0.000000000000000
 51
90.000000000000000
  0
LINE
  8
0
  6
CONTINUOUS
 62
256
 10
40.760103000000001
 20
-17.845990000000000
 11
40.760103000000001
 21
-68.607359000000002
  0
ARC
  8
0
  6
CONTINUOUS
 62
256
 10
36.769139000000003
 20
-125.500397000000010
 40
2.999999999999997
 50
91.000000000000014
 51
180.000000000000000
  0
ARC
  8
0
  6
CONTINUOUS
 62
256
 10
35.588574000000001
 20
-11.693714000000000
 40
2.999999999999998
 50
195.371944000000010
 51
268.999999999999940
  0
ARC
  8
0
  6
CONTINUOUS
 62
256
 10
-84.248316000000003
 20
-136.441214000000000
 40
2.000000000000000
 50
90.000000000000000
 51
180.000000000000000
  0
LINE
  8
0
  6
DASHED
 62
256
 10
4.760411000000000
 20
-146.169804000000000
 11
4.760411000000000
 21
-146.441214000000000
  0
LINE
  8
0
  6
CONTINUOUS
 62
256
 10
58.760103000000001
 20
-18.625308000000000
 11
58.760103000000001
 21
-68.607359000000002
  0
LINE
  8
0
  6
CONTINUOUS
 62
256
 10
-84.248316000000003
 20
-134.441214000000000
 11
31.769138999999999
 21
-134.441214000000000
  0
LINE
  8
0
  6
DASHED
 62
256
 10
-58.239589000000002
 20
-146.169804000000000
 11
-58.239589000000002
 21
-146.441214000000000
  0
LINE
  8
0
  6
CONTINUOUS
 62
256
 10
-86.239588999999995
 20
-20.441486000000001
 11
-86.239588999999995
 21
-146.441214000000000
  0
LINE
  8
0
  6
DASHDOT
 62
256
 10
-94.922483999999997
 20
-46.441214000000002
 11
47.280217000000000
 21
-46.441214000000002
  0
LINE
  8
0
  6
DASHDOT
 62
256
 10
-28.239588999999999
 20
17.755713000000000
 11
-28.239588999999999
 21
-152.326812999999990
  0
LINE
  8
0
  6
DASHDOT
 62
256
 10
-73.239588999999995
 20
-152.183144000000000
 11
-73.239588999999995
 21
-131.207877000000000
  0
LINE
  8
0
  6
DASHDOT
 62
256
 10
19.760411000000001
 20
-152.852566999999990
 11
19.760411000000001
 21
-130.315312000000010
  0
ARC
  8
0
  6
CONTINUOUS
 62
256
 10
50.760103000000001
 20
-21.107358999999999
 40
3.000000000000000
 50
270.000000000000000
 51
0.000000000000000
  0
LINE
  8
0
  6
CONTINUOUS
 62
256
 10
53.760103000000001
 20
-21.107358999999999
 11
53.760103000000001
 21
-18.072906000000000
  0
CIRCLE
  8
0
  6
CONTINUOUS
 62
256
 10
-28.239588999999999
 20
-46.441214000000002
 40
32.000000000000000
  0
CIRCLE
  8
0
  6
CONTINUOUS
 62
256
 10
-28.239588999999999
 20
-46.441214000000002
 40
35.085724999999996
  0
LINE
  8
0
  6
CONTINUOUS
 62
256
 10
58.760103000000001
 20
-122.107359000000000
 11
58.760103000000001
 21
-68.607359000000002
  0
LINE
  8
0
  6
CONTINUOUS
 62
256
 10
58.760103000000001
 20
-15.107359000000001
 11
58.760103000000001
 21
-68.607359000000002
  0
LINE
  8
0
  6
CONTINUOUS
 62
256
 10
-86.239588999999995
 20
-146.441214000000000
 11
33.769139000000003
 21
-146.441214000000000
  0
LINE
  8
0
  6
CONTINUOUS
 62
256
 10
-313.047185000000010
 20
18.892641000000001
 11
-318.047185000000010
 21
18.892641000000001
  0
LINE
  8
0
  6
CONTINUOUS
 62
256
 10
-313.047185000000010
 20
18.382224000000001
 11
-313.047185000000010
 21
18.892641000000001
  0
LINE
  8
0
  6
CONTINUOUS
 62
256
 10
-318.047185000000010
 20
18.382224000000001
 11
-318.047185000000010
 21
18.892641000000001
  0
ARC
  8
0
  6
CONTINUOUS
 62
256
 10
-315.547185000000010
 20
-281.607358999999970
 40
300.000000000000000
 50
85.138594999999995
 51
94.861405000000005
  0
LINE
  8
0
  6
CONTINUOUS
 62
256
 10
-345.547185000000010
 20
9.558514000000001
 11
-345.547185000000010
 21
12.331410000000000
  0
LINE
  8
0
  6
CONTINUOUS
 62
256
 10
-285.547185000000010
 20
8.467572000000001
 11
-285.547185000000010
 21
12.331410000000000
  0
ARC
  8
0
  6
CONTINUOUS
 62
256
 10
-340.547185000000010
 20
12.331410000000000
 40
5.000000000000001
 50
94.861405000000062
 51
180.000000000000000
  0
ARC
  8
0
  6
CONTINUOUS
 62
256
 10
-290.547185000000010
 20
12.331410000000000
 40
5.000000000000000
 50
0.000000000000000
 51
85.138594999999938
  0
LINE
  8
0
  6
DASHDOT
 62
256
 10
-315.547185000000010
 20
-152.838690000000010
 11
-315.547185000000010
 21
24.926514999999998
  0
LINE
  8
0
  6
DASHDOT
 62
256
 10
-205.675671999999990
 20
-46.441214000000002
 11
-382.972966999999980
 21
-46.441214000000002
  0
LINE
  8
0
  6
CONTINUOUS
 62
256
 10
-255.547167000000000
 20
-34.441214000000002
 11
-253.547167000000000
 21
-34.441214000000002
  0
LINE
  8
0
  6
CONTINUOUS
 62
256
 10
-255.547167000000000
 20
-58.441214000000002
 11
-253.547167000000000
 21
-58.441214000000002
  0
LINE
  8
0
  6
CONTINUOUS
 62
256
 10
-213.547167000000000
 20
-32.941214000000002
 11
-245.547147999999990
 21
-32.941214000000002
  0
LINE
  8
0
  6
CONTINUOUS
 62
256
 10
-213.547167000000000
 20
-32.941214000000002
 11
-213.547167000000000
 21
-35.441214000000002
  0
LINE
  8
0
  6
CONTINUOUS
 62
256
 10
-245.547167000000000
 20
-35.441214000000002
 11
-245.547167000000000
 21
-32.941214000000002
  0
ARC
  8
0
  6
CONTINUOUS
 62
256
 10
-663.047185000000010
 20
-88.607359000000002
 40
400.000000000000000
 50
358.568016000000060
 51
359.928470000000000
  0
ARC
  8
0
  6
CONTINUOUS
 62
256
 10
31.952815000000001
 20
-88.607359000000002
 40
400.000000000000000
 50
180.071529999999970
 51
180.859540999999980
  0
ARC
  8
0
  6
CONTINUOUS
 62
256
 10
-262.547185000000010
 20
-89.107359000000002
 40
0.500000000000000
 50
90.000000000000000
 51
180.000000000000000
  0
ARC
  8
0
  6
CONTINUOUS
 62
256
 10
-262.547185000000010
 20
-88.107359000000002
 40
0.500000000000000
 50
270.000000000000000
 51
0.000000000000000
  0
ARC
  8
0
  6
CONTINUOUS
 62
256
 10
-368.547185000000010
 20
-89.107359000000002
 40
0.500000000000000
 50
0.000000000000000
 51
90.000000000000000
  0
ARC
  8
0
  6
CONTINUOUS
 62
256
 10
-368.547185000000010
 20
-88.107359000000002
 40
0.500000000000000
 50
180.000000000000000
 51
270.000000000000000
  0
LINE
  8
0
  6
CONTINUOUS
 62
256
 10
-262.047185000000010
 20
-88.107359000000002
 11
-262.047185000000010
 21
-79.234684999999999
  0
ARC
  8
0
  6
CONTINUOUS
 62
256
 10
-288.047185000000010
 20
-96.107359000000002
 40
24.999999999999996
 50
293.578177999999920
 51
354.269824999999970
  0
ARC
  8
0
  6
CONTINUOUS
 62
256
 10
-343.047185000000010
 20
-96.107359000000002
 40
25.000000000000007
 50
176.561350000000000
 51
239.999999999999970
  0
LINE
  8
0
  6
CONTINUOUS
 62
256
 10
-369.047185000000010
 20
-79.234688000000006
 11
-369.047185000000010
 21
-88.107359000000002
  0
LINE
  8
0
  6
DASHDOT
 62
256
 10
-297.027455999999970
 20
-68.607359000000002
 11
-333.900037000000000
 21
-68.607359000000002
  0
LINE
  8
0
  6
CONTINUOUS
 62
256
 10
-253.547167000000000
 20
-34.441214000000002
 11
-253.547167000000000
 21
-46.441214000000002
  0
LINE
  8
0
  6
CONTINUOUS
 62
256
 10
-253.547167000000000
 20
-58.441214000000002
 11
-253.547167000000000
 21
-46.441214000000002
  0
LINE
  8
0
  6
CONTINUOUS
 62
256
 10
-213.547167000000000
 20
-57.041213999999997
 11
-213.547167000000000
 21
-46.441214000000002
  0
LINE
  8
0
  6
CONTINUOUS
 62
256
 10
-253.547167000000000
 20
-57.441214000000002
 11
-213.947167000000010
 21
-57.441214000000002
  0
ARC
  8
0
  6
CONTINUOUS
 62
256
 10
-213.947167000000010
 20
-57.041213999999997
 40
0.399999999999999
 50
270.000000000000000
 51
0.000000000000000
  0
LINE
  8
0
  6
CONTINUOUS
 62
256
 10
-213.547167000000000
 20
-35.441214000000002
 11
-213.547167000000000
 21
-46.441214000000002
  0
LINE
  8
0
  6
CONTINUOUS
 62
256
 10
-253.547167000000000
 20
-35.441214000000002
 11
-213.547167000000000
 21
-35.441214000000002
  0
ARC
  8
0
  6
CONTINUOUS
 62
256
 10
-372.547203000000020
 20
-75.571261000000007
 40
3.000000000000000
 50
180.000000000000000
 51
260.000000000000340
  0
LINE
  8
0
  6
CONTINUOUS
 62
256
 10
-375.547203000000020
 20
-17.311167000000001
 11
-375.547203000000020
 21
-75.571261000000007
  0
ARC
  8
0
  6
CONTINUOUS
 62
256
 10
-372.547203000000020
 20
-17.311167000000001
 40
2.999999999999996
 50
99.999999999999659
 51
180.000000000000000
  0
ARC
  8
0
  6
CONTINUOUS
 62
256
 10
-270.047118000000010
 20
-7.160005000000000
 40
5.000000000000020
 50
180.000074999999980
 51
260.000000000000110
  0
ARC
  8
0
  6
CONTINUOUS
 62
256
 10
-275.047203000000020
 20
5.754988000000000
 40
3.000000000000000
 50
180.000000000000000
 51
240.000934999999570
  0
ARC
  8
0
  6
CONTINUOUS
 62
256
 10
-278.047118000000010
 20
0.558786000000000
 40
3.000000000000000
 50
360.000000000000000
 51
60.000934999999608
  0
POINT
  8
0
  6
CONTINUOUS
 62
256
 10
-278.047118000000010
 20
3.558786000000000
  0
LINE
  8
0
  6
CONTINUOUS
 62
256
 10
-257.726240000000020
 20
-14.409641000000001
 11
-270.915359000000020
 21
-12.084044000000000
  0
POINT
  8
0
  6
CONTINUOUS
 62
256
 10
-257.547185000000010
 20
-14.441214000000000
  0
ARC
  8
0
  6
CONTINUOUS
 62
256
 10
-258.247185000000000
 20
-17.364065000000000
 40
2.999999999999991
 50
25.841933000000097
 51
80.000000000000355
  0
ARC
  8
0
  6
CONTINUOUS
 62
256
 10
-270.047118000000010
 20
-85.722421999999995
 40
4.999999999999999
 50
99.999999999999858
 51
179.999924999999960
  0
LINE
  8
0
  6
CONTINUOUS
 62
256
 10
-275.047118000000010
 20
-85.722421999999995
 11
-275.047118000000010
 21
0.558786000000000
  0
ARC
  8
0
  6
CONTINUOUS
 62
256
 10
-258.247185000000000
 20
-75.518362999999994
 40
3.000000000000003
 50
279.999999999999660
 51
334.158067000000020
  0
LINE
  8
0
  6
CONTINUOUS
 62
256
 10
-257.726240000000020
 20
-78.472785999999999
 11
-270.915359000000020
 21
-80.798383999999999
  0
POINT
  8
0
  6
CONTINUOUS
 62
256
 10
-257.547185000000010
 20
-78.441214000000002
  0
LINE
  8
0
  6
CONTINUOUS
 62
256
 10
-255.547185000000010
 20
-76.826031999999998
 11
-255.547185000000010
 21
-16.056394999999998
  0
ARC
  8
0
  6
CONTINUOUS
 62
256
 10
-372.547185000000010
 20
-137.389306000000000
 40
3.000000000000011
 50
90.999999999999602
 51
180.000000000000000
  0
LINE
  8
0
  6
CONTINUOUS
 62
256
 10
-372.599541999999990
 20
-134.389761999999990
 11
-349.029732000000020
 21
-133.978350000000010
  0
LINE
  8
0
  6
CONTINUOUS
 62
256
 10
-375.547185000000010
 20
-146.441214000000000
 11
-375.547185000000010
 21
-137.389306000000000
  0
LINE
  8
0
  6
DASHDOT
 62
256
 10
-365.547185000000010
 20
-150.810221000000010
 11
-365.547185000000010
 21
-129.657224000000010
  0
ARC
  8
0
  6
CONTINUOUS
 62
256
 10
-352.547185000000010
 20
-129.441486000000000
 40
3.000000000000000
 50
180.000000000000000
 51
270.000000000000000
  0
LINE
  8
0
  6
CONTINUOUS
 62
256
 10
-348.047185000000010
 20
-120.602256999999990
 11
-348.047185000000010
 21
-132.441486000000000
  0
ARC
  8
0
  6
CONTINUOUS
 62
256
 10
-349.047185000000010
 20
-132.978501999999990
 40
1.000000000000013
 50
270.999999999998520
 51
0.000000000000000
  0
LINE
  8
0
  6
CONTINUOUS
 62
256
 10
-348.047185000000010
 20
-132.978501999999990
 11
-348.047185000000010
 21
-120.494856000000000
  0
ARC
  8
0
  6
CONTINUOUS
 62
256
 10
-258.547185000000010
 20
-137.389306000000000
 40
3.000000000000000
 50
0.000000000000000
 51
89.000000000000412
  0
ARC
  8
0
  6
CONTINUOUS
 62
256
 10
-275.047185000000010
 20
-131.100382999999990
 40
3.000000000000000
 50
180.000000000000000
 51
269.000000000000340
  0
LINE
  8
0
  6
CONTINUOUS
 62
256
 10
-278.047185000000010
 20
-131.100382999999990
 11
-278.047185000000010
 21
-119.020238000000010
  0
LINE
  8
0
  6
CONTINUOUS
 62
256
 10
-275.099541999999990
 20
-134.099926000000010
 11
-258.494827999999980
 21
-134.389761999999990
  0
LINE
  8
0
  6
DASHDOT
 62
256
 10
-265.547185000000010
 20
-149.471329000000000
 11
-265.547185000000010
 21
-130.236229000000010
  0
LINE
  8
0
  6
CONTINUOUS
 62
256
 10
-255.547185000000010
 20
-146.441214000000000
 11
-255.547185000000010
 21
-137.389306000000000
  0
LINE
  8
0
  6
CONTINUOUS
 62
256
 10
-375.547185000000010
 20
-146.441214000000000
 11
-255.547185000000010
 21
-146.441214000000000
  0
LINE
  8
0
  6
CONTINUOUS
 62
256
 10
-373.068148000000010
 20
-78.525683999999998
 11
-359.678944000000000
 21
-80.886561999999998
  0
ARC
  8
0
  6
CONTINUOUS
 62
256
 10
-360.547185000000010
 20
-85.810601000000005
 40
5.000000000000000
 50
0.000000000000000
 51
80.000000000000142
  0
LINE
  8
0
  6
CONTINUOUS
 62
256
 10
-355.547185000000010
 20
-85.810601000000005
 11
-355.547185000000010
 21
-129.441486000000000
  0
LINE
  8
0
  6
CONTINUOUS
 62
256
 10
-373.568148000000010
 20
-14.444907000000001
 11
-360.178944000000000
 21
-12.084028999999999
  0
ARC
  8
0
  6
CONTINUOUS
 62
256
 10
-361.047185000000010
 20
-7.159990000000000
 40
4.999999999999998
 50
279.999999999999890
 51
360.000000000000000
  0
POINT
  8
0
  6
CONTINUOUS
 62
256
 10
-356.047185000000010
 20
-11.355487999999999
  0
ARC
  8
0
  6
CONTINUOUS
 62
256
 10
-353.047185000000010
 20
6.558786000000000
 40
3.000000000000000
 50
90.000000000000000
 51
180.000000000000000
  0
LINE
  8
0
  6
CONTINUOUS
 62
256
 10
-348.047185000000010
 20
9.558786000000000
 11
-348.047185000000010
 21
6.058514000000000
  0
LINE
  8
0
  6
CONTINUOUS
 62
256
 10
-348.047185000000010
 20
9.558786000000000
 11
-353.047185000000010
 21
9.558786000000000
  0
LINE
  8
0
  6
CONTINUOUS
 62
256
 10
-348.047185000000010
 20
-120.911998999999990
 11
-348.047185000000010
 21
9.558514000000001
  0
LINE
  8
0
  6
CONTINUOUS
 62
256
 10
-356.047185000000010
 20
-83.631151000000003
 11
-356.047185000000010
 21
6.558786000000000
  0
LINE
  8
0
  6
CONTINUOUS
 62
256
 10
-278.047185000000010
 20
-119.020238000000010
 11
-278.047185000000010
 21
5.388567000000000
  0
LINE
  8
0
  6
CONTINUOUS
 62
256
 10
-275.047118000000010
 20
-85.722421999999995
 11
-275.047118000000010
 21
-93.441214000000002
  0
LINE
  8
0
  6
CONTINUOUS
 62
256
 10
-352.547185000000010
 20
-132.441486000000000
 11
-348.047185000000010
 21
-132.441486000000000
  0
CIRCLE
  8
0
  6
CONTINUOUS
 62
256
 10
-28.239588999999999
 20
-46.441214000000002
 40
20.000000000000000
  0
ARC
  8
0
  6
CONTINUOUS
 62
256
 10
3.769139000000000
 20
-20.441486000000001
 40
30.000000000000004
 50
360.000000000000000
 51
90.000000000000000
  0
ARC
  8
0
  6
CONTINUOUS
 62
256
 10
-278.047118000000010
 20
-93.441214000000002
 40
3.000000000000009
 50
299.999065000000430
 51
0.000000000000000
  0
POINT
  8
0
  6
CONTINUOUS
 62
256
 10
-278.047118000000010
 20
-96.441214000000002
  0
ARC
  8
0
  6
CONTINUOUS
 62
256
 10
-275.047203000000020
 20
-98.637415000000004
 40
3.000000000000009
 50
119.999065000000410
 51
180.000000000000000
  0
ARC
  8
0
  6
CONTINUOUS
 62
256
 10
43.760103000000001
 20
-37.715192999999999
 40
3.000000000000000
 50
90.000000000000000
 51
180.000000000000000
  0
POINT
  8
0
  6
CONTINUOUS
 62
256
 10
-153.785564999999990
 20
-35.441214000000002
  0
LINE
  8
0
  6
CONTINUOUS
 62
256
 10
-78.239588999999995
 20
-46.441214000000002
 11
-78.239588999999995
 21
-81.441214000000002
  0
ARC
  8
0
  6
CONTINUOUS
 62
256
 10
-43.239589000000002
 20
-81.441214000000002
 40
34.999999999999993
 50
180.000000000000000
 51
270.000000000000000
  0
LINE
  8
0
  6
CONTINUOUS
 62
256
 10
-43.239589000000002
 20
-116.441214000000000
 11
-13.239589000000000
 21
-116.441214000000000
  0
LINE
  8
0
  6
CONTINUOUS
 62
256
 10
33.769139000000003
 20
-146.441214000000000
 11
33.769139000000003
 21
-20.441486000000001
  0
ARC
  8
0
  6
CONTINUOUS
 62
256
 10
-28.239588999999999
 20
-46.441214000000002
 40
50.000000000000000
 50
360.000000000000000
 51
180.000000000000000
  0
LINE
  8
0
  6
CONTINUOUS
 62
256
 10
3.769139000000000
 20
9.558514000000001
 11
-56.248316000000003
 21
9.558514000000001
  0
ARC
  8
0
  6
CONTINUOUS
 62
256
 10
-56.248316000000003
 20
-20.441486000000001
 40
30.000000000000000
 50
90.000000000000000
 51
180.000000000000000
  0
LINE
  8
0
  6
CONTINUOUS
 62
256
 10
-86.248316000000003
 20
-146.441214000000000
 11
-86.248316000000003
 21
-19.932486000000001
  0
CIRCLE
  8
0
  6
CONTINUOUS
 62
256
 10
-28.239588999999999
 20
-46.441214000000002
 40
26.000000000000000
  0
CIRCLE
  8
0
  6
CONTINUOUS
 62
256
 10
-28.239588999999999
 20
-46.441214000000002
 40
23.000000000000000
  0
LINE
  8
0
  6
CONTINUOUS
 62
256
 10
21.760411000000001
 20
-46.441214000000002
 11
21.760411000000001
 21
-81.441214000000002
  0
ARC
  8
0
  6
CONTINUOUS
 62
256
 10
-13.239589000000000
 20
-81.441214000000002
 40
35.000000000000000
 50
270.000000000000000
 51
0.000000000000000
  0
LINE
  8
0
  6
CONTINUOUS
 62
256
 10
209.166073000000010
 20
-32.941214000000002
 11
209.166073000000010
 21
-35.441214000000002
  0
LINE
  8
0
  6
CONTINUOUS
 62
256
 10
209.166073000000010
 20
-35.441214000000002
 11
209.166073000000010
 21
-46.441214000000002
  0
ARC
  8
0
  6
CONTINUOUS
 62
256
 10
209.566072999999990
 20
-57.041213999999997
 40
0.400000000000006
 50
180.000000000000000
 51
270.000000000000000
  0
LINE
  8
0
  6
CONTINUOUS
 62
256
 10
209.166073000000010
 20
-57.041213999999997
 11
209.166073000000010
 21
-46.441214000000002
  0
LINE
  8
0
  6
DASHDOT
 62
256
 10
138.260102999999990
 20
-13.891211000000000
 11
138.260102999999990
 21
14.088139000000000
  0
LINE
  8
0
  6
DASHED
 62
256
 10
131.260102999999990
 20
-11.107359000000001
 11
131.260102999999990
 21
3.392641000000000
  0
LINE
  8
0
  6
DASHED
 62
256
 10
145.260102999999990
 20
-11.107359000000001
 11
145.260102999999990
 21
3.392641000000000
  0
ARC
  8
0
  6
DASHED
 62
256
 10
138.260102999999990
 20
3.392641000000000
 40
7.000000000000000
 50
0.000000000000000
 51
180.000000000000000
  0
LINE
  8
0
  6
DASHDOT
 62
256
 10
127.849804000000010
 20
3.392641000000000
 11
148.223986000000000
 21
3.392641000000000
  0
LINE
  8
0
  6
DASHDOT
 62
256
 10
12.226651000000000
 20
-68.607359000000002
 11
173.217192000000010
 21
-68.607359000000002
  0
LINE
  8
0
  6
CONTINUOUS
 62
256
 10
58.760103000000001
 20
-122.107359000000000
 11
157.760102999999990
 21
-122.107359000000000
  0
LINE
  8
0
  6
CONTINUOUS
 62
256
 10
164.260102999999990
 20
-82.607359000000002
 11
58.760103000000001
 21
-82.607359000000002
  0
LINE
  8
0
  6
CONTINUOUS
 62
256
 10
164.260102999999990
 20
-88.235393999999999
 11
58.760103000000001
 21
-88.235393999999999
  0
LINE
  8
0
  6
CONTINUOUS
 62
256
 10
164.260102999999990
 20
-86.993474000000006
 11
58.760103000000001
 21
-86.993474000000006
  0
LINE
  8
0
  6
CONTINUOUS
 62
256
 10
163.887442999999990
 20
-91.445599000000001
 11
58.760103000000001
 21
-91.445599000000001
  0
LINE
  8
0
  6
CONTINUOUS
 62
256
 10
163.842194000000010
 20
-92.792000999999999
 11
58.760103000000001
 21
-92.792000999999999
  0
LINE
  8
0
  6
CONTINUOUS
 62
256
 10
163.728433000000000
 20
-95.884732000000000
 11
58.760103000000001
 21
-95.884732000000000
  0
LINE
  8
0
  6
CONTINUOUS
 62
256
 10
162.863209000000010
 20
-97.363754999999998
 11
58.760103000000001
 21
-97.363754999999998
  0
LINE
  8
0
  6
CONTINUOUS
 62
256
 10
162.760102999999990
 20
-100.321749999999990
 11
58.760103000000001
 21
-100.321749999999990
  0
LINE
  8
0
  6
CONTINUOUS
 62
256
 10
162.760102999999990
 20
-101.910960000000000
 11
58.760103000000001
 21
-101.910960000000000
  0
LINE
  8
0
  6
CONTINUOUS
 62
256
 10
157.760102999999990
 20
-109.649272999999990
 11
58.760103000000001
 21
-109.649272999999990
  0
LINE
  8
0
  6
CONTINUOUS
 62
256
 10
162.738261999999990
 20
-114.740442000000000
 11
58.760103000000001
 21
-114.740442000000000
  0
LINE
  8
0
  6
CONTINUOUS
 62
256
 10
162.436118999999990
 20
-119.107359000000000
 11
58.760103000000001
 21
-119.107359000000000
  0
LINE
  8
0
  6
CONTINUOUS
 62
256
 10
162.399774000000010
 20
-119.607359000000000
 11
58.760103000000001
 21
-119.607359000000000
  0
LINE
  8
0
  6
CONTINUOUS
 62
256
 10
158.260102999999990
 20
-113.705339000000000
 11
158.260102999999990
 21
-104.855759000000010
  0
LINE
  8
0
  6
CONTINUOUS
 62
256
 10
157.760102999999990
 20
-104.855759000000010
 11
158.260102999999990
 21
-104.855759000000010
  0
LINE
  8
0
  6
CONTINUOUS
 62
256
 10
158.260102999999990
 20
-111.946759000000000
 11
157.760102999999990
 21
-111.946759000000000
  0
LINE
  8
0
  6
CONTINUOUS
 62
256
 10
164.260102999999990
 20
-68.607359000000002
 11
164.260102999999990
 21
-88.107359000000002
  0
ARC
  8
0
  6
CONTINUOUS
 62
256
 10
163.760102999999990
 20
-88.107359000000002
 40
0.499999999999995
 50
315.115137999999770
 51
0.000000000000000
  0
ARC
  8
0
  6
CONTINUOUS
 62
256
 10
164.468628999999990
 20
-88.813044000000005
 40
0.499999999999995
 50
135.115137999999720
 51
178.347093000000650
  0
LINE
  8
0
  6
CONTINUOUS
 62
256
 10
158.260102999999990
 20
-113.705339000000000
 11
162.260102999999990
 21
-113.705339000000000
  0
ARC
  8
0
  6
CONTINUOUS
 62
256
 10
162.260102999999990
 20
-113.205339000000000
 40
0.500000000000000
 50
270.000000000000000
 51
0.000000000000000
  0
LINE
  8
0
  6
CONTINUOUS
 62
256
 10
162.760102999999990
 20
-113.205339000000000
 11
162.760102999999990
 21
-97.806000999999995
  0
ARC
  8
0
  6
CONTINUOUS
 62
256
 10
162.719303999999990
 20
-96.098155000000006
 40
1.000000000000005
 50
301.359036000000630
 51
357.746046999999980
  0
ARC
  8
0
  6
CONTINUOUS
 62
256
 10
172.760102999999990
 20
-114.734900000000000
 40
9.999999999999993
 50
176.274963000000040
 51
180.000000000000000
  0
ARC
  8
0
  6
CONTINUOUS
 62
256
 10
163.760102999999990
 20
-97.806000999999995
 40
1.000000000000005
 50
121.359036000000670
 51
180.000000000000000
  0
LINE
  8
0
  6
DASHDOT
 62
256
 10
154.702700999999990
 20
-108.205339000000000
 11
169.333866000000000
 21
-108.205339000000000
  0
ARC
  8
0
  6
CONTINUOUS
 62
256
 10
-535.739897000000040
 20
-68.607359000000002
 40
700.000000000000000
 50
357.134181000000070
 51
358.347092999999970
  0
ARC
  8
0
  6
CONTINUOUS
 62
256
 10
-535.739897000000040
 20
-68.607359000000002
 40
700.000000000000000
 50
355.768744000000030
 51
356.379937999999980
  0
ARC
  8
0
  6
CONTINUOUS
 62
256
 10
160.357617000000000
 20
-120.107359000000000
 40
2.000000000000000
 50
270.000000000000000
 51
355.768743999999800
  0
LINE
  8
0
  6
CONTINUOUS
 62
256
 10
157.760102999999990
 20
-122.107359000000000
 11
160.357617000000000
 21
-122.107359000000000
  0
LINE
  8
0
  6
CONTINUOUS
 62
256
 10
157.760102999999990
 20
-68.607359000000002
 11
157.760102999999990
 21
-122.107359000000000
  0
LINE
  8
0
  6
CONTINUOUS
 62
256
 10
158.260102999999990
 20
-23.509378999999999
 11
158.260102999999990
 21
-32.358960000000003
  0
LINE
  8
0
  6
CONTINUOUS
 62
256
 10
157.760102999999990
 20
-32.358960000000003
 11
158.260102999999990
 21
-32.358960000000003
  0
LINE
  8
0
  6
CONTINUOUS
 62
256
 10
158.260102999999990
 20
-25.267959999999999
 11
157.760102999999990
 21
-25.267959999999999
  0
LINE
  8
0
  6
CONTINUOUS
 62
256
 10
164.260102999999990
 20
-68.607359000000002
 11
164.260102999999990
 21
-49.107359000000002
  0
ARC
  8
0
  6
CONTINUOUS
 62
256
 10
163.760102999999990
 20
-49.107359000000002
 40
0.500000000000000
 50
0.000000000000000
 51
44.884862000000268
  0
ARC
  8
0
  6
CONTINUOUS
 62
256
 10
164.468628999999990
 20
-48.401674999999997
 40
0.499999999999994
 50
181.652907000000170
 51
224.884862000000280
  0
LINE
  8
0
  6
CONTINUOUS
 62
256
 10
158.260102999999990
 20
-23.509378999999999
 11
162.260102999999990
 21
-23.509378999999999
  0
ARC
  8
0
  6
CONTINUOUS
 62
256
 10
162.260102999999990
 20
-24.009378999999999
 40
0.500000000000000
 50
0.000000000000000
 51
90.000000000000000
  0
LINE
  8
0
  6
CONTINUOUS
 62
256
 10
162.760102999999990
 20
-24.009378999999999
 11
162.760102999999990
 21
-39.408718000000000
  0
ARC
  8
0
  6
CONTINUOUS
 62
256
 10
162.719303999999990
 20
-41.116563999999997
 40
1.000000000000004
 50
2.253953000000067
 51
58.640963999999322
  0
ARC
  8
0
  6
CONTINUOUS
 62
256
 10
172.760102999999990
 20
-22.479818999999999
 40
10.000000000000000
 50
180.000000000000000
 51
183.725036999999960
  0
ARC
  8
0
  6
CONTINUOUS
 62
256
 10
163.760102999999990
 20
-39.408718000000000
 40
1.000000000000000
 50
180.000000000000000
 51
238.640963999999340
  0
LINE
  8
0
  6
DASHDOT
 62
256
 10
154.702700999999990
 20
-29.009378999999999
 11
169.333866000000000
 21
-29.009378999999999
  0
ARC
  8
0
  6
CONTINUOUS
 62
256
 10
-535.739897000000040
 20
-68.607359000000002
 40
700.000000000000000
 50
1.652907000000000
 51
2.865819000000000
  0
ARC
  8
0
  6
CONTINUOUS
 62
256
 10
-535.739897000000040
 20
-68.607359000000002
 40
700.000000000000000
 50
3.620062000000000
 51
4.231256000000000
  0
ARC
  8
0
  6
CONTINUOUS
 62
256
 10
160.357617000000000
 20
-17.107358999999999
 40
1.999999999999991
 50
4.231256000000047
 51
90.000000000000000
  0
LINE
  8
0
  6
CONTINUOUS
 62
256
 10
157.760102999999990
 20
-15.107359000000001
 11
160.357617000000000
 21
-15.107359000000001
  0
LINE
  8
0
  6
CONTINUOUS
 62
256
 10
162.399774000000010
 20
-17.607358999999999
 11
58.760103000000001
 21
-17.607358999999999
  0
LINE
  8
0
  6
CONTINUOUS
 62
256
 10
162.436118999999990
 20
-18.107358999999999
 11
58.760103000000001
 21
-18.107358999999999
  0
LINE
  8
0
  6
CONTINUOUS
 62
256
 10
162.738261999999990
 20
-22.474277000000001
 11
58.760103000000001
 21
-22.474277000000001
  0
LINE
  8
0
  6
CONTINUOUS
 62
256
 10
157.760102999999990
 20
-27.565445000000000
 11
58.760103000000001
 21
-27.565445000000000
  0
LINE
  8
0
  6
CONTINUOUS
 62
256
 10
162.760102999999990
 20
-35.303758000000002
 11
58.760103000000001
 21
-35.303758000000002
  0
LINE
  8
0
  6
CONTINUOUS
 62
256
 10
162.760102999999990
 20
-36.892968000000003
 11
58.760103000000001
 21
-36.892968000000003
  0
LINE
  8
0
  6
CONTINUOUS
 62
256
 10
162.863209000000010
 20
-39.850963999999998
 11
58.760103000000001
 21
-39.850963999999998
  0
LINE
  8
0
  6
CONTINUOUS
 62
256
 10
163.728433000000000
 20
-41.329987000000003
 11
58.760103000000001
 21
-41.329987000000003
  0
LINE
  8
0
  6
CONTINUOUS
 62
256
 10
163.842194000000010
 20
-44.422718000000003
 11
58.760103000000001
 21
-44.422718000000003
  0
LINE
  8
0
  6
CONTINUOUS
 62
256
 10
163.887442999999990
 20
-45.769120000000001
 11
58.760103000000001
 21
-45.769120000000001
  0
LINE
  8
0
  6
CONTINUOUS
 62
256
 10
164.243432000000010
 20
-48.979325000000003
 11
58.760103000000001
 21
-48.979325000000003
  0
LINE
  8
0
  6
CONTINUOUS
 62
256
 10
164.260102999999990
 20
-50.221243999999999
 11
58.760103000000001
 21
-50.221243999999999
  0
LINE
  8
0
  6
CONTINUOUS
 62
256
 10
164.260102999999990
 20
-54.607359000000002
 11
58.760103000000001
 21
-54.607359000000002
  0
LINE
  8
0
  6
CONTINUOUS
 62
256
 10
150.760102999999990
 20
-15.107359000000001
 11
157.760102999999990
 21
-15.107359000000001
  0
LINE
  8
0
  6
CONTINUOUS
 62
256
 10
149.760102999999990
 20
17.392641000000001
 11
149.760102999999990
 21
-11.107359000000001
  0
LINE
  8
0
  6
CONTINUOUS
 62
256
 10
150.760102999999990
 20
-11.107359000000001
 11
150.760102999999990
 21
-16.107358999999999
  0
LINE
  8
0
  6
CONTINUOUS
 62
256
 10
150.760102999999990
 20
-11.107359000000001
 11
75.760103000000001
 21
-11.107359000000001
  0
LINE
  8
0
  6
CONTINUOUS
 62
256
 10
75.760103000000001
 20
-16.107358999999999
 11
150.760102999999990
 21
-16.107358999999999
  0
LINE
  8
0
  6
CONTINUOUS
 62
256
 10
157.760102999999990
 20
-68.607359000000002
 11
157.760102999999990
 21
-15.107359000000001
  0
ARC
  8
0
  6
CONTINUOUS
 62
256
 10
148.760102999999990
 20
17.392641000000001
 40
1.000000000000000
 50
0.000000000000000
 51
90.000000000000000
  0
LINE
  8
0
  6
CONTINUOUS
 62
256
 10
77.760103000000001
 20
18.392641000000001
 11
148.760102999999990
 21
18.392641000000001
  0
INSERT
  8
0
  2
ZU_SYM_1
 10
162.760099999999990
 20
-108.205339000000000
 50
180.000000000000000
  0
INSERT
  8
0
  2
ZU_SYM_2
 10
162.760099999999990
 20
-29.009378999999999
 41
-1.000000000000000
 50
0.000000000000007
  0
LINE
  8
0
  6
DASHDOT
 62
256
 10
176.167302000000010
 20
223.235494999999990
 11
-92.597244000000003
 21
223.235494999999990
  0
ARC
  8
0
  6
CONTINUOUS
 62
256
 10
77.760103000000001
 20
252.235494999999990
 40
1.000000000000000
 50
90.000000000000000
 51
180.000000000000000
  0
ARC
  8
0
  6
CONTINUOUS
 62
256
 10
77.760103000000001
 20
194.235494999999990
 40
1.000000000000000
 50
180.000000000000000
 51
270.000000000000000
  0
ARC
  8
0
  6
CONTINUOUS
 62
256
 10
148.760102999999990
 20
194.235494999999990
 40
1.000000000000000
 50
270.000000000000000
 51
0.000000000000000
  0
ARC
  8
0
  6
CONTINUOUS
 62
256
 10
148.760102999999990
 20
252.235494999999990
 40
1.000000000000000
 50
0.000000000000000
 51
90.000000000000000
  0
LINE
  8
0
  6
CONTINUOUS
 62
256
 10
76.760103000000001
 20
252.235494999999990
 11
76.760103000000001
 21
194.235494999999990
  0
LINE
  8
0
  6
CONTINUOUS
 62
256
 10
149.760102999999990
 20
194.235494999999990
 11
149.760102999999990
 21
252.235494999999990
  0
LINE
  8
0
  6
CONTINUOUS
 62
256
 10
77.760103000000001
 20
193.235494999999990
 11
148.760102999999990
 21
193.235494999999990
  0
LINE
  8
0
  6
CONTINUOUS
 62
256
 10
77.760103000000001
 20
253.235494999999990
 11
148.760102999999990
 21
253.235494999999990
  0
LINE
  8
0
  6
CONTINUOUS
 62
256
 10
164.260102999999990
 20
223.235494999999990
 11
164.260102999999990
 21
203.735494999999990
  0
ARC
  8
0
  6
CONTINUOUS
 62
256
 10
163.760102999999990
 20
203.735494999999990
 40
0.499999999999995
 50
315.115137999999770
 51
0.000000000000000
  0
ARC
  8
0
  6
CONTINUOUS
 62
256
 10
164.468628999999990
 20
203.029811000000000
 40
0.499999999999995
 50
135.115137999999720
 51
178.347092999999010
  0
LINE
  8
0
  6
CONTINUOUS
 62
256
 10
158.260102999999990
 20
178.137515000000010
 11
162.260102999999990
 21
178.137515000000010
  0
ARC
  8
0
  6
CONTINUOUS
 62
256
 10
162.260102999999990
 20
178.637515000000010
 40
0.500000000000000
 50
270.000000000000000
 51
0.000000000000000
  0
LINE
  8
0
  6
CONTINUOUS
 62
256
 10
162.760102999999990
 20
178.637515000000010
 11
162.760102999999990
 21
194.036854000000010
  0
ARC
  8
0
  6
CONTINUOUS
 62
256
 10
162.719303999999990
 20
195.744699999999990
 40
1.000000000000005
 50
301.359036000000630
 51
357.746046999999980
  0
ARC
  8
0
  6
CONTINUOUS
 62
256
 10
172.760102999999990
 20
177.107954000000010
 40
9.999999999999993
 50
176.274962999999960
 51
180.000000000000000
  0
ARC
  8
0
  6
CONTINUOUS
 62
256
 10
163.760102999999990
 20
194.036854000000010
 40
1.000000000000005
 50
121.359036000000670
 51
180.000000000000000
  0
LINE
  8
0
  6
CONTINUOUS
 62
256
 10
157.760102999999990
 20
170.735494999999990
 11
160.430879000000000
 21
170.735494999999990
  0
ARC
  8
0
  6
CONTINUOUS
 62
256
 10
160.430879000000000
 20
172.735494999999990
 40
2.000000000000000
 50
270.000000000000000
 51
355.851050000000380
  0
LINE
  8
0
  6
CONTINUOUS
 62
256
 10
158.260102999999990
 20
178.137515000000010
 11
158.260102999999990
 21
186.987096000000010
  0
LINE
  8
0
  6
CONTINUOUS
 62
256
 10
157.760102999999990
 20
186.987096000000010
 11
158.260102999999990
 21
186.987096000000010
  0
LINE
  8
0
  6
CONTINUOUS
 62
256
 10
158.260102999999990
 20
179.896096000000000
 11
157.760102999999990
 21
179.896096000000000
  0
ARC
  8
0
  6
CONTINUOUS
 62
256
 10
148.760102999999990
 20
193.735494999999990
 40
2.000000000000000
 50
270.000000000000000
 51
0.000000000000000
  0
LINE
  8
0
  6
DASHDOT
 62
256
 10
154.702700999999990
 20
183.637515000000010
 11
169.333866000000000
 21
183.637515000000010
  0
ARC
  8
0
  6
CONTINUOUS
 62
256
 10
77.760103000000001
 20
193.735494999999990
 40
2.000000000000000
 50
180.000000000000000
 51
270.000000000000000
  0
LINE
  8
0
  6
CONTINUOUS
 62
256
 10
77.760103000000001
 20
191.735494999999990
 11
148.760102999999990
 21
191.735494999999990
  0
LINE
  8
0
  6
CONTINUOUS
 62
256
 10
58.760103000000001
 20
170.735494999999990
 11
157.760102999999990
 21
170.735494999999990
  0
ARC
  8
0
  6
CONTINUOUS
 62
256
 10
-535.739897000000040
 20
223.235494999999990
 40
700.000000000000110
 50
355.851049999999990
 51
356.379937999999980
  0
ARC
  8
0
  6
CONTINUOUS
 62
256
 10
-535.739897000000040
 20
223.235494999999990
 40
700.000000000000000
 50
357.134181000000070
 51
358.347092999999970
  0
ARC
  8
0
  6
CONTINUOUS
 62
256
 10
160.573071000000000
 20
174.735494999999990
 40
2.000000000000000
 50
270.000000000000000
 51
356.015636000000090
  0
ARC
  8
0
  6
CONTINUOUS
 62
256
 10
160.538063999999990
 20
174.235494999999990
 40
2.000000000000000
 50
270.000000000000000
 51
355.974492000000230
  0
LINE
  8
0
  6
CONTINUOUS
 62
256
 10
157.760102999999990
 20
172.735494999999990
 11
160.573071000000000
 21
172.735494999999990
  0
LINE
  8
0
  6
CONTINUOUS
 62
256
 10
157.760102999999990
 20
172.235494999999990
 11
160.538063999999990
 21
172.235494999999990
  0
LINE
  8
0
  6
CONTINUOUS
 62
256
 10
157.760102999999990
 20
172.735494999999990
 11
58.760103000000001
 21
172.735494999999990
  0
LINE
  8
0
  6
CONTINUOUS
 62
256
 10
157.760102999999990
 20
172.235494999999990
 11
58.760103000000001
 21
172.235494999999990
  0
LINE
  8
0
  6
CONTINUOUS
 62
256
 10
157.760102999999990
 20
178.730840000000000
 11
58.760103000000001
 21
178.730840000000000
  0
LINE
  8
0
  6
CONTINUOUS
 62
256
 10
157.760102999999990
 20
177.102411999999990
 11
58.760103000000001
 21
177.102411999999990
  0
LINE
  8
0
  6
CONTINUOUS
 62
256
 10
157.760102999999990
 20
182.193580999999990
 11
58.760103000000001
 21
182.193580999999990
  0
LINE
  8
0
  6
CONTINUOUS
 62
256
 10
157.760102999999990
 20
183.195060000000010
 11
58.760103000000001
 21
183.195060000000010
  0
LINE
  8
0
  6
CONTINUOUS
 62
256
 10
157.760102999999990
 20
189.931894000000000
 11
58.760103000000001
 21
189.931894000000000
  0
LINE
  8
0
  6
CONTINUOUS
 62
256
 10
157.760102999999990
 20
191.521104000000010
 11
58.760103000000001
 21
191.521104000000010
  0
LINE
  8
0
  6
CONTINUOUS
 62
256
 10
157.760102999999990
 20
203.235494999999990
 11
150.760102999999990
 21
203.235494999999990
  0
LINE
  8
0
  6
CONTINUOUS
 62
256
 10
75.760103000000001
 20
203.235494999999990
 11
58.760103000000001
 21
203.235494999999990
  0
LINE
  8
0
  6
CONTINUOUS
 62
256
 10
157.760102999999990
 20
200.397255000000000
 11
150.760102999999990
 21
200.397255000000000
  0
LINE
  8
0
  6
CONTINUOUS
 62
256
 10
75.760103000000001
 20
200.397255000000000
 11
58.760103000000001
 21
200.397255000000000
  0
LINE
  8
0
  6
CONTINUOUS
 62
256
 10
157.760102999999990
 20
199.050853999999990
 11
150.760102999999990
 21
199.050853999999990
  0
LINE
  8
0
  6
CONTINUOUS
 62
256
 10
75.760103000000001
 20
199.050853999999990
 11
58.760103000000001
 21
199.050853999999990
  0
LINE
  8
0
  6
CONTINUOUS
 62
256
 10
157.760102999999990
 20
195.958123000000000
 11
150.760102999999990
 21
195.958123000000000
  0
LINE
  8
0
  6
CONTINUOUS
 62
256
 10
75.760103000000001
 20
195.958123000000000
 11
58.760103000000001
 21
195.958123000000000
  0
LINE
  8
0
  6
CONTINUOUS
 62
256
 10
157.760102999999990
 20
194.479098999999990
 11
150.760102999999990
 21
194.479098999999990
  0
LINE
  8
0
  6
CONTINUOUS
 62
256
 10
75.760103000000001
 20
194.479098999999990
 11
58.760103000000001
 21
194.479098999999990
  0
LINE
  8
0
  6
CONTINUOUS
 62
256
 10
162.760102999999990
 20
189.411746999999990
 11
157.760102999999990
 21
189.411746999999990
  0
LINE
  8
0
  6
CONTINUOUS
 62
256
 10
162.760102999999990
 20
192.020010000000010
 11
157.760102999999990
 21
192.020010000000010
  0
LINE
  8
0
  6
CONTINUOUS
 62
256
 10
162.760102999999990
 20
193.921326999999990
 11
157.760102999999990
 21
193.921326999999990
  0
LINE
  8
0
  6
CONTINUOUS
 62
256
 10
163.745704999999990
 20
196.404680000000010
 11
157.760102999999990
 21
196.404680000000010
  0
LINE
  8
0
  6
CONTINUOUS
 62
256
 10
163.825447000000000
 20
198.571179000000000
 11
157.760102999999990
 21
198.571179000000000
  0
LINE
  8
0
  6
CONTINUOUS
 62
256
 10
163.900195000000000
 20
200.791303000000000
 11
157.760102999999990
 21
200.791303000000000
  0
LINE
  8
0
  6
CONTINUOUS
 62
256
 10
164.012894999999990
 20
203.235494999999990
 11
157.760102999999990
 21
203.235494999999990
  0
LINE
  8
0
  6
CONTINUOUS
 62
256
 10
58.760103000000001
 20
223.235494999999990
 11
58.760103000000001
 21
170.735494999999990
  0
LINE
  8
0
  6
CONTINUOUS
 62
256
 10
75.760103000000001
 20
223.235494999999990
 11
75.760103000000001
 21
193.735494999999990
  0
LINE
  8
0
  6
CONTINUOUS
 62
256
 10
150.760102999999990
 20
223.235494999999990
 11
150.760102999999990
 21
193.735494999999990
  0
LINE
  8
0
  6
CONTINUOUS
 62
256
 10
157.760102999999990
 20
170.735494999999990
 11
157.760102999999990
 21
223.235494999999990
  0
LINE
  8
0
  6
CONTINUOUS
 62
256
 10
164.012894999999990
 20
243.235494999999990
 11
157.760102999999990
 21
243.235494999999990
  0
LINE
  8
0
  6
CONTINUOUS
 62
256
 10
163.900195000000000
 20
245.679687000000000
 11
157.760102999999990
 21
245.679687000000000
  0
LINE
  8
0
  6
CONTINUOUS
 62
256
 10
163.825447000000000
 20
247.899811000000000
 11
157.760102999999990
 21
247.899811000000000
  0
LINE
  8
0
  6
CONTINUOUS
 62
256
 10
163.745704999999990
 20
250.066309999999990
 11
157.760102999999990
 21
250.066309999999990
  0
LINE
  8
0
  6
CONTINUOUS
 62
256
 10
162.760102999999990
 20
252.549663000000010
 11
157.760102999999990
 21
252.549663000000010
  0
LINE
  8
0
  6
CONTINUOUS
 62
256
 10
162.760102999999990
 20
254.450979999999990
 11
157.760102999999990
 21
254.450979999999990
  0
LINE
  8
0
  6
CONTINUOUS
 62
256
 10
162.760102999999990
 20
257.059242999999980
 11
157.760102999999990
 21
257.059242999999980
  0
LINE
  8
0
  6
CONTINUOUS
 62
256
 10
75.760103000000001
 20
251.991891000000010
 11
58.760103000000001
 21
251.991891000000010
  0
LINE
  8
0
  6
CONTINUOUS
 62
256
 10
75.760103000000001
 20
250.512867000000000
 11
58.760103000000001
 21
250.512867000000000
  0
LINE
  8
0
  6
CONTINUOUS
 62
256
 10
75.760103000000001
 20
247.420136000000010
 11
58.760103000000001
 21
247.420136000000010
  0
LINE
  8
0
  6
CONTINUOUS
 62
256
 10
75.760103000000001
 20
246.073735000000000
 11
58.760103000000001
 21
246.073735000000000
  0
LINE
  8
0
  6
CONTINUOUS
 62
256
 10
75.760103000000001
 20
243.235494999999990
 11
58.760103000000001
 21
243.235494999999990
  0
LINE
  8
0
  6
CONTINUOUS
 62
256
 10
157.760102999999990
 20
263.275930000000020
 11
58.760103000000001
 21
263.275930000000020
  0
LINE
  8
0
  6
CONTINUOUS
 62
256
 10
157.760102999999990
 20
267.740151000000030
 11
58.760103000000001
 21
267.740151000000030
  0
LINE
  8
0
  6
CONTINUOUS
 62
256
 10
157.760102999999990
 20
246.073735000000000
 11
150.760102999999990
 21
246.073735000000000
  0
LINE
  8
0
  6
CONTINUOUS
 62
256
 10
157.760102999999990
 20
247.420136000000010
 11
150.760102999999990
 21
247.420136000000010
  0
LINE
  8
0
  6
CONTINUOUS
 62
256
 10
157.760102999999990
 20
250.512867000000000
 11
150.760102999999990
 21
250.512867000000000
  0
LINE
  8
0
  6
CONTINUOUS
 62
256
 10
157.760102999999990
 20
251.991891000000010
 11
150.760102999999990
 21
251.991891000000010
  0
LINE
  8
0
  6
CONTINUOUS
 62
256
 10
157.760102999999990
 20
254.949885999999990
 11
58.760103000000001
 21
254.949885999999990
  0
LINE
  8
0
  6
CONTINUOUS
 62
256
 10
157.760102999999990
 20
256.539095999999970
 11
58.760103000000001
 21
256.539095999999970
  0
LINE
  8
0
  6
CONTINUOUS
 62
256
 10
157.760102999999990
 20
243.235494999999990
 11
150.760102999999990
 21
243.235494999999990
  0
LINE
  8
0
  6
CONTINUOUS
 62
256
 10
157.760102999999990
 20
264.277408999999980
 11
58.760103000000001
 21
264.277408999999980
  0
LINE
  8
0
  6
CONTINUOUS
 62
256
 10
157.760102999999990
 20
269.368578000000010
 11
58.760103000000001
 21
269.368578000000010
  0
LINE
  8
0
  6
CONTINUOUS
 62
256
 10
157.760102999999990
 20
274.235495000000010
 11
58.760103000000001
 21
274.235495000000010
  0
LINE
  8
0
  6
CONTINUOUS
 62
256
 10
157.760102999999990
 20
273.735495000000010
 11
58.760103000000001
 21
273.735495000000010
  0
ARC
  8
0
  6
CONTINUOUS
 62
256
 10
160.538063999999990
 20
272.235495000000010
 40
1.999999999999991
 50
4.025508000000537
 51
90.000000000000000
  0
ARC
  8
0
  6
CONTINUOUS
 62
256
 10
160.573071000000000
 20
271.735495000000010
 40
1.999999999999997
 50
3.984364000000725
 51
90.000000000000000
  0
LINE
  8
0
  6
CONTINUOUS
 62
256
 10
157.760102999999990
 20
274.235495000000010
 11
160.538063999999990
 21
274.235495000000010
  0
LINE
  8
0
  6
CONTINUOUS
 62
256
 10
157.760102999999990
 20
273.735495000000010
 11
160.573071000000000
 21
273.735495000000010
  0
LINE
  8
0
  6
CONTINUOUS
 62
256
 10
164.260102999999990
 20
223.235494999999990
 11
164.260102999999990
 21
242.735494999999990
  0
ARC
  8
0
  6
CONTINUOUS
 62
256
 10
163.760102999999990
 20
242.735494999999990
 40
0.500000000000000
 50
0.000000000000000
 51
44.884862000000268
  0
ARC
  8
0
  6
CONTINUOUS
 62
256
 10
164.468628999999990
 20
243.441179000000010
 40
0.499999999999994
 50
181.652907000000990
 51
224.884862000000280
  0
LINE
  8
0
  6
CONTINUOUS
 62
256
 10
158.260102999999990
 20
268.333475000000020
 11
162.260102999999990
 21
268.333475000000020
  0
ARC
  8
0
  6
CONTINUOUS
 62
256
 10
162.260102999999990
 20
267.833475000000020
 40
0.500000000000000
 50
0.000000000000000
 51
90.000000000000000
  0
LINE
  8
0
  6
CONTINUOUS
 62
256
 10
162.760102999999990
 20
267.833475000000020
 11
162.760102999999990
 21
252.434136999999990
  0
ARC
  8
0
  6
CONTINUOUS
 62
256
 10
162.719303999999990
 20
250.726290000000010
 40
1.000000000000004
 50
2.253953000000067
 51
58.640963999999322
  0
ARC
  8
0
  6
CONTINUOUS
 62
256
 10
172.760102999999990
 20
269.363036000000020
 40
10.000000000000000
 50
180.000000000000000
 51
183.725036999999900
  0
ARC
  8
0
  6
CONTINUOUS
 62
256
 10
163.760102999999990
 20
252.434136999999990
 40
1.000000000000000
 50
180.000000000000000
 51
238.640963999999340
  0
LINE
  8
0
  6
CONTINUOUS
 62
256
 10
157.760102999999990
 20
275.735495000000010
 11
160.430879000000000
 21
275.735495000000010
  0
ARC
  8
0
  6
CONTINUOUS
 62
256
 10
160.430879000000000
 20
273.735495000000010
 40
2.000000000000011
 50
4.148950000000435
 51
90.000000000000000
  0
LINE
  8
0
  6
CONTINUOUS
 62
256
 10
158.260102999999990
 20
268.333475000000020
 11
158.260102999999990
 21
259.483894000000020
  0
LINE
  8
0
  6
CONTINUOUS
 62
256
 10
157.760102999999990
 20
259.483894000000020
 11
158.260102999999990
 21
259.483894000000020
  0
LINE
  8
0
  6
CONTINUOUS
 62
256
 10
158.260102999999990
 20
266.574893999999970
 11
157.760102999999990
 21
266.574893999999970
  0
ARC
  8
0
  6
CONTINUOUS
 62
256
 10
148.760102999999990
 20
252.735494999999990
 40
2.000000000000000
 50
0.000000000000000
 51
90.000000000000000
  0
LINE
  8
0
  6
DASHDOT
 62
256
 10
154.702700999999990
 20
262.833475000000020
 11
169.333866000000000
 21
262.833475000000020
  0
LINE
  8
0
  6
CONTINUOUS
 62
256
 10
157.760102999999990
 20
275.735495000000010
 11
157.760102999999990
 21
223.235494999999990
  0
ARC
  8
0
  6
CONTINUOUS
 62
256
 10
77.760103000000001
 20
252.735494999999990
 40
2.000000000000000
 50
90.000000000000000
 51
180.000000000000000
  0
LINE
  8
0
  6
CONTINUOUS
 62
256
 10
77.760103000000001
 20
254.735494999999990
 11
148.760102999999990
 21
254.735494999999990
  0
LINE
  8
0
  6
CONTINUOUS
 62
256
 10
75.760103000000001
 20
223.235494999999990
 11
75.760103000000001
 21
252.735494999999990
  0
LINE
  8
0
  6
CONTINUOUS
 62
256
 10
150.760102999999990
 20
223.235494999999990
 11
150.760102999999990
 21
252.735494999999990
  0
LINE
  8
0
  6
CONTINUOUS
 62
256
 10
58.760103000000001
 20
275.735495000000010
 11
157.760102999999990
 21
275.735495000000010
  0
LINE
  8
0
  6
CONTINUOUS
 62
256
 10
58.760103000000001
 20
223.235494999999990
 11
58.760103000000001
 21
275.735495000000010
  0
ARC
  8
0
  6
CONTINUOUS
 62
256
 10
-535.739897000000040
 20
223.235494999999990
 40
700.000000000000000
 50
3.620062000000002
 51
4.148949999999998
  0
ARC
  8
0
  6
CONTINUOUS
 62
256
 10
-535.739897000000040
 20
223.235494999999990
 40
700.000000000000000
 50
1.652907000000000
 51
2.865819000000000
  0
INSERT
  8
0
  2
ZU_SYM_3
 10
162.760099999999990
 20
183.637515000000010
 50
180.000000000000000
  0
INSERT
  8
0
  2
ZU_SYM_4
 10
162.760099999999990
 20
262.833475000000020
 41
-1.000000000000000
 50
0.000000000000007
  0
LINE
  8
0
  6
DASHDOT
 62
256
 10
-28.239588999999999
 20
290.612871999999980
 11
-28.239588999999999
 21
117.725911000000000
  0
LINE
  8
0
  6
CONTINUOUS
 62
256
 10
32.538556999999997
 20
185.735513000000000
 11
38.760148000000001
 21
185.735513000000000
  0
ARC
  8
0
  6
CONTINUOUS
 62
256
 10
38.760148000000001
 20
183.735513000000000
 40
2.000000000000000
 50
0.000000000000000
 51
90.000000000000000
  0
LINE
  8
0
  6
CONTINUOUS
 62
256
 10
36.260731999999997
 20
253.735477000000000
 11
37.760148000000001
 21
253.735477000000000
  0
ARC
  8
0
  6
CONTINUOUS
 62
256
 10
37.760148000000001
 20
256.735477000000000
 40
3.000000000000000
 50
270.000000000000000
 51
0.000000000000000
  0
ARC
  8
0
  6
CONTINUOUS
 62
256
 10
36.260731999999997
 20
255.735477000000000
 40
1.999999999999998
 50
178.999999999999860
 51
270.000000000000000
  0
LINE
  8
0
  6
CONTINUOUS
 62
256
 10
43.812460000000002
 20
276.996406999999980
 11
58.760103000000001
 21
276.735495000000010
  0
LINE
  8
0
  6
CONTINUOUS
 62
256
 10
43.812460000000002
 20
169.474583000000000
 11
58.760103000000001
 21
169.735494999999990
  0
LINE
  8
0
  6
CONTINUOUS
 62
256
 10
58.760103000000001
 20
169.735494999999990
 11
58.760103000000001
 21
223.235494999999990
  0
LINE
  8
0
  6
CONTINUOUS
 62
256
 10
58.760103000000001
 20
276.735495000000010
 11
58.760103000000001
 21
223.235494999999990
  0
ARC
  8
0
  6
CONTINUOUS
 62
256
 10
43.760103000000001
 20
192.343329000000010
 40
3.000000000000000
 50
180.000000000000000
 51
270.000000000000000
  0
LINE
  8
0
  6
CONTINUOUS
 62
256
 10
40.760103000000001
 20
172.474126000000010
 11
40.760103000000001
 21
223.235494999999990
  0
ARC
  8
0
  6
CONTINUOUS
 62
256
 10
51.760103000000001
 20
183.805843000000010
 40
2.000000000000000
 50
270.000000000000000
 51
0.000000000000000
  0
ARC
  8
0
  6
CONTINUOUS
 62
256
 10
50.760103000000001
 20
175.735494999999990
 40
3.000000000000000
 50
0.000000000000000
 51
90.000000000000000
  0
ARC
  8
0
  6
CONTINUOUS
 62
256
 10
45.760103000000001
 20
183.735494999999990
 40
5.000000000000000
 50
180.000000000000000
 51
270.000000000000000
  0
ARC
  8
0
  6
CONTINUOUS
 62
256
 10
45.760103000000001
 20
186.805843000000010
 40
5.000000000000000
 50
180.000000000000000
 51
270.000000000000000
  0
ARC
  8
0
  6
CONTINUOUS
 62
256
 10
50.760103000000001
 20
192.343329000000010
 40
3.000000000000000
 50
270.000000000000000
 51
0.000000000000000
  0
LINE
  8
0
  6
CONTINUOUS
 62
256
 10
51.760103000000001
 20
181.805843000000010
 11
45.760103000000001
 21
181.805843000000010
  0
LINE
  8
0
  6
CONTINUOUS
 62
256
 10
50.760103000000001
 20
178.735494999999990
 11
45.760103000000001
 21
178.735494999999990
  0
LINE
  8
0
  6
CONTINUOUS
 62
256
 10
43.760103000000001
 20
189.343329000000010
 11
50.760103000000001
 21
189.343329000000010
  0
LINE
  8
0
  6
CONTINUOUS
 62
256
 10
40.760103000000001
 20
186.343329000000010
 11
40.760103000000001
 21
183.735494999999990
  0
LINE
  8
0
  6
CONTINUOUS
 62
256
 10
53.760103000000001
 20
175.735494999999990
 11
53.760103000000001
 21
172.701042000000000
  0
ARC
  8
0
  6
CONTINUOUS
 62
256
 10
43.760103000000001
 20
172.474126000000010
 40
3.000000000000000
 50
180.000000000000000
 51
271.000000000000000
  0
ARC
  8
0
  6
CONTINUOUS
 62
256
 10
56.760103000000001
 20
172.701042000000000
 40
3.000000000000000
 50
180.000000000000000
 51
271.000000000000000
  0
LINE
  8
0
  6
CONTINUOUS
 62
256
 10
53.760103000000001
 20
223.235494999999990
 11
53.760103000000001
 21
183.805843000000010
  0
LINE
  8
0
  6
CONTINUOUS
 62
256
 10
53.760103000000001
 20
203.235494999999990
 11
57.896576000000003
 21
203.235494999999990
  0
ARC
  8
0
  6
CONTINUOUS
 62
256
 10
43.760103000000001
 20
254.127660999999990
 40
3.000000000000000
 50
90.000000000000000
 51
180.000000000000000
  0
LINE
  8
0
  6
CONTINUOUS
 62
256
 10
40.760103000000001
 20
273.996864000000020
 11
40.760103000000001
 21
223.235494999999990
  0
ARC
  8
0
  6
CONTINUOUS
 62
256
 10
45.760103000000001
 20
262.735495000000010
 40
5.000000000000000
 50
90.000000000000000
 51
180.000000000000000
  0
ARC
  8
0
  6
CONTINUOUS
 62
256
 10
45.760103000000001
 20
259.665146999999990
 40
5.000000000000000
 50
90.000000000000000
 51
180.000000000000000
  0
ARC
  8
0
  6
CONTINUOUS
 62
256
 10
51.760103000000001
 20
262.665146999999990
 40
2.000000000000000
 50
0.000000000000000
 51
90.000000000000000
  0
ARC
  8
0
  6
CONTINUOUS
 62
256
 10
50.760103000000001
 20
270.735495000000010
 40
3.000000000000000
 50
270.000000000000000
 51
0.000000000000000
  0
ARC
  8
0
  6
CONTINUOUS
 62
256
 10
50.760103000000001
 20
254.127660999999990
 40
3.000000000000000
 50
0.000000000000000
 51
90.000000000000000
  0
LINE
  8
0
  6
CONTINUOUS
 62
256
 10
53.760103000000001
 20
223.235494999999990
 11
53.760103000000001
 21
262.665146999999990
  0
LINE
  8
0
  6
CONTINUOUS
 62
256
 10
53.760103000000001
 20
243.235494999999990
 11
57.461784999999999
 21
243.235494999999990
  0
LINE
  8
0
  6
CONTINUOUS
 62
256
 10
43.760103000000001
 20
257.127660999999990
 11
50.760103000000001
 21
257.127660999999990
  0
LINE
  8
0
  6
CONTINUOUS
 62
256
 10
40.760103000000001
 20
260.127660999999990
 11
40.760103000000001
 21
262.735495000000010
  0
LINE
  8
0
  6
CONTINUOUS
 62
256
 10
51.760103000000001
 20
264.665146999999990
 11
45.760103000000001
 21
264.665146999999990
  0
LINE
  8
0
  6
CONTINUOUS
 62
256
 10
50.760103000000001
 20
267.735495000000010
 11
45.760103000000001
 21
267.735495000000010
  0
LINE
  8
0
  6
CONTINUOUS
 62
256
 10
53.760103000000001
 20
270.735495000000010
 11
53.760103000000001
 21
273.769948000000000
  0
ARC
  8
0
  6
CONTINUOUS
 62
256
 10
43.760103000000001
 20
273.996864000000020
 40
2.999999999999983
 50
88.999999999999986
 51
180.000000000000000
  0
ARC
  8
0
  6
CONTINUOUS
 62
256
 10
-83.160584000000000
 20
260.235495000000010
 40
3.000000000000000
 50
90.000000000000000
 51
179.000000000000400
  0
ARC
  8
0
  6
CONTINUOUS
 62
256
 10
30.180423999999999
 20
165.235494999999990
 40
2.000000000000000
 50
270.000000000000000
 51
358.999999999999830
  0
LINE
  8
0
  6
CONTINUOUS
 62
256
 10
33.760412000000002
 20
255.735494999999990
 11
32.180118999999998
 21
165.200590000000010
  0
LINE
  8
0
  6
CONTINUOUS
 62
256
 10
-82.659600999999995
 20
163.235494999999990
 11
30.180423999999999
 21
163.235494999999990
  0
ARC
  8
0
  6
CONTINUOUS
 62
256
 10
-82.659600999999995
 20
165.235494999999990
 40
1.999999999999998
 50
181.000000000000140
 51
270.000000000000000
  0
LINE
  8
0
  6
CONTINUOUS
 62
256
 10
-86.248316000000003
 20
256.235477000000000
 11
-84.659295999999998
 21
165.200590000000010
  0
LINE
  8
0
  6
CONTINUOUS
 62
256
 10
33.314697000000002
 20
281.270418000000010
 11
33.760410999999998
 21
255.735494999999990
  0
LINE
  8
0
  6
CONTINUOUS
 62
256
 10
-85.793875000000000
 20
281.270418000000010
 11
-86.239588999999995
 21
255.735494999999990
  0
ARC
  8
0
  6
CONTINUOUS
 62
256
 10
-82.069642999999999
 20
188.735494999999990
 40
2.999999999999997
 50
181.000000000000140
 51
270.000000000000000
  0
ARC
  8
0
  6
CONTINUOUS
 62
256
 10
29.590464999999998
 20
188.735494999999990
 40
3.000000000000000
 50
270.000000000000000
 51
358.999999999999830
  0
CIRCLE
  8
0
  6
DASHDOT
 62
256
 10
19.760411000000001
 20
273.235495000000010
 40
9.000000000000000
  0
CIRCLE
  8
0
  6
CONTINUOUS
 62
256
 10
19.760411000000001
 20
273.235495000000010
 40
4.500000000000000
  0
LINE
  8
0
  6
DASHDOT
 62
256
 10
30.045701999999999
 20
273.235495000000010
 11
7.926544000000000
 21
273.235495000000010
  0
LINE
  8
0
  6
DASHDOT
 62
256
 10
19.760411000000001
 20
282.881329999999990
 11
19.760411000000001
 21
262.193671999999990
  0
CIRCLE
  8
0
  6
DASHDOT
 62
256
 10
-73.239588999999995
 20
273.235495000000010
 40
9.000000000000000
  0
LINE
  8
0
  6
DASHDOT
 62
256
 10
-59.453429000000000
 20
273.235495000000010
 11
-84.381752000000006
 21
273.235495000000010
  0
LINE
  8
0
  6
DASHDOT
 62
256
 10
-73.239588999999995
 20
282.881329999999990
 11
-73.239588999999995
 21
262.019505999999980
  0
CIRCLE
  8
0
  6
DASHDOT
 62
256
 10
19.760411000000001
 20
173.235494999999990
 40
9.000000000000000
  0
CIRCLE
  8
0
  6
CONTINUOUS
 62
256
 10
19.760411000000001
 20
173.235494999999990
 40
4.500000000000000
  0
LINE
  8
0
  6
DASHDOT
 62
256
 10
30.975404000000001
 20
173.235494999999990
 11
8.971544000000000
 21
173.235494999999990
  0
LINE
  8
0
  6
DASHDOT
 62
256
 10
19.760411000000001
 20
184.341204000000000
 11
19.760411000000001
 21
161.351213000000000
  0
CIRCLE
  8
0
  6
DASHDOT
 62
256
 10
-73.239588999999995
 20
173.235494999999990
 40
9.000000000000000
  0
CIRCLE
  8
0
  6
CONTINUOUS
 62
256
 10
-73.239588999999995
 20
173.235494999999990
 40
4.500000000000000
  0
LINE
  8
0
  6
DASHDOT
 62
256
 10
-61.217595000000003
 20
173.235494999999990
 11
-83.629075999999998
 21
173.235494999999990
  0
LINE
  8
0
  6
DASHDOT
 62
256
 10
-73.239588999999995
 20
184.863702999999990
 11
-73.239588999999995
 21
161.873713000000010
  0
LINE
  8
0
  6
CONTINUOUS
 62
256
 10
31.315002000000000
 20
283.235513000000030
 11
-83.794179999999997
 21
283.235513000000030
  0
LINE
  8
0
  6
CONTINUOUS
 62
256
 10
-86.239588999999995
 20
255.735494999999990
 11
33.760410999999998
 21
255.735494999999990
  0
ARC
  8
0
  6
CONTINUOUS
 62
256
 10
-83.794179999999997
 20
281.235513000000030
 40
2.000000000000000
 50
90.000000000000000
 51
178.999999999999860
  0
LINE
  8
0
  6
CONTINUOUS
 62
256
 10
-67.608975999999998
 20
263.235495000000010
 11
-83.160584000000000
 21
263.235495000000010
  0
LINE
  8
0
  6
CONTINUOUS
 62
256
 10
-65.429525999999996
 20
263.735495000000010
 11
30.672951000000001
 21
263.735495000000010
  0
LINE
  8
0
  6
CONTINUOUS
 62
256
 10
-67.520797000000002
 20
182.735428000000010
 11
18.760411000000001
 21
182.735428000000010
  0
ARC
  8
0
  6
CONTINUOUS
 62
256
 10
0.837560000000000
 20
165.935495000000000
 40
2.999999999999991
 50
295.841933000000100
 51
349.999999999999830
  0
POINT
  8
0
  6
CONTINUOUS
 62
256
 10
3.760411000000000
 20
165.235494999999990
  0
LINE
  8
0
  6
CONTINUOUS
 62
256
 10
3.791984000000000
 20
165.414550999999990
 11
6.117581000000000
 21
178.603669000000000
  0
POINT
  8
0
  6
CONTINUOUS
 62
256
 10
21.760411000000001
 20
185.735428000000010
  0
ARC
  8
0
  6
CONTINUOUS
 62
256
 10
18.760411000000001
 20
185.735428000000010
 40
3.000000000000000
 50
270.000000000000000
 51
330.000935000000080
  0
ARC
  8
0
  6
CONTINUOUS
 62
256
 10
23.956613000000001
 20
182.735513000000000
 40
3.000000000000000
 50
90.000000000000000
 51
150.000935000000080
  0
ARC
  8
0
  6
CONTINUOUS
 62
256
 10
11.041620000000000
 20
177.735428000000010
 40
4.999999999999992
 50
90.000000000000000
 51
170.000000000000140
  0
LINE
  8
0
  6
CONTINUOUS
 62
256
 10
-67.520797000000002
 20
182.735428000000010
 11
-75.239588999999995
 21
182.735428000000010
  0
ARC
  8
0
  6
CONTINUOUS
 62
256
 10
-75.239588999999995
 20
185.735428000000010
 40
2.999999999999995
 50
209.999064999999940
 51
270.000000000000000
  0
ARC
  8
0
  6
CONTINUOUS
 62
256
 10
-80.435789999999997
 20
182.735513000000000
 40
2.999999999999995
 50
29.999064999999959
 51
90.000000000000000
  0
POINT
  8
0
  6
CONTINUOUS
 62
256
 10
-60.239589000000002
 20
165.235494999999990
  0
LINE
  8
0
  6
CONTINUOUS
 62
256
 10
-60.271160999999999
 20
165.414550999999990
 11
-62.596758999999999
 21
178.603669000000000
  0
ARC
  8
0
  6
CONTINUOUS
 62
256
 10
-57.316738000000001
 20
165.935495000000000
 40
3.000000000000001
 50
190.000000000000200
 51
244.158066999999900
  0
ARC
  8
0
  6
CONTINUOUS
 62
256
 10
-67.520797000000002
 20
177.735428000000010
 40
4.999999999999999
 50
9.999999999999863
 51
90.000000000000000
  0
ARC
  8
0
  6
CONTINUOUS
 62
256
 10
-67.608975999999998
 20
268.235495000000010
 40
5.000000000000000
 50
270.000000000000000
 51
350.000000000000110
  0
LINE
  8
0
  6
CONTINUOUS
 62
256
 10
-60.324058999999998
 20
280.756458000000010
 11
-62.684936999999998
 21
267.367254000000000
  0
ARC
  8
0
  6
CONTINUOUS
 62
256
 10
-57.369636000000000
 20
280.235513000000030
 40
3.000000000000000
 50
90.000000000000000
 51
170.000000000000340
  0
POINT
  8
0
  6
CONTINUOUS
 62
256
 10
6.846137000000000
 20
263.735495000000010
  0
ARC
  8
0
  6
CONTINUOUS
 62
256
 10
11.041634999999999
 20
268.735495000000010
 40
4.999999999999997
 50
189.999999999999860
 51
270.000000000000000
  0
LINE
  8
0
  6
CONTINUOUS
 62
256
 10
3.756718000000000
 20
281.256458000000010
 11
6.117596000000000
 21
267.867254000000000
  0
ARC
  8
0
  6
CONTINUOUS
 62
256
 10
0.890458000000000
 20
280.235513000000030
 40
2.999999999999997
 50
9.999999999999650
 51
90.000000000000000
  0
LINE
  8
0
  6
CONTINUOUS
 62
256
 10
33.760683999999998
 20
255.735494999999990
 11
33.672494000000000
 21
260.787851999999990
  0
LINE
  8
0
  6
CONTINUOUS
 62
256
 10
33.760683999999998
 20
255.735494999999990
 11
30.260411000000001
 21
255.735494999999990
  0
CIRCLE
  8
0
  6
CONTINUOUS
 62
256
 10
-73.239588999999995
 20
273.235495000000010
 40
4.500000000000000
  0
LINE
  8
0
  6
CONTINUOUS
 62
256
 10
29.590464999999998
 20
185.735494999999990
 11
23.956613000000001
 21
185.735513000000000
  0
LINE
  8
0
  6
CONTINUOUS
 62
256
 10
-80.435789999999997
 20
185.735513000000000
 11
-82.069642999999999
 21
185.735494999999990
  0
ARC
  8
0
  6
CONTINUOUS
 62
256
 10
31.315002000000000
 20
281.235513000000030
 40
1.999999999999998
 50
1.000000000000148
 51
90.000000000000000
  0
ARC
  8
0
  6
CONTINUOUS
 62
256
 10
30.672951000000001
 20
260.735495000000010
 40
3.000000000000000
 50
0.999999999999604
 51
90.000000000000000
  0
ARC
  8
0
  6
CONTINUOUS
 62
256
 10
-28.239588999999999
 20
153.235477000000000
 40
3.000000000000000
 50
0.000000000000000
 51
180.000000000000000
  0
LINE
  8
0
  6
CONTINUOUS
 62
256
 10
-17.239588999999999
 20
161.235477000000000
 11
-17.239588999999999
 21
121.235477000000000
  0
LINE
  8
0
  6
CONTINUOUS
 62
256
 10
-17.239588999999999
 20
121.235477000000000
 11
-28.239588999999999
 21
121.235477000000000
  0
ARC
  8
0
  6
CONTINUOUS
 62
256
 10
-38.839588999999997
 20
121.635476999999990
 40
0.399999999999999
 50
180.000000000000000
 51
270.000000000000000
  0
LINE
  8
0
  6
CONTINUOUS
 62
256
 10
-39.239589000000002
 20
161.235477000000000
 11
-39.239589000000002
 21
121.635476999999990
  0
LINE
  8
0
  6
CONTINUOUS
 62
256
 10
-38.839588999999997
 20
121.235477000000000
 11
-28.239588999999999
 21
121.235477000000000
  0
LINE
  8
0
  6
CONTINUOUS
 62
256
 10
-40.239589000000002
 20
161.235477000000000
 11
-28.239588999999999
 21
161.235477000000000
  0
LINE
  8
0
  6
CONTINUOUS
 62
256
 10
-16.239588999999999
 20
161.235477000000000
 11
-28.239588999999999
 21
161.235477000000000
  0
LINE
  8
0
  6
CONTINUOUS
 62
256
 10
-31.239588999999999
 20
153.235477000000000
 11
-25.239588999999999
 21
153.235477000000000
  0
LINE
  8
0
  6
CONTINUOUS
 62
256
 10
-40.239589000000002
 20
163.235477000000000
 11
-40.239589000000002
 21
161.235477000000000
  0
LINE
  8
0
  6
CONTINUOUS
 62
256
 10
-16.239588999999999
 20
163.235477000000000
 11
-16.239588999999999
 21
161.235477000000000
  0
LINE
  8
0
  6
CONTINUOUS
 62
256
 10
-31.239588999999999
 20
121.235477000000000
 11
-31.239588999999999
 21
153.235477000000000
  0
LINE
  8
0
  6
CONTINUOUS
 62
256
 10
-25.239588999999999
 20
121.235477000000000
 11
-25.239588999999999
 21
153.235477000000000
  0
LINE
  8
0
  6
CONTINUOUS
 62
256
 10
343.666090999999990
 20
-120.602256999999990
 11
343.666090999999990
 21
-133.961198999999990
  0
LINE
  8
0
  6
CONTINUOUS
 62
256
 10
351.166090999999990
 20
-117.757994000000000
 11
351.166090999999990
 21
-129.441486000000000
  0
LINE
  8
0
  6
CONTINUOUS
 62
256
 10
253.345147000000000
 20
-78.472785999999999
 11
257.666090999999990
 21
-79.234684999999999
  0
LINE
  8
0
  6
CONTINUOUS
 62
256
 10
270.666024999999990
 20
-19.753243000000001
 11
270.666024999999990
 21
0.558786000000000
  0
LINE
  8
0
  6
CONTINUOUS
 62
256
 10
273.666090999999990
 20
-18.194481000000000
 11
273.666090999999990
 21
5.388567000000000
  0
LINE
  8
0
  6
CONTINUOUS
 62
256
 10
343.666090999999990
 20
-16.612462000000001
 11
343.666090999999990
 21
9.558514000000001
  0
LINE
  8
0
  6
CONTINUOUS
 62
256
 10
351.666090999999990
 20
-19.753202999999999
 11
351.666090999999990
 21
6.382354000000000
  0
LINE
  8
0
  6
CONTINUOUS
 62
256
 10
368.687053999999990
 20
-78.525683999999998
 11
364.666090999999990
 21
-79.234688000000006
  0
ARC
  8
0
  6
CONTINUOUS
 62
256
 10
283.666090999999990
 20
-41.107359000000002
 40
25.000000000000004
 50
95.730175000000045
 51
174.269825000000000
  0
ARC
  8
0
  6
CONTINUOUS
 62
256
 10
291.166090999999990
 20
-416.107358999999970
 40
400.000000000000000
 50
90.071529999999996
 51
91.431984000000014
  0
ARC
  8
0
  6
CONTINUOUS
 62
256
 10
290.666090999999990
 20
-15.607359000000001
 40
0.500000000000002
 50
270.000000000000000
 51
0.000000000000000
  0
ARC
  8
0
  6
CONTINUOUS
 62
256
 10
291.666090999999990
 20
-15.607359000000001
 40
0.500000000000000
 50
90.000000000000000
 51
180.000000000000000
  0
LINE
  8
0
  6
CONTINUOUS
 62
256
 10
291.666090999999990
 20
-15.107359000000001
 11
330.666090999999990
 21
-15.107359000000001
  0
ARC
  8
0
  6
CONTINUOUS
 62
256
 10
658.666091000000050
 20
-48.607359000000002
 40
400.000000000000000
 50
178.568016000000000
 51
179.947000000000000
  0
LINE
  8
0
  6
CONTINUOUS
 62
256
 10
257.666090999999990
 20
-49.107359000000002
 11
257.666090999999990
 21
-88.107359000000002
  0
ARC
  8
0
  6
CONTINUOUS
 62
256
 10
258.166090999999990
 20
-48.107359000000002
 40
0.500000000000000
 50
270.000000000000000
 51
0.000000000000000
  0
ARC
  8
0
  6
CONTINUOUS
 62
256
 10
258.166090999999990
 20
-49.107359000000002
 40
0.500000000000000
 50
90.000000000000000
 51
180.000000000000000
  0
ARC
  8
0
  6
CONTINUOUS
 62
256
 10
283.666090999999990
 20
-96.107359000000002
 40
24.999999999999979
 50
185.730175000000000
 51
273.438650000000000
  0
ARC
  8
0
  6
CONTINUOUS
 62
256
 10
658.666091000000050
 20
-88.607359000000002
 40
400.000000000000000
 50
180.071529999999970
 51
181.431983999999970
  0
ARC
  8
0
  6
CONTINUOUS
 62
256
 10
258.166090999999990
 20
-89.107359000000002
 40
0.500000000000000
 50
0.000000000000000
 51
90.000000000000000
  0
ARC
  8
0
  6
CONTINUOUS
 62
256
 10
258.166090999999990
 20
-88.107359000000002
 40
0.500000000000000
 50
180.000000000000000
 51
270.000000000000000
  0
ARC
  8
0
  6
CONTINUOUS
 62
256
 10
290.666090999999990
 20
-121.607359000000000
 40
0.500000000000000
 50
0.000000000000000
 51
90.000000000000000
  0
ARC
  8
0
  6
CONTINUOUS
 62
256
 10
291.666090999999990
 20
-121.607359000000000
 40
0.500000000000000
 50
180.000000000000000
 51
270.000000000000000
  0
ARC
  8
0
  6
CONTINUOUS
 62
256
 10
291.166090999999990
 20
278.892641000000030
 40
400.000000000000000
 50
269.140459000000020
 51
269.928470000000000
  0
LINE
  8
0
  6
CONTINUOUS
 62
256
 10
330.666090999999990
 20
-122.107359000000000
 11
291.666090999999990
 21
-122.107359000000000
  0
ARC
  8
0
  6
CONTINUOUS
 62
256
 10
331.666090999999990
 20
-121.607359000000000
 40
0.500000000000000
 50
90.000000000000000
 51
180.000000000000000
  0
ARC
  8
0
  6
CONTINUOUS
 62
256
 10
330.666090999999990
 20
-121.607359000000000
 40
0.500000000000000
 50
270.000000000000000
 51
0.000000000000000
  0
ARC
  8
0
  6
CONTINUOUS
 62
256
 10
331.166090999999990
 20
278.892641000000030
 40
400.000000000000000
 50
270.071530000000000
 51
271.431984000000000
  0
ARC
  8
0
  6
CONTINUOUS
 62
256
 10
338.666090999999990
 20
-96.107359000000002
 40
25.000000000000011
 50
275.730175000000030
 51
3.438650000000013
  0
ARC
  8
0
  6
CONTINUOUS
 62
256
 10
-36.333908999999998
 20
-88.607359000000002
 40
400.000000000000000
 50
359.140459000000020
 51
359.928470000000000
  0
ARC
  8
0
  6
CONTINUOUS
 62
256
 10
364.166090999999990
 20
-89.107359000000002
 40
0.500000000000000
 50
90.000000000000000
 51
180.000000000000000
  0
ARC
  8
0
  6
CONTINUOUS
 62
256
 10
364.166090999999990
 20
-88.107359000000002
 40
0.500000000000000
 50
270.000000000000000
 51
0.000000000000000
  0
LINE
  8
0
  6
CONTINUOUS
 62
256
 10
364.666090999999990
 20
-49.107359000000002
 11
364.666090999999990
 21
-88.107359000000002
  0
ARC
  8
0
  6
CONTINUOUS
 62
256
 10
-36.333908999999998
 20
-48.607359000000002
 40
400.000000000000000
 50
0.071529999999999
 51
1.431984000000000
  0
ARC
  8
0
  6
CONTINUOUS
 62
256
 10
364.166090999999990
 20
-48.107359000000002
 40
0.500000000000000
 50
180.000000000000000
 51
270.000000000000000
  0
ARC
  8
0
  6
CONTINUOUS
 62
256
 10
364.166090999999990
 20
-49.107359000000002
 40
0.500000000000000
 50
0.000000000000000
 51
90.000000000000000
  0
ARC
  8
0
  6
CONTINUOUS
 62
256
 10
338.666090999999990
 20
-41.107359000000002
 40
24.999999999999979
 50
5.730174999999997
 51
84.269824999999955
  0
ARC
  8
0
  6
CONTINUOUS
 62
256
 10
331.166090999999990
 20
-416.107358999999970
 40
400.000000000000000
 50
88.568016000000000
 51
89.928470000000004
  0
ARC
  8
0
  6
CONTINUOUS
 62
256
 10
330.666090999999990
 20
-15.607359000000001
 40
0.500000000000000
 50
0.000000000000000
 51
90.000000000000000
  0
ARC
  8
0
  6
CONTINUOUS
 62
256
 10
331.666090999999990
 20
-15.607359000000001
 40
0.500000000000000
 50
180.000000000000000
 51
270.000000000000000
  0
TEXT
  8
0
  6
CONTINUOUS
 62
256
 10
419.395690917968750
 20
-166.359909057617190
 40
3.299999952316284
  1
1/1
 50
0.000002504478167
 41
0.850909097352304
  7
STANDARD1
  0
TEXT
  8
0
  6
CONTINUOUS
 62
256
 10
416.977691650390620
 20
-166.359909057617190
 40
3.299999952316284
  1
 
 50
0.000002504478167
 41
1.733333298293026
  7
STANDARD1
  0
TEXT
  8
0
  6
CONTINUOUS
 62
256
 10
403.927062988281250
 20
-166.359909057617190
 40
3.299999952316284
  1
SCALE
 50
0.000002504478167
 41
0.821052645401140
  7
STANDARD1
  0
TEXT
  8
0
  6
CONTINUOUS
 62
256
 10
400.675689697265620
 20
-166.359909057617190
 40
3.299999952316284
  1
 
 50
0.000002504478167
 41
1.733333298293026
  7
STANDARD1
  0
TEXT
  8
0
  6
CONTINUOUS
 62
256
 10
412.955871582031250
 20
-161.059906005859370
 40
3.299999952316284
  1
1/240
 50
0.000002504478167
 41
0.821052645401140
  7
STANDARD1
  0
TEXT
  8
0
  6
CONTINUOUS
 62
256
 10
409.173858642578120
 20
-161.059906005859370
 40
3.299999952316284
  1
ü`
 50
0.000002504478167
 41
1.176000019651471
  7
STANDARD1
  0
TEXT
  8
0
  6
CONTINUOUS
 62
256
 10
400.675689697265620
 20
-161.059906005859370
 40
3.299999952316284
  1
1/5
 50
0.000002504478167
 41
0.850909097352304
  7
STANDARD1
  0
TEXT
  8
0
  6
CONTINUOUS
 62
256
 10
403.911590576171870
 20
-155.759902954101560
 40
3.299999952316284
  1
GM-SHY-RL
 50
0.000002504478167
 41
0.802285735636046
  7
STANDARD1
  0
TEXT
  8
0
  6
CONTINUOUS
 62
256
 10
400.675689697265620
 20
-155.759902954101560
 40
3.299999952316284
  1
 
 50
0.000002504478167
 41
1.733333298293026
  7
STANDARD1
  0
TEXT
  8
0
  6
CONTINUOUS
 62
256
 10
406.501068115234370
 20
-150.459915161132810
 40
3.299999952316284
  1
0.1kW
 50
0.000002504478167
 41
0.821052645401140
  7
STANDARD1
  0
TEXT
  8
0
  6
CONTINUOUS
 62
256
 10
400.675689697265620
 20
-150.459915161132810
 40
3.299999952316284
  1
  
 50
0.000002504478167
 41
1.485714400175845
  7
STANDARD1
  0
TEXT
  8
0
  6
CONTINUOUS
 62
256
 10
406.495178222656250
 20
-145.159912109375000
 40
3.299999952316284
  1
SHY041
 50
0.000002504478167
 41
0.813913121261144
  7
STANDARD1
  0
TEXT
  8
0
  6
CONTINUOUS
 62
256
 10
400.675689697265620
 20
-145.159912109375000
 40
3.299999952316284
  1
  
 50
0.000002504478167
 41
1.485714400175845
  7
STANDARD1
  0
LINE
  8
0
  6
CONTINUOUS
 62
256
 10
331.166090999999990
 20
-15.807359000000000
 11
331.166090999999990
 21
-19.401160000000001
  0
ARC
  8
0
  6
CONTINUOUS
 62
256
 10
330.466091000000010
 20
-15.807359000000000
 40
0.699999999999989
 50
0.000000000000000
 51
90.000000000000000
  0
LINE
  8
0
  6
CONTINUOUS
 62
256
 10
330.466091000000010
 20
-15.107359000000001
 11
311.166090999999990
 21
-15.107359000000001
  0
LINE
  8
0
  6
CONTINUOUS
 62
256
 10
291.166090999999990
 20
-15.807359000000000
 11
291.166090999999990
 21
-19.401160000000001
  0
ARC
  8
0
  6
CONTINUOUS
 62
256
 10
291.866090999999980
 20
-15.807359000000000
 40
0.699999999999999
 50
90.000000000000000
 51
180.000000000000000
  0
LINE
  8
0
  6
CONTINUOUS
 62
256
 10
291.866090999999980
 20
-15.107359000000001
 11
311.166090999999990
 21
-15.107359000000001
  0
LINE
  8
0
  6
CONTINUOUS
 62
256
 10
308.666090999999990
 20
18.892641000000001
 11
313.666090999999990
 21
18.892641000000001
  0
LINE
  8
0
  6
CONTINUOUS
 62
256
 10
308.666090999999990
 20
18.382224000000001
 11
308.666090999999990
 21
18.892641000000001
  0
LINE
  8
0
  6
CONTINUOUS
 62
256
 10
313.666090999999990
 20
18.382224000000001
 11
313.666090999999990
 21
18.892641000000001
  0
ARC
  8
0
  6
CONTINUOUS
 62
256
 10
311.166090999999990
 20
-281.607358999999970
 40
300.000000000000000
 50
85.138594999999995
 51
94.861405000000005
  0
LINE
  8
0
  6
CONTINUOUS
 62
256
 10
279.666090999999990
 20
-16.107358999999999
 11
279.666090999999990
 21
-11.107359000000001
  0
LINE
  8
0
  6
CONTINUOUS
 62
256
 10
342.666090999999990
 20
-16.107358999999999
 11
342.666090999999990
 21
-11.107359000000001
  0
LINE
  8
0
  6
CONTINUOUS
 62
256
 10
290.666090999999990
 20
-16.107358999999999
 11
279.666090999999990
 21
-16.107358999999999
  0
ARC
  8
0
  6
CONTINUOUS
 62
256
 10
331.466091000000010
 20
-14.807359000000000
 40
0.199999999999989
 50
0.000000000000000
 51
90.000000000000000
  0
LINE
  8
0
  6
CONTINUOUS
 62
256
 10
290.866090999999980
 20
-14.607359000000001
 11
331.466091000000010
 21
-14.607359000000001
  0
LINE
  8
0
  6
CONTINUOUS
 62
256
 10
331.666090999999990
 20
-16.107358999999999
 11
331.666090999999990
 21
-14.807359000000000
  0
LINE
  8
0
  6
CONTINUOUS
 62
256
 10
331.666090999999990
 20
-16.107358999999999
 11
342.666090999999990
 21
-16.107358999999999
  0
ARC
  8
0
  6
CONTINUOUS
 62
256
 10
290.866090999999980
 20
-14.807359000000000
 40
0.199999999999999
 50
90.000000000000000
 51
180.000000000000000
  0
LINE
  8
0
  6
CONTINUOUS
 62
256
 10
290.666090999999990
 20
-16.107358999999999
 11
290.666090999999990
 21
-14.807359000000000
  0
LINE
  8
0
  6
CONTINUOUS
 62
256
 10
279.666090999999990
 20
-11.107359000000001
 11
342.666090999999990
 21
-11.107359000000001
  0
LINE
  8
0
  6
DASHDOT
 62
256
 10
254.370422999999990
 20
-68.607359000000002
 11
373.718551999999990
 21
-68.607359000000002
  0
LINE
  8
0
  6
CONTINUOUS
 62
256
 10
333.610282999999980
 20
-19.646045999999998
 11
333.667462000000000
 21
-18.555022999999998
  0
ARC
  8
0
  6
CONTINUOUS
 62
256
 10
332.611653999999990
 20
-19.593710000000002
 40
0.999999999999993
 50
246.368570000000740
 51
356.999999999999890
  0
ARC
  8
0
  6
CONTINUOUS
 62
256
 10
334.666090999999990
 20
-18.607358999999999
 40
0.999999999999997
 50
3.000000000000106
 51
176.999999999999910
  0
LINE
  8
0
  6
CONTINUOUS
 62
256
 10
335.830406999999980
 20
-21.716504000000000
 11
335.664720999999990
 21
-18.555022999999998
  0
LINE
  8
0
  6
CONTINUOUS
 62
256
 10
337.996906000000020
 20
-21.809421000000000
 11
338.167462000000000
 21
-18.555022999999998
  0
ARC
  8
0
  6
CONTINUOUS
 62
256
 10
339.166090999999990
 20
-18.607358999999999
 40
0.999999999999997
 50
3.000000000000106
 51
176.999999999999910
  0
ARC
  8
0
  6
CONTINUOUS
 62
256
 10
343.666090999999990
 20
-19.107358999999999
 40
0.999999999999997
 50
3.000000000000106
 51
176.999999999999910
  0
ARC
  8
0
  6
CONTINUOUS
 62
256
 10
311.166090999999990
 20
-68.607359000000002
 40
52.499999999999993
 50
66.336295000000021
 51
66.888397999999981
  0
ARC
  8
0
  6
CONTINUOUS
 62
256
 10
332.166090999999990
 20
-19.401160000000001
 40
1.000000000000000
 50
180.000000000000000
 51
246.888398000001050
  0
ARC
  8
0
  6
CONTINUOUS
 62
256
 10
311.166090999999990
 20
-68.607359000000002
 40
52.500000000000007
 50
66.304918999999984
 51
66.888397999999981
  0
LINE
  8
0
  6
CONTINUOUS
 62
256
 10
288.721899000000010
 20
-19.646045999999998
 11
288.664720999999990
 21
-18.555022999999998
  0
ARC
  8
0
  6
CONTINUOUS
 62
256
 10
289.720528000000000
 20
-19.593710000000002
 40
0.999999999999997
 50
182.999999999999890
 51
293.631429999999230
  0
ARC
  8
0
  6
CONTINUOUS
 62
256
 10
287.666090999999990
 20
-18.607358999999999
 40
0.999999999999997
 50
3.000000000000106
 51
176.999999999999910
  0
LINE
  8
0
  6
CONTINUOUS
 62
256
 10
286.501775000000010
 20
-21.716504000000000
 11
286.667462000000000
 21
-18.555022999999998
  0
LINE
  8
0
  6
CONTINUOUS
 62
256
 10
284.335276000000020
 20
-21.809421000000000
 11
284.164720999999990
 21
-18.555022999999998
  0
ARC
  8
0
  6
CONTINUOUS
 62
256
 10
283.166090999999990
 20
-18.607358999999999
 40
0.999999999999997
 50
3.000000000000106
 51
176.999999999999910
  0
ARC
  8
0
  6
CONTINUOUS
 62
256
 10
278.666090999999990
 20
-19.107358999999999
 40
0.999999999999997
 50
3.000000000000106
 51
176.999999999999910
  0
ARC
  8
0
  6
CONTINUOUS
 62
256
 10
311.166090999999990
 20
-68.607359000000002
 40
52.500000000000007
 50
113.111602000000020
 51
113.663704999999980
  0
ARC
  8
0
  6
CONTINUOUS
 62
256
 10
290.166090999999990
 20
-19.401160000000001
 40
0.999999999999991
 50
293.111601999998870
 51
0.000000000000000
  0
ARC
  8
0
  6
CONTINUOUS
 62
256
 10
311.166090999999990
 20
-68.607359000000002
 40
52.500000000000007
 50
113.111602000000020
 51
113.695081000000030
  0
ARC
  8
0
  6
CONTINUOUS
 62
256
 10
345.988469000000010
 20
-25.206323000000001
 40
0.999999999999997
 50
182.999999999999890
 51
312.000000000000170
  0
LINE
  8
0
  6
CONTINUOUS
 62
256
 10
344.989839000000020
 20
-25.258659000000002
 11
344.664720999999990
 21
-19.055022999999998
  0
ARC
  8
0
  6
CONTINUOUS
 62
256
 10
311.166090999999990
 20
-68.607359000000002
 40
61.499999999999979
 50
41.401106000000013
 51
48.598894000000001
  0
ARC
  8
0
  6
CONTINUOUS
 62
256
 10
351.176334999999990
 20
-23.226412000000000
 40
0.999999999999985
 50
48.598894000001060
 51
132.000000000000200
  0
ARC
  8
0
  6
CONTINUOUS
 62
256
 10
354.567128000000030
 20
-33.784981000000002
 40
0.999999999999982
 50
137.999999999999320
 51
267.000000000000910
  0
LINE
  8
0
  6
CONTINUOUS
 62
256
 10
354.514792000000000
 20
-34.783611000000001
 11
360.718427000000020
 21
-35.108730000000001
  0
ARC
  8
0
  6
CONTINUOUS
 62
256
 10
356.547037999999990
 20
-28.597114999999999
 40
0.999999999999985
 50
317.999999999999150
 51
41.401105999999878
  0
ARC
  8
0
  6
CONTINUOUS
 62
256
 10
341.478888999999980
 20
-24.523527000000001
 40
0.999999999999997
 50
182.999999999999890
 51
235.486921000000880
  0
ARC
  8
0
  6
CONTINUOUS
 62
256
 10
341.382946000000000
 20
-24.457709000000001
 40
0.999999999999996
 50
235.611524000000170
 51
356.999999999999890
  0
ARC
  8
0
  6
CONTINUOUS
 62
256
 10
336.829035999999970
 20
-21.664168000000000
 40
0.999999999999997
 50
182.999999999999890
 51
241.335416000001200
  0
ARC
  8
0
  6
CONTINUOUS
 62
256
 10
336.998275999999980
 20
-21.757085000000000
 40
0.999999999999995
 50
241.128648000000770
 51
356.999999999999890
  0
LINE
  8
0
  6
CONTINUOUS
 62
256
 10
340.480258999999990
 20
-24.575862999999998
 11
340.164720999999990
 21
-18.555022999999998
  0
LINE
  8
0
  6
CONTINUOUS
 62
256
 10
342.381576000000000
 20
-24.510045000000002
 11
342.667462000000000
 21
-19.055022999999998
  0
ARC
  8
0
  6
CONTINUOUS
 62
256
 10
311.166090999999990
 20
-68.607359000000002
 40
52.500000000000014
 50
61.026550999999969
 51
61.437165999999969
  0
ARC
  8
0
  6
CONTINUOUS
 62
256
 10
311.166090999999990
 20
-68.607359000000002
 40
52.500000000000014
 50
61.026550999999969
 51
61.437165999999969
  0
LINE
  8
0
  6
CONTINUOUS
 62
256
 10
355.197588000000000
 20
-39.293191000000000
 11
361.218427000000020
 21
-39.608730000000001
  0
LINE
  8
0
  6
CONTINUOUS
 62
256
 10
355.263405999999970
 20
-37.391874000000001
 11
360.718427000000020
 21
-37.105989000000001
  0
ARC
  8
0
  6
CONTINUOUS
 62
256
 10
360.666090999999990
 20
-36.107359000000002
 40
0.999999999999996
 50
272.999999999999090
 51
87.000000000000909
  0
LINE
  8
0
  6
CONTINUOUS
 62
256
 10
357.964029999999980
 20
-41.776544999999999
 11
361.218427000000020
 21
-41.605989000000001
  0
ARC
  8
0
  6
CONTINUOUS
 62
256
 10
361.166090999999990
 20
-40.607359000000002
 40
0.999999999999996
 50
272.999999999999090
 51
87.000000000000909
  0
LINE
  8
0
  6
CONTINUOUS
 62
256
 10
360.127405000000010
 20
-46.163167000000001
 11
361.218427000000020
 21
-46.105989000000001
  0
ARC
  8
0
  6
CONTINUOUS
 62
256
 10
361.166090999999990
 20
-49.607359000000002
 40
0.999999999999998
 50
290.070332000000230
 51
87.000000000000909
  0
LINE
  8
0
  6
CONTINUOUS
 62
256
 10
360.300569999999990
 20
-48.560626999999997
 11
361.218427000000020
 21
-48.608730000000001
  0
ARC
  8
0
  6
CONTINUOUS
 62
256
 10
360.352906000000020
 20
-47.561996999999998
 40
0.999999999999980
 50
203.164432000000660
 51
267.000000000000910
  0
ARC
  8
0
  6
CONTINUOUS
 62
256
 10
361.852438000000010
 20
-51.485903000000000
 40
0.999999999999998
 50
110.070332000000230
 51
198.664571000000360
  0
ARC
  8
0
  6
CONTINUOUS
 62
256
 10
360.179740999999980
 20
-47.161796000000002
 40
0.999999999999996
 50
92.999999999999091
 51
203.631430000000390
  0
ARC
  8
0
  6
CONTINUOUS
 62
256
 10
358.109283000000000
 20
-42.944414000000002
 40
1.000000000000006
 50
208.664583999999650
 51
267.000000000000910
  0
LINE
  8
0
  6
CONTINUOUS
 62
256
 10
358.056946999999980
 20
-43.943044000000000
 11
361.218427000000020
 21
-44.108730000000001
  0
ARC
  8
0
  6
CONTINUOUS
 62
256
 10
358.016365000000010
 20
-42.775174000000000
 40
0.999999999999996
 50
92.999999999999091
 51
208.871352000000170
  0
ARC
  8
0
  6
CONTINUOUS
 62
256
 10
361.166090999999990
 20
-45.107359000000002
 40
0.999999999999996
 50
272.999999999999090
 51
87.000000000000909
  0
ARC
  8
0
  6
CONTINUOUS
 62
256
 10
311.166090999999990
 20
-68.607359000000002
 40
52.500000000000014
 50
28.562833999999995
 51
28.973449000000009
  0
ARC
  8
0
  6
CONTINUOUS
 62
256
 10
311.166090999999990
 20
-68.607359000000002
 40
52.500000000000021
 50
15.877701999999992
 51
18.664571000000006
  0
ARC
  8
0
  6
CONTINUOUS
 62
256
 10
362.246008000000020
 20
-55.107359000000002
 40
0.499999999999977
 50
7.797850000000694
 51
90.000000000000000
  0
LINE
  8
0
  6
CONTINUOUS
 62
256
 10
362.246008000000020
 20
-54.607359000000002
 11
362.144026999999990
 21
-54.607359000000002
  0
ARC
  8
0
  6
CONTINUOUS
 62
256
 10
362.144026999999990
 20
-54.107359000000002
 40
0.500000000000015
 50
195.877701999999800
 51
270.000000000000000
  0
ARC
  8
0
  6
CONTINUOUS
 62
256
 10
355.315742000000000
 20
-38.390504000000000
 40
0.999999999999996
 50
92.999999999999091
 51
211.115752999999190
  0
ARC
  8
0
  6
CONTINUOUS
 62
256
 10
355.249924000000020
 20
-38.294561000000002
 40
0.999999999999993
 50
217.785803000000100
 51
267.000000000000910
  0
ARC
  8
0
  6
CONTINUOUS
 62
256
 10
311.166090999999990
 20
-68.607359000000002
 40
52.500000000000014
 50
23.136888999999993
 51
23.663704999999993
  0
LINE
  8
0
  6
CONTINUOUS
 62
256
 10
347.257455999999990
 20
-40.408718000000000
 11
357.290183000000010
 21
-29.266245999999999
  0
LINE
  8
0
  6
CONTINUOUS
 62
256
 10
339.364733000000000
 20
-32.515993999999999
 11
350.507205000000000
 21
-22.483267000000001
  0
ARC
  8
0
  6
CONTINUOUS
 62
256
 10
276.343712999999980
 20
-25.206323000000001
 40
1.000000000000003
 50
227.999999999999800
 51
356.999999999999890
  0
LINE
  8
0
  6
CONTINUOUS
 62
256
 10
277.342343000000030
 20
-25.258659000000002
 11
277.667462000000000
 21
-19.055022999999998
  0
ARC
  8
0
  6
CONTINUOUS
 62
256
 10
311.166090999999990
 20
-68.607359000000002
 40
61.500000000000007
 50
131.401106000000000
 51
138.598893999999970
  0
ARC
  8
0
  6
CONTINUOUS
 62
256
 10
271.155846999999990
 20
-23.226412000000000
 40
1.000000000000003
 50
47.999999999999801
 51
131.401105999998950
  0
ARC
  8
0
  6
CONTINUOUS
 62
256
 10
267.765054000000020
 20
-33.784981000000002
 40
0.999999999999996
 50
272.999999999999090
 51
42.000000000000718
  0
LINE
  8
0
  6
CONTINUOUS
 62
256
 10
267.817389999999990
 20
-34.783611000000001
 11
261.613755000000030
 21
-35.108730000000001
  0
ARC
  8
0
  6
CONTINUOUS
 62
256
 10
265.785144000000000
 20
-28.597114999999999
 40
1.000000000000004
 50
138.598894000000140
 51
222.000000000000850
  0
ARC
  8
0
  6
CONTINUOUS
 62
256
 10
280.853293000000010
 20
-24.523527000000001
 40
0.999999999999987
 50
304.513078999999040
 51
356.999999999999890
  0
ARC
  8
0
  6
CONTINUOUS
 62
256
 10
280.949235999999980
 20
-24.457709000000001
 40
0.999999999999997
 50
182.999999999999890
 51
304.388475999999800
  0
ARC
  8
0
  6
CONTINUOUS
 62
256
 10
285.503146000000020
 20
-21.664168000000000
 40
0.999999999999989
 50
298.664583999998800
 51
356.999999999999890
  0
ARC
  8
0
  6
CONTINUOUS
 62
256
 10
285.333906000000010
 20
-21.757085000000000
 40
0.999999999999997
 50
182.999999999999890
 51
298.871351999999210
  0
LINE
  8
0
  6
CONTINUOUS
 62
256
 10
281.851923000000000
 20
-24.575862999999998
 11
282.167462000000000
 21
-18.555022999999998
  0
LINE
  8
0
  6
CONTINUOUS
 62
256
 10
279.950605999999990
 20
-24.510045000000002
 11
279.664720999999990
 21
-19.055022999999998
  0
ARC
  8
0
  6
CONTINUOUS
 62
256
 10
311.166090999999990
 20
-68.607359000000002
 40
52.499999999999993
 50
118.562833999999970
 51
118.973448999999970
  0
ARC
  8
0
  6
CONTINUOUS
 62
256
 10
311.166090999999990
 20
-68.607359000000002
 40
52.499999999999993
 50
118.562833999999970
 51
118.973448999999970
  0
LINE
  8
0
  6
CONTINUOUS
 62
256
 10
267.134594999999990
 20
-39.293191000000000
 11
261.113755000000030
 21
-39.608730000000001
  0
LINE
  8
0
  6
CONTINUOUS
 62
256
 10
267.068776000000010
 20
-37.391874000000001
 11
261.613755000000030
 21
-37.105989000000001
  0
ARC
  8
0
  6
CONTINUOUS
 62
256
 10
261.666090999999990
 20
-36.107359000000002
 40
0.999999999999996
 50
92.999999999999091
 51
267.000000000000910
  0
LINE
  8
0
  6
CONTINUOUS
 62
256
 10
264.368153000000010
 20
-41.776544999999999
 11
261.113755000000030
 21
-41.605989000000001
  0
ARC
  8
0
  6
CONTINUOUS
 62
256
 10
261.166090999999990
 20
-40.607359000000002
 40
0.999999999999996
 50
92.999999999999091
 51
267.000000000000910
  0
LINE
  8
0
  6
CONTINUOUS
 62
256
 10
262.204777999999980
 20
-46.163167000000001
 11
261.113755000000030
 21
-46.105989000000001
  0
ARC
  8
0
  6
CONTINUOUS
 62
256
 10
261.166090999999990
 20
-49.607359000000002
 40
0.999999999999996
 50
92.999999999999091
 51
249.929667999999790
  0
LINE
  8
0
  6
CONTINUOUS
 62
256
 10
262.031612000000000
 20
-48.560626999999997
 11
261.113755000000030
 21
-48.608730000000001
  0
ARC
  8
0
  6
CONTINUOUS
 62
256
 10
261.979276000000030
 20
-47.561996999999998
 40
0.999999999999996
 50
272.999999999999090
 51
336.835567999999340
  0
ARC
  8
0
  6
CONTINUOUS
 62
256
 10
260.479743999999980
 20
-51.485903000000000
 40
0.999999999999977
 50
341.335428999999580
 51
69.929667999999779
  0
ARC
  8
0
  6
CONTINUOUS
 62
256
 10
262.152442000000010
 20
-47.161796000000002
 40
0.999999999999982
 50
336.368569999999640
 51
87.000000000000909
  0
ARC
  8
0
  6
CONTINUOUS
 62
256
 10
264.222898999999980
 20
-42.944414000000002
 40
0.999999999999996
 50
272.999999999999090
 51
331.335416000000350
  0
LINE
  8
0
  6
CONTINUOUS
 62
256
 10
264.275235000000010
 20
-43.943044000000000
 11
261.113755000000030
 21
-44.108730000000001
  0
ARC
  8
0
  6
CONTINUOUS
 62
256
 10
264.315816999999980
 20
-42.775174000000000
 40
0.999999999999995
 50
331.128647999999880
 51
87.000000000000909
  0
ARC
  8
0
  6
CONTINUOUS
 62
256
 10
261.166090999999990
 20
-45.107359000000002
 40
0.999999999999996
 50
92.999999999999091
 51
267.000000000000910
  0
ARC
  8
0
  6
CONTINUOUS
 62
256
 10
311.166090999999990
 20
-68.607359000000002
 40
52.500000000000028
 50
151.026551000000040
 51
151.437165999999960
  0
ARC
  8
0
  6
CONTINUOUS
 62
256
 10
311.166090999999990
 20
-68.607359000000002
 40
52.499999999999979
 50
161.335429000000000
 51
164.122298000000000
  0
ARC
  8
0
  6
CONTINUOUS
 62
256
 10
260.086174000000030
 20
-55.107359000000002
 40
0.500000000000000
 50
90.000000000000000
 51
172.202149999999310
  0
LINE
  8
0
  6
CONTINUOUS
 62
256
 10
260.086174000000030
 20
-54.607359000000002
 11
260.188154999999990
 21
-54.607359000000002
  0
ARC
  8
0
  6
CONTINUOUS
 62
256
 10
260.188154999999990
 20
-54.107359000000002
 40
0.500000000000000
 50
270.000000000000000
 51
344.122298000000230
  0
ARC
  8
0
  6
CONTINUOUS
 62
256
 10
267.016439999999990
 20
-38.390504000000000
 40
1.000000000000021
 50
328.884247000000810
 51
87.000000000000909
  0
ARC
  8
0
  6
CONTINUOUS
 62
256
 10
267.082259000000020
 20
-38.294561000000002
 40
0.999999999999996
 50
272.999999999999090
 51
322.214196999999900
  0
ARC
  8
0
  6
CONTINUOUS
 62
256
 10
311.166090999999990
 20
-68.607359000000002
 40
52.500000000000007
 50
156.336295000000010
 51
156.863111000000000
  0
LINE
  8
0
  6
CONTINUOUS
 62
256
 10
275.074726000000000
 20
-40.408718000000000
 11
265.041998999999980
 21
-29.266245999999999
  0
LINE
  8
0
  6
CONTINUOUS
 62
256
 10
282.967449999999990
 20
-32.515993999999999
 11
271.824976999999990
 21
-22.483267000000001
  0
ARC
  8
0
  6
CONTINUOUS
 62
256
 10
263.666090999999990
 20
-68.607359000000002
 40
100.000000000000000
 50
0.000000000000000
 51
7.797850000000000
  0
ARC
  8
0
  6
CONTINUOUS
 62
256
 10
358.666090999999990
 20
-68.607359000000002
 40
100.000000000000010
 50
172.202150000000020
 51
180.000000000000000
  0
ARC
  8
0
  6
CONTINUOUS
 62
256
 10
276.343712999999980
 20
-112.008396000000000
 40
0.999999999999997
 50
2.999999999999903
 51
131.999999999999940
  0
LINE
  8
0
  6
CONTINUOUS
 62
256
 10
277.342343000000030
 20
-111.956059999999990
 11
277.667462000000000
 21
-118.159695000000000
  0
ARC
  8
0
  6
CONTINUOUS
 62
256
 10
311.166090999999990
 20
-68.607359000000002
 40
61.500000000000021
 50
221.401105999999970
 51
228.598894000000000
  0
ARC
  8
0
  6
CONTINUOUS
 62
256
 10
271.155846999999990
 20
-113.988305999999990
 40
0.999999999999988
 50
228.598894000001170
 51
311.999999999999940
  0
ARC
  8
0
  6
CONTINUOUS
 62
256
 10
267.765054000000020
 20
-103.429737000000000
 40
0.999999999999987
 50
317.999999999998980
 51
87.000000000000909
  0
LINE
  8
0
  6
CONTINUOUS
 62
256
 10
267.817389999999990
 20
-102.431107999999990
 11
261.613755000000030
 21
-102.105988999999990
  0
ARC
  8
0
  6
CONTINUOUS
 62
256
 10
265.785144000000000
 20
-108.617603000000000
 40
0.999999999999987
 50
137.999999999999010
 51
221.401106000000030
  0
ARC
  8
0
  6
CONTINUOUS
 62
256
 10
280.853293000000010
 20
-112.691192000000000
 40
0.999999999999997
 50
2.999999999999903
 51
55.486921000000805
  0
ARC
  8
0
  6
CONTINUOUS
 62
256
 10
280.949235999999980
 20
-112.757009999999990
 40
1.000000000000002
 50
55.611524000000401
 51
177.000000000000110
  0
LINE
  8
0
  6
CONTINUOUS
 62
256
 10
288.721899000000010
 20
-117.568673000000000
 11
288.664720999999990
 21
-118.659695000000000
  0
ARC
  8
0
  6
CONTINUOUS
 62
256
 10
289.720528000000000
 20
-117.621009000000000
 40
0.999999999999990
 50
66.368570000000688
 51
177.000000000000110
  0
ARC
  8
0
  6
CONTINUOUS
 62
256
 10
287.666090999999990
 20
-118.607359000000000
 40
0.999999999999997
 50
182.999999999999890
 51
357.000000000000060
  0
ARC
  8
0
  6
CONTINUOUS
 62
256
 10
285.503146000000020
 20
-115.550551000000000
 40
0.999999999999997
 50
2.999999999999903
 51
61.335416000001011
  0
LINE
  8
0
  6
CONTINUOUS
 62
256
 10
286.501775000000010
 20
-115.498215000000000
 11
286.667462000000000
 21
-118.659695000000000
  0
ARC
  8
0
  6
CONTINUOUS
 62
256
 10
285.333906000000010
 20
-115.457634000000000
 40
0.999999999999988
 50
61.128648000000545
 51
177.000000000000110
  0
LINE
  8
0
  6
CONTINUOUS
 62
256
 10
284.335276000000020
 20
-115.405298000000000
 11
284.164720999999990
 21
-118.659695000000000
  0
LINE
  8
0
  6
CONTINUOUS
 62
256
 10
281.851923000000000
 20
-112.638856000000000
 11
282.167462000000000
 21
-118.659695000000000
  0
LINE
  8
0
  6
CONTINUOUS
 62
256
 10
279.950605999999990
 20
-112.704674000000000
 11
279.664720999999990
 21
-118.159695000000000
  0
ARC
  8
0
  6
CONTINUOUS
 62
256
 10
283.166090999999990
 20
-118.607359000000000
 40
0.999999999999997
 50
182.999999999999890
 51
357.000000000000060
  0
ARC
  8
0
  6
CONTINUOUS
 62
256
 10
278.666090999999990
 20
-118.107359000000000
 40
0.999999999999997
 50
182.999999999999890
 51
357.000000000000060
  0
ARC
  8
0
  6
CONTINUOUS
 62
256
 10
311.166090999999990
 20
-68.607359000000002
 40
52.500000000000014
 50
241.026550999999960
 51
241.437165999999990
  0
ARC
  8
0
  6
CONTINUOUS
 62
256
 10
311.166090999999990
 20
-68.607359000000002
 40
52.500000000000014
 50
241.026550999999960
 51
241.437165999999990
  0
ARC
  8
0
  6
CONTINUOUS
 62
256
 10
311.166090999999990
 20
-68.607359000000002
 40
52.500000000000000
 50
246.336295000000040
 51
246.888398000000000
  0
ARC
  8
0
  6
CONTINUOUS
 62
256
 10
290.166090999999990
 20
-117.813558000000000
 40
1.000000000000000
 50
0.000000000000000
 51
66.888398000000990
  0
ARC
  8
0
  6
CONTINUOUS
 62
256
 10
311.166090999999990
 20
-68.607359000000002
 40
52.499999999999986
 50
246.304919000000040
 51
246.888398000000000
  0
LINE
  8
0
  6
CONTINUOUS
 62
256
 10
291.166090999999990
 20
-121.407359000000000
 11
291.166090999999990
 21
-117.813558000000000
  0
ARC
  8
0
  6
CONTINUOUS
 62
256
 10
291.866090999999980
 20
-121.407359000000000
 40
0.699999999999989
 50
180.000000000000000
 51
270.000000000000000
  0
LINE
  8
0
  6
CONTINUOUS
 62
256
 10
291.866090999999980
 20
-122.107359000000000
 11
311.166090999999990
 21
-122.107359000000000
  0
LINE
  8
0
  6
CONTINUOUS
 62
256
 10
267.134594999999990
 20
-97.921527999999995
 11
261.113755000000030
 21
-97.605988999999994
  0
LINE
  8
0
  6
CONTINUOUS
 62
256
 10
267.068776000000010
 20
-99.822844000000003
 11
261.613755000000030
 21
-100.108729999999990
  0
ARC
  8
0
  6
CONTINUOUS
 62
256
 10
261.666090999999990
 20
-101.107359000000000
 40
0.999999999999996
 50
92.999999999999091
 51
267.000000000000910
  0
LINE
  8
0
  6
CONTINUOUS
 62
256
 10
264.368153000000010
 20
-95.438174000000004
 11
261.113755000000030
 21
-95.608729999999994
  0
ARC
  8
0
  6
CONTINUOUS
 62
256
 10
261.166090999999990
 20
-96.607359000000002
 40
0.999999999999996
 50
92.999999999999091
 51
267.000000000000910
  0
LINE
  8
0
  6
CONTINUOUS
 62
256
 10
262.204777999999980
 20
-91.051552000000001
 11
261.113755000000030
 21
-91.108729999999994
  0
ARC
  8
0
  6
CONTINUOUS
 62
256
 10
261.166090999999990
 20
-87.607359000000002
 40
1.000000000000005
 50
110.070332000000090
 51
267.000000000000910
  0
LINE
  8
0
  6
CONTINUOUS
 62
256
 10
262.031612000000000
 20
-88.654092000000006
 11
261.113755000000030
 21
-88.605988999999994
  0
ARC
  8
0
  6
CONTINUOUS
 62
256
 10
261.979276000000030
 20
-89.652721000000000
 40
0.999999999999977
 50
23.164432000000296
 51
87.000000000000909
  0
ARC
  8
0
  6
CONTINUOUS
 62
256
 10
260.479743999999980
 20
-85.728814999999997
 40
1.000000000000005
 50
290.070332000000060
 51
18.664571000000766
  0
ARC
  8
0
  6
CONTINUOUS
 62
256
 10
262.152442000000010
 20
-90.052921999999995
 40
0.999999999999996
 50
272.999999999999090
 51
23.631430000000389
  0
ARC
  8
0
  6
CONTINUOUS
 62
256
 10
264.222898999999980
 20
-94.270303999999996
 40
1.000000000000009
 50
28.664584000000026
 51
87.000000000000909
  0
LINE
  8
0
  6
CONTINUOUS
 62
256
 10
264.275235000000010
 20
-93.271675000000002
 11
261.113755000000030
 21
-93.105988999999994
  0
ARC
  8
0
  6
CONTINUOUS
 62
256
 10
264.315816999999980
 20
-94.439543999999998
 40
0.999999999999996
 50
272.999999999999090
 51
28.871352000000165
  0
ARC
  8
0
  6
CONTINUOUS
 62
256
 10
261.166090999999990
 20
-92.107359000000002
 40
0.999999999999996
 50
92.999999999999091
 51
267.000000000000910
  0
ARC
  8
0
  6
CONTINUOUS
 62
256
 10
311.166090999999990
 20
-68.607359000000002
 40
52.500000000000014
 50
208.562833999999980
 51
208.973449000000020
  0
ARC
  8
0
  6
CONTINUOUS
 62
256
 10
311.166090999999990
 20
-68.607359000000002
 40
52.500000000000021
 50
195.877701999999970
 51
198.664570999999970
  0
ARC
  8
0
  6
CONTINUOUS
 62
256
 10
358.666090999999990
 20
-68.607359000000002
 40
100.000000000000000
 50
180.000000000000000
 51
187.797850000000010
  0
ARC
  8
0
  6
CONTINUOUS
 62
256
 10
260.086174000000030
 20
-82.107359000000002
 40
0.499999999999976
 50
187.797849999999870
 51
270.000000000000000
  0
LINE
  8
0
  6
CONTINUOUS
 62
256
 10
260.086174000000030
 20
-82.607359000000002
 11
260.188154999999990
 21
-82.607359000000002
  0
ARC
  8
0
  6
CONTINUOUS
 62
256
 10
260.188154999999990
 20
-83.107359000000002
 40
0.500000000000015
 50
15.877701999999818
 51
90.000000000000000
  0
ARC
  8
0
  6
CONTINUOUS
 62
256
 10
267.016439999999990
 20
-98.824214999999995
 40
0.999999999999996
 50
272.999999999999090
 51
31.115752999999547
  0
ARC
  8
0
  6
CONTINUOUS
 62
256
 10
267.082259000000020
 20
-98.920157000000003
 40
0.999999999999998
 50
37.785803000000442
 51
87.000000000000909
  0
ARC
  8
0
  6
CONTINUOUS
 62
256
 10
311.166090999999990
 20
-68.607359000000002
 40
52.500000000000007
 50
203.136888999999970
 51
203.663704999999990
  0
LINE
  8
0
  6
CONTINUOUS
 62
256
 10
275.074726000000000
 20
-96.806000999999995
 11
265.041998999999980
 21
-107.948473000000010
  0
LINE
  8
0
  6
CONTINUOUS
 62
256
 10
282.967449999999990
 20
-104.698724000000000
 11
271.824976999999990
 21
-114.731451000000010
  0
ARC
  8
0
  6
CONTINUOUS
 62
256
 10
345.988469000000010
 20
-112.008396000000000
 40
1.000000000000008
 50
48.000000000000071
 51
177.000000000000110
  0
LINE
  8
0
  6
CONTINUOUS
 62
256
 10
344.989839000000020
 20
-111.956059999999990
 11
344.664720999999990
 21
-118.159695000000000
  0
ARC
  8
0
  6
CONTINUOUS
 62
256
 10
311.166090999999990
 20
-68.607359000000002
 40
61.500000000000007
 50
311.401106000000030
 51
318.598893999999970
  0
ARC
  8
0
  6
CONTINUOUS
 62
256
 10
351.176334999999990
 20
-113.988305999999990
 40
1.000000000000008
 50
228.000000000000060
 51
311.401105999998780
  0
ARC
  8
0
  6
CONTINUOUS
 62
256
 10
354.567128000000030
 20
-103.429737000000000
 40
0.999999999999996
 50
92.999999999999091
 51
222.000000000000990
  0
LINE
  8
0
  6
CONTINUOUS
 62
256
 10
354.514792000000000
 20
-102.431107999999990
 11
360.718427000000020
 21
-102.105988999999990
  0
ARC
  8
0
  6
CONTINUOUS
 62
256
 10
356.547037999999990
 20
-108.617603000000000
 40
1.000000000000007
 50
318.598893999999970
 51
42.000000000001023
  0
ARC
  8
0
  6
CONTINUOUS
 62
256
 10
341.478888999999980
 20
-112.691192000000000
 40
0.999999999999985
 50
124.513078999999190
 51
177.000000000000110
  0
ARC
  8
0
  6
CONTINUOUS
 62
256
 10
341.382946000000000
 20
-112.757009999999990
 40
0.999999999999997
 50
2.999999999999903
 51
124.388475999999600
  0
LINE
  8
0
  6
CONTINUOUS
 62
256
 10
333.610282999999980
 20
-117.568673000000000
 11
333.667462000000000
 21
-118.659695000000000
  0
ARC
  8
0
  6
CONTINUOUS
 62
256
 10
332.611653999999990
 20
-117.621009000000000
 40
0.999999999999997
 50
2.999999999999903
 51
113.631429999999330
  0
ARC
  8
0
  6
CONTINUOUS
 62
256
 10
334.666090999999990
 20
-118.607359000000000
 40
0.999999999999997
 50
182.999999999999890
 51
357.000000000000060
  0
ARC
  8
0
  6
CONTINUOUS
 62
256
 10
336.829035999999970
 20
-115.550551000000000
 40
0.999999999999983
 50
118.664583999999000
 51
177.000000000000110
  0
LINE
  8
0
  6
CONTINUOUS
 62
256
 10
335.830406999999980
 20
-115.498215000000000
 11
335.664720999999990
 21
-118.659695000000000
  0
ARC
  8
0
  6
CONTINUOUS
 62
256
 10
336.998275999999980
 20
-115.457634000000000
 40
0.999999999999997
 50
2.999999999999903
 51
118.871351999999450
  0
LINE
  8
0
  6
CONTINUOUS
 62
256
 10
337.996906000000020
 20
-115.405298000000000
 11
338.167462000000000
 21
-118.659695000000000
  0
LINE
  8
0
  6
CONTINUOUS
 62
256
 10
340.480258999999990
 20
-112.638856000000000
 11
340.164720999999990
 21
-118.659695000000000
  0
LINE
  8
0
  6
CONTINUOUS
 62
256
 10
342.381576000000000
 20
-112.704674000000000
 11
342.667462000000000
 21
-118.159695000000000
  0
ARC
  8
0
  6
CONTINUOUS
 62
256
 10
339.166090999999990
 20
-118.607359000000000
 40
0.999999999999997
 50
182.999999999999890
 51
357.000000000000060
  0
ARC
  8
0
  6
CONTINUOUS
 62
256
 10
343.666090999999990
 20
-118.107359000000000
 40
0.999999999999997
 50
182.999999999999890
 51
357.000000000000060
  0
ARC
  8
0
  6
CONTINUOUS
 62
256
 10
311.166090999999990
 20
-68.607359000000002
 40
52.500000000000007
 50
298.562834000000010
 51
298.973448999999960
  0
ARC
  8
0
  6
CONTINUOUS
 62
256
 10
311.166090999999990
 20
-68.607359000000002
 40
52.500000000000007
 50
298.562834000000010
 51
298.973448999999960
  0
ARC
  8
0
  6
CONTINUOUS
 62
256
 10
311.166090999999990
 20
-68.607359000000002
 40
52.500000000000007
 50
293.111602000000000
 51
293.663704999999990
  0
ARC
  8
0
  6
CONTINUOUS
 62
256
 10
332.166090999999990
 20
-117.813558000000000
 40
0.999999999999988
 50
113.111601999999010
 51
180.000000000000000
  0
ARC
  8
0
  6
CONTINUOUS
 62
256
 10
311.166090999999990
 20
-68.607359000000002
 40
52.500000000000007
 50
293.111602000000000
 51
293.695081000000020
  0
LINE
  8
0
  6
CONTINUOUS
 62
256
 10
331.166090999999990
 20
-121.407359000000000
 11
331.166090999999990
 21
-117.813558000000000
  0
ARC
  8
0
  6
CONTINUOUS
 62
256
 10
330.466091000000010
 20
-121.407359000000000
 40
0.700000000000003
 50
270.000000000000000
 51
0.000000000000000
  0
LINE
  8
0
  6
CONTINUOUS
 62
256
 10
330.466091000000010
 20
-122.107359000000000
 11
311.166090999999990
 21
-122.107359000000000
  0
LINE
  8
0
  6
CONTINUOUS
 62
256
 10
355.197588000000000
 20
-97.921527999999995
 11
361.218427000000020
 21
-97.605988999999994
  0
LINE
  8
0
  6
CONTINUOUS
 62
256
 10
355.263405999999970
 20
-99.822844000000003
 11
360.718427000000020
 21
-100.108729999999990
  0
ARC
  8
0
  6
CONTINUOUS
 62
256
 10
360.666090999999990
 20
-101.107359000000000
 40
0.999999999999996
 50
272.999999999999090
 51
87.000000000000909
  0
LINE
  8
0
  6
CONTINUOUS
 62
256
 10
357.964029999999980
 20
-95.438174000000004
 11
361.218427000000020
 21
-95.608729999999994
  0
ARC
  8
0
  6
CONTINUOUS
 62
256
 10
361.166090999999990
 20
-96.607359000000002
 40
0.999999999999996
 50
272.999999999999090
 51
87.000000000000909
  0
LINE
  8
0
  6
CONTINUOUS
 62
256
 10
360.127405000000010
 20
-91.051552000000001
 11
361.218427000000020
 21
-91.108729999999994
  0
ARC
  8
0
  6
CONTINUOUS
 62
256
 10
361.166090999999990
 20
-87.607359000000002
 40
0.999999999999996
 50
272.999999999999090
 51
69.929667999999921
  0
LINE
  8
0
  6
CONTINUOUS
 62
256
 10
360.300569999999990
 20
-88.654092000000006
 11
361.218427000000020
 21
-88.605988999999994
  0
ARC
  8
0
  6
CONTINUOUS
 62
256
 10
360.352906000000020
 20
-89.652721000000000
 40
0.999999999999996
 50
92.999999999999091
 51
156.835567999999710
  0
ARC
  8
0
  6
CONTINUOUS
 62
256
 10
361.852438000000010
 20
-85.728814999999997
 40
0.999999999999979
 50
161.335428999999240
 51
249.929667999999880
  0
ARC
  8
0
  6
CONTINUOUS
 62
256
 10
360.179740999999980
 20
-90.052921999999995
 40
0.999999999999982
 50
156.368569999999610
 51
267.000000000000910
  0
ARC
  8
0
  6
CONTINUOUS
 62
256
 10
358.109283000000000
 20
-94.270303999999996
 40
0.999999999999996
 50
92.999999999999091
 51
151.335415999999980
  0
LINE
  8
0
  6
CONTINUOUS
 62
256
 10
358.056946999999980
 20
-93.271675000000002
 11
361.218427000000020
 21
-93.105988999999994
  0
ARC
  8
0
  6
CONTINUOUS
 62
256
 10
358.016365000000010
 20
-94.439543999999998
 40
0.999999999999995
 50
151.128647999999830
 51
267.000000000000910
  0
ARC
  8
0
  6
CONTINUOUS
 62
256
 10
361.166090999999990
 20
-92.107359000000002
 40
0.999999999999996
 50
272.999999999999090
 51
87.000000000000909
  0
ARC
  8
0
  6
CONTINUOUS
 62
256
 10
311.166090999999990
 20
-68.607359000000002
 40
52.499999999999986
 50
331.026550999999980
 51
331.437165999999930
  0
ARC
  8
0
  6
CONTINUOUS
 62
256
 10
311.166090999999990
 20
-68.607359000000002
 40
52.499999999999979
 50
341.335429000000030
 51
344.122298000000000
  0
ARC
  8
0
  6
CONTINUOUS
 62
256
 10
263.666090999999990
 20
-68.607359000000002
 40
100.000000000000010
 50
352.202150000000020
 51
0.000000000000000
  0
ARC
  8
0
  6
CONTINUOUS
 62
256
 10
362.246008000000020
 20
-82.107359000000002
 40
0.500000000000000
 50
270.000000000000000
 51
352.202150000000130
  0
LINE
  8
0
  6
CONTINUOUS
 62
256
 10
362.246008000000020
 20
-82.607359000000002
 11
362.144026999999990
 21
-82.607359000000002
  0
ARC
  8
0
  6
CONTINUOUS
 62
256
 10
362.144026999999990
 20
-83.107359000000002
 40
0.500000000000000
 50
90.000000000000000
 51
164.122298000000200
  0
ARC
  8
0
  6
CONTINUOUS
 62
256
 10
355.315742000000000
 20
-98.824214999999995
 40
1.000000000000025
 50
148.884247000000470
 51
267.000000000000910
  0
ARC
  8
0
  6
CONTINUOUS
 62
256
 10
355.249924000000020
 20
-98.920157000000003
 40
0.999999999999996
 50
92.999999999999091
 51
142.214196999999560
  0
ARC
  8
0
  6
CONTINUOUS
 62
256
 10
311.166090999999990
 20
-68.607359000000002
 40
52.500000000000000
 50
336.336295000000010
 51
336.863111000000000
  0
LINE
  8
0
  6
CONTINUOUS
 62
256
 10
347.257455999999990
 20
-96.806000999999995
 11
357.290183000000010
 21
-107.948473000000010
  0
LINE
  8
0
  6
CONTINUOUS
 62
256
 10
339.364733000000000
 20
-104.698724000000000
 11
350.507205000000000
 21
-114.731451000000010
  0
INSERT
  8
0
  2
ZU_SYM_5
 10
350.764071000000000
 20
-29.009378999999999
 41
-1.000000000000000
 50
270.000000000000000
  0
INSERT
  8
0
  2
ZU_SYM_6
 10
350.764071000000000
 20
-108.205339000000000
 50
270.000000000000000
  0
INSERT
  8
0
  2
ZU_SYM_7
 10
271.568110999999990
 20
-108.205339000000000
 41
-1.000000000000000
 50
90.000000000000000
  0
INSERT
  8
0
  2
ZU_SYM_8
 10
271.568110999999990
 20
-29.009378999999999
 50
90.000000000000000
  0
LINE
  8
0
  6
CONTINUOUS
 62
256
 10
329.916090999999990
 20
-14.607359000000001
 11
329.916090999999990
 21
-15.107359000000001
  0
LINE
  8
0
  6
CONTINUOUS
 62
256
 10
292.416090999999990
 20
-14.607359000000001
 11
292.416090999999990
 21
-15.107359000000001
  0
LINE
  8
0
  6
CONTINUOUS
 62
256
 10
341.166090999999990
 20
-11.107359000000001
 11
341.166090999999990
 21
12.331410000000000
  0
LINE
  8
0
  6
CONTINUOUS
 62
256
 10
281.166090999999990
 20
-11.107359000000001
 11
281.166090999999990
 21
12.331410000000000
  0
ARC
  8
0
  6
CONTINUOUS
 62
256
 10
336.166090999999990
 20
12.331410000000000
 40
5.000000000000000
 50
0.000000000000000
 51
85.138594999999938
  0
ARC
  8
0
  6
CONTINUOUS
 62
256
 10
286.166090999999990
 20
12.331410000000000
 40
5.000000000000001
 50
94.861405000000062
 51
180.000000000000000
  0
LINE
  8
0
  6
CONTINUOUS
 62
256
 10
281.166090999999990
 20
8.467572000000001
 11
276.613734000000020
 21
8.388111000000000
  0
LINE
  8
0
  6
DASHDOT
 62
256
 10
311.166090999999990
 20
-158.079859000000000
 11
311.166090999999990
 21
27.484614000000001
  0
ARC
  8
0
  6
CONTINUOUS
 62
256
 10
368.166109000000010
 20
-75.571261000000007
 40
3.000000000000003
 50
279.999999999999660
 51
0.000000000000000
  0
LINE
  8
0
  6
CONTINUOUS
 62
256
 10
371.166109000000010
 20
-17.311167000000001
 11
371.166109000000010
 21
-75.571261000000007
  0
ARC
  8
0
  6
CONTINUOUS
 62
256
 10
368.166109000000010
 20
-17.311167000000001
 40
3.000000000000000
 50
0.000000000000000
 51
80.000000000000355
  0
ARC
  8
0
  6
CONTINUOUS
 62
256
 10
265.666024999999990
 20
-7.160005000000000
 40
4.999999999999997
 50
279.999999999999890
 51
359.999925000000020
  0
ARC
  8
0
  6
CONTINUOUS
 62
256
 10
270.666109000000010
 20
5.754988000000000
 40
3.000000000000013
 50
299.999065000000370
 51
0.000000000000000
  0
ARC
  8
0
  6
CONTINUOUS
 62
256
 10
273.666024999999990
 20
0.558786000000000
 40
3.000000000000012
 50
119.999065000000390
 51
180.000000000000000
  0
POINT
  8
0
  6
CONTINUOUS
 62
256
 10
273.666024999999990
 20
3.558786000000000
  0
LINE
  8
0
  6
CONTINUOUS
 62
256
 10
253.345147000000000
 20
-14.409641000000001
 11
266.534265000000000
 21
-12.084044000000000
  0
POINT
  8
0
  6
CONTINUOUS
 62
256
 10
253.166090999999990
 20
-14.441214000000000
  0
ARC
  8
0
  6
CONTINUOUS
 62
256
 10
253.866091000000010
 20
-17.364065000000000
 40
3.000000000000001
 50
100.000000000000180
 51
154.158066999999930
  0
ARC
  8
0
  6
CONTINUOUS
 62
256
 10
253.866091000000010
 20
-75.518362999999994
 40
2.999999999999988
 50
205.841932999999980
 51
259.999999999999830
  0
POINT
  8
0
  6
CONTINUOUS
 62
256
 10
253.166090999999990
 20
-78.441214000000002
  0
LINE
  8
0
  6
CONTINUOUS
 62
256
 10
251.166090999999990
 20
-76.826031999999998
 11
251.166090999999990
 21
-16.056394999999998
  0
ARC
  8
0
  6
CONTINUOUS
 62
256
 10
368.166090999999990
 20
-137.389306000000000
 40
3.000000000000000
 50
0.000000000000000
 51
89.000000000000412
  0
LINE
  8
0
  6
CONTINUOUS
 62
256
 10
371.166090999999990
 20
-146.441214000000000
 11
371.166090999999990
 21
-137.389306000000000
  0
LINE
  8
0
  6
DASHDOT
 62
256
 10
361.166090999999990
 20
-150.810221000000010
 11
361.166090999999990
 21
-129.657224000000010
  0
ARC
  8
0
  6
CONTINUOUS
 62
256
 10
348.166090999999990
 20
-129.441486000000000
 40
3.000000000000000
 50
270.000000000000000
 51
0.000000000000000
  0
ARC
  8
0
  6
CONTINUOUS
 62
256
 10
254.166090999999990
 20
-137.389306000000000
 40
3.000000000000011
 50
91.000000000000142
 51
180.000000000000000
  0
ARC
  8
0
  6
CONTINUOUS
 62
256
 10
270.666090999999990
 20
-131.100382999999990
 40
3.000000000000011
 50
270.999999999999600
 51
0.000000000000000
  0
LINE
  8
0
  6
CONTINUOUS
 62
256
 10
273.666090999999990
 20
-131.100382999999990
 11
273.666090999999990
 21
-119.020238000000010
  0
LINE
  8
0
  6
CONTINUOUS
 62
256
 10
270.718448000000020
 20
-134.099926000000010
 11
254.113733999999990
 21
-134.389761999999990
  0
LINE
  8
0
  6
DASHDOT
 62
256
 10
261.166090999999990
 20
-149.471329000000000
 11
261.166090999999990
 21
-130.236229000000010
  0
LINE
  8
0
  6
CONTINUOUS
 62
256
 10
251.166090999999990
 20
-146.441214000000000
 11
251.166090999999990
 21
-137.389306000000000
  0
LINE
  8
0
  6
CONTINUOUS
 62
256
 10
371.166090999999990
 20
-146.441214000000000
 11
251.166090999999990
 21
-146.441214000000000
  0
LINE
  8
0
  6
CONTINUOUS
 62
256
 10
369.187053999999990
 20
-14.444907000000001
 11
355.797849999999980
 21
-12.084028999999999
  0
ARC
  8
0
  6
CONTINUOUS
 62
256
 10
356.666090999999990
 20
-7.159990000000000
 40
5.000000000000000
 50
180.000000000000000
 51
260.000000000000110
  0
POINT
  8
0
  6
CONTINUOUS
 62
256
 10
351.666090999999990
 20
-11.355487999999999
  0
LINE
  8
0
  6
CONTINUOUS
 62
256
 10
343.666090999999990
 20
9.558786000000000
 11
343.666090999999990
 21
6.058514000000000
  0
LINE
  8
0
  6
CONTINUOUS
 62
256
 10
343.666090999999990
 20
9.558786000000000
 11
348.770789999999980
 21
9.380526000000000
  0
LINE
  8
0
  6
CONTINUOUS
 62
256
 10
343.666090999999990
 20
9.558514000000001
 11
341.166090999999990
 21
9.514875999999999
  0
LINE
  8
0
  6
DASHDOT
 62
256
 10
376.285105999999980
 20
-46.441214000000002
 11
204.372750000000000
 21
-46.441214000000002
  0
LINE
  8
0
  6
CONTINUOUS
 62
256
 10
249.166073000000010
 20
-34.441214000000002
 11
249.166073000000010
 21
-46.441214000000002
  0
LINE
  8
0
  6
CONTINUOUS
 62
256
 10
249.166073000000010
 20
-58.441214000000002
 11
249.166073000000010
 21
-46.441214000000002
  0
LINE
  8
0
  6
CONTINUOUS
 62
256
 10
249.166073000000010
 20
-57.441214000000002
 11
209.566072999999990
 21
-57.441214000000002
  0
LINE
  8
0
  6
CONTINUOUS
 62
256
 10
249.166073000000010
 20
-35.441214000000002
 11
209.166073000000010
 21
-35.441214000000002
  0
LINE
  8
0
  6
CONTINUOUS
 62
256
 10
251.166073000000010
 20
-34.441214000000002
 11
249.166073000000010
 21
-34.441214000000002
  0
LINE
  8
0
  6
CONTINUOUS
 62
256
 10
251.166073000000010
 20
-58.441214000000002
 11
249.166073000000010
 21
-58.441214000000002
  0
LINE
  8
0
  6
CONTINUOUS
 62
256
 10
209.166073000000010
 20
-32.941214000000002
 11
241.166055000000000
 21
-32.941214000000002
  0
LINE
  8
0
  6
CONTINUOUS
 62
256
 10
241.166073000000010
 20
-35.441214000000002
 11
241.166073000000010
 21
-32.941214000000002
  0
ARC
  8
0
  6
CONTINUOUS
 62
256
 10
276.666090999999990
 20
5.388567000000000
 40
3.000000000000000
 50
90.999999999999602
 51
180.000000000000000
  0
ARC
  8
0
  6
CONTINUOUS
 62
256
 10
348.666090999999990
 20
6.382354000000000
 40
3.000000000000000
 50
0.000000000000000
 51
87.999999999999616
  0
LINE
  8
0
  6
CONTINUOUS
 62
256
 10
368.218448000000020
 20
-134.389761999999990
 11
343.666090999999990
 21
-133.961198999999990
  0
LINE
  8
0
  6
CONTINUOUS
 62
256
 10
348.166090999999990
 20
-132.441486000000000
 11
343.666090999999990
 21
-132.520034000000010
  0
LINE
  8
0
  6
CONTINUOUS
 62
256
 10
91.760103000000001
 20
18.892641000000001
 11
91.760103000000001
 21
18.392641000000001
  0
LINE
  8
0
  6
CONTINUOUS
 62
256
 10
91.760103000000001
 20
18.892641000000001
 11
83.760103000000001
 21
18.892641000000001
  0
LINE
  8
0
  6
CONTINUOUS
 62
256
 10
83.760103000000001
 20
18.892641000000001
 11
83.760103000000001
 21
18.392641000000001
  0
ENDSEC
  0
EOF
