  0
SECTION
  2
HEADER
  9
$TEXTSIZE
 40
2.5
  9
$ACADVER
  1
AC1009
  9
$DIMASZ
 40
3.863703297614046
  9
$DIMEXE
 40
2.000000000000000
  9
$DIMEXO
 40
1.000000000000000
  9
$DIMLFAC
 40
1.000000000000000
  9
$DIMSCALE
 40
1.000000000000000
  9
$DIMTAD
 70
1
  9
$DIMTFAC
 40
0.625000000000000
  9
$DIMTXT
 40
3.200000047683716
  9
$LUPREC
 70
3
  9
$REGENMODE
 70
1
  9
$TEXTSTYLE
  7
STANDARD1
  0
ENDSEC
  0
SECTION
  2
TABLES
  0
TABLE
  2
LTYPE
 70
4
  0
LTYPE
  2
CONTINUOUS
 70
64
  3
Solid line
 72
65
 73
0
 40
0.0
  0
LTYPE
  2
DASHED
 70
64
  3
-- -- -- -- -- -- -- -- -- -- -- -- -- -- --
 72
65
 73
2
 40
0.75
 49
0.5
 49
-0.25
  0
LTYPE
  2
DASHDOT
 70
64
  3
__ . __ . __ . __ . __ . __ . __ . __ . __ . __
 72
65
 73
4
 40
1.0
 49
0.5
 49
-0.25
 49
0.0
 49
-0.25
  0
LTYPE
  2
DIVIDE
 70
64
  3
__ . . __ . . __ . . __ . . __ . . __ . . __
 72
65
 73
6
 40
1.25
 49
0.5
 49
-0.25
 49
0.0
 49
-0.25
 49
0.0
 49
-0.25
  0
ENDTAB
  0
TABLE
  2
LAYER
 70
3
  0
LAYER
  2
0
 70
64
 62
53
  6
CONTINUOUS
  0
LAYER
  2
1
 70
64
 62
102
  6
CONTINUOUS
  0
LAYER
  2
2
 70
64
 62
3
  6
CONTINUOUS
  0
ENDTAB
  0
TABLE
  2
STYLE
 70
4
  0
STYLE
  2
STANDARD1
 70
64
 40
0.0
 41
1.0
 50
0.0
 71
0
 42
3.200000047683716
  3
MONOTXT
  4
BIGFONT
  0
STYLE
  2
STANDARD2
 70
68
 40
0.0
 41
1.0
 50
0.0
 71
0
 42
3.200000047683716
  3
MONOTXT
  4
BIGFONT
  0
STYLE
  2
STANDARD3
 70
64
 40
0.0
 41
1.0
 50
0.0
 71
0
 42
3.200000047683716
  3
MONOTXT
  4

  0
STYLE
  2
STANDARD4
 70
68
 40
0.0
 41
1.0
 50
0.0
 71
0
 42
3.200000047683716
  3
MONOTXT
  4

  0
ENDTAB
  0
TABLE
  2
VIEW
 70
0
  0
ENDTAB
  0
ENDSEC
  0
SECTION
  2
BLOCKS
  0
ENDSEC
  0
SECTION
  2
ENTITIES
  0
ARC
  8
0
  6
CONTINUOUS
 62
256
 10
200.401895000000000
 20
-35.570149000000001
 40
2.599999999999994
 50
0.000000000000000
 51
54.999999999999886
  0
ARC
  8
0
  6
CONTINUOUS
 62
256
 10
200.401895000000000
 20
-131.257389999999990
 40
2.599999999999996
 50
305.000000000000230
 51
0.000000000000000
  0
LINE
  8
0
  6
CONTINUOUS
 62
256
 10
203.001894999999990
 20
-35.570149000000001
 11
203.001894999999990
 21
-83.413770000000000
  0
LINE
  8
0
  6
CONTINUOUS
 62
256
 10
203.001894999999990
 20
-131.257389999999990
 11
203.001894999999990
 21
-83.413770000000000
  0
POINT
  8
0
  6
DASHED
 62
256
 10
-141.377884999999990
 20
-24.499658000000000
  0
CIRCLE
  8
0
  6
CONTINUOUS
 62
256
 10
-18.998125999999999
 20
-38.499657999999997
 40
26.500000000000000
  0
CIRCLE
  8
0
  6
CONTINUOUS
 62
256
 10
-18.998125999999999
 20
-38.499657999999997
 40
22.500000000000000
  0
CIRCLE
  8
0
  6
CONTINUOUS
 62
256
 10
-18.998125999999999
 20
-38.499657999999997
 40
29.500000000000000
  0
CIRCLE
  8
0
  6
CONTINUOUS
 62
256
 10
-18.998125999999999
 20
-38.499657999999997
 40
38.000000000000000
  0
CIRCLE
  8
0
  6
CONTINUOUS
 62
256
 10
-18.998125999999999
 20
-38.499657999999997
 40
43.658234000000000
  0
LINE
  8
0
  6
CONTINUOUS
 62
256
 10
-68.998125999999999
 20
-38.499657999999997
 11
-68.998125999999999
 21
-95.499657999999997
  0
ARC
  8
0
  6
CONTINUOUS
 62
256
 10
-38.998125999999999
 20
-95.499657999999997
 40
30.000000000000000
 50
180.000000000000000
 51
270.000000000000000
  0
LINE
  8
0
  6
CONTINUOUS
 62
256
 10
-38.998125999999999
 20
-125.499658000000000
 11
1.001874000000000
 21
-125.499658000000000
  0
ARC
  8
0
  6
CONTINUOUS
 62
256
 10
1.001874000000000
 20
-95.499657999999997
 40
30.000000000000000
 50
270.000000000000000
 51
0.000000000000000
  0
LINE
  8
0
  6
CONTINUOUS
 62
256
 10
31.001874000000001
 20
-38.499657999999997
 11
31.001874000000001
 21
-95.499657999999997
  0
ARC
  8
0
  6
CONTINUOUS
 62
256
 10
-18.998125999999999
 20
-38.499657999999997
 40
50.000000000000000
 50
0.000000000000000
 51
180.000000000000000
  0
ARC
  8
0
  6
CONTINUOUS
 62
256
 10
-55.998125999999999
 20
-5.499658000000000
 40
30.000000000000000
 50
90.000000000000000
 51
180.000000000000000
  0
LINE
  8
0
  6
CONTINUOUS
 62
256
 10
-55.998125999999999
 20
24.500342000000000
 11
14.001874000000001
 21
24.500342000000000
  0
ARC
  8
0
  6
CONTINUOUS
 62
256
 10
14.001874000000001
 20
-5.499658000000000
 40
30.000000000000000
 50
0.000000000000000
 51
90.000000000000000
  0
LINE
  8
0
  6
CONTINUOUS
 62
256
 10
-85.998125999999999
 20
-158.499658000000010
 11
-85.998125999999999
 21
-5.499658000000000
  0
ARC
  8
0
  6
CONTINUOUS
 62
256
 10
47.001874000000001
 20
-140.244490000000010
 40
3.000000000000014
 50
90.995842999999951
 51
180.000000000000000
  0
LINE
  8
0
  6
CONTINUOUS
 62
256
 10
44.001874000000001
 20
-158.499658000000010
 11
44.001874000000001
 21
-140.244490000000010
  0
ARC
  8
0
  6
CONTINUOUS
 62
256
 10
47.001874000000001
 20
-26.583048999999999
 40
3.000000000000000
 50
180.000000000000000
 51
269.004157000000020
  0
LINE
  8
0
  6
CONTINUOUS
 62
256
 10
44.001874000000001
 20
-26.583048999999999
 11
44.001874000000001
 21
-5.499658000000000
  0
LINE
  8
0
  6
DASHDOT
 62
256
 10
-318.110447000000020
 20
-163.355637000000000
 11
-318.110447000000020
 21
39.260281999999997
  0
LINE
  8
0
  6
DASHDOT
 62
256
 10
-294.402089999999990
 20
-83.413770000000000
 11
-336.809083999999980
 21
-83.413770000000000
  0
LINE
  8
0
  6
CONTINUOUS
 62
256
 10
-385.110447000000020
 20
-64.599658000000005
 11
-385.110447000000020
 21
-12.399658000000001
  0
ARC
  8
0
  6
CONTINUOUS
 62
256
 10
-379.610447000000020
 20
-3.105120000000000
 40
2.999999999999997
 50
99.999999999999659
 51
180.000000000000000
  0
LINE
  8
0
  6
CONTINUOUS
 62
256
 10
-385.110447000000020
 20
-12.399658000000001
 11
-384.710446999999990
 21
-11.999658000000000
  0
LINE
  8
0
  6
CONTINUOUS
 62
256
 10
-385.110447000000020
 20
-64.599658000000005
 11
-384.710446999999990
 21
-64.999657999999997
  0
ARC
  8
0
  6
CONTINUOUS
 62
256
 10
-379.610447000000020
 20
-73.894194999999996
 40
3.000000000000000
 50
180.000000000000000
 51
260.000000000000340
  0
LINE
  8
0
  6
CONTINUOUS
 62
256
 10
-355.110447000000020
 20
24.500342000000000
 11
-362.127615999999990
 21
24.377856999999999
  0
ARC
  8
0
  6
CONTINUOUS
 62
256
 10
-362.110163000000000
 20
23.378010000000000
 40
0.999999999999998
 50
90.999999999998522
 51
180.000000000000000
  0
LINE
  8
0
  6
CONTINUOUS
 62
256
 10
-355.110447000000020
 20
-142.499658000000010
 11
-362.110163000000000
 21
-142.499658000000010
  0
ARC
  8
0
  6
CONTINUOUS
 62
256
 10
-362.110163000000000
 20
-141.499658000000010
 40
1.000000000000000
 50
180.000000000000000
 51
270.000000000000000
  0
LINE
  8
0
  6
CONTINUOUS
 62
256
 10
-251.110446999999990
 20
-64.699886000000006
 11
-251.110446999999990
 21
-12.299429000000000
  0
LINE
  8
0
  6
CONTINUOUS
 62
256
 10
-382.610447000000020
 20
-38.499657999999997
 11
-382.610447000000020
 21
-3.105120000000000
  0
POINT
  8
0
  6
CONTINUOUS
 62
256
 10
-251.110446999999990
 20
-143.499658000000010
  0
POINT
  8
0
  6
CONTINUOUS
 62
256
 10
-385.110447000000020
 20
-143.499658000000010
  0
LINE
  8
0
  6
CONTINUOUS
 62
256
 10
-385.110447000000020
 20
-158.499658000000010
 11
-251.110446999999990
 21
-158.499658000000010
  0
LINE
  8
0
  6
CONTINUOUS
 62
256
 10
-355.110447000000020
 20
-134.038432000000000
 11
-355.110447000000020
 21
24.500343000000001
  0
LINE
  8
0
  6
CONTINUOUS
 62
256
 10
-355.610447000000020
 20
-142.999658000000010
 11
-355.110447000000020
 21
-142.999658000000010
  0
LINE
  8
0
  6
CONTINUOUS
 62
256
 10
-355.110447000000020
 20
-142.999658000000010
 11
-355.110447000000020
 21
-134.038432000000000
  0
ARC
  8
0
  6
CONTINUOUS
 62
256
 10
-256.610217999999970
 20
-73.894194999999996
 40
3.000000000000003
 50
279.999999999999660
 51
0.000000000000000
  0
ARC
  8
0
  6
CONTINUOUS
 62
256
 10
-256.610217999999970
 20
-3.105120000000000
 40
3.000000000000000
 50
0.000000000000000
 51
80.000000000000355
  0
LINE
  8
0
  6
CONTINUOUS
 62
256
 10
-253.610218000000000
 20
-3.105120000000000
 11
-253.610218000000000
 21
-38.499657999999997
  0
LINE
  8
0
  6
CONTINUOUS
 62
256
 10
-253.610218000000000
 20
-73.894194999999996
 11
-253.610218000000000
 21
-38.499657999999997
  0
LINE
  8
0
  6
CONTINUOUS
 62
256
 10
-249.110446999999990
 20
-23.999658000000000
 11
-251.110446999999990
 21
-23.999658000000000
  0
LINE
  8
0
  6
CONTINUOUS
 62
256
 10
-249.110446999999990
 20
-38.499657999999997
 11
-249.110446999999990
 21
-23.999658000000000
  0
LINE
  8
0
  6
CONTINUOUS
 62
256
 10
-249.110446999999990
 20
-38.499657999999997
 11
-249.110446999999990
 21
-23.999658000000000
  0
LINE
  8
0
  6
CONTINUOUS
 62
256
 10
-249.110446999999990
 20
-52.999657999999997
 11
-251.110446999999990
 21
-52.999657999999997
  0
LINE
  8
0
  6
CONTINUOUS
 62
256
 10
-249.110446999999990
 20
-38.499657999999997
 11
-249.110446999999990
 21
-52.999657999999997
  0
LINE
  8
0
  6
CONTINUOUS
 62
256
 10
-249.110446999999990
 20
-38.499657999999997
 11
-249.110446999999990
 21
-52.999657999999997
  0
LINE
  8
0
  6
CONTINUOUS
 62
256
 10
-204.110446999999990
 20
-38.499657999999997
 11
-204.110446999999990
 21
-52.499657999999997
  0
LINE
  8
0
  6
CONTINUOUS
 62
256
 10
-249.110446999999990
 20
-52.499657999999997
 11
-204.110446999999990
 21
-52.499657999999997
  0
LINE
  8
0
  6
CONTINUOUS
 62
256
 10
-240.110446999999990
 20
-24.499658000000000
 11
-240.110446999999990
 21
-21.499658000000000
  0
LINE
  8
0
  6
CONTINUOUS
 62
256
 10
-240.110446999999990
 20
-21.499658000000000
 11
-204.110446999999990
 21
-21.499658000000000
  0
LINE
  8
0
  6
CONTINUOUS
 62
256
 10
-204.110446999999990
 20
-38.499657999999997
 11
-204.110446999999990
 21
-21.499658000000000
  0
LINE
  8
0
  6
CONTINUOUS
 62
256
 10
-249.110446999999990
 20
-24.499658000000000
 11
-204.110446999999990
 21
-24.499658000000000
  0
ARC
  8
0
  6
CONTINUOUS
 62
256
 10
-665.610447000000020
 20
-103.413770000000000
 40
400.000000000000000
 50
358.865247000000010
 51
359.928470000000000
  0
ARC
  8
0
  6
CONTINUOUS
 62
256
 10
29.389552999999999
 20
-103.413770000000000
 40
400.000000000000000
 50
180.071529999999970
 51
181.134752999999960
  0
ARC
  8
0
  6
CONTINUOUS
 62
256
 10
-272.110447000000020
 20
-139.132492000000010
 40
4.000000000000000
 50
180.000000000000000
 51
268.999999999999830
  0
ARC
  8
0
  6
CONTINUOUS
 62
256
 10
-254.110446999999990
 20
-146.447748999999990
 40
3.000000000000000
 50
0.000000000000000
 51
88.999999999999858
  0
ARC
  8
0
  6
CONTINUOUS
 62
256
 10
-382.110447000000020
 20
-146.447748999999990
 40
3.000000000000011
 50
90.999999999999602
 51
180.000000000000000
  0
ARC
  8
0
  6
CONTINUOUS
 62
256
 10
-268.110729999999990
 20
7.046103000000000
 40
5.000000000000000
 50
180.000000000000000
 51
260.000000000000110
  0
ARC
  8
0
  6
CONTINUOUS
 62
256
 10
-290.610447000000020
 20
-110.913770000000000
 40
24.999999999999993
 50
305.450542999999980
 51
0.000000000000000
  0
ARC
  8
0
  6
CONTINUOUS
 62
256
 10
-265.110447000000020
 20
-103.913770000000000
 40
0.500000000000000
 50
90.000000000000000
 51
180.000000000000000
  0
ARC
  8
0
  6
CONTINUOUS
 62
256
 10
-265.110447000000020
 20
-102.913770000000000
 40
0.500000000000000
 50
270.000000000000000
 51
0.000000000000000
  0
ARC
  8
0
  6
CONTINUOUS
 62
256
 10
-371.110447000000020
 20
-103.913770000000000
 40
0.500000000000000
 50
0.000000000000000
 51
90.000000000000000
  0
ARC
  8
0
  6
CONTINUOUS
 62
256
 10
-371.110447000000020
 20
-102.913770000000000
 40
0.500000000000000
 50
180.000000000000000
 51
270.000000000000000
  0
ARC
  8
0
  6
CONTINUOUS
 62
256
 10
-268.110729999999990
 20
-84.045417999999998
 40
4.999999999999999
 50
99.999999999999858
 51
180.000000000000000
  0
ARC
  8
0
  6
CONTINUOUS
 62
256
 10
-276.110729999999990
 20
-86.303668999999999
 40
3.000000000000006
 50
300.003127000000060
 51
0.000000000000000
  0
ARC
  8
0
  6
CONTINUOUS
 62
256
 10
-273.110447000000020
 20
-91.499657999999997
 40
3.000000000000006
 50
120.003127000000020
 51
180.000000000000000
  0
ARC
  8
0
  6
CONTINUOUS
 62
256
 10
-276.110729999999990
 20
9.304354000000000
 40
3.000000000000000
 50
0.000000000000000
 51
59.996872999999937
  0
ARC
  8
0
  6
CONTINUOUS
 62
256
 10
-273.110447000000020
 20
14.500342000000000
 40
3.000000000000000
 50
180.000000000000000
 51
239.996872999999970
  0
ARC
  8
0
  6
CONTINUOUS
 62
256
 10
-279.110447000000020
 20
20.173300000000001
 40
3.000000000000000
 50
0.000000000000000
 51
89.000000000000412
  0
ARC
  8
0
  6
CONTINUOUS
 62
256
 10
-345.610447000000020
 20
-110.913770000000000
 40
25.000000000000000
 50
180.000000000000000
 51
225.573905999999970
  0
LINE
  8
0
  6
CONTINUOUS
 62
256
 10
-254.058089999999990
 20
-143.448206000000000
 11
-272.180255999999990
 21
-143.131882999999990
  0
LINE
  8
0
  6
CONTINUOUS
 62
256
 10
-276.110447000000020
 20
-131.279180999999990
 11
-276.110447000000020
 21
-139.132492000000010
  0
LINE
  8
0
  6
CONTINUOUS
 62
256
 10
-273.110729999999990
 20
9.304354000000000
 11
-273.110729999999990
 21
-86.303668999999999
  0
LINE
  8
0
  6
CONTINUOUS
 62
256
 10
-264.610447000000020
 20
-102.913770000000000
 11
-264.610447000000020
 21
-78.351130999999995
  0
LINE
  8
0
  6
CONTINUOUS
 62
256
 10
-371.610447000000020
 20
-78.351090999999997
 11
-371.610447000000020
 21
-102.913770000000000
  0
LINE
  8
0
  6
DASHDOT
 62
256
 10
-263.110447000000020
 20
-162.745542000000000
 11
-263.110447000000020
 21
-138.691487999999990
  0
LINE
  8
0
  6
DASHDOT
 62
256
 10
-373.110447000000020
 20
-162.745542000000000
 11
-373.110447000000020
 21
-138.691487999999990
  0
LINE
  8
0
  6
CONTINUOUS
 62
256
 10
-276.110447000000020
 20
-131.279180999999990
 11
-276.110447000000020
 21
20.173300000000001
  0
LINE
  8
0
  6
CONTINUOUS
 62
256
 10
-251.110446999999990
 20
-158.499658000000010
 11
-251.110446999999990
 21
-146.447748999999990
  0
LINE
  8
0
  6
CONTINUOUS
 62
256
 10
-385.110447000000020
 20
-158.499658000000010
 11
-385.110447000000020
 21
-145.947748999999990
  0
LINE
  8
0
  6
CONTINUOUS
 62
256
 10
-355.110447000000020
 20
24.500342000000000
 11
-279.058089999999990
 21
23.172844000000001
  0
LINE
  8
0
  6
CONTINUOUS
 62
256
 10
-382.162803999999990
 20
-143.448206000000000
 11
-355.610447000000020
 21
-142.984733000000010
  0
ARC
  8
0
  6
CONTINUOUS
 62
256
 10
-368.110163000000000
 20
7.046103000000000
 40
4.999999999999998
 50
279.999999999999890
 51
0.000000000000000
  0
ARC
  8
0
  6
CONTINUOUS
 62
256
 10
-368.110163000000000
 20
7.046103000000000
 40
4.999999999999998
 50
279.999999999999890
 51
0.000000000000000
  0
LINE
  8
0
  6
CONTINUOUS
 62
256
 10
-380.131391000000010
 20
-0.150697000000000
 11
-367.241921999999990
 21
2.122064000000000
  0
LINE
  8
0
  6
CONTINUOUS
 62
256
 10
-371.610447000000020
 20
-78.351090999999997
 11
-367.241921999999990
 21
-79.121380000000002
  0
ARC
  8
0
  6
CONTINUOUS
 62
256
 10
-368.110163000000000
 20
-84.045417999999998
 40
5.000000000000000
 50
0.000000000000000
 51
80.000000000000142
  0
LINE
  8
0
  6
CONTINUOUS
 62
256
 10
-379.631391000000010
 20
-76.936781999999994
 11
-371.610447000000020
 21
-78.351090999999997
  0
LINE
  8
0
  6
CONTINUOUS
 62
256
 10
-363.110163000000000
 20
-141.499658000000010
 11
-363.110163000000000
 21
-128.767619000000000
  0
LINE
  8
0
  6
CONTINUOUS
 62
256
 10
-380.131391000000010
 20
-76.848618999999999
 11
-371.610447000000020
 21
-78.351090999999997
  0
LINE
  8
0
  6
CONTINUOUS
 62
256
 10
-363.110163000000000
 20
23.378010000000000
 11
-363.110163000000000
 21
-84.045417999999998
  0
LINE
  8
0
  6
CONTINUOUS
 62
256
 10
-251.410217999999990
 20
-64.999657999999997
 11
-251.110218000000000
 21
-64.699657999999999
  0
LINE
  8
0
  6
CONTINUOUS
 62
256
 10
-256.089273999999990
 20
-0.150697000000000
 11
-268.978742000000010
 21
2.122064000000000
  0
LINE
  8
0
  6
CONTINUOUS
 62
256
 10
-251.410217999999990
 20
-11.999658000000000
 11
-251.110218000000000
 21
-12.299658000000001
  0
LINE
  8
0
  6
CONTINUOUS
 62
256
 10
-256.089273999999990
 20
-76.848618999999999
 11
-268.998594000000030
 21
-79.124880000000005
  0
LINE
  8
0
  6
CONTINUOUS
 62
256
 10
-382.610447000000020
 20
-73.894194999999996
 11
-382.610447000000020
 21
-38.499657999999997
  0
LINE
  8
0
  6
CONTINUOUS
 62
256
 10
-382.610447000000020
 20
-11.999658000000000
 11
-384.710446999999990
 21
-11.999658000000000
  0
LINE
  8
0
  6
CONTINUOUS
 62
256
 10
-382.610447000000020
 20
-64.999657999999997
 11
-384.710446999999990
 21
-64.999657999999997
  0
LINE
  8
0
  6
CONTINUOUS
 62
256
 10
-363.110163000000000
 20
-128.767619000000000
 11
-363.110163000000000
 21
-84.045417999999998
  0
LINE
  8
0
  6
CONTINUOUS
 62
256
 10
-253.610218000000000
 20
-64.999657999999997
 11
-251.410217999999990
 21
-64.999657999999997
  0
LINE
  8
0
  6
CONTINUOUS
 62
256
 10
-253.610218000000000
 20
-11.999658000000000
 11
-251.410217999999990
 21
-11.999658000000000
  0
LINE
  8
0
  6
DASHDOT
 62
256
 10
-390.051676999999980
 20
-38.499657999999997
 11
-199.402427999999990
 21
-38.499657999999997
  0
ARC
  8
0
  6
CONTINUOUS
 62
256
 10
28.489553000000001
 20
-83.413770000000000
 40
400.600000000000020
 50
179.264114000000010
 51
185.743681999999980
  0
LINE
  8
0
  6
CONTINUOUS
 62
256
 10
-363.110163000000000
 20
-132.600675999999990
 11
-368.199298000000000
 21
-127.511540999999990
  0
ARC
  8
0
  6
CONTINUOUS
 62
256
 10
-363.532394000000010
 20
-122.844637000000010
 40
6.599999999999973
 50
185.743682000000060
 51
224.999999999999830
  0
ARC
  8
0
  6
CONTINUOUS
 62
256
 10
-290.046690000000010
 20
-120.403837000000000
 40
20.600000000000012
 50
312.572039000000020
 51
314.999999999999940
  0
LINE
  8
0
  6
CONTINUOUS
 62
256
 10
-275.480291000000020
 20
-134.970236000000000
 11
-268.021594999999990
 21
-127.511540999999990
  0
ARC
  8
0
  6
CONTINUOUS
 62
256
 10
-664.710447000000040
 20
-83.413770000000000
 40
400.600000000000020
 50
354.256318000000020
 51
0.735879999999999
  0
ARC
  8
0
  6
CONTINUOUS
 62
256
 10
-272.688499999999980
 20
-122.844637000000010
 40
6.600000000000017
 50
315.000000000000170
 51
354.256318000000020
  0
LINE
  8
0
  6
CONTINUOUS
 62
256
 10
69.001895000000005
 20
-83.413770000000000
 11
69.001895000000005
 21
-30.913770000000000
  0
LINE
  8
0
  6
CONTINUOUS
 62
256
 10
69.001895000000005
 20
-83.413770000000000
 11
69.001895000000005
 21
-136.913770000000000
  0
LINE
  8
0
  6
CONTINUOUS
 62
256
 10
163.001894999999990
 20
-24.413770000000000
 11
182.506740000000010
 21
-24.413770000000000
  0
LINE
  8
0
  6
CONTINUOUS
 62
256
 10
88.001895000000005
 20
3.586230000000000
 11
159.001894999999990
 21
3.586230000000000
  0
LINE
  8
0
  6
CONTINUOUS
 62
256
 10
102.001895000000000
 20
4.086230000000000
 11
102.001895000000000
 21
3.586230000000000
  0
LINE
  8
0
  6
CONTINUOUS
 62
256
 10
102.001895000000000
 20
4.086230000000000
 11
94.001895000000005
 21
4.086230000000000
  0
LINE
  8
0
  6
CONTINUOUS
 62
256
 10
94.001895000000005
 20
4.086230000000000
 11
94.001895000000005
 21
3.586230000000000
  0
LINE
  8
0
  6
CONTINUOUS
 62
256
 10
69.001895000000005
 20
-29.913770000000000
 11
86.001895000000005
 21
-29.913770000000000
  0
ARC
  8
0
  6
CONTINUOUS
 62
256
 10
88.001895000000005
 20
2.586230000000000
 40
1.000000000000000
 50
90.000000000000000
 51
180.000000000000000
  0
ARC
  8
0
  6
CONTINUOUS
 62
256
 10
159.001894999999990
 20
2.586230000000000
 40
1.000000000000000
 50
0.000000000000000
 51
90.000000000000000
  0
LINE
  8
0
  6
CONTINUOUS
 62
256
 10
86.001895000000005
 20
-25.913770000000000
 11
86.001895000000005
 21
-30.913770000000000
  0
LINE
  8
0
  6
CONTINUOUS
 62
256
 10
69.001895000000005
 20
-29.913770000000000
 11
69.001895000000005
 21
-83.413770000000000
  0
LINE
  8
0
  6
CONTINUOUS
 62
256
 10
194.322414000000010
 20
-138.688301999999990
 11
201.893193999999990
 21
-133.387184999999990
  0
ARC
  8
0
  6
CONTINUOUS
 62
256
 10
182.506740000000010
 20
-121.813770000000010
 40
20.599999999999994
 50
270.000000000000000
 51
305.000000000000000
  0
LINE
  8
0
  6
CONTINUOUS
 62
256
 10
194.322414000000010
 20
-28.139237000000001
 11
201.893193999999990
 21
-33.440353999999999
  0
ARC
  8
0
  6
CONTINUOUS
 62
256
 10
182.506740000000010
 20
-45.013770000000001
 40
20.599999999999998
 50
55.000000000000028
 51
90.000000000000000
  0
LINE
  8
0
  6
CONTINUOUS
 62
256
 10
153.001894999999990
 20
-142.413770000000000
 11
182.506740000000010
 21
-142.413770000000000
  0
LINE
  8
0
  6
CONTINUOUS
 62
256
 10
161.001894999999990
 20
-25.913770000000000
 11
161.001894999999990
 21
-28.902500000000000
  0
LINE
  8
0
  6
CONTINUOUS
 62
256
 10
86.001895000000005
 20
-30.913770000000000
 11
153.235364000000000
 21
-30.913770000000000
  0
LINE
  8
0
  6
CONTINUOUS
 62
256
 10
153.001894999999990
 20
-32.413770000000000
 11
69.001895000000005
 21
-32.413770000000000
  0
LINE
  8
0
  6
CONTINUOUS
 62
256
 10
153.001894999999990
 20
-32.913770000000000
 11
69.001895000000005
 21
-32.913770000000000
  0
LINE
  8
0
  6
CONTINUOUS
 62
256
 10
153.001894999999990
 20
-37.280687000000000
 11
69.001895000000005
 21
-37.280687000000000
  0
LINE
  8
0
  6
CONTINUOUS
 62
256
 10
153.001894999999990
 20
-42.371856000000001
 11
69.001895000000005
 21
-42.371856000000001
  0
LINE
  8
0
  6
CONTINUOUS
 62
256
 10
153.001894999999990
 20
-51.699378000000003
 11
69.001895000000005
 21
-51.699378000000003
  0
LINE
  8
0
  6
CONTINUOUS
 62
256
 10
153.001894999999990
 20
-50.110168999999999
 11
69.001895000000005
 21
-50.110168999999999
  0
LINE
  8
0
  6
CONTINUOUS
 62
256
 10
153.001894999999990
 20
-54.657373999999997
 11
69.001895000000005
 21
-54.657373999999997
  0
LINE
  8
0
  6
CONTINUOUS
 62
256
 10
153.001894999999990
 20
-56.136397000000002
 11
69.001895000000005
 21
-56.136397000000002
  0
LINE
  8
0
  6
CONTINUOUS
 62
256
 10
153.001894999999990
 20
-59.229128000000003
 11
69.001895000000005
 21
-59.229128000000003
  0
LINE
  8
0
  6
CONTINUOUS
 62
256
 10
153.001894999999990
 20
-60.575530000000001
 11
69.001895000000005
 21
-60.575530000000001
  0
LINE
  8
0
  6
CONTINUOUS
 62
256
 10
153.001894999999990
 20
-63.785735000000003
 11
69.001895000000005
 21
-63.785735000000003
  0
LINE
  8
0
  6
CONTINUOUS
 62
256
 10
153.001894999999990
 20
-65.027654999999996
 11
69.001895000000005
 21
-65.027654999999996
  0
LINE
  8
0
  6
CONTINUOUS
 62
256
 10
153.001894999999990
 20
-69.413770000000000
 11
69.001895000000005
 21
-69.413770000000000
  0
LINE
  8
0
  6
CONTINUOUS
 62
256
 10
153.001894999999990
 20
-97.413770000000000
 11
69.001895000000005
 21
-97.413770000000000
  0
LINE
  8
0
  6
CONTINUOUS
 62
256
 10
153.001894999999990
 20
-101.799884000000010
 11
69.001895000000005
 21
-101.799884000000010
  0
LINE
  8
0
  6
CONTINUOUS
 62
256
 10
153.001894999999990
 20
-103.041804000000000
 11
69.001895000000005
 21
-103.041804000000000
  0
LINE
  8
0
  6
CONTINUOUS
 62
256
 10
153.001894999999990
 20
-106.252009000000000
 11
69.001895000000005
 21
-106.252009000000000
  0
LINE
  8
0
  6
CONTINUOUS
 62
256
 10
153.001894999999990
 20
-107.598411000000000
 11
69.001895000000005
 21
-107.598411000000000
  0
LINE
  8
0
  6
CONTINUOUS
 62
256
 10
153.001894999999990
 20
-110.691142000000000
 11
69.001895000000005
 21
-110.691142000000000
  0
LINE
  8
0
  6
CONTINUOUS
 62
256
 10
153.001894999999990
 20
-112.170165000000000
 11
69.001895000000005
 21
-112.170165000000000
  0
LINE
  8
0
  6
CONTINUOUS
 62
256
 10
153.001894999999990
 20
-115.128161000000010
 11
69.001895000000005
 21
-115.128161000000010
  0
LINE
  8
0
  6
CONTINUOUS
 62
256
 10
153.001894999999990
 20
-116.717370000000000
 11
69.001895000000005
 21
-116.717370000000000
  0
LINE
  8
0
  6
CONTINUOUS
 62
256
 10
153.001894999999990
 20
-124.455682999999990
 11
69.001895000000005
 21
-124.455682999999990
  0
LINE
  8
0
  6
CONTINUOUS
 62
256
 10
153.001894999999990
 20
-129.546852000000000
 11
69.001895000000005
 21
-129.546852000000000
  0
LINE
  8
0
  6
CONTINUOUS
 62
256
 10
153.001894999999990
 20
-133.913770000000000
 11
69.001895000000005
 21
-133.913770000000000
  0
LINE
  8
0
  6
CONTINUOUS
 62
256
 10
153.001894999999990
 20
-134.413770000000000
 11
69.001895000000005
 21
-134.413770000000000
  0
LINE
  8
0
  6
CONTINUOUS
 62
256
 10
69.001895000000005
 20
-136.913770000000000
 11
153.001894999999990
 21
-136.913770000000000
  0
LINE
  8
0
  6
CONTINUOUS
 62
256
 10
164.001894999999990
 20
-132.557691000000010
 11
166.001894999999990
 21
-130.905048999999990
  0
LINE
  8
0
  6
CONTINUOUS
 62
256
 10
162.001894999999990
 20
-133.733476000000000
 11
164.001894999999990
 21
-132.557691000000010
  0
LINE
  8
0
  6
CONTINUOUS
 62
256
 10
164.001894999999990
 20
-132.557691000000010
 11
162.001894999999990
 21
-130.905048999999990
  0
LINE
  8
0
  6
CONTINUOUS
 62
256
 10
166.001894999999990
 20
-133.733476000000000
 11
164.001894999999990
 21
-132.557691000000010
  0
POLYLINE
  8
0
  6
CONTINUOUS
 62
256
 66
1
 70
1
  0
VERTEX
  8
0
  6
CONTINUOUS
 62
256
 10
168.701894999999980
 20
-130.741099999999990
  0
VERTEX
  8
0
  6
CONTINUOUS
 62
256
 10
168.611585817895160
 20
-130.038143489441810
  0
VERTEX
  8
0
  6
CONTINUOUS
 62
256
 10
168.344128802803030
 20
-129.362201203361850
  0
VERTEX
  8
0
  6
CONTINUOUS
 62
256
 10
167.909802177821940
 20
-128.739249224741310
  0
VERTEX
  8
0
  6
CONTINUOUS
 62
256
 10
167.325296871576770
 20
-128.193227248763150
  0
VERTEX
  8
0
  6
CONTINUOUS
 62
256
 10
166.613075095192100
 20
-127.745118593751500
  0
VERTEX
  8
0
  6
CONTINUOUS
 62
256
 10
165.800507132115910
 20
-127.412143824016240
  0
VERTEX
  8
0
  6
CONTINUOUS
 62
256
 10
164.918819513475800
 20
-127.207098973223920
  0
VERTEX
  8
0
  6
CONTINUOUS
 62
256
 10
164.001894999999990
 20
-127.137863799999990
  0
VERTEX
  8
0
  6
CONTINUOUS
 62
256
 10
163.084970486524180
 20
-127.207098973223920
  0
VERTEX
  8
0
  6
CONTINUOUS
 62
256
 10
162.203282867884070
 20
-127.412143824016240
  0
VERTEX
  8
0
  6
CONTINUOUS
 62
256
 10
161.390714904807880
 20
-127.745118593751500
  0
VERTEX
  8
0
  6
CONTINUOUS
 62
256
 10
160.678493128423210
 20
-128.193227248763150
  0
VERTEX
  8
0
  6
CONTINUOUS
 62
256
 10
160.093987822178040
 20
-128.739249224741310
  0
VERTEX
  8
0
  6
CONTINUOUS
 62
256
 10
159.659661197196950
 20
-129.362201203361850
  0
VERTEX
  8
0
  6
CONTINUOUS
 62
256
 10
159.392204182104820
 20
-130.038143489441810
  0
VERTEX
  8
0
  6
CONTINUOUS
 62
256
 10
159.301895000000000
 20
-130.741099999999990
  0
VERTEX
  8
0
  6
CONTINUOUS
 62
256
 10
159.392204182104820
 20
-131.444056510558170
  0
VERTEX
  8
0
  6
CONTINUOUS
 62
256
 10
159.659661197196950
 20
-132.119998796638130
  0
VERTEX
  8
0
  6
CONTINUOUS
 62
256
 10
160.093987822178040
 20
-132.742950775258660
  0
VERTEX
  8
0
  6
CONTINUOUS
 62
256
 10
160.678493128423210
 20
-133.288972751236830
  0
VERTEX
  8
0
  6
CONTINUOUS
 62
256
 10
161.390714904807880
 20
-133.737081406248480
  0
VERTEX
  8
0
  6
CONTINUOUS
 62
256
 10
162.203282867884070
 20
-134.070056175983720
  0
VERTEX
  8
0
  6
CONTINUOUS
 62
256
 10
163.084970486524180
 20
-134.275101026776040
  0
VERTEX
  8
0
  6
CONTINUOUS
 62
256
 10
164.001894999999990
 20
-134.344336199999990
  0
VERTEX
  8
0
  6
CONTINUOUS
 62
256
 10
164.918819513475800
 20
-134.275101026776040
  0
VERTEX
  8
0
  6
CONTINUOUS
 62
256
 10
165.800507132115910
 20
-134.070056175983720
  0
VERTEX
  8
0
  6
CONTINUOUS
 62
256
 10
166.613075095192100
 20
-133.737081406248480
  0
VERTEX
  8
0
  6
CONTINUOUS
 62
256
 10
167.325296871576740
 20
-133.288972751236830
  0
VERTEX
  8
0
  6
CONTINUOUS
 62
256
 10
167.909802177821940
 20
-132.742950775258660
  0
VERTEX
  8
0
  6
CONTINUOUS
 62
256
 10
168.344128802803030
 20
-132.119998796638130
  0
VERTEX
  8
0
  6
CONTINUOUS
 62
256
 10
168.611585817895160
 20
-131.444056510558170
  0
SEQEND
  8
0
  6
CONTINUOUS
 62
256
  0
LINE
  8
0
  6
CONTINUOUS
 62
256
 10
153.001894999999990
 20
-142.413770000000000
 11
153.001894999999990
 21
-83.413770000000000
  0
LINE
  8
0
  6
CONTINUOUS
 62
256
 10
163.001894999999990
 20
-24.413770000000000
 11
163.001894999999990
 21
-26.074072999999999
  0
ARC
  8
0
  6
CONTINUOUS
 62
256
 10
160.001894999999990
 20
-26.074072999999999
 40
3.000000000000000
 50
270.000000000000000
 51
0.000000000000000
  0
LINE
  8
0
  6
CONTINUOUS
 62
256
 10
164.001894999999990
 20
-34.269848000000003
 11
166.001894999999990
 21
-35.922490000000003
  0
LINE
  8
0
  6
CONTINUOUS
 62
256
 10
162.001894999999990
 20
-33.094062999999998
 11
164.001894999999990
 21
-34.269848000000003
  0
LINE
  8
0
  6
CONTINUOUS
 62
256
 10
164.001894999999990
 20
-34.269848000000003
 11
162.001894999999990
 21
-35.922490000000003
  0
LINE
  8
0
  6
CONTINUOUS
 62
256
 10
166.001894999999990
 20
-33.094062999999998
 11
164.001894999999990
 21
-34.269848000000003
  0
POLYLINE
  8
0
  6
CONTINUOUS
 62
256
 66
1
 70
1
  0
VERTEX
  8
0
  6
CONTINUOUS
 62
256
 10
168.701894999999980
 20
-36.086438999999999
  0
VERTEX
  8
0
  6
CONTINUOUS
 62
256
 10
168.611585817895160
 20
-35.383482489441832
  0
VERTEX
  8
0
  6
CONTINUOUS
 62
256
 10
168.344128802803030
 20
-34.707540203361859
  0
VERTEX
  8
0
  6
CONTINUOUS
 62
256
 10
167.909802177821940
 20
-34.084588224741339
  0
VERTEX
  8
0
  6
CONTINUOUS
 62
256
 10
167.325296871576770
 20
-33.538566248763161
  0
VERTEX
  8
0
  6
CONTINUOUS
 62
256
 10
166.613075095192100
 20
-33.090457593751509
  0
VERTEX
  8
0
  6
CONTINUOUS
 62
256
 10
165.800507132115910
 20
-32.757482824016265
  0
VERTEX
  8
0
  6
CONTINUOUS
 62
256
 10
164.918819513475800
 20
-32.552437973223938
  0
VERTEX
  8
0
  6
CONTINUOUS
 62
256
 10
164.001894999999990
 20
-32.483202800000008
  0
VERTEX
  8
0
  6
CONTINUOUS
 62
256
 10
163.084970486524180
 20
-32.552437973223938
  0
VERTEX
  8
0
  6
CONTINUOUS
 62
256
 10
162.203282867884070
 20
-32.757482824016265
  0
VERTEX
  8
0
  6
CONTINUOUS
 62
256
 10
161.390714904807880
 20
-33.090457593751509
  0
VERTEX
  8
0
  6
CONTINUOUS
 62
256
 10
160.678493128423210
 20
-33.538566248763161
  0
VERTEX
  8
0
  6
CONTINUOUS
 62
256
 10
160.093987822178040
 20
-34.084588224741339
  0
VERTEX
  8
0
  6
CONTINUOUS
 62
256
 10
159.659661197196950
 20
-34.707540203361859
  0
VERTEX
  8
0
  6
CONTINUOUS
 62
256
 10
159.392204182104820
 20
-35.383482489441832
  0
VERTEX
  8
0
  6
CONTINUOUS
 62
256
 10
159.301895000000000
 20
-36.086438999999999
  0
VERTEX
  8
0
  6
CONTINUOUS
 62
256
 10
159.392204182104820
 20
-36.789395510558165
  0
VERTEX
  8
0
  6
CONTINUOUS
 62
256
 10
159.659661197196950
 20
-37.465337796638138
  0
VERTEX
  8
0
  6
CONTINUOUS
 62
256
 10
160.093987822178040
 20
-38.088289775258659
  0
VERTEX
  8
0
  6
CONTINUOUS
 62
256
 10
160.678493128423210
 20
-38.634311751236837
  0
VERTEX
  8
0
  6
CONTINUOUS
 62
256
 10
161.390714904807880
 20
-39.082420406248488
  0
VERTEX
  8
0
  6
CONTINUOUS
 62
256
 10
162.203282867884070
 20
-39.415395175983733
  0
VERTEX
  8
0
  6
CONTINUOUS
 62
256
 10
163.084970486524180
 20
-39.620440026776059
  0
VERTEX
  8
0
  6
CONTINUOUS
 62
256
 10
164.001894999999990
 20
-39.689675199999989
  0
VERTEX
  8
0
  6
CONTINUOUS
 62
256
 10
164.918819513475800
 20
-39.620440026776059
  0
VERTEX
  8
0
  6
CONTINUOUS
 62
256
 10
165.800507132115910
 20
-39.415395175983733
  0
VERTEX
  8
0
  6
CONTINUOUS
 62
256
 10
166.613075095192100
 20
-39.082420406248488
  0
VERTEX
  8
0
  6
CONTINUOUS
 62
256
 10
167.325296871576740
 20
-38.634311751236837
  0
VERTEX
  8
0
  6
CONTINUOUS
 62
256
 10
167.909802177821940
 20
-38.088289775258659
  0
VERTEX
  8
0
  6
CONTINUOUS
 62
256
 10
168.344128802803030
 20
-37.465337796638138
  0
VERTEX
  8
0
  6
CONTINUOUS
 62
256
 10
168.611585817895160
 20
-36.789395510558165
  0
SEQEND
  8
0
  6
CONTINUOUS
 62
256
  0
LINE
  8
0
  6
CONTINUOUS
 62
256
 10
160.001894999999990
 20
-29.074072999999999
 11
156.001894999999990
 21
-29.074072999999999
  0
ARC
  8
0
  6
CONTINUOUS
 62
256
 10
156.001894999999990
 20
-32.074072999999999
 40
3.000000000000000
 50
90.000000000000000
 51
180.000000000000000
  0
LINE
  8
0
  6
CONTINUOUS
 62
256
 10
153.001894999999990
 20
-32.074072999999999
 11
153.001894999999990
 21
-83.413770000000000
  0
LINE
  8
0
  6
CONTINUOUS
 62
256
 10
160.001894999999990
 20
2.586230000000000
 11
160.001894999999990
 21
-25.913770000000000
  0
LINE
  8
0
  6
CONTINUOUS
 62
256
 10
87.001895000000005
 20
2.586230000000000
 11
87.001895000000005
 21
-25.913770000000000
  0
LINE
  8
0
  6
CONTINUOUS
 62
256
 10
161.001894999999990
 20
-25.913770000000000
 11
86.001895000000005
 21
-25.913770000000000
  0
LINE
  8
0
  6
DASHDOT
 62
256
 10
25.422695999999998
 20
-83.413770000000000
 11
212.605371999999990
 21
-83.413770000000000
  0
LINE
  8
0
  6
CONTINUOUS
 62
256
 10
69.001895000000005
 20
-30.913770000000000
 11
69.001895000000005
 21
-135.913770000000000
  0
LINE
  8
0
  6
DASHDOT
 62
256
 10
-18.998125999999999
 20
34.571953999999998
 11
-18.998125999999999
 21
-164.317691000000000
  0
LINE
  8
0
  6
DASHDOT
 62
256
 10
-73.998125999999999
 20
-138.651624000000000
 11
-73.998125999999999
 21
-165.913940999999990
  0
LINE
  8
0
  6
DASHDOT
 62
256
 10
32.001874000000001
 20
-141.211910999999990
 11
32.001874000000001
 21
-165.164175000000000
  0
LINE
  8
0
  6
DASHDOT
 62
256
 10
-94.126965999999996
 20
-38.499657999999997
 11
64.757739999999998
 21
-38.499657999999997
  0
LINE
  8
0
  6
CONTINUOUS
 62
256
 10
-85.998125999999999
 20
-158.499658000000010
 11
-18.998124000000001
 21
-158.499658000000010
  0
LINE
  8
0
  6
CONTINUOUS
 62
256
 10
-18.998124000000001
 20
-158.499658000000010
 11
44.001874000000001
 21
-158.499658000000010
  0
LINE
  8
0
  6
CONTINUOUS
 62
256
 10
69.001895000000005
 20
-83.413770000000000
 11
69.001895000000005
 21
-29.913770000000000
  0
LINE
  8
0
  6
CONTINUOUS
 62
256
 10
69.001895000000005
 20
-83.413770000000000
 11
69.001895000000005
 21
-136.913770000000000
  0
LINE
  8
0
  6
CONTINUOUS
 62
256
 10
-22.998125999999999
 20
-21.499658000000000
 11
-22.998125999999999
 21
-28.499658000000000
  0
LINE
  8
0
  6
CONTINUOUS
 62
256
 10
-22.998125999999999
 20
-21.499658000000000
 11
-14.998125999999999
 21
-21.499658000000000
  0
ARC
  8
0
  6
CONTINUOUS
 62
256
 10
-18.998125999999999
 20
-38.499657999999997
 40
13.999999999999998
 50
106.601550000000000
 51
73.398449999999997
  0
LINE
  8
0
  6
CONTINUOUS
 62
256
 10
-14.998125999999999
 20
-21.499658000000000
 11
-14.998125999999999
 21
-28.499658000000000
  0
LINE
  8
0
  6
CONTINUOUS
 62
256
 10
-22.998125999999999
 20
-28.499658000000000
 11
-14.998125999999999
 21
-28.499658000000000
  0
CIRCLE
  8
0
  6
CONTINUOUS
 62
256
 10
-18.998125999999999
 20
-38.499657999999997
 40
3.500000000000000
  0
CIRCLE
  8
0
  6
CONTINUOUS
 62
256
 10
-18.998125999999999
 20
-38.499657999999997
 40
4.000000000000000
  0
ARC
  8
0
  6
CONTINUOUS
 62
256
 10
62.001894999999998
 20
-130.913770000000000
 40
2.999999999999993
 50
0.000000000000000
 51
90.000000000000000
  0
ARC
  8
0
  6
CONTINUOUS
 62
256
 10
63.001894999999998
 20
-122.843421000000010
 40
2.000000000000000
 50
270.000000000000000
 51
0.000000000000000
  0
ARC
  8
0
  6
CONTINUOUS
 62
256
 10
62.001894999999998
 20
-114.305935000000010
 40
3.000000000000000
 50
270.000000000000000
 51
0.000000000000000
  0
ARC
  8
0
  6
CONTINUOUS
 62
256
 10
67.001895000000005
 20
-134.965830000000010
 40
2.000000000000000
 50
180.000000000000000
 51
271.000000000000110
  0
ARC
  8
0
  6
CONTINUOUS
 62
256
 10
67.001895000000005
 20
-31.861709000000001
 40
2.000000000000001
 50
88.999999999999858
 51
180.000000000000000
  0
ARC
  8
0
  6
CONTINUOUS
 62
256
 10
62.001894999999998
 20
-52.521604000000004
 40
2.999999999999993
 50
0.000000000000000
 51
90.000000000000000
  0
ARC
  8
0
  6
CONTINUOUS
 62
256
 10
62.001894999999998
 20
-35.913770000000000
 40
3.000000000000000
 50
270.000000000000000
 51
0.000000000000000
  0
ARC
  8
0
  6
CONTINUOUS
 62
256
 10
63.001894999999998
 20
-43.984118000000002
 40
1.999999999999993
 50
0.000000000000000
 51
90.000000000000000
  0
ARC
  8
0
  6
CONTINUOUS
 62
256
 10
54.001894999999998
 20
-114.305935000000010
 40
3.000000000000000
 50
180.000000000000000
 51
270.000000000000000
  0
ARC
  8
0
  6
CONTINUOUS
 62
256
 10
54.001894999999998
 20
-52.521604000000004
 40
3.000000000000000
 50
90.000000000000000
 51
180.000000000000000
  0
ARC
  8
0
  6
CONTINUOUS
 62
256
 10
56.001894999999998
 20
-122.913770000000000
 40
5.000000000000000
 50
180.000000000000000
 51
270.000000000000000
  0
ARC
  8
0
  6
CONTINUOUS
 62
256
 10
56.001894999999998
 20
-119.843421000000010
 40
5.000000000000000
 50
180.000000000000000
 51
270.000000000000000
  0
ARC
  8
0
  6
CONTINUOUS
 62
256
 10
56.001894999999998
 20
-43.913770000000000
 40
5.000000000000000
 50
90.000000000000000
 51
180.000000000000000
  0
ARC
  8
0
  6
CONTINUOUS
 62
256
 10
56.001894999999998
 20
-46.984118000000002
 40
5.000000000000000
 50
90.000000000000000
 51
180.000000000000000
  0
ARC
  8
0
  6
CONTINUOUS
 62
256
 10
54.001894999999998
 20
-134.208819000000010
 40
3.000000000000000
 50
180.000000000000000
 51
270.995842999999920
  0
ARC
  8
0
  6
CONTINUOUS
 62
256
 10
54.001894999999998
 20
-32.618720000000003
 40
3.000000000000000
 50
89.004157000000063
 51
180.000000000000000
  0
ARC
  8
0
  6
CONTINUOUS
 62
256
 10
41.001874000000001
 20
-146.499658000000010
 40
3.000000000000000
 50
0.000000000000000
 51
90.000000000000000
  0
ARC
  8
0
  6
CONTINUOUS
 62
256
 10
-82.998125999999999
 20
-146.499658000000010
 40
3.000000000000000
 50
90.000000000000000
 51
180.000000000000000
  0
LINE
  8
0
  6
CONTINUOUS
 62
256
 10
65.001895000000005
 20
-83.413770000000000
 11
65.001895000000005
 21
-122.843421000000010
  0
LINE
  8
0
  6
CONTINUOUS
 62
256
 10
54.001894999999998
 20
-117.305935000000010
 11
62.001894999999998
 21
-117.305935000000010
  0
LINE
  8
0
  6
CONTINUOUS
 62
256
 10
63.001894999999998
 20
-124.843421000000010
 11
56.001894999999998
 21
-124.843421000000010
  0
LINE
  8
0
  6
CONTINUOUS
 62
256
 10
62.001894999999998
 20
-127.913770000000000
 11
56.001894999999998
 21
-127.913770000000000
  0
LINE
  8
0
  6
CONTINUOUS
 62
256
 10
65.001895000000005
 20
-130.913770000000000
 11
65.001895000000005
 21
-134.965830000000010
  0
LINE
  8
0
  6
CONTINUOUS
 62
256
 10
65.001895000000005
 20
-35.913770000000000
 11
65.001895000000005
 21
-31.861709000000001
  0
LINE
  8
0
  6
CONTINUOUS
 62
256
 10
62.001894999999998
 20
-38.913770000000000
 11
56.001894999999998
 21
-38.913770000000000
  0
LINE
  8
0
  6
CONTINUOUS
 62
256
 10
65.001895000000005
 20
-83.413770000000000
 11
65.001895000000005
 21
-43.984118000000002
  0
LINE
  8
0
  6
CONTINUOUS
 62
256
 10
63.001894999999998
 20
-41.984118000000002
 11
56.001894999999998
 21
-41.984118000000002
  0
LINE
  8
0
  6
CONTINUOUS
 62
256
 10
54.001894999999998
 20
-49.521604000000004
 11
62.001894999999998
 21
-49.521604000000004
  0
LINE
  8
0
  6
CONTINUOUS
 62
256
 10
51.001894999999998
 20
-134.208819000000010
 11
51.001894999999998
 21
-32.618720000000003
  0
LINE
  8
0
  6
CONTINUOUS
 62
256
 10
65.001895000000005
 20
-103.413770000000000
 11
69.001895000000005
 21
-103.413770000000000
  0
LINE
  8
0
  6
CONTINUOUS
 62
256
 10
65.001895000000005
 20
-63.413770000000000
 11
69.001895000000005
 21
-63.413770000000000
  0
LINE
  8
0
  6
CONTINUOUS
 62
256
 10
46.949733999999999
 20
-29.530448000000000
 11
69.001895000000005
 21
-29.913770000000000
  0
LINE
  8
0
  6
CONTINUOUS
 62
256
 10
46.949733999999999
 20
-137.297090999999990
 11
69.001895000000005
 21
-136.913770000000000
  0
LINE
  8
0
  6
CONTINUOUS
 62
256
 10
69.001895000000005
 20
-33.431719000000001
 11
69.001895000000005
 21
-83.413770000000000
  0
LINE
  8
0
  6
CONTINUOUS
 62
256
 10
69.001895000000005
 20
-133.395819999999990
 11
69.001895000000005
 21
-83.413770000000000
  0
LINE
  8
0
  6
CONTINUOUS
 62
256
 10
-82.998125999999999
 20
-143.499658000000010
 11
41.001874000000001
 21
-143.499658000000010
  0
POINT
  8
0
  6
CONTINUOUS
 62
256
 10
-18.998125999999999
 20
-38.499657999999997
  0
CIRCLE
  8
0
  6
CONTINUOUS
 62
256
 10
-141.377884999999990
 20
-38.499657999999997
 40
4.000000000000000
  0
CIRCLE
  8
0
  6
CONTINUOUS
 62
256
 10
-141.377884999999990
 20
-38.499657999999997
 40
3.500000000000000
  0
LINE
  8
0
  6
DASHDOT
 62
256
 10
-160.580815000000000
 20
-38.499657999999997
 11
-118.849224000000010
 21
-38.499657999999997
  0
LINE
  8
0
  6
DASHDOT
 62
256
 10
-141.377884999999990
 20
-59.547980000000003
 11
-141.377884999999990
 21
-17.816389999999998
  0
LINE
  8
0
  6
CONTINUOUS
 62
256
 10
-145.377884999999990
 20
-21.499658000000000
 11
-137.377884999999990
 21
-21.499658000000000
  0
LINE
  8
0
  6
CONTINUOUS
 62
256
 10
-145.377884999999990
 20
-21.499658000000000
 11
-145.377884999999990
 21
-28.499658000000000
  0
LINE
  8
0
  6
CONTINUOUS
 62
256
 10
-145.377884999999990
 20
-28.499658000000000
 11
-137.377884999999990
 21
-28.499658000000000
  0
LINE
  8
0
  6
CONTINUOUS
 62
256
 10
-137.377884999999990
 20
-21.499658000000000
 11
-137.377884999999990
 21
-28.499658000000000
  0
ARC
  8
0
  6
CONTINUOUS
 62
256
 10
-141.377884999999990
 20
-38.499657999999997
 40
13.999999999999998
 50
106.601550000000000
 51
73.398450000000011
  0
LINE
  8
0
  6
CONTINUOUS
 62
256
 10
305.185847000000020
 20
9.304354000000000
 11
305.185847000000020
 21
-34.226863000000002
  0
LINE
  8
0
  6
CONTINUOUS
 62
256
 10
308.185563000000000
 20
-31.227146000000001
 11
308.185563000000000
 21
20.173300000000001
  0
LINE
  8
0
  6
CONTINUOUS
 62
256
 10
387.185563000000000
 20
-27.862895000000002
 11
387.185563000000000
 21
24.500343000000001
  0
LINE
  8
0
  6
CONTINUOUS
 62
256
 10
395.185279999999980
 20
23.378010000000000
 11
395.185279999999980
 21
-34.226863000000002
  0
LINE
  8
0
  6
DASHDOT
 62
256
 10
428.481318999999980
 20
-38.499657999999997
 11
230.170634000000010
 21
-38.499657999999997
  0
LINE
  8
0
  6
CONTINUOUS
 62
256
 10
281.185563000000000
 20
-24.499658000000000
 11
236.185563000000000
 21
-24.499658000000000
  0
LINE
  8
0
  6
CONTINUOUS
 62
256
 10
281.185563000000000
 20
-38.499657999999997
 11
281.185563000000000
 21
-23.999658000000000
  0
LINE
  8
0
  6
CONTINUOUS
 62
256
 10
281.185563000000000
 20
-38.499657999999997
 11
281.185563000000000
 21
-23.999658000000000
  0
LINE
  8
0
  6
CONTINUOUS
 62
256
 10
281.185563000000000
 20
-23.999658000000000
 11
283.185563000000000
 21
-23.999658000000000
  0
LINE
  8
0
  6
CONTINUOUS
 62
256
 10
236.185563000000000
 20
-38.499657999999997
 11
236.185563000000000
 21
-21.499658000000000
  0
LINE
  8
0
  6
CONTINUOUS
 62
256
 10
272.185563000000000
 20
-21.499658000000000
 11
236.185563000000000
 21
-21.499658000000000
  0
LINE
  8
0
  6
CONTINUOUS
 62
256
 10
272.185563000000000
 20
-24.499658000000000
 11
272.185563000000000
 21
-21.499658000000000
  0
LINE
  8
0
  6
CONTINUOUS
 62
256
 10
281.185563000000000
 20
-52.499657999999997
 11
236.185563000000000
 21
-52.499657999999997
  0
LINE
  8
0
  6
CONTINUOUS
 62
256
 10
236.185563000000000
 20
-38.499657999999997
 11
236.185563000000000
 21
-52.499657999999997
  0
LINE
  8
0
  6
CONTINUOUS
 62
256
 10
281.185563000000000
 20
-38.499657999999997
 11
281.185563000000000
 21
-52.999657999999997
  0
LINE
  8
0
  6
CONTINUOUS
 62
256
 10
281.185563000000000
 20
-38.499657999999997
 11
281.185563000000000
 21
-52.999657999999997
  0
LINE
  8
0
  6
CONTINUOUS
 62
256
 10
281.185563000000000
 20
-52.999657999999997
 11
283.185563000000000
 21
-52.999657999999997
  0
LINE
  8
0
  6
CONTINUOUS
 62
256
 10
285.685334000000010
 20
-11.999658000000000
 11
283.485334000000020
 21
-11.999658000000000
  0
LINE
  8
0
  6
CONTINUOUS
 62
256
 10
285.685334000000010
 20
-73.894194999999996
 11
285.685334000000010
 21
-38.499657999999997
  0
LINE
  8
0
  6
CONTINUOUS
 62
256
 10
285.685334000000010
 20
-3.105120000000000
 11
285.685334000000010
 21
-38.499657999999997
  0
LINE
  8
0
  6
CONTINUOUS
 62
256
 10
414.685563000000000
 20
-11.999658000000000
 11
416.785563000000020
 21
-11.999658000000000
  0
LINE
  8
0
  6
CONTINUOUS
 62
256
 10
414.685563000000000
 20
-73.894194999999996
 11
414.685563000000000
 21
-38.499657999999997
  0
LINE
  8
0
  6
CONTINUOUS
 62
256
 10
414.685563000000000
 20
-38.499657999999997
 11
414.685563000000000
 21
-3.105120000000000
  0
LINE
  8
0
  6
CONTINUOUS
 62
256
 10
283.185563000000000
 20
-64.699886000000006
 11
283.185563000000000
 21
-12.299429000000000
  0
ARC
  8
0
  6
CONTINUOUS
 62
256
 10
288.685334000000010
 20
-3.105120000000000
 40
2.999999999999997
 50
99.999999999999659
 51
180.000000000000000
  0
LINE
  8
0
  6
CONTINUOUS
 62
256
 10
283.485334000000020
 20
-11.999658000000000
 11
283.185334000000010
 21
-12.299658000000001
  0
LINE
  8
0
  6
CONTINUOUS
 62
256
 10
288.164390000000030
 20
-0.150697000000000
 11
301.053858999999990
 21
2.122064000000000
  0
ARC
  8
0
  6
CONTINUOUS
 62
256
 10
394.185279999999980
 20
23.378010000000000
 40
1.000000000000000
 50
0.000000000000000
 51
89.000000000001492
  0
LINE
  8
0
  6
CONTINUOUS
 62
256
 10
387.185563000000000
 20
24.500342000000000
 11
394.202732000000030
 21
24.377856999999999
  0
LINE
  8
0
  6
CONTINUOUS
 62
256
 10
417.185563000000000
 20
-64.599658000000005
 11
417.185563000000000
 21
-12.399658000000001
  0
LINE
  8
0
  6
CONTINUOUS
 62
256
 10
417.185563000000000
 20
-12.399658000000001
 11
416.785563000000020
 21
-11.999658000000000
  0
ARC
  8
0
  6
CONTINUOUS
 62
256
 10
411.685563000000000
 20
-3.105120000000000
 40
3.000000000000000
 50
0.000000000000000
 51
80.000000000000355
  0
LINE
  8
0
  6
CONTINUOUS
 62
256
 10
412.206507999999990
 20
-0.150697000000000
 11
399.317039000000020
 21
2.122064000000000
  0
ARC
  8
0
  6
CONTINUOUS
 62
256
 10
400.185279999999980
 20
7.046103000000000
 40
5.000000000000000
 50
180.000000000000000
 51
260.000000000000110
  0
ARC
  8
0
  6
CONTINUOUS
 62
256
 10
400.185279999999980
 20
7.046103000000000
 40
5.000000000000000
 50
180.000000000000000
 51
260.000000000000110
  0
LINE
  8
0
  6
CONTINUOUS
 62
256
 10
387.185563000000000
 20
24.500342000000000
 11
311.133205999999970
 21
23.172844000000001
  0
ARC
  8
0
  6
CONTINUOUS
 62
256
 10
311.185563000000000
 20
20.173300000000001
 40
3.000000000000000
 50
90.999999999999602
 51
180.000000000000000
  0
ARC
  8
0
  6
CONTINUOUS
 62
256
 10
305.185563000000000
 20
14.500342000000000
 40
3.000000000000003
 50
300.003127000000060
 51
0.000000000000000
  0
ARC
  8
0
  6
CONTINUOUS
 62
256
 10
308.185847000000020
 20
9.304354000000000
 40
3.000000000000001
 50
120.003127000000060
 51
180.000000000000000
  0
ARC
  8
0
  6
CONTINUOUS
 62
256
 10
300.185847000000020
 20
7.046103000000000
 40
4.999999999999998
 50
279.999999999999890
 51
0.000000000000000
  0
LINE
  8
0
  6
DASHDOT
 62
256
 10
350.185563000000000
 20
-164.873844999999990
 11
350.185563000000000
 21
28.125713999999999
  0
ARC
  8
0
  6
CONTINUOUS
 62
256
 10
328.235237999999980
 20
-52.394691000000002
 40
0.999999999999984
 50
30.000000000000544
 51
125.284733000001220
  0
LINE
  8
0
  6
CONTINUOUS
 62
256
 10
329.101263000000020
 20
-51.894691000000002
 11
330.608219000000020
 21
-54.504815999999998
  0
ARC
  8
0
  6
CONTINUOUS
 62
256
 10
329.742193999999980
 20
-55.004815999999998
 40
1.000000000000004
 50
305.739170000000000
 51
30.000000000000544
  0
ARC
  8
0
  6
CONTINUOUS
 62
256
 10
350.185563000000000
 20
-83.413770000000000
 40
34.000000000000007
 50
125.739170000000040
 51
174.260830000000000
  0
ARC
  8
0
  6
CONTINUOUS
 62
256
 10
350.185563000000000
 20
-83.413770000000000
 40
39.000000000000000
 50
125.284733000000000
 51
174.715267000000010
  0
ARC
  8
0
  6
CONTINUOUS
 62
256
 10
338.570832999999990
 20
-56.296467999999997
 40
1.000000000000000
 50
113.186146000000120
 51
210.000000000000510
  0
ARC
  8
0
  6
CONTINUOUS
 62
256
 10
334.297416000000000
 20
-48.894691000000002
 40
1.000000000000004
 50
114.715267000000150
 51
210.000000000000510
  0
LINE
  8
0
  6
CONTINUOUS
 62
256
 10
333.431390000000020
 20
-49.394691000000002
 11
334.938346000000020
 21
-52.004815999999998
  0
ARC
  8
0
  6
CONTINUOUS
 62
256
 10
335.804372000000000
 20
-51.504815999999998
 40
0.999999999999984
 50
210.000000000000510
 51
294.260829999998690
  0
ARC
  8
0
  6
CONTINUOUS
 62
256
 10
364.566754000000000
 20
-51.504815999999998
 40
0.999999999999992
 50
245.739170000001340
 51
329.999999999999490
  0
ARC
  8
0
  6
CONTINUOUS
 62
256
 10
361.800293000000010
 20
-56.296467999999997
 40
0.999999999999984
 50
329.999999999999490
 51
66.813853999999878
  0
ARC
  8
0
  6
CONTINUOUS
 62
256
 10
350.185563000000000
 20
-83.413770000000000
 40
30.500000000000004
 50
66.813853999999992
 51
113.186146000000010
  0
ARC
  8
0
  6
CONTINUOUS
 62
256
 10
350.185563000000000
 20
-83.413770000000000
 40
34.000000000000000
 50
65.739169999999987
 51
114.260830000000010
  0
ARC
  8
0
  6
CONTINUOUS
 62
256
 10
350.185563000000000
 20
-83.413770000000000
 40
38.999999999999993
 50
65.284733000000031
 51
114.715266999999980
  0
LINE
  8
0
  6
CONTINUOUS
 62
256
 10
366.939735999999980
 20
-49.394691000000002
 11
365.432779999999980
 21
-52.004815999999998
  0
ARC
  8
0
  6
CONTINUOUS
 62
256
 10
366.073710000000010
 20
-48.894691000000002
 40
0.999999999999984
 50
329.999999999999490
 51
65.284732999999861
  0
ARC
  8
0
  6
CONTINUOUS
 62
256
 10
372.135888000000020
 20
-52.394691000000002
 40
1.000000000000011
 50
54.715266999998782
 51
149.999999999999460
  0
ARC
  8
0
  6
CONTINUOUS
 62
256
 10
370.628932000000020
 20
-55.004815999999998
 40
0.999999999999984
 50
149.999999999999460
 51
234.260830000000000
  0
ARC
  8
0
  6
CONTINUOUS
 62
256
 10
350.185563000000000
 20
-83.413770000000000
 40
38.999999999999986
 50
5.284733000000007
 51
54.715266999999990
  0
ARC
  8
0
  6
CONTINUOUS
 62
256
 10
350.185563000000000
 20
-83.413770000000000
 40
34.000000000000028
 50
5.739170000000004
 51
54.260829999999970
  0
LINE
  8
0
  6
CONTINUOUS
 62
256
 10
371.269862999999990
 20
-51.894691000000002
 11
369.762906999999980
 21
-54.504815999999998
  0
ARC
  8
0
  6
CONTINUOUS
 62
256
 10
696.785563000000020
 20
-83.413770000000000
 40
400.600000000000080
 50
174.256317999999990
 51
180.000000000000000
  0
ARC
  8
0
  6
CONTINUOUS
 62
256
 10
304.763616000000010
 20
-43.982903000000000
 40
6.600000000000017
 50
135.000000000000170
 51
174.256317999999940
  0
ARC
  8
0
  6
CONTINUOUS
 62
256
 10
696.785563000000020
 20
-83.413770000000000
 40
390.797000000000030
 50
174.582035999999990
 51
180.000000000000000
  0
ARC
  8
0
  6
CONTINUOUS
 62
256
 10
310.721081000000030
 20
-46.797804999999997
 40
3.000000000000014
 50
135.000000000000200
 51
174.582035999999930
  0
ARC
  8
0
  6
CONTINUOUS
 62
256
 10
389.650044999999980
 20
-46.797804999999997
 40
2.999999999999997
 50
5.417964000000066
 51
44.999999999999808
  0
ARC
  8
0
  6
CONTINUOUS
 62
256
 10
3.585563000000000
 20
-83.413770000000000
 40
390.797000000000030
 50
0.000000000000000
 51
5.417964000000000
  0
ARC
  8
0
  6
CONTINUOUS
 62
256
 10
373.725361000000020
 20
-56.041879000000002
 40
20.797000000000011
 50
44.999999999999986
 51
84.998349999999959
  0
LINE
  8
0
  6
CONTINUOUS
 62
256
 10
388.431060000000000
 20
-41.336179000000001
 11
391.771365000000000
 21
-44.676484000000002
  0
ARC
  8
0
  6
CONTINUOUS
 62
256
 10
350.185563000000000
 20
-325.013770000000020
 40
290.797000000000030
 50
84.998350000000002
 51
90.000000000000000
  0
ARC
  8
0
  6
CONTINUOUS
 62
256
 10
375.185563000000000
 20
-2.475000000000000
 40
5.000000000000000
 50
0.000000000000000
 51
85.138594999999938
  0
ARC
  8
0
  6
CONTINUOUS
 62
256
 10
325.185563000000000
 20
-2.475000000000000
 40
5.000000000000001
 50
94.861405000000062
 51
180.000000000000000
  0
LINE
  8
0
  6
CONTINUOUS
 62
256
 10
380.185563000000000
 20
-25.913770000000000
 11
380.185563000000000
 21
-2.475000000000000
  0
LINE
  8
0
  6
CONTINUOUS
 62
256
 10
320.185563000000000
 20
-25.913770000000000
 11
320.185563000000000
 21
-2.475000000000000
  0
ARC
  8
0
  6
CONTINUOUS
 62
256
 10
350.185563000000000
 20
-296.413770000000000
 40
300.000000000000000
 50
85.138594999999995
 51
94.861405000000005
  0
LINE
  8
0
  6
CONTINUOUS
 62
256
 10
347.685563000000000
 20
3.575814000000000
 11
347.685563000000000
 21
4.086230000000000
  0
LINE
  8
0
  6
CONTINUOUS
 62
256
 10
352.685563000000000
 20
3.575814000000000
 11
352.685563000000000
 21
4.086230000000000
  0
LINE
  8
0
  6
CONTINUOUS
 62
256
 10
352.685563000000000
 20
4.086230000000000
 11
347.685563000000000
 21
4.086230000000000
  0
ARC
  8
0
  6
CONTINUOUS
 62
256
 10
322.121805999999990
 20
-46.423701999999999
 40
20.600000000000005
 50
95.752283000000077
 51
135.000000000000000
  0
LINE
  8
0
  6
CONTINUOUS
 62
256
 10
307.555407000000000
 20
-31.857303000000002
 11
300.096712000000030
 21
-39.315998000000000
  0
ARC
  8
0
  6
CONTINUOUS
 62
256
 10
350.185563000000000
 20
-325.013770000000020
 40
300.600000000000020
 50
90.000000000000000
 51
95.752283000000006
  0
LINE
  8
0
  6
CONTINUOUS
 62
256
 10
318.685563000000000
 20
-26.112320000000000
 11
318.685563000000000
 21
-25.913770000000000
  0
LINE
  8
0
  6
CONTINUOUS
 62
256
 10
320.193063999999990
 20
-25.913770000000000
 11
318.685563000000000
 21
-25.913770000000000
  0
ARC
  8
0
  6
CONTINUOUS
 62
256
 10
322.121805999999990
 20
-46.423701999999999
 40
10.797000000000002
 50
95.752283000000034
 51
135.000000000000030
  0
LINE
  8
0
  6
CONTINUOUS
 62
256
 10
314.487174999999980
 20
-38.789070000000002
 11
308.599761000000000
 21
-44.676484000000002
  0
ARC
  8
0
  6
CONTINUOUS
 62
256
 10
350.185563000000000
 20
-325.013770000000020
 40
290.797000000000030
 50
90.000000000000000
 51
95.752283000000006
  0
ARC
  8
0
  6
CONTINUOUS
 62
256
 10
350.185563000000000
 20
-325.013770000000020
 40
300.600000000000020
 50
84.247716999999994
 51
90.000000000000000
  0
LINE
  8
0
  6
CONTINUOUS
 62
256
 10
392.815719000000000
 20
-31.857303000000002
 11
400.274414999999980
 21
-39.315998000000000
  0
ARC
  8
0
  6
CONTINUOUS
 62
256
 10
378.249320000000010
 20
-46.423701999999999
 40
20.599999999999994
 50
45.000000000000014
 51
84.247716999999938
  0
ARC
  8
0
  6
CONTINUOUS
 62
256
 10
3.585563000000000
 20
-83.413770000000000
 40
400.600000000000020
 50
0.000000000000000
 51
5.743682000000000
  0
ARC
  8
0
  6
CONTINUOUS
 62
256
 10
395.607509999999990
 20
-43.982903000000000
 40
6.599999999999972
 50
5.743682000000001
 51
44.999999999999829
  0
LINE
  8
0
  6
CONTINUOUS
 62
256
 10
381.685563000000000
 20
-25.913770000000000
 11
380.173548999999980
 21
-25.913770000000000
  0
LINE
  8
0
  6
CONTINUOUS
 62
256
 10
381.685563000000000
 20
-26.112320000000000
 11
381.685563000000000
 21
-25.913770000000000
  0
LINE
  8
0
  6
CONTINUOUS
 62
256
 10
395.185279999999980
 20
-141.499658000000010
 11
395.185279999999980
 21
-132.600675999999990
  0
LINE
  8
0
  6
CONTINUOUS
 62
256
 10
387.185563000000000
 20
-142.999658000000010
 11
387.185563000000000
 21
-138.964643999999990
  0
LINE
  8
0
  6
CONTINUOUS
 62
256
 10
308.185563000000000
 20
-135.574240000000000
 11
308.185563000000000
 21
-139.132492000000010
  0
LINE
  8
0
  6
CONTINUOUS
 62
256
 10
288.164390000000030
 20
-76.848618999999999
 11
296.218602999999970
 21
-78.268794000000000
  0
LINE
  8
0
  6
CONTINUOUS
 62
256
 10
412.206507999999990
 20
-76.848618999999999
 11
404.152521999999980
 21
-78.268753000000004
  0
LINE
  8
0
  6
CONTINUOUS
 62
256
 10
411.706507999999990
 20
-76.936781999999994
 11
404.152521999999980
 21
-78.268753000000004
  0
LINE
  8
0
  6
CONTINUOUS
 62
256
 10
285.685334000000010
 20
-64.999657999999997
 11
283.485334000000020
 21
-64.999657999999997
  0
LINE
  8
0
  6
CONTINUOUS
 62
256
 10
414.685563000000000
 20
-64.999657999999997
 11
416.785563000000020
 21
-64.999657999999997
  0
ARC
  8
0
  6
CONTINUOUS
 62
256
 10
288.685334000000010
 20
-73.894194999999996
 40
3.000000000000000
 50
180.000000000000000
 51
260.000000000000340
  0
LINE
  8
0
  6
CONTINUOUS
 62
256
 10
283.485334000000020
 20
-64.999657999999997
 11
283.185334000000010
 21
-64.699657999999999
  0
ARC
  8
0
  6
CONTINUOUS
 62
256
 10
394.185279999999980
 20
-141.499658000000010
 40
1.000000000000000
 50
270.000000000000000
 51
0.000000000000000
  0
LINE
  8
0
  6
CONTINUOUS
 62
256
 10
387.185563000000000
 20
-142.499658000000010
 11
394.185279999999980
 21
-142.499658000000010
  0
ARC
  8
0
  6
CONTINUOUS
 62
256
 10
411.685563000000000
 20
-73.894194999999996
 40
3.000000000000003
 50
279.999999999999660
 51
0.000000000000000
  0
LINE
  8
0
  6
CONTINUOUS
 62
256
 10
417.185563000000000
 20
-64.599658000000005
 11
416.785563000000020
 21
-64.999657999999997
  0
LINE
  8
0
  6
CONTINUOUS
 62
256
 10
387.685563000000000
 20
-142.999658000000010
 11
387.185563000000000
 21
-142.999658000000010
  0
LINE
  8
0
  6
CONTINUOUS
 62
256
 10
414.237919999999970
 20
-143.448206000000000
 11
387.685563000000000
 21
-142.984733000000010
  0
POINT
  8
0
  6
CONTINUOUS
 62
256
 10
417.185563000000000
 20
-143.499658000000010
  0
POINT
  8
0
  6
CONTINUOUS
 62
256
 10
283.185563000000000
 20
-143.499658000000010
  0
LINE
  8
0
  6
CONTINUOUS
 62
256
 10
417.185563000000000
 20
-158.499658000000010
 11
283.185563000000000
 21
-158.499658000000010
  0
LINE
  8
0
  6
CONTINUOUS
 62
256
 10
417.185563000000000
 20
-158.499658000000010
 11
417.185563000000000
 21
-145.947748999999990
  0
LINE
  8
0
  6
CONTINUOUS
 62
256
 10
283.185563000000000
 20
-158.499658000000010
 11
283.185563000000000
 21
-146.447748999999990
  0
LINE
  8
0
  6
DASHDOT
 62
256
 10
405.185563000000000
 20
-162.745542000000000
 11
405.185563000000000
 21
-138.691487999999990
  0
LINE
  8
0
  6
DASHDOT
 62
256
 10
295.185563000000000
 20
-162.745542000000000
 11
295.185563000000000
 21
-138.691487999999990
  0
LINE
  8
0
  6
CONTINUOUS
 62
256
 10
286.133205999999970
 20
-143.448206000000000
 11
304.255373000000020
 21
-143.131882999999990
  0
ARC
  8
0
  6
CONTINUOUS
 62
256
 10
414.185563000000000
 20
-146.447748999999990
 40
3.000000000000000
 50
0.000000000000000
 51
89.000000000000412
  0
ARC
  8
0
  6
CONTINUOUS
 62
256
 10
286.185563000000000
 20
-146.447748999999990
 40
3.000000000000011
 50
90.999999999999602
 51
180.000000000000000
  0
ARC
  8
0
  6
CONTINUOUS
 62
256
 10
304.185563000000000
 20
-139.132492000000010
 40
3.999999999999996
 50
271.000000000000110
 51
0.000000000000000
  0
LINE
  8
0
  6
DASHDOT
 62
256
 10
411.909292999999990
 20
-83.413770000000000
 11
286.691333999999980
 21
-83.413770000000000
  0
ARC
  8
0
  6
CONTINUOUS
 62
256
 10
332.529118999999980
 20
-79.913770000000000
 40
1.000000000000000
 50
270.000000000000000
 51
348.787729000000300
  0
LINE
  8
0
  6
CONTINUOUS
 62
256
 10
329.479284000000010
 20
-80.913770000000000
 11
332.529118999999980
 21
-80.913770000000000
  0
ARC
  8
0
  6
CONTINUOUS
 62
256
 10
329.479284000000010
 20
-79.913770000000000
 40
0.999999999999978
 50
170.405932000000040
 51
270.000000000000000
  0
ARC
  8
0
  6
CONTINUOUS
 62
256
 10
323.917711999999990
 20
-79.913770000000000
 40
1.000000000000000
 50
270.000000000000000
 51
352.410458000000010
  0
LINE
  8
0
  6
CONTINUOUS
 62
256
 10
320.893926000000020
 20
-80.913770000000000
 11
323.917711999999990
 21
-80.913770000000000
  0
ARC
  8
0
  6
CONTINUOUS
 62
256
 10
320.893926000000020
 20
-79.913770000000000
 40
1.000000000000019
 50
173.186146000000240
 51
270.000000000000000
  0
ARC
  8
0
  6
CONTINUOUS
 62
256
 10
315.361002999999980
 20
-79.913770000000000
 40
1.000000000000000
 50
270.000000000000000
 51
354.260829999999540
  0
LINE
  8
0
  6
CONTINUOUS
 62
256
 10
312.347090999999980
 20
-80.913770000000000
 11
315.361002999999980
 21
-80.913770000000000
  0
ARC
  8
0
  6
CONTINUOUS
 62
256
 10
312.347090999999980
 20
-79.913770000000000
 40
1.000000000000027
 50
174.715267000000240
 51
270.000000000000000
  0
ARC
  8
0
  6
CONTINUOUS
 62
256
 10
332.508655999999970
 20
-59.796467999999997
 40
0.999999999999984
 50
30.000000000000544
 51
126.813854000000730
  0
LINE
  8
0
  6
CONTINUOUS
 62
256
 10
333.374681000000010
 20
-59.296467999999997
 11
334.886574000000000
 21
-61.915143000000000
  0
ARC
  8
0
  6
CONTINUOUS
 62
256
 10
334.020549000000020
 20
-62.415143000000000
 40
0.999999999999987
 50
307.589541999999030
 51
30.000000000000544
  0
ARC
  8
0
  6
CONTINUOUS
 62
256
 10
342.738593999999980
 20
-77.515240000000006
 40
0.999999999999985
 50
321.618271999998970
 51
30.000000000000544
  0
LINE
  8
0
  6
CONTINUOUS
 62
256
 10
342.020500000000030
 20
-74.271465000000006
 11
343.604619000000010
 21
-77.015240000000006
  0
ARC
  8
0
  6
CONTINUOUS
 62
256
 10
338.326252000000010
 20
-69.872840999999994
 40
1.000000000000006
 50
311.212270999999760
 51
30.000000000000544
  0
LINE
  8
0
  6
CONTINUOUS
 62
256
 10
337.667359999999970
 20
-66.731605999999999
 11
339.192277999999990
 21
-69.372840999999994
  0
ARC
  8
0
  6
CONTINUOUS
 62
256
 10
336.801334999999990
 20
-67.231605999999999
 40
0.999999999999984
 50
30.000000000000544
 51
129.594067999999310
  0
ARC
  8
0
  6
CONTINUOUS
 62
256
 10
341.353801999999970
 20
-79.913770000000000
 40
1.000000000000000
 50
270.000000000000000
 51
338.381728000000520
  0
ARC
  8
0
  6
CONTINUOUS
 62
256
 10
350.185563000000000
 20
-83.413770000000000
 40
8.500000000000005
 50
141.618272000000020
 51
158.381728000000040
  0
ARC
  8
0
  6
CONTINUOUS
 62
256
 10
341.154473999999990
 20
-74.771465000000006
 40
0.999999999999984
 50
30.000000000000544
 51
136.260205000000240
  0
LINE
  8
0
  6
CONTINUOUS
 62
256
 10
338.185563000000000
 20
-80.913770000000000
 11
341.353801999999970
 21
-80.913770000000000
  0
ARC
  8
0
  6
CONTINUOUS
 62
256
 10
338.185563000000000
 20
-79.913770000000000
 40
0.999999999999976
 50
163.739794999999330
 51
270.000000000000000
  0
ARC
  8
0
  6
CONTINUOUS
 62
256
 10
350.185563000000000
 20
-83.413770000000000
 40
13.500000000000004
 50
136.260205000000010
 51
163.739794999999960
  0
ARC
  8
0
  6
CONTINUOUS
 62
256
 10
350.185563000000000
 20
-83.413770000000000
 40
17.000000000000014
 50
131.212271000000020
 51
168.787728999999980
  0
ARC
  8
0
  6
CONTINUOUS
 62
256
 10
350.185563000000000
 20
-83.413770000000000
 40
21.999999999999986
 50
129.594067999999940
 51
170.405931999999980
  0
ARC
  8
0
  6
CONTINUOUS
 62
256
 10
350.185563000000000
 20
-83.413770000000000
 40
30.499999999999989
 50
126.813853999999980
 51
173.186145999999980
  0
ARC
  8
0
  6
CONTINUOUS
 62
256
 10
350.185563000000000
 20
-83.413770000000000
 40
25.499999999999996
 50
127.589541999999970
 51
172.410458000000010
  0
LINE
  8
0
  6
CONTINUOUS
 62
256
 10
337.704808000000010
 20
-56.796467999999997
 11
339.216701000000000
 21
-59.415143000000000
  0
ARC
  8
0
  6
CONTINUOUS
 62
256
 10
340.082725999999980
 20
-58.915143000000000
 40
0.999999999999984
 50
210.000000000000510
 51
292.410458000000630
  0
ARC
  8
0
  6
CONTINUOUS
 62
256
 10
348.800771999999990
 20
-74.015240000000006
 40
0.999999999999984
 50
210.000000000000510
 51
278.381727999998870
  0
LINE
  8
0
  6
CONTINUOUS
 62
256
 10
346.350626999999970
 20
-71.771465000000006
 11
347.934746000000020
 21
-74.515240000000006
  0
ARC
  8
0
  6
CONTINUOUS
 62
256
 10
344.388430000000030
 20
-66.372840999999994
 40
0.999999999999984
 50
210.000000000000510
 51
288.787729000000750
  0
LINE
  8
0
  6
CONTINUOUS
 62
256
 10
341.997486999999980
 20
-64.231605999999999
 11
343.522404999999990
 21
-66.872840999999994
  0
ARC
  8
0
  6
CONTINUOUS
 62
256
 10
342.863512000000010
 20
-63.731605999999999
 40
0.999999999999999
 50
110.405931999999720
 51
210.000000000000510
  0
ARC
  8
0
  6
CONTINUOUS
 62
256
 10
351.570355000000010
 20
-74.015240000000006
 40
0.999999999999998
 50
261.618272000001130
 51
329.999999999999490
  0
ARC
  8
0
  6
CONTINUOUS
 62
256
 10
350.185563000000000
 20
-83.413770000000000
 40
8.500000000000002
 50
81.618271999999948
 51
98.381728000000052
  0
ARC
  8
0
  6
CONTINUOUS
 62
256
 10
347.216652000000010
 20
-71.271465000000006
 40
1.000000000000011
 50
103.739795000001280
 51
210.000000000000510
  0
LINE
  8
0
  6
CONTINUOUS
 62
256
 10
354.020500000000030
 20
-71.771465000000006
 11
352.436379999999990
 21
-74.515240000000006
  0
ARC
  8
0
  6
CONTINUOUS
 62
256
 10
353.154473999999990
 20
-71.271465000000006
 40
0.999999999999984
 50
329.999999999999490
 51
76.260204999998734
  0
ARC
  8
0
  6
CONTINUOUS
 62
256
 10
350.185563000000000
 20
-83.413770000000000
 40
13.500000000000004
 50
76.260205000000070
 51
103.739794999999930
  0
ARC
  8
0
  6
CONTINUOUS
 62
256
 10
355.982695999999980
 20
-66.372840999999994
 40
1.000000000000010
 50
251.212270999999220
 51
329.999999999999490
  0
LINE
  8
0
  6
CONTINUOUS
 62
256
 10
358.373639000000030
 20
-64.231605999999999
 11
356.848721000000010
 21
-66.872840999999994
  0
ARC
  8
0
  6
CONTINUOUS
 62
256
 10
350.185563000000000
 20
-83.413770000000000
 40
16.999999999999993
 50
71.212271000000044
 51
108.787728999999960
  0
ARC
  8
0
  6
CONTINUOUS
 62
256
 10
357.507613999999990
 20
-63.731605999999999
 40
0.999999999999984
 50
329.999999999999490
 51
69.594068000000291
  0
ARC
  8
0
  6
CONTINUOUS
 62
256
 10
360.288400000000020
 20
-58.915143000000000
 40
1.000000000000003
 50
247.589541999999370
 51
329.999999999999490
  0
ARC
  8
0
  6
CONTINUOUS
 62
256
 10
350.185563000000000
 20
-83.413770000000000
 40
21.999999999999996
 50
69.594067999999993
 51
110.405932000000020
  0
LINE
  8
0
  6
CONTINUOUS
 62
256
 10
362.666317999999990
 20
-56.796467999999997
 11
361.154425000000000
 21
-59.415143000000000
  0
ARC
  8
0
  6
CONTINUOUS
 62
256
 10
350.185563000000000
 20
-83.413770000000000
 40
25.500000000000007
 50
67.589541999999966
 51
112.410458000000050
  0
CIRCLE
  8
0
  6
CONTINUOUS
 62
256
 10
350.185563000000000
 20
-83.413770000000000
 40
5.000000000000000
  0
ARC
  8
0
  6
CONTINUOUS
 62
256
 10
385.010123000000020
 20
-79.913770000000000
 40
0.999999999999978
 50
185.739170000000430
 51
270.000000000000000
  0
ARC
  8
0
  6
CONTINUOUS
 62
256
 10
388.024036000000020
 20
-79.913770000000000
 40
1.000000000000000
 50
270.000000000000000
 51
5.284732999999778
  0
ARC
  8
0
  6
CONTINUOUS
 62
256
 10
376.453414000000010
 20
-79.913770000000000
 40
0.999999999999990
 50
187.589541999999990
 51
270.000000000000000
  0
ARC
  8
0
  6
CONTINUOUS
 62
256
 10
367.862471000000030
 20
-59.796467999999997
 40
1.000000000000011
 50
53.186145999999269
 51
149.999999999999460
  0
ARC
  8
0
  6
CONTINUOUS
 62
256
 10
366.350577999999980
 20
-62.415143000000000
 40
0.999999999999984
 50
149.999999999999460
 51
232.410458000000890
  0
ARC
  8
0
  6
CONTINUOUS
 62
256
 10
379.477199999999980
 20
-79.913770000000000
 40
1.000000000000000
 50
270.000000000000000
 51
6.813853999999752
  0
ARC
  8
0
  6
CONTINUOUS
 62
256
 10
370.891842000000000
 20
-79.913770000000000
 40
1.000000000000000
 50
270.000000000000000
 51
9.594067999999961
  0
ARC
  8
0
  6
CONTINUOUS
 62
256
 10
367.842007000000020
 20
-79.913770000000000
 40
1.000000000000016
 50
191.212270999999730
 51
270.000000000000000
  0
ARC
  8
0
  6
CONTINUOUS
 62
256
 10
363.569792000000010
 20
-67.231605999999999
 40
0.999999999999988
 50
50.405932000000682
 51
149.999999999999460
  0
ARC
  8
0
  6
CONTINUOUS
 62
256
 10
362.044873999999990
 20
-69.872840999999994
 40
0.999999999999984
 50
149.999999999999460
 51
228.787729000000240
  0
ARC
  8
0
  6
CONTINUOUS
 62
256
 10
359.216652000000010
 20
-74.771465000000006
 40
1.000000000000005
 50
43.739794999999773
 51
149.999999999999460
  0
ARC
  8
0
  6
CONTINUOUS
 62
256
 10
362.185563000000000
 20
-79.913770000000000
 40
1.000000000000000
 50
270.000000000000000
 51
16.260205000000671
  0
ARC
  8
0
  6
CONTINUOUS
 62
256
 10
359.017323999999970
 20
-79.913770000000000
 40
1.000000000000013
 50
201.618271999999450
 51
270.000000000000000
  0
ARC
  8
0
  6
CONTINUOUS
 62
256
 10
357.632532000000030
 20
-77.515240000000006
 40
0.999999999999984
 50
149.999999999999460
 51
218.381728000001000
  0
ARC
  8
0
  6
CONTINUOUS
 62
256
 10
350.185563000000000
 20
-83.413770000000000
 40
30.499999999999986
 50
6.813854000000005
 51
53.186146000000036
  0
ARC
  8
0
  6
CONTINUOUS
 62
256
 10
350.185563000000000
 20
-83.413770000000000
 40
25.500000000000011
 50
7.589541999999985
 51
52.410458000000027
  0
ARC
  8
0
  6
CONTINUOUS
 62
256
 10
350.185563000000000
 20
-83.413770000000000
 40
21.999999999999979
 50
9.594068000000020
 51
50.405932000000043
  0
ARC
  8
0
  6
CONTINUOUS
 62
256
 10
350.185563000000000
 20
-83.413770000000000
 40
16.999999999999993
 50
11.212271000000010
 51
48.787728999999970
  0
ARC
  8
0
  6
CONTINUOUS
 62
256
 10
350.185563000000000
 20
-83.413770000000000
 40
13.499999999999989
 50
16.260205000000035
 51
43.739795000000001
  0
ARC
  8
0
  6
CONTINUOUS
 62
256
 10
350.185563000000000
 20
-83.413770000000000
 40
8.500000000000016
 50
21.618271999999980
 51
38.381727999999960
  0
LINE
  8
0
  6
CONTINUOUS
 62
256
 10
366.996444999999990
 20
-59.296467999999997
 11
365.484552000000010
 21
-61.915143000000000
  0
LINE
  8
0
  6
CONTINUOUS
 62
256
 10
388.024036000000020
 20
-80.913770000000000
 11
385.010123000000020
 21
-80.913770000000000
  0
LINE
  8
0
  6
CONTINUOUS
 62
256
 10
362.703765999999970
 20
-66.731605999999999
 11
361.178848000000020
 21
-69.372840999999994
  0
LINE
  8
0
  6
CONTINUOUS
 62
256
 10
358.350626999999970
 20
-74.271465000000006
 11
356.766506999999990
 21
-77.015240000000006
  0
LINE
  8
0
  6
CONTINUOUS
 62
256
 10
362.185563000000000
 20
-80.913770000000000
 11
359.017323999999970
 21
-80.913770000000000
  0
LINE
  8
0
  6
CONTINUOUS
 62
256
 10
370.891842000000000
 20
-80.913770000000000
 11
367.842007000000020
 21
-80.913770000000000
  0
LINE
  8
0
  6
CONTINUOUS
 62
256
 10
379.477199999999980
 20
-80.913770000000000
 11
376.453414000000010
 21
-80.913770000000000
  0
ARC
  8
0
  6
CONTINUOUS
 62
256
 10
350.185563000000000
 20
-83.413770000000000
 40
39.000000000000014
 50
245.284732999999960
 51
294.715266999999980
  0
ARC
  8
0
  6
CONTINUOUS
 62
256
 10
350.185563000000000
 20
-83.413770000000000
 40
34.000000000000000
 50
245.739170000000000
 51
294.260830000000000
  0
ARC
  8
0
  6
CONTINUOUS
 62
256
 10
350.185563000000000
 20
-83.413770000000000
 40
25.500000000000007
 50
247.589541999999940
 51
292.410458000000010
  0
ARC
  8
0
  6
CONTINUOUS
 62
256
 10
350.185563000000000
 20
-83.413770000000000
 40
30.499999999999996
 50
246.813853999999990
 51
293.186146000000010
  0
ARC
  8
0
  6
CONTINUOUS
 62
256
 10
350.185563000000000
 20
-83.413770000000000
 40
21.999999999999996
 50
249.594067999999990
 51
290.405932000000010
  0
ARC
  8
0
  6
CONTINUOUS
 62
256
 10
350.185563000000000
 20
-83.413770000000000
 40
16.999999999999993
 50
251.212271000000040
 51
288.787728999999960
  0
ARC
  8
0
  6
CONTINUOUS
 62
256
 10
350.185563000000000
 20
-83.413770000000000
 40
13.500000000000004
 50
256.260205000000040
 51
283.739794999999960
  0
ARC
  8
0
  6
CONTINUOUS
 62
256
 10
347.216652000000010
 20
-95.556073999999995
 40
0.999999999999984
 50
149.999999999999460
 51
256.260204999998730
  0
ARC
  8
0
  6
CONTINUOUS
 62
256
 10
342.863512000000010
 20
-103.095933000000000
 40
0.999999999999984
 50
149.999999999999460
 51
249.594068000000160
  0
LINE
  8
0
  6
CONTINUOUS
 62
256
 10
341.997486999999980
 20
-102.595933000000000
 11
343.522404999999990
 21
-99.954697999999993
  0
ARC
  8
0
  6
CONTINUOUS
 62
256
 10
344.388430000000030
 20
-100.454697999999990
 40
1.000000000000010
 50
71.212270999999262
 51
149.999999999999460
  0
LINE
  8
0
  6
CONTINUOUS
 62
256
 10
346.350626999999970
 20
-95.056073999999995
 11
347.934746000000020
 21
-92.312298999999996
  0
ARC
  8
0
  6
CONTINUOUS
 62
256
 10
348.800771999999990
 20
-92.812298999999996
 40
0.999999999999998
 50
81.618272000001099
 51
149.999999999999460
  0
ARC
  8
0
  6
CONTINUOUS
 62
256
 10
335.804372000000000
 20
-115.322723000000000
 40
0.999999999999992
 50
65.739170000001337
 51
149.999999999999460
  0
LINE
  8
0
  6
CONTINUOUS
 62
256
 10
333.431390000000020
 20
-117.432848000000010
 11
334.938346000000020
 21
-114.822723000000000
  0
ARC
  8
0
  6
CONTINUOUS
 62
256
 10
334.297416000000000
 20
-117.932848000000010
 40
0.999999999999984
 50
149.999999999999460
 51
245.284732999999870
  0
ARC
  8
0
  6
CONTINUOUS
 62
256
 10
340.082725999999980
 20
-107.912396000000000
 40
1.000000000000009
 50
67.589541999999554
 51
149.999999999999460
  0
LINE
  8
0
  6
CONTINUOUS
 62
256
 10
337.704808000000010
 20
-110.031071000000000
 11
339.216701000000000
 21
-107.412396000000000
  0
ARC
  8
0
  6
CONTINUOUS
 62
256
 10
338.570832999999990
 20
-110.531071000000000
 40
0.999999999999984
 50
149.999999999999460
 51
246.813853999999880
  0
ARC
  8
0
  6
CONTINUOUS
 62
256
 10
350.185563000000000
 20
-83.413770000000000
 40
38.999999999999986
 50
185.284732999999990
 51
234.715266999999980
  0
ARC
  8
0
  6
CONTINUOUS
 62
256
 10
350.185563000000000
 20
-83.413770000000000
 40
34.000000000000028
 50
185.739169999999970
 51
234.260829999999970
  0
ARC
  8
0
  6
CONTINUOUS
 62
256
 10
350.185563000000000
 20
-83.413770000000000
 40
25.500000000000011
 50
187.589541999999990
 51
232.410458000000030
  0
ARC
  8
0
  6
CONTINUOUS
 62
256
 10
350.185563000000000
 20
-83.413770000000000
 40
30.499999999999986
 50
186.813853999999990
 51
233.186146000000040
  0
ARC
  8
0
  6
CONTINUOUS
 62
256
 10
350.185563000000000
 20
-83.413770000000000
 40
21.999999999999975
 50
189.594067999999960
 51
230.405932000000060
  0
ARC
  8
0
  6
CONTINUOUS
 62
256
 10
350.185563000000000
 20
-83.413770000000000
 40
16.999999999999993
 50
191.212271000000020
 51
228.787728999999980
  0
ARC
  8
0
  6
CONTINUOUS
 62
256
 10
350.185563000000000
 20
-83.413770000000000
 40
13.499999999999989
 50
196.260205000000010
 51
223.739794999999960
  0
ARC
  8
0
  6
CONTINUOUS
 62
256
 10
338.185563000000000
 20
-86.913770000000000
 40
1.000000000000000
 50
90.000000000000000
 51
196.260205000000670
  0
LINE
  8
0
  6
CONTINUOUS
 62
256
 10
338.185563000000000
 20
-85.913770000000000
 11
341.353801999999970
 21
-85.913770000000000
  0
ARC
  8
0
  6
CONTINUOUS
 62
256
 10
341.154473999999990
 20
-92.056073999999995
 40
1.000000000000005
 50
223.739794999999760
 51
329.999999999999490
  0
ARC
  8
0
  6
CONTINUOUS
 62
256
 10
350.185563000000000
 20
-83.413770000000000
 40
8.500000000000016
 50
201.618271999999960
 51
218.381727999999950
  0
ARC
  8
0
  6
CONTINUOUS
 62
256
 10
341.353801999999970
 20
-86.913770000000000
 40
1.000000000000013
 50
21.618271999999475
 51
90.000000000000000
  0
ARC
  8
0
  6
CONTINUOUS
 62
256
 10
336.801334999999990
 20
-99.595933000000002
 40
0.999999999999988
 50
230.405932000000690
 51
329.999999999999490
  0
LINE
  8
0
  6
CONTINUOUS
 62
256
 10
337.667359999999970
 20
-100.095933000000000
 11
339.192277999999990
 21
-97.454697999999993
  0
ARC
  8
0
  6
CONTINUOUS
 62
256
 10
338.326252000000010
 20
-96.954697999999993
 40
0.999999999999984
 50
329.999999999999490
 51
48.787728999999715
  0
LINE
  8
0
  6
CONTINUOUS
 62
256
 10
342.020500000000030
 20
-92.556073999999995
 11
343.604619000000010
 21
-89.812298999999996
  0
ARC
  8
0
  6
CONTINUOUS
 62
256
 10
342.738593999999980
 20
-89.312298999999996
 40
0.999999999999984
 50
329.999999999999490
 51
38.381728000001026
  0
ARC
  8
0
  6
CONTINUOUS
 62
256
 10
329.742193999999980
 20
-111.822723000000000
 40
0.999999999999984
 50
329.999999999999490
 51
54.260829999999778
  0
LINE
  8
0
  6
CONTINUOUS
 62
256
 10
329.101263000000020
 20
-114.932848000000010
 11
330.608219000000020
 21
-112.322723000000000
  0
ARC
  8
0
  6
CONTINUOUS
 62
256
 10
328.235237999999980
 20
-114.432848000000010
 40
1.000000000000016
 50
234.715266999999020
 51
329.999999999999490
  0
ARC
  8
0
  6
CONTINUOUS
 62
256
 10
334.020549000000020
 20
-104.412396000000000
 40
0.999999999999984
 50
329.999999999999490
 51
52.410458000001171
  0
LINE
  8
0
  6
CONTINUOUS
 62
256
 10
333.374681000000010
 20
-107.531071000000000
 11
334.886574000000000
 21
-104.912396000000000
  0
ARC
  8
0
  6
CONTINUOUS
 62
256
 10
332.508655999999970
 20
-107.031071000000000
 40
1.000000000000011
 50
233.186145999999270
 51
329.999999999999490
  0
ARC
  8
0
  6
CONTINUOUS
 62
256
 10
312.347090999999980
 20
-86.913770000000000
 40
1.000000000000000
 50
90.000000000000000
 51
185.284732999999760
  0
LINE
  8
0
  6
CONTINUOUS
 62
256
 10
312.347090999999980
 20
-85.913770000000000
 11
315.361002999999980
 21
-85.913770000000000
  0
ARC
  8
0
  6
CONTINUOUS
 62
256
 10
315.361002999999980
 20
-86.913770000000000
 40
0.999999999999978
 50
5.739170000000447
 51
90.000000000000000
  0
ARC
  8
0
  6
CONTINUOUS
 62
256
 10
320.893926000000020
 20
-86.913770000000000
 40
1.000000000000000
 50
90.000000000000000
 51
186.813853999999760
  0
LINE
  8
0
  6
CONTINUOUS
 62
256
 10
320.893926000000020
 20
-85.913770000000000
 11
323.917711999999990
 21
-85.913770000000000
  0
ARC
  8
0
  6
CONTINUOUS
 62
256
 10
323.917711999999990
 20
-86.913770000000000
 40
0.999999999999990
 50
7.589541999999997
 51
90.000000000000000
  0
ARC
  8
0
  6
CONTINUOUS
 62
256
 10
329.479284000000010
 20
-86.913770000000000
 40
1.000000000000000
 50
90.000000000000000
 51
189.594067999999960
  0
LINE
  8
0
  6
CONTINUOUS
 62
256
 10
329.479284000000010
 20
-85.913770000000000
 11
332.529118999999980
 21
-85.913770000000000
  0
ARC
  8
0
  6
CONTINUOUS
 62
256
 10
332.529118999999980
 20
-86.913770000000000
 40
1.000000000000016
 50
11.212270999999729
 51
90.000000000000000
  0
ARC
  8
0
  6
CONTINUOUS
 62
256
 10
353.154473999999990
 20
-95.556073999999995
 40
1.000000000000011
 50
283.739795000001270
 51
30.000000000000544
  0
LINE
  8
0
  6
CONTINUOUS
 62
256
 10
354.020500000000030
 20
-95.056073999999995
 11
352.436379999999990
 21
-92.312298999999996
  0
ARC
  8
0
  6
CONTINUOUS
 62
256
 10
350.185563000000000
 20
-83.413770000000000
 40
8.500000000000002
 50
261.618271999999930
 51
278.381728000000070
  0
ARC
  8
0
  6
CONTINUOUS
 62
256
 10
351.570355000000010
 20
-92.812298999999996
 40
0.999999999999984
 50
30.000000000000544
 51
98.381727999998901
  0
LINE
  8
0
  6
CONTINUOUS
 62
256
 10
379.477199999999980
 20
-85.913770000000000
 11
376.453414000000010
 21
-85.913770000000000
  0
LINE
  8
0
  6
CONTINUOUS
 62
256
 10
370.891842000000000
 20
-85.913770000000000
 11
367.842007000000020
 21
-85.913770000000000
  0
LINE
  8
0
  6
CONTINUOUS
 62
256
 10
362.185563000000000
 20
-85.913770000000000
 11
359.017323999999970
 21
-85.913770000000000
  0
LINE
  8
0
  6
CONTINUOUS
 62
256
 10
358.350626999999970
 20
-92.556073999999995
 11
356.766506999999990
 21
-89.812298999999996
  0
LINE
  8
0
  6
CONTINUOUS
 62
256
 10
362.703765999999970
 20
-100.095933000000000
 11
361.178848000000020
 21
-97.454697999999993
  0
LINE
  8
0
  6
CONTINUOUS
 62
256
 10
371.269862999999990
 20
-114.932848000000010
 11
369.762906999999980
 21
-112.322723000000000
  0
LINE
  8
0
  6
CONTINUOUS
 62
256
 10
366.996444999999990
 20
-107.531071000000000
 11
365.484552000000010
 21
-104.912396000000000
  0
ARC
  8
0
  6
CONTINUOUS
 62
256
 10
350.185563000000000
 20
-83.413770000000000
 40
8.500000000000005
 50
321.618272000000050
 51
338.381728000000010
  0
ARC
  8
0
  6
CONTINUOUS
 62
256
 10
350.185563000000000
 20
-83.413770000000000
 40
13.500000000000004
 50
316.260204999999980
 51
343.739794999999960
  0
ARC
  8
0
  6
CONTINUOUS
 62
256
 10
350.185563000000000
 20
-83.413770000000000
 40
17.000000000000014
 50
311.212270999999990
 51
348.787729000000010
  0
ARC
  8
0
  6
CONTINUOUS
 62
256
 10
350.185563000000000
 20
-83.413770000000000
 40
21.999999999999986
 50
309.594067999999940
 51
350.405932000000010
  0
ARC
  8
0
  6
CONTINUOUS
 62
256
 10
350.185563000000000
 20
-83.413770000000000
 40
25.499999999999986
 50
307.589541999999990
 51
352.410458000000010
  0
ARC
  8
0
  6
CONTINUOUS
 62
256
 10
350.185563000000000
 20
-83.413770000000000
 40
33.999999999999986
 50
305.739169999999940
 51
354.260830000000000
  0
ARC
  8
0
  6
CONTINUOUS
 62
256
 10
350.185563000000000
 20
-83.413770000000000
 40
30.500000000000014
 50
306.813854000000050
 51
353.186146000000010
  0
ARC
  8
0
  6
CONTINUOUS
 62
256
 10
350.185563000000000
 20
-83.413770000000000
 40
39.000000000000000
 50
305.284733000000020
 51
354.715266999999980
  0
ARC
  8
0
  6
CONTINUOUS
 62
256
 10
357.632532000000030
 20
-89.312298999999996
 40
0.999999999999985
 50
141.618271999999000
 51
210.000000000000510
  0
ARC
  8
0
  6
CONTINUOUS
 62
256
 10
359.017323999999970
 20
-86.913770000000000
 40
1.000000000000000
 50
90.000000000000000
 51
158.381728000000550
  0
ARC
  8
0
  6
CONTINUOUS
 62
256
 10
362.185563000000000
 20
-86.913770000000000
 40
0.999999999999976
 50
343.739794999999330
 51
90.000000000000000
  0
ARC
  8
0
  6
CONTINUOUS
 62
256
 10
359.216652000000010
 20
-92.056073999999995
 40
0.999999999999984
 50
210.000000000000510
 51
316.260205000000270
  0
ARC
  8
0
  6
CONTINUOUS
 62
256
 10
362.044873999999990
 20
-96.954697999999993
 40
1.000000000000006
 50
131.212270999999760
 51
210.000000000000510
  0
ARC
  8
0
  6
CONTINUOUS
 62
256
 10
363.569792000000010
 20
-99.595933000000002
 40
0.999999999999984
 50
210.000000000000510
 51
309.594067999999310
  0
ARC
  8
0
  6
CONTINUOUS
 62
256
 10
367.842007000000020
 20
-86.913770000000000
 40
1.000000000000000
 50
90.000000000000000
 51
168.787729000000270
  0
ARC
  8
0
  6
CONTINUOUS
 62
256
 10
370.891842000000000
 20
-86.913770000000000
 40
0.999999999999978
 50
350.405932000000010
 51
90.000000000000000
  0
ARC
  8
0
  6
CONTINUOUS
 62
256
 10
366.350577999999980
 20
-104.412396000000000
 40
0.999999999999993
 50
127.589541999998830
 51
210.000000000000510
  0
ARC
  8
0
  6
CONTINUOUS
 62
256
 10
367.862471000000030
 20
-107.031071000000000
 40
0.999999999999984
 50
210.000000000000510
 51
306.813854000000730
  0
ARC
  8
0
  6
CONTINUOUS
 62
256
 10
376.453414000000010
 20
-86.913770000000000
 40
1.000000000000000
 50
90.000000000000000
 51
172.410458000000010
  0
ARC
  8
0
  6
CONTINUOUS
 62
256
 10
370.628932000000020
 20
-111.822723000000000
 40
0.999999999999998
 50
125.739170000000210
 51
210.000000000000510
  0
ARC
  8
0
  6
CONTINUOUS
 62
256
 10
372.135888000000020
 20
-114.432848000000010
 40
0.999999999999984
 50
210.000000000000510
 51
305.284733000000980
  0
ARC
  8
0
  6
CONTINUOUS
 62
256
 10
366.073710000000010
 20
-117.932848000000010
 40
1.000000000000004
 50
294.715267000000150
 51
30.000000000000544
  0
LINE
  8
0
  6
CONTINUOUS
 62
256
 10
366.939735999999980
 20
-117.432848000000010
 11
365.432779999999980
 21
-114.822723000000000
  0
ARC
  8
0
  6
CONTINUOUS
 62
256
 10
361.800293000000010
 20
-110.531071000000000
 40
1.000000000000000
 50
293.186146000000120
 51
30.000000000000544
  0
LINE
  8
0
  6
CONTINUOUS
 62
256
 10
362.666317999999990
 20
-110.031071000000000
 11
361.154425000000000
 21
-107.412396000000000
  0
ARC
  8
0
  6
CONTINUOUS
 62
256
 10
364.566754000000000
 20
-115.322723000000000
 40
0.999999999999984
 50
30.000000000000544
 51
114.260829999998650
  0
ARC
  8
0
  6
CONTINUOUS
 62
256
 10
360.288400000000020
 20
-107.912396000000000
 40
0.999999999999984
 50
30.000000000000544
 51
112.410458000000460
  0
ARC
  8
0
  6
CONTINUOUS
 62
256
 10
357.507613999999990
 20
-103.095933000000000
 40
0.999999999999993
 50
290.405931999999840
 51
30.000000000000544
  0
LINE
  8
0
  6
CONTINUOUS
 62
256
 10
358.373639000000030
 20
-102.595933000000000
 11
356.848721000000010
 21
-99.954697999999993
  0
ARC
  8
0
  6
CONTINUOUS
 62
256
 10
355.982695999999980
 20
-100.454697999999990
 40
0.999999999999984
 50
30.000000000000544
 51
108.787729000000750
  0
LINE
  8
0
  6
CONTINUOUS
 62
256
 10
388.024036000000020
 20
-85.913770000000000
 11
385.010123000000020
 21
-85.913770000000000
  0
ARC
  8
0
  6
CONTINUOUS
 62
256
 10
379.477199999999980
 20
-86.913770000000000
 40
1.000000000000019
 50
353.186146000000240
 51
90.000000000000000
  0
ARC
  8
0
  6
CONTINUOUS
 62
256
 10
388.024036000000020
 20
-86.913770000000000
 40
1.000000000000027
 50
354.715267000000210
 51
90.000000000000000
  0
ARC
  8
0
  6
CONTINUOUS
 62
256
 10
385.010123000000020
 20
-86.913770000000000
 40
1.000000000000000
 50
90.000000000000000
 51
174.260829999999570
  0
ARC
  8
0
  6
CONTINUOUS
 62
256
 10
389.650044999999980
 20
-120.029734000000000
 40
3.000000000000014
 50
315.000000000000230
 51
354.582036000000070
  0
ARC
  8
0
  6
CONTINUOUS
 62
256
 10
3.585563000000000
 20
-83.413770000000000
 40
390.797000000000030
 50
354.582036000000020
 51
0.000000000000000
  0
ARC
  8
0
  6
CONTINUOUS
 62
256
 10
373.725361000000020
 20
-110.785659999999990
 40
20.797000000000001
 50
275.001650000000040
 51
315.000000000000060
  0
LINE
  8
0
  6
CONTINUOUS
 62
256
 10
388.431060000000000
 20
-125.491360000000000
 11
391.771365000000000
 21
-122.151055000000000
  0
ARC
  8
0
  6
CONTINUOUS
 62
256
 10
350.185563000000000
 20
158.186229999999990
 40
290.797000000000030
 50
270.000000000000000
 51
275.001649999999980
  0
ARC
  8
0
  6
CONTINUOUS
 62
256
 10
310.721081000000030
 20
-120.029734000000000
 40
2.999999999999996
 50
185.417963999999930
 51
224.999999999999800
  0
ARC
  8
0
  6
CONTINUOUS
 62
256
 10
696.785563000000020
 20
-83.413770000000000
 40
390.797000000000030
 50
180.000000000000000
 51
185.417963999999980
  0
ARC
  8
0
  6
CONTINUOUS
 62
256
 10
326.645764999999980
 20
-110.785659999999990
 40
20.797000000000008
 50
224.999999999999970
 51
264.998350000000070
  0
LINE
  8
0
  6
CONTINUOUS
 62
256
 10
311.940066000000000
 20
-125.491360000000000
 11
308.599761000000000
 21
-122.151055000000000
  0
ARC
  8
0
  6
CONTINUOUS
 62
256
 10
350.185563000000000
 20
158.186229999999990
 40
290.797000000000030
 50
264.998350000000070
 51
270.000000000000000
  0
ARC
  8
0
  6
CONTINUOUS
 62
256
 10
350.185563000000000
 20
158.186229999999990
 40
300.600000000000020
 50
270.000000000000000
 51
275.752282999999980
  0
LINE
  8
0
  6
CONTINUOUS
 62
256
 10
392.815719000000000
 20
-134.970236000000000
 11
400.274414999999980
 21
-127.511540999999990
  0
ARC
  8
0
  6
CONTINUOUS
 62
256
 10
378.249320000000010
 20
-120.403837000000000
 40
20.600000000000001
 50
275.752282999999860
 51
314.999999999999940
  0
ARC
  8
0
  6
CONTINUOUS
 62
256
 10
3.585563000000000
 20
-83.413770000000000
 40
400.600000000000020
 50
354.256318000000020
 51
0.000000000000000
  0
ARC
  8
0
  6
CONTINUOUS
 62
256
 10
395.607509999999990
 20
-122.844637000000010
 40
6.600000000000017
 50
315.000000000000170
 51
354.256318000000020
  0
ARC
  8
0
  6
CONTINUOUS
 62
256
 10
350.185563000000000
 20
158.186229999999990
 40
300.600000000000020
 50
264.247717000000020
 51
270.000000000000000
  0
LINE
  8
0
  6
CONTINUOUS
 62
256
 10
307.555407000000000
 20
-134.970236000000000
 11
300.096712000000030
 21
-127.511540999999990
  0
ARC
  8
0
  6
CONTINUOUS
 62
256
 10
322.121805999999990
 20
-120.403837000000000
 40
20.600000000000001
 50
225.000000000000030
 51
264.247716999999910
  0
ARC
  8
0
  6
CONTINUOUS
 62
256
 10
696.785563000000020
 20
-83.413770000000000
 40
400.600000000000020
 50
180.000000000000000
 51
185.743681999999980
  0
ARC
  8
0
  6
CONTINUOUS
 62
256
 10
304.763616000000010
 20
-122.844637000000010
 40
6.599999999999973
 50
185.743682000000060
 51
224.999999999999830
  0
TEXT
  8
0
  6
CONTINUOUS
 62
256
 10
472.103027343750000
 20
-189.928207397460940
 40
3.299999952316284
  1
1/1
 50
0.000002504478167
 41
0.850909097352304
  7
STANDARD1
  0
TEXT
  8
0
  6
CONTINUOUS
 62
256
 10
469.685028076171870
 20
-189.928207397460940
 40
3.299999952316284
  1
 
 50
0.000002504478167
 41
1.733333298293026
  7
STANDARD1
  0
TEXT
  8
0
  6
CONTINUOUS
 62
256
 10
456.634399414062500
 20
-189.928207397460940
 40
3.299999952316284
  1
SCALE
 50
0.000002504478167
 41
0.821052645401140
  7
STANDARD1
  0
TEXT
  8
0
  6
CONTINUOUS
 62
256
 10
453.383026123046870
 20
-189.928207397460940
 40
3.299999952316284
  1
 
 50
0.000002504478167
 41
1.733333298293026
  7
STANDARD1
  0
TEXT
  8
0
  6
CONTINUOUS
 62
256
 10
468.237182617187500
 20
-184.628204345703120
 40
3.299999952316284
  1
1/240
 50
0.000002504478167
 41
0.821052645401140
  7
STANDARD1
  0
TEXT
  8
0
  6
CONTINUOUS
 62
256
 10
464.455200195312500
 20
-184.628204345703120
 40
3.299999952316284
  1
ü`
 50
0.000002504478167
 41
1.176000019651471
  7
STANDARD1
  0
TEXT
  8
0
  6
CONTINUOUS
 62
256
 10
453.383026123046870
 20
-184.628204345703120
 40
3.299999952316284
  1
1/80
 50
0.000002504478167
 41
0.832000075658163
  7
STANDARD1
  0
TEXT
  8
0
  6
CONTINUOUS
 62
256
 10
456.618896484375000
 20
-179.328201293945310
 40
3.299999952316284
  1
GM-SHY-RL
 50
0.000002504478167
 41
0.802285735636046
  7
STANDARD1
  0
TEXT
  8
0
  6
CONTINUOUS
 62
256
 10
453.383026123046870
 20
-179.328201293945310
 40
3.299999952316284
  1
 
 50
0.000002504478167
 41
1.733333298293026
  7
STANDARD1
  0
TEXT
  8
0
  6
CONTINUOUS
 62
256
 10
459.208404541015620
 20
-174.028213500976560
 40
3.299999952316284
  1
0.2kW
 50
0.000002504478167
 41
0.821052645401140
  7
STANDARD1
  0
TEXT
  8
0
  6
CONTINUOUS
 62
256
 10
453.383026123046870
 20
-174.028213500976560
 40
3.299999952316284
  1
  
 50
0.000002504478167
 41
1.485714400175845
  7
STANDARD1
  0
TEXT
  8
0
  6
CONTINUOUS
 62
256
 10
459.202514648437500
 20
-168.728210449218750
 40
3.299999952316284
  1
SHY043
 50
0.000002504478167
 41
0.813913121261144
  7
STANDARD1
  0
TEXT
  8
0
  6
CONTINUOUS
 62
256
 10
453.383026123046870
 20
-168.728210449218750
 40
3.299999952316284
  1
  
 50
0.000002504478167
 41
1.485714400175845
  7
STANDARD1
  0
LINE
  8
0
  6
DASHDOT
 62
256
 10
-91.784705000000002
 20
208.169631000000010
 11
207.553967000000000
 21
208.169631000000010
  0
ARC
  8
0
  6
CONTINUOUS
 62
256
 10
88.001874000000001
 20
237.169631000000010
 40
1.000000000000000
 50
90.000000000000000
 51
180.000000000000000
  0
ARC
  8
0
  6
CONTINUOUS
 62
256
 10
159.001873999999990
 20
237.169631000000010
 40
1.000000000000000
 50
0.000000000000000
 51
90.000000000000000
  0
LINE
  8
0
  6
CONTINUOUS
 62
256
 10
87.001874000000001
 20
237.169631000000010
 11
87.001874000000001
 21
208.169631000000010
  0
LINE
  8
0
  6
CONTINUOUS
 62
256
 10
160.001873999999990
 20
208.169631000000010
 11
160.001873999999990
 21
237.169631000000010
  0
LINE
  8
0
  6
CONTINUOUS
 62
256
 10
88.001874000000001
 20
238.169631000000010
 11
159.001873999999990
 21
238.169631000000010
  0
LINE
  8
0
  6
CONTINUOUS
 62
256
 10
86.001874000000001
 20
236.926027000000000
 11
69.001874000000001
 21
236.926027000000000
  0
LINE
  8
0
  6
CONTINUOUS
 62
256
 10
86.001874000000001
 20
235.447003999999990
 11
69.001874000000001
 21
235.447003999999990
  0
LINE
  8
0
  6
CONTINUOUS
 62
256
 10
86.001874000000001
 20
232.354273000000010
 11
69.001874000000001
 21
232.354273000000010
  0
LINE
  8
0
  6
CONTINUOUS
 62
256
 10
86.001874000000001
 20
231.007870999999990
 11
69.001874000000001
 21
231.007870999999990
  0
LINE
  8
0
  6
CONTINUOUS
 62
256
 10
86.001874000000001
 20
228.169631000000010
 11
69.001874000000001
 21
228.169631000000010
  0
LINE
  8
0
  6
CONTINUOUS
 62
256
 10
153.159473999999990
 20
248.210067000000010
 11
69.001874000000001
 21
248.210067000000010
  0
LINE
  8
0
  6
CONTINUOUS
 62
256
 10
153.001873999999990
 20
252.674286999999990
 11
69.001874000000001
 21
252.674286999999990
  0
LINE
  8
0
  6
CONTINUOUS
 62
256
 10
163.001873999999990
 20
231.007870999999990
 11
161.001873999999990
 21
231.007870999999990
  0
LINE
  8
0
  6
CONTINUOUS
 62
256
 10
163.001873999999990
 20
232.354273000000010
 11
161.001873999999990
 21
232.354273000000010
  0
LINE
  8
0
  6
CONTINUOUS
 62
256
 10
163.001873999999990
 20
235.447003999999990
 11
161.001873999999990
 21
235.447003999999990
  0
LINE
  8
0
  6
CONTINUOUS
 62
256
 10
163.001873999999990
 20
236.926027000000000
 11
161.001873999999990
 21
236.926027000000000
  0
LINE
  8
0
  6
CONTINUOUS
 62
256
 10
163.001873999999990
 20
239.884023000000010
 11
69.001874000000001
 21
239.884023000000010
  0
LINE
  8
0
  6
CONTINUOUS
 62
256
 10
163.001873999999990
 20
241.473232000000000
 11
69.001874000000001
 21
241.473232000000000
  0
LINE
  8
0
  6
CONTINUOUS
 62
256
 10
163.001873999999990
 20
228.169631000000010
 11
161.001873999999990
 21
228.169631000000010
  0
LINE
  8
0
  6
CONTINUOUS
 62
256
 10
153.001873999999990
 20
249.211545000000000
 11
69.001874000000001
 21
249.211545000000000
  0
LINE
  8
0
  6
CONTINUOUS
 62
256
 10
153.001873999999990
 20
254.302714000000010
 11
69.001874000000001
 21
254.302714000000010
  0
LINE
  8
0
  6
CONTINUOUS
 62
256
 10
153.001873999999990
 20
259.169630999999980
 11
69.001874000000001
 21
259.169630999999980
  0
LINE
  8
0
  6
CONTINUOUS
 62
256
 10
153.001873999999990
 20
258.669630999999980
 11
69.001874000000001
 21
258.669630999999980
  0
ARC
  8
0
  6
CONTINUOUS
 62
256
 10
159.001873999999990
 20
237.669631000000010
 40
2.000000000000000
 50
0.000000000000000
 51
90.000000000000000
  0
ARC
  8
0
  6
CONTINUOUS
 62
256
 10
88.001874000000001
 20
237.669631000000010
 40
2.000000000000000
 50
90.000000000000000
 51
180.000000000000000
  0
LINE
  8
0
  6
CONTINUOUS
 62
256
 10
88.001874000000001
 20
239.669631000000010
 11
159.001873999999990
 21
239.669631000000010
  0
LINE
  8
0
  6
CONTINUOUS
 62
256
 10
86.001874000000001
 20
208.169631000000010
 11
86.001874000000001
 21
237.669631000000010
  0
LINE
  8
0
  6
CONTINUOUS
 62
256
 10
161.001873999999990
 20
208.169631000000010
 11
161.001873999999990
 21
237.669631000000010
  0
LINE
  8
0
  6
CONTINUOUS
 62
256
 10
69.001874000000001
 20
260.669630999999980
 11
153.001873999999990
 21
260.669630999999980
  0
LINE
  8
0
  6
CONTINUOUS
 62
256
 10
69.001874000000001
 20
208.169631000000010
 11
69.001874000000001
 21
260.669630999999980
  0
LINE
  8
0
  6
CONTINUOUS
 62
256
 10
153.001873999999990
 20
262.169630999999980
 11
182.506719000000000
 21
262.169630999999980
  0
LINE
  8
0
  6
CONTINUOUS
 62
256
 10
194.322394000000000
 20
258.444164000000000
 11
201.893172999999990
 21
253.143047000000000
  0
LINE
  8
0
  6
CONTINUOUS
 62
256
 10
203.001873999999990
 20
251.013251999999990
 11
203.001873999999990
 21
208.169631000000010
  0
ARC
  8
0
  6
CONTINUOUS
 62
256
 10
200.401873999999990
 20
251.013251999999990
 40
2.599999999999994
 50
0.000000000000000
 51
54.999999999999801
  0
ARC
  8
0
  6
CONTINUOUS
 62
256
 10
182.506719000000000
 20
241.569630999999990
 40
20.600000000000012
 50
55.000000000000050
 51
90.000000000000000
  0
LINE
  8
0
  6
CONTINUOUS
 62
256
 10
164.001873999999990
 20
257.313553000000010
 11
166.001873999999990
 21
255.660911000000000
  0
LINE
  8
0
  6
CONTINUOUS
 62
256
 10
162.001873999999990
 20
258.489337999999980
 11
164.001873999999990
 21
257.313553000000010
  0
LINE
  8
0
  6
CONTINUOUS
 62
256
 10
164.001873999999990
 20
257.313553000000010
 11
162.001873999999990
 21
255.660911000000000
  0
LINE
  8
0
  6
CONTINUOUS
 62
256
 10
166.001873999999990
 20
258.489337999999980
 11
164.001873999999990
 21
257.313553000000010
  0
POLYLINE
  8
0
  6
CONTINUOUS
 62
256
 66
1
 70
1
  0
VERTEX
  8
0
  6
CONTINUOUS
 62
256
 10
168.701873999999980
 20
255.496962000000000
  0
VERTEX
  8
0
  6
CONTINUOUS
 62
256
 10
168.611564817895160
 20
256.199918510558180
  0
VERTEX
  8
0
  6
CONTINUOUS
 62
256
 10
168.344107802803020
 20
256.875860796638110
  0
VERTEX
  8
0
  6
CONTINUOUS
 62
256
 10
167.909781177821940
 20
257.498812775258670
  0
VERTEX
  8
0
  6
CONTINUOUS
 62
256
 10
167.325275871576760
 20
258.044834751236810
  0
VERTEX
  8
0
  6
CONTINUOUS
 62
256
 10
166.613054095192100
 20
258.492943406248460
  0
VERTEX
  8
0
  6
CONTINUOUS
 62
256
 10
165.800486132115910
 20
258.825918175983700
  0
VERTEX
  8
0
  6
CONTINUOUS
 62
256
 10
164.918798513475790
 20
259.030963026776020
  0
VERTEX
  8
0
  6
CONTINUOUS
 62
256
 10
164.001873999999990
 20
259.100198199999970
  0
VERTEX
  8
0
  6
CONTINUOUS
 62
256
 10
163.084949486524180
 20
259.030963026776020
  0
VERTEX
  8
0
  6
CONTINUOUS
 62
256
 10
162.203261867884070
 20
258.825918175983700
  0
VERTEX
  8
0
  6
CONTINUOUS
 62
256
 10
161.390693904807880
 20
258.492943406248460
  0
VERTEX
  8
0
  6
CONTINUOUS
 62
256
 10
160.678472128423210
 20
258.044834751236810
  0
VERTEX
  8
0
  6
CONTINUOUS
 62
256
 10
160.093966822178030
 20
257.498812775258670
  0
VERTEX
  8
0
  6
CONTINUOUS
 62
256
 10
159.659640197196950
 20
256.875860796638110
  0
VERTEX
  8
0
  6
CONTINUOUS
 62
256
 10
159.392183182104820
 20
256.199918510558180
  0
VERTEX
  8
0
  6
CONTINUOUS
 62
256
 10
159.301874000000000
 20
255.496962000000000
  0
VERTEX
  8
0
  6
CONTINUOUS
 62
256
 10
159.392183182104820
 20
254.794005489441840
  0
VERTEX
  8
0
  6
CONTINUOUS
 62
256
 10
159.659640197196950
 20
254.118063203361860
  0
VERTEX
  8
0
  6
CONTINUOUS
 62
256
 10
160.093966822178030
 20
253.495111224741350
  0
VERTEX
  8
0
  6
CONTINUOUS
 62
256
 10
160.678472128423210
 20
252.949089248763190
  0
VERTEX
  8
0
  6
CONTINUOUS
 62
256
 10
161.390693904807880
 20
252.500980593751540
  0
VERTEX
  8
0
  6
CONTINUOUS
 62
256
 10
162.203261867884070
 20
252.168005824016290
  0
VERTEX
  8
0
  6
CONTINUOUS
 62
256
 10
163.084949486524180
 20
251.962960973223970
  0
VERTEX
  8
0
  6
CONTINUOUS
 62
256
 10
164.001873999999990
 20
251.893725800000030
  0
VERTEX
  8
0
  6
CONTINUOUS
 62
256
 10
164.918798513475790
 20
251.962960973223970
  0
VERTEX
  8
0
  6
CONTINUOUS
 62
256
 10
165.800486132115910
 20
252.168005824016290
  0
VERTEX
  8
0
  6
CONTINUOUS
 62
256
 10
166.613054095192100
 20
252.500980593751540
  0
VERTEX
  8
0
  6
CONTINUOUS
 62
256
 10
167.325275871576740
 20
252.949089248763160
  0
VERTEX
  8
0
  6
CONTINUOUS
 62
256
 10
167.909781177821940
 20
253.495111224741350
  0
VERTEX
  8
0
  6
CONTINUOUS
 62
256
 10
168.344107802803020
 20
254.118063203361860
  0
VERTEX
  8
0
  6
CONTINUOUS
 62
256
 10
168.611564817895160
 20
254.794005489441840
  0
SEQEND
  8
0
  6
CONTINUOUS
 62
256
  0
ARC
  8
0
  6
CONTINUOUS
 62
256
 10
156.001873999999990
 20
249.169631000000010
 40
3.000000000000000
 50
180.000000000000000
 51
270.000000000000000
  0
LINE
  8
0
  6
CONTINUOUS
 62
256
 10
153.001873999999990
 20
262.169630999999980
 11
153.001873999999990
 21
249.169631000000010
  0
ARC
  8
0
  6
CONTINUOUS
 62
256
 10
160.001873999999990
 20
243.169631000000010
 40
3.000000000000000
 50
0.000000000000000
 51
90.000000000000000
  0
LINE
  8
0
  6
CONTINUOUS
 62
256
 10
156.001873999999990
 20
246.169631000000010
 11
160.001873999999990
 21
246.169631000000010
  0
LINE
  8
0
  6
CONTINUOUS
 62
256
 10
163.001873999999990
 20
208.169631000000010
 11
163.001873999999990
 21
243.169631000000010
  0
LINE
  8
0
  6
CONTINUOUS
 62
256
 10
87.001874000000001
 20
179.169631000000010
 11
87.001874000000001
 21
208.169631000000010
  0
LINE
  8
0
  6
CONTINUOUS
 62
256
 10
160.001873999999990
 20
208.169631000000010
 11
160.001873999999990
 21
179.169631000000010
  0
LINE
  8
0
  6
CONTINUOUS
 62
256
 10
194.322394000000000
 20
157.895098999999990
 11
201.893172999999990
 21
163.196215999999990
  0
LINE
  8
0
  6
CONTINUOUS
 62
256
 10
203.001873999999990
 20
165.326010999999990
 11
203.001873999999990
 21
208.169631000000010
  0
ARC
  8
0
  6
CONTINUOUS
 62
256
 10
200.401873999999990
 20
165.326010999999990
 40
2.599999999999996
 50
305.000000000000230
 51
0.000000000000000
  0
ARC
  8
0
  6
CONTINUOUS
 62
256
 10
182.506719000000000
 20
174.769631000000000
 40
20.599999999999994
 50
270.000000000000000
 51
305.000000000000000
  0
LINE
  8
0
  6
CONTINUOUS
 62
256
 10
153.001873999999990
 20
154.169631000000010
 11
182.506719000000000
 21
154.169631000000010
  0
LINE
  8
0
  6
CONTINUOUS
 62
256
 10
163.001873999999990
 20
188.169631000000010
 11
161.001873999999990
 21
188.169631000000010
  0
LINE
  8
0
  6
CONTINUOUS
 62
256
 10
163.001873999999990
 20
185.331391999999990
 11
161.001873999999990
 21
185.331391999999990
  0
LINE
  8
0
  6
CONTINUOUS
 62
256
 10
163.001873999999990
 20
183.984990000000010
 11
161.001873999999990
 21
183.984990000000010
  0
LINE
  8
0
  6
CONTINUOUS
 62
256
 10
163.001873999999990
 20
180.892259000000000
 11
161.001873999999990
 21
180.892259000000000
  0
LINE
  8
0
  6
CONTINUOUS
 62
256
 10
163.001873999999990
 20
179.413236000000010
 11
161.001873999999990
 21
179.413236000000010
  0
LINE
  8
0
  6
CONTINUOUS
 62
256
 10
163.001873999999990
 20
176.455240000000000
 11
69.001874000000001
 21
176.455240000000000
  0
LINE
  8
0
  6
CONTINUOUS
 62
256
 10
163.001873999999990
 20
174.866030999999990
 11
69.001874000000001
 21
174.866030999999990
  0
LINE
  8
0
  6
CONTINUOUS
 62
256
 10
153.159473999999990
 20
168.129196000000010
 11
69.001874000000001
 21
168.129196000000010
  0
LINE
  8
0
  6
CONTINUOUS
 62
256
 10
153.001873999999990
 20
167.127717999999990
 11
69.001874000000001
 21
167.127717999999990
  0
LINE
  8
0
  6
CONTINUOUS
 62
256
 10
153.001873999999990
 20
163.664976000000000
 11
69.001874000000001
 21
163.664976000000000
  0
LINE
  8
0
  6
CONTINUOUS
 62
256
 10
153.001873999999990
 20
162.036549000000010
 11
69.001874000000001
 21
162.036549000000010
  0
LINE
  8
0
  6
CONTINUOUS
 62
256
 10
153.001873999999990
 20
157.169631000000010
 11
69.001874000000001
 21
157.169631000000010
  0
LINE
  8
0
  6
CONTINUOUS
 62
256
 10
153.001873999999990
 20
157.669631000000010
 11
69.001874000000001
 21
157.669631000000010
  0
LINE
  8
0
  6
CONTINUOUS
 62
256
 10
69.001874000000001
 20
155.669631000000010
 11
153.001873999999990
 21
155.669631000000010
  0
LINE
  8
0
  6
CONTINUOUS
 62
256
 10
164.001873999999990
 20
159.025710000000000
 11
166.001873999999990
 21
160.678351999999990
  0
LINE
  8
0
  6
CONTINUOUS
 62
256
 10
162.001873999999990
 20
157.849925000000010
 11
164.001873999999990
 21
159.025710000000000
  0
LINE
  8
0
  6
CONTINUOUS
 62
256
 10
164.001873999999990
 20
159.025710000000000
 11
162.001873999999990
 21
160.678351999999990
  0
LINE
  8
0
  6
CONTINUOUS
 62
256
 10
166.001873999999990
 20
157.849925000000010
 11
164.001873999999990
 21
159.025710000000000
  0
POLYLINE
  8
0
  6
CONTINUOUS
 62
256
 66
1
 70
1
  0
VERTEX
  8
0
  6
CONTINUOUS
 62
256
 10
168.701873999999980
 20
160.842300999999990
  0
VERTEX
  8
0
  6
CONTINUOUS
 62
256
 10
168.611564817895160
 20
161.545257510558170
  0
VERTEX
  8
0
  6
CONTINUOUS
 62
256
 10
168.344107802803020
 20
162.221199796638130
  0
VERTEX
  8
0
  6
CONTINUOUS
 62
256
 10
167.909781177821940
 20
162.844151775258670
  0
VERTEX
  8
0
  6
CONTINUOUS
 62
256
 10
167.325275871576760
 20
163.390173751236830
  0
VERTEX
  8
0
  6
CONTINUOUS
 62
256
 10
166.613054095192100
 20
163.838282406248480
  0
VERTEX
  8
0
  6
CONTINUOUS
 62
256
 10
165.800486132115910
 20
164.171257175983730
  0
VERTEX
  8
0
  6
CONTINUOUS
 62
256
 10
164.918798513475790
 20
164.376302026776070
  0
VERTEX
  8
0
  6
CONTINUOUS
 62
256
 10
164.001873999999990
 20
164.445537199999990
  0
VERTEX
  8
0
  6
CONTINUOUS
 62
256
 10
163.084949486524180
 20
164.376302026776070
  0
VERTEX
  8
0
  6
CONTINUOUS
 62
256
 10
162.203261867884070
 20
164.171257175983730
  0
VERTEX
  8
0
  6
CONTINUOUS
 62
256
 10
161.390693904807880
 20
163.838282406248480
  0
VERTEX
  8
0
  6
CONTINUOUS
 62
256
 10
160.678472128423210
 20
163.390173751236830
  0
VERTEX
  8
0
  6
CONTINUOUS
 62
256
 10
160.093966822178030
 20
162.844151775258670
  0
VERTEX
  8
0
  6
CONTINUOUS
 62
256
 10
159.659640197196950
 20
162.221199796638130
  0
VERTEX
  8
0
  6
CONTINUOUS
 62
256
 10
159.392183182104820
 20
161.545257510558170
  0
VERTEX
  8
0
  6
CONTINUOUS
 62
256
 10
159.301874000000000
 20
160.842300999999990
  0
VERTEX
  8
0
  6
CONTINUOUS
 62
256
 10
159.392183182104820
 20
160.139344489441810
  0
VERTEX
  8
0
  6
CONTINUOUS
 62
256
 10
159.659640197196950
 20
159.463402203361850
  0
VERTEX
  8
0
  6
CONTINUOUS
 62
256
 10
160.093966822178030
 20
158.840450224741320
  0
VERTEX
  8
0
  6
CONTINUOUS
 62
256
 10
160.678472128423210
 20
158.294428248763150
  0
VERTEX
  8
0
  6
CONTINUOUS
 62
256
 10
161.390693904807880
 20
157.846319593751500
  0
VERTEX
  8
0
  6
CONTINUOUS
 62
256
 10
162.203261867884070
 20
157.513344824016260
  0
VERTEX
  8
0
  6
CONTINUOUS
 62
256
 10
163.084949486524180
 20
157.308299973223940
  0
VERTEX
  8
0
  6
CONTINUOUS
 62
256
 10
164.001873999999990
 20
157.239064799999990
  0
VERTEX
  8
0
  6
CONTINUOUS
 62
256
 10
164.918798513475790
 20
157.308299973223940
  0
VERTEX
  8
0
  6
CONTINUOUS
 62
256
 10
165.800486132115910
 20
157.513344824016260
  0
VERTEX
  8
0
  6
CONTINUOUS
 62
256
 10
166.613054095192100
 20
157.846319593751500
  0
VERTEX
  8
0
  6
CONTINUOUS
 62
256
 10
167.325275871576740
 20
158.294428248763150
  0
VERTEX
  8
0
  6
CONTINUOUS
 62
256
 10
167.909781177821940
 20
158.840450224741320
  0
VERTEX
  8
0
  6
CONTINUOUS
 62
256
 10
168.344107802803020
 20
159.463402203361850
  0
VERTEX
  8
0
  6
CONTINUOUS
 62
256
 10
168.611564817895160
 20
160.139344489441810
  0
SEQEND
  8
0
  6
CONTINUOUS
 62
256
  0
ARC
  8
0
  6
CONTINUOUS
 62
256
 10
156.001873999999990
 20
167.169631000000010
 40
3.000000000000000
 50
90.000000000000000
 51
180.000000000000000
  0
LINE
  8
0
  6
CONTINUOUS
 62
256
 10
153.001873999999990
 20
154.169631000000010
 11
153.001873999999990
 21
167.169631000000010
  0
ARC
  8
0
  6
CONTINUOUS
 62
256
 10
160.001873999999990
 20
173.169631000000010
 40
3.000000000000000
 50
270.000000000000000
 51
0.000000000000000
  0
LINE
  8
0
  6
CONTINUOUS
 62
256
 10
156.001873999999990
 20
170.169631000000010
 11
160.001873999999990
 21
170.169631000000010
  0
LINE
  8
0
  6
CONTINUOUS
 62
256
 10
163.001873999999990
 20
208.169631000000010
 11
163.001873999999990
 21
173.169631000000010
  0
ARC
  8
0
  6
CONTINUOUS
 62
256
 10
88.001874000000001
 20
179.169631000000010
 40
1.000000000000000
 50
180.000000000000000
 51
270.000000000000000
  0
ARC
  8
0
  6
CONTINUOUS
 62
256
 10
159.001873999999990
 20
179.169631000000010
 40
1.000000000000000
 50
270.000000000000000
 51
0.000000000000000
  0
LINE
  8
0
  6
CONTINUOUS
 62
256
 10
88.001874000000001
 20
178.169631000000010
 11
159.001873999999990
 21
178.169631000000010
  0
LINE
  8
0
  6
CONTINUOUS
 62
256
 10
86.001874000000001
 20
179.413236000000010
 11
69.001874000000001
 21
179.413236000000010
  0
LINE
  8
0
  6
CONTINUOUS
 62
256
 10
86.001874000000001
 20
180.892259000000000
 11
69.001874000000001
 21
180.892259000000000
  0
LINE
  8
0
  6
CONTINUOUS
 62
256
 10
86.001874000000001
 20
183.984990000000010
 11
69.001874000000001
 21
183.984990000000010
  0
LINE
  8
0
  6
CONTINUOUS
 62
256
 10
86.001874000000001
 20
185.331391999999990
 11
69.001874000000001
 21
185.331391999999990
  0
LINE
  8
0
  6
CONTINUOUS
 62
256
 10
86.001874000000001
 20
188.169631000000010
 11
69.001874000000001
 21
188.169631000000010
  0
ARC
  8
0
  6
CONTINUOUS
 62
256
 10
159.001873999999990
 20
178.669631000000010
 40
2.000000000000000
 50
270.000000000000000
 51
0.000000000000000
  0
ARC
  8
0
  6
CONTINUOUS
 62
256
 10
88.001874000000001
 20
178.669631000000010
 40
2.000000000000000
 50
180.000000000000000
 51
270.000000000000000
  0
LINE
  8
0
  6
CONTINUOUS
 62
256
 10
88.001874000000001
 20
176.669631000000010
 11
159.001873999999990
 21
176.669631000000010
  0
LINE
  8
0
  6
CONTINUOUS
 62
256
 10
86.001874000000001
 20
208.169631000000010
 11
86.001874000000001
 21
178.669631000000010
  0
LINE
  8
0
  6
CONTINUOUS
 62
256
 10
161.001873999999990
 20
208.169631000000010
 11
161.001873999999990
 21
178.669631000000010
  0
LINE
  8
0
  6
CONTINUOUS
 62
256
 10
69.001874000000001
 20
208.169631000000010
 11
69.001874000000001
 21
155.669631000000010
  0
ARC
  8
0
  6
CONTINUOUS
 62
256
 10
-18.998125999999999
 20
130.169631000000010
 40
4.000000000000000
 50
0.000000000000000
 51
180.000000000000000
  0
LINE
  8
0
  6
DASHDOT
 62
256
 10
-18.998125999999999
 20
279.731110000000000
 11
-18.998125999999999
 21
91.424052000000003
  0
LINE
  8
0
  6
CONTINUOUS
 62
256
 10
-4.998126000000000
 20
139.169631000000010
 11
-4.998126000000000
 21
94.169630999999995
  0
LINE
  8
0
  6
CONTINUOUS
 62
256
 10
-22.998125999999999
 20
130.169631000000010
 11
-14.998125999999999
 21
130.169631000000010
  0
LINE
  8
0
  6
CONTINUOUS
 62
256
 10
-32.998125999999999
 20
139.169631000000010
 11
-32.998125999999999
 21
94.169630999999995
  0
LINE
  8
0
  6
CONTINUOUS
 62
256
 10
-4.998126000000000
 20
94.169630999999995
 11
-32.998125999999999
 21
94.169630999999995
  0
LINE
  8
0
  6
CONTINUOUS
 62
256
 10
-18.998125999999999
 20
139.169631000000010
 11
-33.498125999999999
 21
139.169631000000010
  0
LINE
  8
0
  6
CONTINUOUS
 62
256
 10
-18.998125999999999
 20
139.169631000000010
 11
-33.498125999999999
 21
139.169631000000010
  0
LINE
  8
0
  6
CONTINUOUS
 62
256
 10
-33.498125999999999
 20
139.169631000000010
 11
-33.498125999999999
 21
141.169631000000010
  0
LINE
  8
0
  6
CONTINUOUS
 62
256
 10
-18.998125999999999
 20
139.169631000000010
 11
-4.498126000000000
 21
139.169631000000010
  0
LINE
  8
0
  6
CONTINUOUS
 62
256
 10
-18.998125999999999
 20
139.169631000000010
 11
-4.498126000000000
 21
139.169631000000010
  0
LINE
  8
0
  6
CONTINUOUS
 62
256
 10
-4.498126000000000
 20
139.169631000000010
 11
-4.498126000000000
 21
141.169631000000010
  0
LINE
  8
0
  6
CONTINUOUS
 62
256
 10
-22.998125999999999
 20
130.169631000000010
 11
-22.998125999999999
 21
94.169630999999995
  0
LINE
  8
0
  6
CONTINUOUS
 62
256
 10
-14.998125999999999
 20
130.169631000000010
 11
-14.998125999999999
 21
94.169630999999995
  0
LINE
  8
0
  6
CONTINUOUS
 62
256
 10
53.598120999999999
 20
261.937387000000000
 11
69.001874000000001
 21
261.669630999999980
  0
ARC
  8
0
  6
CONTINUOUS
 62
256
 10
54.001874000000001
 20
157.374582000000000
 40
3.000000000000000
 50
180.000000000000000
 51
270.995842999999920
  0
LINE
  8
0
  6
CONTINUOUS
 62
256
 10
53.598120999999999
 20
154.401875999999990
 11
69.001874000000001
 21
154.669631000000010
  0
LINE
  8
0
  6
CONTINUOUS
 62
256
 10
42.622920000000001
 20
166.169402999999990
 11
48.001874000000001
 21
166.169402999999990
  0
ARC
  8
0
  6
CONTINUOUS
 62
256
 10
48.001874000000001
 20
163.169402999999990
 40
3.000000000000000
 50
0.000000000000000
 51
90.000000000000000
  0
ARC
  8
0
  6
CONTINUOUS
 62
256
 10
48.001874000000001
 20
247.169631000000010
 40
3.000000000000000
 50
270.000000000000000
 51
0.000000000000000
  0
LINE
  8
0
  6
CONTINUOUS
 62
256
 10
48.001874000000001
 20
244.169631000000010
 11
45.001852999999997
 21
244.169631000000010
  0
ARC
  8
0
  6
CONTINUOUS
 62
256
 10
45.001852999999997
 20
245.169631000000010
 40
1.000000000000000
 50
180.000000000000000
 51
270.000000000000000
  0
LINE
  8
0
  6
CONTINUOUS
 62
256
 10
69.001874000000001
 20
208.169631000000010
 11
69.001874000000001
 21
261.669630999999980
  0
LINE
  8
0
  6
CONTINUOUS
 62
256
 10
69.001874000000001
 20
208.169631000000010
 11
69.001874000000001
 21
154.669631000000010
  0
LINE
  8
0
  6
CONTINUOUS
 62
256
 10
65.001874000000001
 20
188.169631000000010
 11
69.001874000000001
 21
188.169631000000010
  0
LINE
  8
0
  6
CONTINUOUS
 62
256
 10
65.001874000000001
 20
228.169631000000010
 11
69.001874000000001
 21
228.169631000000010
  0
LINE
  8
0
  6
CONTINUOUS
 62
256
 10
51.001874000000001
 20
258.964680999999980
 11
51.001874000000001
 21
157.374582000000000
  0
LINE
  8
0
  6
CONTINUOUS
 62
256
 10
54.001874000000001
 20
174.277466000000000
 11
62.001874000000001
 21
174.277466000000000
  0
LINE
  8
0
  6
CONTINUOUS
 62
256
 10
63.001874000000001
 20
166.739980000000000
 11
56.001874000000001
 21
166.739980000000000
  0
LINE
  8
0
  6
CONTINUOUS
 62
256
 10
65.001874000000001
 20
208.169631000000010
 11
65.001874000000001
 21
168.739980000000000
  0
LINE
  8
0
  6
CONTINUOUS
 62
256
 10
62.001874000000001
 20
163.669631000000010
 11
56.001874000000001
 21
163.669631000000010
  0
LINE
  8
0
  6
CONTINUOUS
 62
256
 10
65.001874000000001
 20
160.669631000000010
 11
65.001874000000001
 21
156.617571000000000
  0
LINE
  8
0
  6
CONTINUOUS
 62
256
 10
65.001874000000001
 20
255.669631000000010
 11
65.001874000000001
 21
259.721692000000020
  0
LINE
  8
0
  6
CONTINUOUS
 62
256
 10
62.001874000000001
 20
252.669631000000010
 11
56.001874000000001
 21
252.669631000000010
  0
LINE
  8
0
  6
CONTINUOUS
 62
256
 10
63.001874000000001
 20
249.599283000000010
 11
56.001874000000001
 21
249.599283000000010
  0
LINE
  8
0
  6
CONTINUOUS
 62
256
 10
54.001874000000001
 20
242.061797000000010
 11
62.001874000000001
 21
242.061797000000010
  0
LINE
  8
0
  6
CONTINUOUS
 62
256
 10
65.001874000000001
 20
208.169631000000010
 11
65.001874000000001
 21
247.599283000000010
  0
ARC
  8
0
  6
CONTINUOUS
 62
256
 10
54.001874000000001
 20
258.964680999999980
 40
2.999999999999985
 50
89.004157000000049
 51
180.000000000000000
  0
ARC
  8
0
  6
CONTINUOUS
 62
256
 10
56.001874000000001
 20
171.739980000000000
 40
5.000000000000000
 50
180.000000000000000
 51
270.000000000000000
  0
ARC
  8
0
  6
CONTINUOUS
 62
256
 10
56.001874000000001
 20
168.669631000000010
 40
5.000000000000000
 50
180.000000000000000
 51
270.000000000000000
  0
ARC
  8
0
  6
CONTINUOUS
 62
256
 10
56.001874000000001
 20
244.599283000000010
 40
5.000000000000000
 50
90.000000000000000
 51
180.000000000000000
  0
ARC
  8
0
  6
CONTINUOUS
 62
256
 10
56.001874000000001
 20
247.669631000000010
 40
5.000000000000000
 50
90.000000000000000
 51
180.000000000000000
  0
ARC
  8
0
  6
CONTINUOUS
 62
256
 10
54.001874000000001
 20
177.277466000000000
 40
3.000000000000000
 50
180.000000000000000
 51
270.000000000000000
  0
ARC
  8
0
  6
CONTINUOUS
 62
256
 10
54.001874000000001
 20
239.061797000000010
 40
3.000000000000000
 50
90.000000000000000
 51
180.000000000000000
  0
ARC
  8
0
  6
CONTINUOUS
 62
256
 10
63.001874000000001
 20
168.739980000000000
 40
2.000000000000000
 50
270.000000000000000
 51
0.000000000000000
  0
ARC
  8
0
  6
CONTINUOUS
 62
256
 10
62.001874000000001
 20
160.669631000000010
 40
3.000000000000000
 50
0.000000000000000
 51
90.000000000000000
  0
ARC
  8
0
  6
CONTINUOUS
 62
256
 10
62.001874000000001
 20
177.277466000000000
 40
3.000000000000000
 50
270.000000000000000
 51
0.000000000000000
  0
ARC
  8
0
  6
CONTINUOUS
 62
256
 10
67.001874000000001
 20
156.617571000000000
 40
2.000000000000000
 50
180.000000000000000
 51
271.000000000000110
  0
ARC
  8
0
  6
CONTINUOUS
 62
256
 10
67.001874000000001
 20
259.721692000000020
 40
2.000000000000026
 50
88.999999999999872
 51
180.000000000000000
  0
ARC
  8
0
  6
CONTINUOUS
 62
256
 10
62.001874000000001
 20
239.061797000000010
 40
3.000000000000000
 50
0.000000000000000
 51
90.000000000000000
  0
ARC
  8
0
  6
CONTINUOUS
 62
256
 10
63.001874000000001
 20
247.599283000000010
 40
2.000000000000000
 50
0.000000000000000
 51
90.000000000000000
  0
ARC
  8
0
  6
CONTINUOUS
 62
256
 10
62.001874000000001
 20
255.669631000000010
 40
3.000000000000000
 50
270.000000000000000
 51
0.000000000000000
  0
ARC
  8
0
  6
CONTINUOUS
 62
256
 10
40.530130000000000
 20
272.169630999999980
 40
2.999999999999996
 50
0.999999999999605
 51
90.000000000000000
  0
LINE
  8
0
  6
CONTINUOUS
 62
256
 10
44.001874000000001
 20
245.169631000000010
 11
43.529673000000003
 21
272.221989000000010
  0
LINE
  8
0
  6
CONTINUOUS
 62
256
 10
-82.526381999999998
 20
275.169630999999980
 11
40.530130000000000
 21
275.169630999999980
  0
ARC
  8
0
  6
CONTINUOUS
 62
256
 10
-82.526381999999998
 20
272.169630999999980
 40
3.000000000000000
 50
90.000000000000000
 51
179.000000000000400
  0
LINE
  8
0
  6
CONTINUOUS
 62
256
 10
-85.525925000000001
 20
272.221989000000010
 11
-85.998125999999999
 21
245.169631000000010
  0
ARC
  8
0
  6
CONTINUOUS
 62
256
 10
-81.234707000000000
 20
144.169631000000010
 40
2.999999999999997
 50
181.000000000000140
 51
270.000000000000000
  0
LINE
  8
0
  6
CONTINUOUS
 62
256
 10
-81.234707000000000
 20
141.169631000000010
 11
39.238455999999999
 21
141.169631000000010
  0
LINE
  8
0
  6
CONTINUOUS
 62
256
 10
-85.998125999999999
 20
245.169631000000010
 11
-84.234250000000003
 21
144.117274000000010
  0
ARC
  8
0
  6
CONTINUOUS
 62
256
 10
39.238455999999999
 20
144.169631000000010
 40
3.000000000000000
 50
270.000000000000000
 51
358.999999999999830
  0
LINE
  8
0
  6
CONTINUOUS
 62
256
 10
44.001874000000001
 20
245.169631000000010
 11
42.237999000000002
 21
144.117274000000010
  0
ARC
  8
0
  6
CONTINUOUS
 62
256
 10
-84.875793000000002
 20
252.169348000000010
 40
1.000000000000000
 50
90.000000000000000
 51
178.999999999999860
  0
LINE
  8
0
  6
CONTINUOUS
 62
256
 10
-84.875793000000002
 20
253.169348000000010
 11
-64.543886999999998
 21
253.169348000000010
  0
ARC
  8
0
  6
CONTINUOUS
 62
256
 10
-81.671083999999993
 20
169.169631000000010
 40
2.999999999999997
 50
181.000000000000140
 51
270.000000000000000
  0
LINE
  8
0
  6
CONTINUOUS
 62
256
 10
-81.671083999999993
 20
166.169631000000010
 11
39.674832000000002
 21
166.169631000000010
  0
LINE
  8
0
  6
CONTINUOUS
 62
256
 10
-85.998125999999999
 20
245.169631000000010
 11
44.001874000000001
 21
245.169631000000010
  0
LINE
  8
0
  6
CONTINUOUS
 62
256
 10
7.501874000000000
 20
143.669402999999990
 11
7.501874000000000
 21
141.469403000000000
  0
LINE
  8
0
  6
CONTINUOUS
 62
256
 10
-45.498125999999999
 20
143.669402999999990
 11
-45.498125999999999
 21
141.469403000000000
  0
LINE
  8
0
  6
CONTINUOUS
 62
256
 10
-54.392664000000003
 20
143.669402999999990
 11
-18.998125999999999
 21
143.669402999999990
  0
LINE
  8
0
  6
CONTINUOUS
 62
256
 10
16.396412000000002
 20
143.669402999999990
 11
-18.998125999999999
 21
143.669402999999990
  0
LINE
  8
0
  6
CONTINUOUS
 62
256
 10
-45.498125999999999
 20
272.669630999999980
 11
-45.498125999999999
 21
274.769631000000000
  0
LINE
  8
0
  6
CONTINUOUS
 62
256
 10
7.501874000000000
 20
272.669630999999980
 11
7.501874000000000
 21
274.769631000000000
  0
LINE
  8
0
  6
CONTINUOUS
 62
256
 10
-54.392664000000003
 20
272.669630999999980
 11
-18.998125999999999
 21
272.669630999999980
  0
LINE
  8
0
  6
CONTINUOUS
 62
256
 10
-18.998125999999999
 20
272.669630999999980
 11
16.396412000000002
 21
272.669630999999980
  0
LINE
  8
0
  6
CONTINUOUS
 62
256
 10
-57.347087000000002
 20
146.148458000000010
 11
-59.623348000000000
 21
159.057778000000010
  0
ARC
  8
0
  6
CONTINUOUS
 62
256
 10
16.396412000000002
 20
146.669402999999990
 40
3.000000000000000
 50
270.000000000000000
 51
349.999999999999830
  0
LINE
  8
0
  6
CONTINUOUS
 62
256
 10
7.501874000000000
 20
141.469403000000000
 11
7.201874000000000
 21
141.169402999999990
  0
LINE
  8
0
  6
CONTINUOUS
 62
256
 10
19.350835000000000
 20
146.148458000000010
 11
21.623595999999999
 21
159.037927000000000
  0
ARC
  8
0
  6
CONTINUOUS
 62
256
 10
-54.392664000000003
 20
146.669402999999990
 40
3.000000000000001
 50
190.000000000000200
 51
270.000000000000000
  0
LINE
  8
0
  6
CONTINUOUS
 62
256
 10
-45.498125999999999
 20
141.469403000000000
 11
-45.198126000000002
 21
141.169402999999990
  0
LINE
  8
0
  6
CONTINUOUS
 62
256
 10
42.879541000000003
 20
253.169348000000010
 11
-64.543886999999998
 21
253.169348000000010
  0
LINE
  8
0
  6
CONTINUOUS
 62
256
 10
-57.347087000000002
 20
270.190576000000020
 11
-58.849558999999999
 21
261.669630999999980
  0
LINE
  8
0
  6
CONTINUOUS
 62
256
 10
-57.435250000000003
 20
269.690576000000020
 11
-58.849558999999999
 21
261.669630999999980
  0
ARC
  8
0
  6
CONTINUOUS
 62
256
 10
42.879541000000003
 20
252.169348000000010
 40
0.999999999999999
 50
1.000000000000148
 51
90.000000000000000
  0
ARC
  8
0
  6
CONTINUOUS
 62
256
 10
-54.392664000000003
 20
269.669630999999980
 40
3.000000000000000
 50
90.000000000000000
 51
170.000000000000340
  0
LINE
  8
0
  6
CONTINUOUS
 62
256
 10
-45.098126000000001
 20
275.169630999999980
 11
-45.498125999999999
 21
274.769631000000000
  0
LINE
  8
0
  6
CONTINUOUS
 62
256
 10
7.101874000000000
 20
275.169630999999980
 11
7.501874000000000
 21
274.769631000000000
  0
ARC
  8
0
  6
CONTINUOUS
 62
256
 10
-64.543886999999998
 20
258.169348000000010
 40
5.000000000000000
 50
270.000000000000000
 51
350.000000000000110
  0
LINE
  8
0
  6
CONTINUOUS
 62
256
 10
-58.849558999999999
 20
261.669630999999980
 11
-59.619847999999998
 21
257.301107000000000
  0
ARC
  8
0
  6
CONTINUOUS
 62
256
 10
16.396412000000002
 20
269.669630999999980
 40
2.999999999999996
 50
9.999999999999654
 51
90.000000000000000
  0
LINE
  8
0
  6
CONTINUOUS
 62
256
 10
19.350835000000000
 20
270.190576000000020
 11
21.623595999999999
 21
257.301107000000000
  0
ARC
  8
0
  6
CONTINUOUS
 62
256
 10
26.547635000000000
 20
258.169348000000010
 40
4.999999999999999
 50
189.999999999999860
 51
270.000000000000000
  0
ARC
  8
0
  6
CONTINUOUS
 62
256
 10
26.547635000000000
 20
258.169348000000010
 40
4.999999999999999
 50
189.999999999999860
 51
270.000000000000000
  0
LINE
  8
0
  6
CONTINUOUS
 62
256
 10
28.805885000000000
 20
163.169915000000000
 11
-66.802137000000002
 21
163.169915000000000
  0
ARC
  8
0
  6
CONTINUOUS
 62
256
 10
39.674832000000002
 20
169.169631000000010
 40
3.000000000000000
 50
270.000000000000000
 51
358.999999999999830
  0
ARC
  8
0
  6
CONTINUOUS
 62
256
 10
34.001874000000001
 20
163.169631000000010
 40
3.000000000000000
 50
90.000000000000000
 51
149.996872999999910
  0
ARC
  8
0
  6
CONTINUOUS
 62
256
 10
28.805885000000000
 20
166.169915000000000
 40
3.000000000000000
 50
270.000000000000000
 51
329.996872999999940
  0
ARC
  8
0
  6
CONTINUOUS
 62
256
 10
-71.998125999999999
 20
163.169631000000010
 40
3.000000000000006
 50
30.003127000000021
 51
90.000000000000000
  0
ARC
  8
0
  6
CONTINUOUS
 62
256
 10
-66.802137000000002
 20
166.169915000000000
 40
3.000000000000006
 50
210.003127000000010
 51
270.000000000000000
  0
ARC
  8
0
  6
CONTINUOUS
 62
256
 10
-64.543886999999998
 20
158.169915000000000
 40
4.999999999999999
 50
9.999999999999863
 51
90.000000000000000
  0
ARC
  8
0
  6
CONTINUOUS
 62
256
 10
26.547635000000000
 20
158.169915000000000
 40
5.000000000000000
 50
90.000000000000000
 51
170.000000000000140
  0
CIRCLE
  8
0
  6
CONTINUOUS
 62
256
 10
32.001852999999997
 20
153.169631000000010
 40
5.500000000000000
  0
LINE
  8
0
  6
DASHDOT
 62
256
 10
20.557545999999999
 20
153.169631000000010
 11
42.454044000000003
 21
153.169631000000010
  0
LINE
  8
0
  6
DASHDOT
 62
256
 10
32.001852999999997
 20
164.474128000000010
 11
32.001852999999997
 21
142.577630000000000
  0
LINE
  8
0
  6
DASHDOT
 62
256
 10
-84.837598000000000
 20
153.169631000000010
 11
-62.649146999999999
 21
153.169631000000010
  0
LINE
  8
0
  6
DASHDOT
 62
256
 10
-73.998147000000003
 20
163.890221000000000
 11
-73.998147000000003
 21
141.169631000000010
  0
CIRCLE
  8
0
  6
CONTINUOUS
 62
256
 10
-73.998147000000003
 20
153.169631000000010
 40
5.500000000000000
  0
LINE
  8
0
  6
DASHDOT
 62
256
 10
32.001852999999997
 20
274.540525000000000
 11
32.001852999999997
 21
251.768167000000010
  0
LINE
  8
0
  6
DASHDOT
 62
256
 10
21.141452000000001
 20
263.169630999999980
 11
43.037950000000002
 21
263.169630999999980
  0
CIRCLE
  8
0
  6
CONTINUOUS
 62
256
 10
32.001852999999997
 20
263.169630999999980
 40
5.500000000000000
  0
CIRCLE
  8
0
  6
CONTINUOUS
 62
256
 10
-73.998147000000003
 20
263.169630999999980
 40
5.500000000000000
  0
LINE
  8
0
  6
DASHDOT
 62
256
 10
-85.129552000000004
 20
263.169630999999980
 11
-63.027126000000003
 21
263.169630999999980
  0
LINE
  8
0
  6
DASHDOT
 62
256
 10
-73.998147000000003
 20
274.540525000000000
 11
-73.998147000000003
 21
252.060120000000010
  0
CIRCLE
  8
0
  6
DASHED
 62
256
 10
98.501895000000005
 20
-11.413770000000000
 40
6.000000000000000
  0
ARC
  8
0
  6
DASHED
 62
256
 10
98.501895000000005
 20
-11.413770000000000
 40
7.000000000000000
 50
0.000000000000000
 51
180.000000000000000
  0
LINE
  8
0
  6
DASHED
 62
256
 10
105.501895000000000
 20
-25.913770000000000
 11
105.501895000000000
 21
-11.413770000000000
  0
LINE
  8
0
  6
DASHED
 62
256
 10
91.501895000000005
 20
-25.913770000000000
 11
91.501895000000005
 21
-11.413770000000000
  0
LINE
  8
0
  6
DASHDOT
 62
256
 10
98.501895000000005
 20
-28.697621000000002
 11
98.501895000000005
 21
-0.718271000000000
  0
LINE
  8
0
  6
DASHDOT
 62
256
 10
89.193561000000003
 20
-11.413770000000000
 11
108.382600999999990
 21
-11.413770000000000
  0
ARC
  8
0
  6
DASHED
 62
256
 10
148.501894999999990
 20
-11.413770000000000
 40
7.000000000000000
 50
0.000000000000000
 51
180.000000000000000
  0
LINE
  8
0
  6
DASHED
 62
256
 10
155.501894999999990
 20
-25.913770000000000
 11
155.501894999999990
 21
-11.413770000000000
  0
LINE
  8
0
  6
DASHED
 62
256
 10
141.501894999999990
 20
-25.913770000000000
 11
141.501894999999990
 21
-11.413770000000000
  0
LINE
  8
0
  6
DASHDOT
 62
256
 10
148.501894999999990
 20
-28.697621000000002
 11
148.501894999999990
 21
-0.718271000000000
  0
LINE
  8
0
  6
DASHDOT
 62
256
 10
138.091596000000010
 20
-11.413770000000000
 11
158.465778000000000
 21
-11.413770000000000
  0
ENDSEC
  0
EOF
