  0
SECTION
  2
HEADER
  9
$TEXTSIZE
 40
2.5
  9
$ACADVER
  1
AC1009
  9
$DIMASZ
 40
3.863703297614046
  9
$DIMEXE
 40
2.000000000000000
  9
$DIMEXO
 40
1.000000000000000
  9
$DIMLFAC
 40
1.000000000000000
  9
$DIMSCALE
 40
1.000000000000000
  9
$DIMTAD
 70
1
  9
$DIMTFAC
 40
0.625000000000000
  9
$DIMTXT
 40
3.200000047683716
  9
$LUPREC
 70
3
  9
$REGENMODE
 70
1
  9
$TEXTSTYLE
  7
STANDARD1
  0
ENDSEC
  0
SECTION
  2
TABLES
  0
TABLE
  2
LTYPE
 70
4
  0
LTYPE
  2
CONTINUOUS
 70
64
  3
Solid line
 72
65
 73
0
 40
0.0
  0
LTYPE
  2
DASHED
 70
64
  3
-- -- -- -- -- -- -- -- -- -- -- -- -- -- --
 72
65
 73
2
 40
0.75
 49
0.5
 49
-0.25
  0
LTYPE
  2
DASHDOT
 70
64
  3
__ . __ . __ . __ . __ . __ . __ . __ . __ . __
 72
65
 73
4
 40
1.0
 49
0.5
 49
-0.25
 49
0.0
 49
-0.25
  0
LTYPE
  2
DIVIDE
 70
64
  3
__ . . __ . . __ . . __ . . __ . . __ . . __
 72
65
 73
6
 40
1.25
 49
0.5
 49
-0.25
 49
0.0
 49
-0.25
 49
0.0
 49
-0.25
  0
ENDTAB
  0
TABLE
  2
LAYER
 70
3
  0
LAYER
  2
0
 70
64
 62
53
  6
CONTINUOUS
  0
LAYER
  2
1
 70
64
 62
102
  6
CONTINUOUS
  0
LAYER
  2
2
 70
64
 62
3
  6
CONTINUOUS
  0
ENDTAB
  0
TABLE
  2
STYLE
 70
4
  0
STYLE
  2
STANDARD1
 70
64
 40
0.0
 41
1.0
 50
0.0
 71
0
 42
3.200000047683716
  3
MONOTXT
  4
BIGFONT
  0
STYLE
  2
STANDARD2
 70
68
 40
0.0
 41
1.0
 50
0.0
 71
0
 42
3.200000047683716
  3
MONOTXT
  4
BIGFONT
  0
STYLE
  2
STANDARD3
 70
64
 40
0.0
 41
1.0
 50
0.0
 71
0
 42
3.200000047683716
  3
MONOTXT
  4

  0
STYLE
  2
STANDARD4
 70
68
 40
0.0
 41
1.0
 50
0.0
 71
0
 42
3.200000047683716
  3
MONOTXT
  4

  0
ENDTAB
  0
TABLE
  2
VIEW
 70
0
  0
ENDTAB
  0
ENDSEC
  0
SECTION
  2
BLOCKS
  0
ENDSEC
  0
SECTION
  2
ENTITIES
  0
POINT
  8
0
  6
DASHED
 62
256
 10
-199.127852999999990
 20
-39.770952999999999
  0
LINE
  8
0
  6
CONTINUOUS
 62
256
 10
-86.991901999999996
 20
-53.770952999999999
 11
-86.991901999999996
 21
-110.770953000000010
  0
ARC
  8
0
  6
CONTINUOUS
 62
256
 10
-56.991902000000003
 20
-110.770953000000010
 40
30.000000000000007
 50
180.000000000000000
 51
270.000000000000000
  0
LINE
  8
0
  6
CONTINUOUS
 62
256
 10
-56.991902000000003
 20
-140.770952999999990
 11
-16.991902000000000
 21
-140.770952999999990
  0
ARC
  8
0
  6
CONTINUOUS
 62
256
 10
-16.991902000000000
 20
-110.770953000000010
 40
30.000000000000014
 50
270.000000000000000
 51
0.000000000000000
  0
LINE
  8
0
  6
CONTINUOUS
 62
256
 10
13.008098000000000
 20
-53.770952999999999
 11
13.008098000000000
 21
-110.770953000000010
  0
CIRCLE
  8
0
  6
CONTINUOUS
 62
256
 10
-36.991902000000003
 20
-53.770952999999999
 40
29.500000000000000
  0
CIRCLE
  8
0
  6
CONTINUOUS
 62
256
 10
-36.991902000000003
 20
-53.770952999999999
 40
26.500000000000000
  0
CIRCLE
  8
0
  6
CONTINUOUS
 62
256
 10
-36.991902000000003
 20
-53.770952999999999
 40
43.658234000000000
  0
CIRCLE
  8
0
  6
CONTINUOUS
 62
256
 10
-36.991902000000003
 20
-53.770952999999999
 40
38.000000000000000
  0
ARC
  8
0
  6
CONTINUOUS
 62
256
 10
-36.991902000000003
 20
-53.770952999999999
 40
50.000000000000000
 50
0.000000000000000
 51
180.000000000000000
  0
CIRCLE
  8
0
  6
CONTINUOUS
 62
256
 10
-36.991902000000003
 20
-53.770952999999999
 40
22.500000000000000
  0
LINE
  8
0
  6
DASHDOT
 62
256
 10
-386.104243999999990
 20
-183.655283999999990
 11
-386.104243999999990
 21
22.468605000000000
  0
LINE
  8
0
  6
DASHDOT
 62
256
 10
-362.395887000000020
 20
-75.316642999999999
 11
-404.802881000000010
 21
-75.316642999999999
  0
LINE
  8
0
  6
CONTINUOUS
 62
256
 10
-445.604243999999990
 20
-92.152528000000004
 11
-445.604243999999990
 21
-94.816642999999999
  0
LINE
  8
0
  6
CONTINUOUS
 62
256
 10
-433.603959999999970
 20
-5.478937000000000
 11
-433.603959999999970
 21
-75.316642999999999
  0
LINE
  8
0
  6
CONTINUOUS
 62
256
 10
-448.125187999999980
 20
-15.950972999999999
 11
-437.735719000000020
 21
-13.590047999999999
  0
ARC
  8
0
  6
CONTINUOUS
 62
256
 10
-447.604243999999990
 20
-18.905396000000000
 40
2.999999999999996
 50
99.999999999999659
 51
180.000000000000000
  0
ARC
  8
0
  6
CONTINUOUS
 62
256
 10
-447.604243999999990
 20
-88.636509000000004
 40
3.000000000000000
 50
180.000000000000000
 51
260.000000000000340
  0
LINE
  8
0
  6
CONTINUOUS
 62
256
 10
-321.604243999999990
 20
-53.770952999999999
 11
-321.604243999999990
 21
-88.636509000000004
  0
LINE
  8
0
  6
CONTINUOUS
 62
256
 10
-319.504244000000030
 20
-80.270953000000006
 11
-319.104243999999990
 21
-79.870953000000000
  0
LINE
  8
0
  6
CONTINUOUS
 62
256
 10
-319.504244000000030
 20
-27.270952999999999
 11
-319.104243999999990
 21
-27.670953000000001
  0
LINE
  8
0
  6
CONTINUOUS
 62
256
 10
-321.604243999999990
 20
-18.905396000000000
 11
-321.604243999999990
 21
-53.770952999999999
  0
LINE
  8
0
  6
CONTINUOUS
 62
256
 10
-324.083299000000010
 20
-15.950972999999999
 11
-335.472767999999970
 21
-13.413721000000001
  0
ARC
  8
0
  6
CONTINUOUS
 62
256
 10
-342.604527000000020
 20
-137.961550999999990
 40
3.000000000000000
 50
284.480309000000320
 51
0.000000000000000
  0
ARC
  8
0
  6
CONTINUOUS
 62
256
 10
-341.104243999999990
 20
-143.770952999999990
 40
3.000000000000000
 50
104.480309000000290
 51
180.000000000000000
  0
ARC
  8
0
  6
CONTINUOUS
 62
256
 10
-443.579243000000020
 20
-95.816642999999999
 40
0.500000000000028
 50
2.934025000000031
 51
90.000000000000000
  0
ARC
  8
0
  6
CONTINUOUS
 62
256
 10
-443.579243000000020
 20
-95.816642999999999
 40
0.500000000000028
 50
2.934025000000031
 51
90.000000000000000
  0
ARC
  8
0
  6
CONTINUOUS
 62
256
 10
-445.104243999999990
 20
-94.816642999999999
 40
0.500000000000000
 50
180.000000000000000
 51
270.000000000000000
  0
ARC
  8
0
  6
CONTINUOUS
 62
256
 10
-43.604244000000001
 20
-75.316642999999999
 40
400.000000000000000
 50
182.934024999999990
 51
184.114344999999960
  0
ARC
  8
0
  6
CONTINUOUS
 62
256
 10
-412.650697999999980
 20
-101.863097999999990
 40
30.000000000000018
 50
184.114344999999960
 51
225.697856999999970
  0
ARC
  8
0
  6
CONTINUOUS
 62
256
 10
-359.557789000000010
 20
-101.863097999999990
 40
29.999999999999989
 50
311.690666999999960
 51
355.885654999999990
  0
ARC
  8
0
  6
CONTINUOUS
 62
256
 10
-328.629244000000030
 20
-95.816642999999999
 40
0.500000000000000
 50
90.000000000000000
 51
177.065974999999950
  0
ARC
  8
0
  6
CONTINUOUS
 62
256
 10
-728.604243999999990
 20
-75.316642999999999
 40
399.999999999999940
 50
355.885654999999990
 51
357.065974999999980
  0
ARC
  8
0
  6
CONTINUOUS
 62
256
 10
-327.104243999999990
 20
-94.816642999999999
 40
0.500000000000000
 50
270.000000000000000
 51
0.000000000000000
  0
ARC
  8
0
  6
CONTINUOUS
 62
256
 10
-342.604527000000020
 20
-6.580354000000000
 40
3.000000000000000
 50
0.000000000000000
 51
75.519690999999725
  0
ARC
  8
0
  6
CONTINUOUS
 62
256
 10
-341.104243999999990
 20
-0.770953000000000
 40
3.000000000000000
 50
180.000000000000000
 51
255.519690999999710
  0
ARC
  8
0
  6
CONTINUOUS
 62
256
 10
-334.604527000000020
 20
-8.489682000000000
 40
5.000000000000000
 50
180.000000000000000
 51
260.000000000000110
  0
ARC
  8
0
  6
CONTINUOUS
 62
256
 10
-340.104243999999990
 20
-154.403786999999990
 40
4.000000000000000
 50
180.000000000000000
 51
268.999999999999830
  0
ARC
  8
0
  6
CONTINUOUS
 62
256
 10
-322.104243999999990
 20
-161.719044000000000
 40
3.000000000000000
 50
0.000000000000000
 51
89.000000000000412
  0
ARC
  8
0
  6
CONTINUOUS
 62
256
 10
-450.104243999999990
 20
-161.719044000000000
 40
3.000000000000011
 50
90.999999999999602
 51
180.000000000000000
  0
ARC
  8
0
  6
CONTINUOUS
 62
256
 10
-341.104243999999990
 20
-0.770953000000000
 40
3.000000000000000
 50
180.000000000000000
 51
239.996872999999970
  0
ARC
  8
0
  6
CONTINUOUS
 62
256
 10
-347.104243999999990
 20
4.902005000000000
 40
3.000000000000000
 50
360.000000000000000
 51
89.000000000000412
  0
LINE
  8
0
  6
CONTINUOUS
 62
256
 10
-423.604243999999990
 20
-158.270952999999990
 11
-423.604243999999990
 21
-158.070953000000000
  0
LINE
  8
0
  6
CONTINUOUS
 62
256
 10
-326.604243999999990
 20
-92.152528000000004
 11
-326.604243999999990
 21
-94.816642999999999
  0
LINE
  8
0
  6
CONTINUOUS
 62
256
 10
-344.104243999999990
 20
-75.316642999999999
 11
-344.104243999999990
 21
4.902005000000000
  0
LINE
  8
0
  6
CONTINUOUS
 62
256
 10
-344.104243999999990
 20
-75.316642999999999
 11
-344.104243999999990
 21
-154.403786999999990
  0
LINE
  8
0
  6
CONTINUOUS
 62
256
 10
-339.604527000000020
 20
-75.316642999999999
 11
-339.604527000000020
 21
-137.961550999999990
  0
LINE
  8
0
  6
CONTINUOUS
 62
256
 10
-339.604527000000020
 20
-8.489682000000000
 11
-339.604527000000020
 21
-75.316642999999999
  0
LINE
  8
0
  6
CONTINUOUS
 62
256
 10
-445.104243999999990
 20
-95.316642999999999
 11
-443.579243000000020
 21
-95.316642999999999
  0
LINE
  8
0
  6
CONTINUOUS
 62
256
 10
-327.104243999999990
 20
-95.316642999999999
 11
-328.629244000000030
 21
-95.316642999999999
  0
LINE
  8
0
  6
CONTINUOUS
 62
256
 10
-339.604527000000020
 20
-6.580354000000000
 11
-339.604527000000020
 21
-8.489682000000000
  0
LINE
  8
0
  6
CONTINUOUS
 62
256
 10
-322.051886000000020
 20
-158.719501000000010
 11
-340.174053000000010
 21
-158.403178000000000
  0
LINE
  8
0
  6
CONTINUOUS
 62
256
 10
-450.156601000000020
 20
-158.719501000000010
 11
-423.604243999999990
 21
-158.256027999999990
  0
LINE
  8
0
  6
DASHDOT
 62
256
 10
-331.104243999999990
 20
-178.016837000000010
 11
-331.104243999999990
 21
-153.962783000000000
  0
LINE
  8
0
  6
DASHDOT
 62
256
 10
-441.104243999999990
 20
-178.016837000000010
 11
-441.104243999999990
 21
-153.962783000000000
  0
LINE
  8
0
  6
CONTINUOUS
 62
256
 10
-319.104243999999990
 20
-173.770952999999990
 11
-319.104243999999990
 21
-161.719044000000000
  0
LINE
  8
0
  6
CONTINUOUS
 62
256
 10
-453.104243999999990
 20
-173.770952999999990
 11
-453.104243999999990
 21
-161.219044000000000
  0
LINE
  8
0
  6
CONTINUOUS
 62
256
 10
-423.104243999999990
 20
9.229047000000000
 11
-347.051886000000020
 21
7.901549000000000
  0
LINE
  8
0
  6
CONTINUOUS
 62
256
 10
-324.083299000000010
 20
-91.590933000000007
 11
-335.472767999999970
 21
-94.128184000000005
  0
ARC
  8
0
  6
CONTINUOUS
 62
256
 10
-334.604527000000020
 20
-99.052222999999998
 40
4.999999999999999
 50
99.999999999999858
 51
180.000000000000000
  0
LINE
  8
0
  6
CONTINUOUS
 62
256
 10
-448.125187999999980
 20
-91.590933000000007
 11
-437.735719000000020
 21
-93.951857000000004
  0
LINE
  8
0
  6
CONTINUOUS
 62
256
 10
-317.104243999999990
 20
-39.770952999999999
 11
-272.104243999999990
 21
-39.770952999999999
  0
LINE
  8
0
  6
CONTINUOUS
 62
256
 10
-272.104243999999990
 20
-53.770952999999999
 11
-272.104243999999990
 21
-36.770952999999999
  0
LINE
  8
0
  6
CONTINUOUS
 62
256
 10
-308.104243999999990
 20
-36.770952999999999
 11
-272.104243999999990
 21
-36.770952999999999
  0
LINE
  8
0
  6
CONTINUOUS
 62
256
 10
-308.104243999999990
 20
-39.770952999999999
 11
-308.104243999999990
 21
-36.770952999999999
  0
LINE
  8
0
  6
CONTINUOUS
 62
256
 10
-317.104243999999990
 20
-67.770953000000006
 11
-272.104243999999990
 21
-67.770953000000006
  0
LINE
  8
0
  6
CONTINUOUS
 62
256
 10
-272.104243999999990
 20
-53.770952999999999
 11
-272.104243999999990
 21
-67.770953000000006
  0
LINE
  8
0
  6
CONTINUOUS
 62
256
 10
-317.104243999999990
 20
-53.770952999999999
 11
-317.104243999999990
 21
-68.270953000000006
  0
LINE
  8
0
  6
CONTINUOUS
 62
256
 10
-317.104243999999990
 20
-53.770952999999999
 11
-317.104243999999990
 21
-68.270953000000006
  0
LINE
  8
0
  6
CONTINUOUS
 62
256
 10
-317.104243999999990
 20
-68.270953000000006
 11
-319.104243999999990
 21
-68.270953000000006
  0
LINE
  8
0
  6
CONTINUOUS
 62
256
 10
-317.104243999999990
 20
-53.770952999999999
 11
-317.104243999999990
 21
-39.270952999999999
  0
LINE
  8
0
  6
CONTINUOUS
 62
256
 10
-317.104243999999990
 20
-53.770952999999999
 11
-317.104243999999990
 21
-39.270952999999999
  0
LINE
  8
0
  6
CONTINUOUS
 62
256
 10
-317.104243999999990
 20
-39.270952999999999
 11
-319.104243999999990
 21
-39.270952999999999
  0
LINE
  8
0
  6
CONTINUOUS
 62
256
 10
-433.603959999999970
 20
-139.062968000000010
 11
-433.603959999999970
 21
-75.316642999999999
  0
LINE
  8
0
  6
CONTINUOUS
 62
256
 10
-423.104243999999990
 20
-75.316642999999999
 11
-423.104243999999990
 21
9.229047000000000
  0
LINE
  8
0
  6
CONTINUOUS
 62
256
 10
-431.104243999999990
 20
-156.698993000000000
 11
-431.104243999999990
 21
-142.770952999999990
  0
LINE
  8
0
  6
CONTINUOUS
 62
256
 10
-453.104243999999990
 20
-173.770952999999990
 11
-319.104243999999990
 21
-173.770952999999990
  0
LINE
  8
0
  6
CONTINUOUS
 62
256
 10
-319.104243999999990
 20
-27.670953000000001
 11
-319.104243999999990
 21
-79.870953000000000
  0
LINE
  8
0
  6
CONTINUOUS
 62
256
 10
-423.604243999999990
 20
-158.070953000000000
 11
-423.104243999999990
 21
-158.070953000000000
  0
LINE
  8
0
  6
CONTINUOUS
 62
256
 10
-423.104243999999990
 20
-158.070953000000000
 11
-423.104243999999990
 21
-75.316642999999999
  0
POINT
  8
0
  6
CONTINUOUS
 62
256
 10
-319.104243999999990
 20
-158.770952999999990
  0
POINT
  8
0
  6
CONTINUOUS
 62
256
 10
-453.104243999999990
 20
-158.770952999999990
  0
LINE
  8
0
  6
CONTINUOUS
 62
256
 10
-423.104243999999990
 20
-157.768812999999990
 11
-430.121848000000000
 21
-157.698686000000010
  0
LINE
  8
0
  6
CONTINUOUS
 62
256
 10
-431.104243999999990
 20
-142.770952999999990
 11
-431.104243999999990
 21
-75.316642999999999
  0
LINE
  8
0
  6
CONTINUOUS
 62
256
 10
-431.104243999999990
 20
-75.316642999999999
 11
-431.104243999999990
 21
8.089407000000000
  0
LINE
  8
0
  6
CONTINUOUS
 62
256
 10
-431.104243999999990
 20
8.089407000000000
 11
-430.104396000000010
 21
9.106859000000000
  0
LINE
  8
0
  6
CONTINUOUS
 62
256
 10
-423.104243999999990
 20
9.229047000000000
 11
-430.104396000000010
 21
9.106859000000000
  0
LINE
  8
0
  6
CONTINUOUS
 62
256
 10
-431.104243999999990
 20
-156.698993000000000
 11
-430.104396000000010
 21
-157.716444999999990
  0
LINE
  8
0
  6
CONTINUOUS
 62
256
 10
-450.604243999999990
 20
-80.270953000000006
 11
-452.804243999999980
 21
-80.270953000000006
  0
LINE
  8
0
  6
CONTINUOUS
 62
256
 10
-450.604243999999990
 20
-27.270952999999999
 11
-452.804243999999980
 21
-27.270952999999999
  0
LINE
  8
0
  6
CONTINUOUS
 62
256
 10
-450.604243999999990
 20
-53.770952999999999
 11
-450.604243999999990
 21
-88.636509000000004
  0
LINE
  8
0
  6
CONTINUOUS
 62
256
 10
-450.604243999999990
 20
-18.905396000000000
 11
-450.604243999999990
 21
-53.770952999999999
  0
ARC
  8
0
  6
CONTINUOUS
 62
256
 10
-431.603959999999970
 20
-5.478937000000000
 40
2.000000000000000
 50
112.028694000000060
 51
180.000000000000000
  0
ARC
  8
0
  6
CONTINUOUS
 62
256
 10
-433.104243999999990
 20
-1.770953000000000
 40
2.000000000000001
 50
292.028694000000030
 51
0.000000000000000
  0
ARC
  8
0
  6
CONTINUOUS
 62
256
 10
-438.603959999999970
 20
-8.666009000000001
 40
4.999999999999997
 50
279.999999999999890
 51
0.000000000000000
  0
LINE
  8
0
  6
CONTINUOUS
 62
256
 10
-453.104243999999990
 20
-27.570952999999999
 11
-453.104243999999990
 21
-79.970952999999994
  0
LINE
  8
0
  6
CONTINUOUS
 62
256
 10
-452.804243999999980
 20
-27.270952999999999
 11
-453.104243999999990
 21
-27.570952999999999
  0
LINE
  8
0
  6
CONTINUOUS
 62
256
 10
-452.804243999999980
 20
-80.270953000000006
 11
-453.104243999999990
 21
-79.970952999999994
  0
ARC
  8
0
  6
CONTINUOUS
 62
256
 10
-431.603959999999970
 20
-139.062968000000010
 40
2.000000000000000
 50
180.000000000000000
 51
247.971306000000110
  0
ARC
  8
0
  6
CONTINUOUS
 62
256
 10
-433.104243999999990
 20
-142.770952999999990
 40
2.000000000000000
 50
0.000000000000000
 51
67.971306000000098
  0
ARC
  8
0
  6
CONTINUOUS
 62
256
 10
-324.604243999999990
 20
-88.636509000000004
 40
3.000000000000003
 50
279.999999999999660
 51
0.000000000000000
  0
LINE
  8
0
  6
CONTINUOUS
 62
256
 10
-321.604243999999990
 20
-80.270953000000006
 11
-319.504244000000030
 21
-80.270953000000006
  0
LINE
  8
0
  6
CONTINUOUS
 62
256
 10
-321.604243999999990
 20
-27.270952999999999
 11
-319.504244000000030
 21
-27.270952999999999
  0
ARC
  8
0
  6
CONTINUOUS
 62
256
 10
-324.604243999999990
 20
-18.905396000000000
 40
3.000000000000000
 50
0.000000000000000
 51
80.000000000000355
  0
ARC
  8
0
  6
CONTINUOUS
 62
256
 10
-438.603959999999970
 20
-98.875895999999997
 40
5.000000000000000
 50
0.000000000000000
 51
80.000000000000142
  0
LINE
  8
0
  6
DASHDOT
 62
256
 10
-458.277480000000030
 20
-53.770952999999999
 11
-265.039892000000010
 21
-53.770952999999999
  0
ARC
  8
0
  6
CONTINUOUS
 62
256
 10
-386.104243999999990
 20
-282.316643000000000
 40
300.000000000000000
 50
85.138594999999995
 51
90.000000000000000
  0
LINE
  8
0
  6
CONTINUOUS
 62
256
 10
-356.104243999999990
 20
11.622126000000000
 11
-356.104243999999990
 21
8.059558000000001
  0
ARC
  8
0
  6
CONTINUOUS
 62
256
 10
-361.104243999999990
 20
11.622126000000000
 40
5.000000000000000
 50
0.000000000000000
 51
85.138594999999938
  0
ARC
  8
0
  6
CONTINUOUS
 62
256
 10
-411.104243999999990
 20
11.622126000000000
 40
5.000000000000001
 50
94.861405000000062
 51
180.000000000000000
  0
ARC
  8
0
  6
CONTINUOUS
 62
256
 10
-386.104243999999990
 20
-282.316643000000000
 40
300.000000000000000
 50
90.000000000000000
 51
94.861405000000005
  0
LINE
  8
0
  6
CONTINUOUS
 62
256
 10
-388.604243999999990
 20
18.183357000000001
 11
-388.604243999999990
 21
17.672940000000001
  0
LINE
  8
0
  6
CONTINUOUS
 62
256
 10
-383.604243999999990
 20
18.183357000000001
 11
-383.604243999999990
 21
17.672940000000001
  0
LINE
  8
0
  6
CONTINUOUS
 62
256
 10
-383.604243999999990
 20
18.183357000000001
 11
-388.604243999999990
 21
18.183357000000001
  0
LINE
  8
0
  6
CONTINUOUS
 62
256
 10
-416.104243999999990
 20
11.622126000000000
 11
-416.104243999999990
 21
9.106862000000000
  0
ARC
  8
0
  6
CONTINUOUS
 62
256
 10
-145.504244000000000
 20
-75.316642999999999
 40
300.600000000000020
 50
183.211620999999980
 51
188.597082000000000
  0
ARC
  8
0
  6
CONTINUOUS
 62
256
 10
-414.992273000000010
 20
-112.189544000000000
 40
26.600000000000009
 50
224.999999999999910
 51
225.598065000000050
  0
LINE
  8
0
  6
CONTINUOUS
 62
256
 10
-440.867763000000020
 20
-123.932135000000000
 11
-433.801313999999990
 21
-130.998583999999990
  0
ARC
  8
0
  6
CONTINUOUS
 62
256
 10
-357.216213999999980
 20
-112.189544000000000
 40
26.600000000000009
 50
311.459729999999920
 51
315.000000000000000
  0
ARC
  8
0
  6
CONTINUOUS
 62
256
 10
-626.704244000000020
 20
-75.316642999999999
 40
300.600000000000020
 50
351.402918000000000
 51
356.790533999999980
  0
LINE
  8
0
  6
CONTINUOUS
 62
256
 10
-331.340724000000020
 20
-123.932135000000000
 11
-338.407174000000000
 21
-130.998583999999990
  0
ARC
  8
0
  6
CONTINUOUS
 62
256
 10
-430.052831000000030
 20
-125.413257000000000
 40
6.600000000000027
 50
224.999999999999890
 51
237.449017999999880
  0
ARC
  8
0
  6
CONTINUOUS
 62
256
 10
-342.155656000000020
 20
-125.413257000000000
 40
6.599999999999993
 50
292.739049000000140
 51
315.000000000000110
  0
ARC
  8
0
  6
CONTINUOUS
 62
256
 10
-336.007629000000010
 20
-119.265230000000000
 40
6.600000000000017
 50
315.000000000000170
 51
351.402918000000060
  0
ARC
  8
0
  6
CONTINUOUS
 62
256
 10
-436.200857999999980
 20
-119.265230000000000
 40
6.600000000000022
 50
188.597082000000030
 51
224.999999999999830
  0
POLYLINE
  8
0
  6
CONTINUOUS
 62
256
 66
1
 70
1
  0
VERTEX
  8
0
  6
CONTINUOUS
 62
256
 10
175.208097999999980
 20
-23.393118000000001
  0
VERTEX
  8
0
  6
CONTINUOUS
 62
256
 10
175.117788817895160
 20
-22.690161489441834
  0
VERTEX
  8
0
  6
CONTINUOUS
 62
256
 10
174.850331802803030
 20
-22.014219203361861
  0
VERTEX
  8
0
  6
CONTINUOUS
 62
256
 10
174.416005177821940
 20
-21.391267224741341
  0
VERTEX
  8
0
  6
CONTINUOUS
 62
256
 10
173.831499871576770
 20
-20.845245248763160
  0
VERTEX
  8
0
  6
CONTINUOUS
 62
256
 10
173.119278095192100
 20
-20.397136593751512
  0
VERTEX
  8
0
  6
CONTINUOUS
 62
256
 10
172.306710132115910
 20
-20.064161824016264
  0
VERTEX
  8
0
  6
CONTINUOUS
 62
256
 10
171.425022513475800
 20
-19.859116973223941
  0
VERTEX
  8
0
  6
CONTINUOUS
 62
256
 10
170.508097999999990
 20
-19.789881800000011
  0
VERTEX
  8
0
  6
CONTINUOUS
 62
256
 10
169.591173486524180
 20
-19.859116973223941
  0
VERTEX
  8
0
  6
CONTINUOUS
 62
256
 10
168.709485867884070
 20
-20.064161824016264
  0
VERTEX
  8
0
  6
CONTINUOUS
 62
256
 10
167.896917904807880
 20
-20.397136593751512
  0
VERTEX
  8
0
  6
CONTINUOUS
 62
256
 10
167.184696128423210
 20
-20.845245248763160
  0
VERTEX
  8
0
  6
CONTINUOUS
 62
256
 10
166.600190822178040
 20
-21.391267224741341
  0
VERTEX
  8
0
  6
CONTINUOUS
 62
256
 10
166.165864197196950
 20
-22.014219203361861
  0
VERTEX
  8
0
  6
CONTINUOUS
 62
256
 10
165.898407182104820
 20
-22.690161489441831
  0
VERTEX
  8
0
  6
CONTINUOUS
 62
256
 10
165.808098000000000
 20
-23.393118000000001
  0
VERTEX
  8
0
  6
CONTINUOUS
 62
256
 10
165.898407182104820
 20
-24.096074510558168
  0
VERTEX
  8
0
  6
CONTINUOUS
 62
256
 10
166.165864197196950
 20
-24.772016796638141
  0
VERTEX
  8
0
  6
CONTINUOUS
 62
256
 10
166.600190822178040
 20
-25.394968775258661
  0
VERTEX
  8
0
  6
CONTINUOUS
 62
256
 10
167.184696128423210
 20
-25.940990751236839
  0
VERTEX
  8
0
  6
CONTINUOUS
 62
256
 10
167.896917904807880
 20
-26.389099406248487
  0
VERTEX
  8
0
  6
CONTINUOUS
 62
256
 10
168.709485867884070
 20
-26.722074175983735
  0
VERTEX
  8
0
  6
CONTINUOUS
 62
256
 10
169.591173486524180
 20
-26.927119026776062
  0
VERTEX
  8
0
  6
CONTINUOUS
 62
256
 10
170.508097999999990
 20
-26.996354199999992
  0
VERTEX
  8
0
  6
CONTINUOUS
 62
256
 10
171.425022513475800
 20
-26.927119026776062
  0
VERTEX
  8
0
  6
CONTINUOUS
 62
256
 10
172.306710132115910
 20
-26.722074175983735
  0
VERTEX
  8
0
  6
CONTINUOUS
 62
256
 10
173.119278095192100
 20
-26.389099406248491
  0
VERTEX
  8
0
  6
CONTINUOUS
 62
256
 10
173.831499871576740
 20
-25.940990751236843
  0
VERTEX
  8
0
  6
CONTINUOUS
 62
256
 10
174.416005177821940
 20
-25.394968775258661
  0
VERTEX
  8
0
  6
CONTINUOUS
 62
256
 10
174.850331802803030
 20
-24.772016796638141
  0
VERTEX
  8
0
  6
CONTINUOUS
 62
256
 10
175.117788817895160
 20
-24.096074510558172
  0
SEQEND
  8
0
  6
CONTINUOUS
 62
256
  0
LINE
  8
0
  6
CONTINUOUS
 62
256
 10
172.508097999999990
 20
-20.400742000000001
 11
170.508097999999990
 21
-21.576528000000000
  0
LINE
  8
0
  6
CONTINUOUS
 62
256
 10
170.508097999999990
 20
-21.576528000000000
 11
168.508097999999990
 21
-23.229168999999999
  0
LINE
  8
0
  6
CONTINUOUS
 62
256
 10
168.508097999999990
 20
-20.400742000000001
 11
170.508097999999990
 21
-21.576528000000000
  0
LINE
  8
0
  6
CONTINUOUS
 62
256
 10
170.508097999999990
 20
-21.576528000000000
 11
172.508097999999990
 21
-23.229168999999999
  0
POLYLINE
  8
0
  6
CONTINUOUS
 62
256
 66
1
 70
1
  0
VERTEX
  8
0
  6
CONTINUOUS
 62
256
 10
175.208097999999980
 20
-127.240168000000000
  0
VERTEX
  8
0
  6
CONTINUOUS
 62
256
 10
175.117788817895160
 20
-126.537211489441830
  0
VERTEX
  8
0
  6
CONTINUOUS
 62
256
 10
174.850331802803030
 20
-125.861269203361860
  0
VERTEX
  8
0
  6
CONTINUOUS
 62
256
 10
174.416005177821940
 20
-125.238317224741340
  0
VERTEX
  8
0
  6
CONTINUOUS
 62
256
 10
173.831499871576770
 20
-124.692295248763140
  0
VERTEX
  8
0
  6
CONTINUOUS
 62
256
 10
173.119278095192100
 20
-124.244186593751510
  0
VERTEX
  8
0
  6
CONTINUOUS
 62
256
 10
172.306710132115910
 20
-123.911211824016250
  0
VERTEX
  8
0
  6
CONTINUOUS
 62
256
 10
171.425022513475800
 20
-123.706166973223930
  0
VERTEX
  8
0
  6
CONTINUOUS
 62
256
 10
170.508097999999990
 20
-123.636931800000000
  0
VERTEX
  8
0
  6
CONTINUOUS
 62
256
 10
169.591173486524180
 20
-123.706166973223930
  0
VERTEX
  8
0
  6
CONTINUOUS
 62
256
 10
168.709485867884070
 20
-123.911211824016250
  0
VERTEX
  8
0
  6
CONTINUOUS
 62
256
 10
167.896917904807880
 20
-124.244186593751510
  0
VERTEX
  8
0
  6
CONTINUOUS
 62
256
 10
167.184696128423210
 20
-124.692295248763140
  0
VERTEX
  8
0
  6
CONTINUOUS
 62
256
 10
166.600190822178040
 20
-125.238317224741340
  0
VERTEX
  8
0
  6
CONTINUOUS
 62
256
 10
166.165864197196950
 20
-125.861269203361860
  0
VERTEX
  8
0
  6
CONTINUOUS
 62
256
 10
165.898407182104820
 20
-126.537211489441830
  0
VERTEX
  8
0
  6
CONTINUOUS
 62
256
 10
165.808098000000000
 20
-127.240168000000000
  0
VERTEX
  8
0
  6
CONTINUOUS
 62
256
 10
165.898407182104820
 20
-127.943124510558160
  0
VERTEX
  8
0
  6
CONTINUOUS
 62
256
 10
166.165864197196950
 20
-128.619066796638150
  0
VERTEX
  8
0
  6
CONTINUOUS
 62
256
 10
166.600190822178040
 20
-129.242018775258660
  0
VERTEX
  8
0
  6
CONTINUOUS
 62
256
 10
167.184696128423210
 20
-129.788040751236850
  0
VERTEX
  8
0
  6
CONTINUOUS
 62
256
 10
167.896917904807880
 20
-130.236149406248500
  0
VERTEX
  8
0
  6
CONTINUOUS
 62
256
 10
168.709485867884070
 20
-130.569124175983750
  0
VERTEX
  8
0
  6
CONTINUOUS
 62
256
 10
169.591173486524180
 20
-130.774169026776060
  0
VERTEX
  8
0
  6
CONTINUOUS
 62
256
 10
170.508097999999990
 20
-130.843404199999980
  0
VERTEX
  8
0
  6
CONTINUOUS
 62
256
 10
171.425022513475800
 20
-130.774169026776060
  0
VERTEX
  8
0
  6
CONTINUOUS
 62
256
 10
172.306710132115910
 20
-130.569124175983750
  0
VERTEX
  8
0
  6
CONTINUOUS
 62
256
 10
173.119278095192100
 20
-130.236149406248500
  0
VERTEX
  8
0
  6
CONTINUOUS
 62
256
 10
173.831499871576740
 20
-129.788040751236850
  0
VERTEX
  8
0
  6
CONTINUOUS
 62
256
 10
174.416005177821940
 20
-129.242018775258660
  0
VERTEX
  8
0
  6
CONTINUOUS
 62
256
 10
174.850331802803030
 20
-128.619066796638150
  0
VERTEX
  8
0
  6
CONTINUOUS
 62
256
 10
175.117788817895160
 20
-127.943124510558160
  0
SEQEND
  8
0
  6
CONTINUOUS
 62
256
  0
LINE
  8
0
  6
CONTINUOUS
 62
256
 10
172.508097999999990
 20
-130.232542999999990
 11
170.508097999999990
 21
-129.056758000000000
  0
LINE
  8
0
  6
CONTINUOUS
 62
256
 10
170.508097999999990
 20
-129.056758000000000
 11
168.508097999999990
 21
-127.404116000000000
  0
LINE
  8
0
  6
CONTINUOUS
 62
256
 10
168.508097999999990
 20
-130.232542999999990
 11
170.508097999999990
 21
-129.056758000000000
  0
LINE
  8
0
  6
CONTINUOUS
 62
256
 10
170.508097999999990
 20
-129.056758000000000
 11
172.508097999999990
 21
-127.404116000000000
  0
LINE
  8
0
  6
CONTINUOUS
 62
256
 10
159.508097999999990
 20
-75.316642999999999
 11
159.508097999999990
 21
-140.316643000000000
  0
LINE
  8
0
  6
CONTINUOUS
 62
256
 10
62.508097999999997
 20
-134.816643000000000
 11
62.508097999999997
 21
-75.316642999999999
  0
LINE
  8
0
  6
CONTINUOUS
 62
256
 10
159.508097999999990
 20
-140.316643000000000
 11
188.202122000000000
 21
-140.316643000000000
  0
LINE
  8
0
  6
CONTINUOUS
 62
256
 10
210.508097999999990
 20
-75.316642999999999
 11
210.508097999999990
 21
-127.759848000000010
  0
ARC
  8
0
  6
CONTINUOUS
 62
256
 10
188.202122000000000
 20
-120.316643000000000
 40
20.000000000000000
 50
270.000000000000000
 51
304.999999999999940
  0
LINE
  8
0
  6
CONTINUOUS
 62
256
 10
199.673651000000010
 20
-136.699683999999990
 11
209.399396999999990
 21
-129.889643000000010
  0
ARC
  8
0
  6
CONTINUOUS
 62
256
 10
207.908098000000000
 20
-127.759848000000010
 40
2.599999999999996
 50
305.000000000000230
 51
0.000000000000000
  0
LINE
  8
0
  6
CONTINUOUS
 62
256
 10
159.508097999999990
 20
-75.316642999999999
 11
159.508097999999990
 21
-16.697422000000000
  0
LINE
  8
0
  6
CONTINUOUS
 62
256
 10
62.508097999999997
 20
-15.816642999999999
 11
62.508097999999997
 21
-75.316642999999999
  0
LINE
  8
0
  6
CONTINUOUS
 62
256
 10
210.508097999999990
 20
-75.316642999999999
 11
210.508097999999990
 21
-22.873438000000000
  0
LINE
  8
0
  6
CONTINUOUS
 62
256
 10
199.673651000000010
 20
-13.933602000000000
 11
209.399396999999990
 21
-20.743642000000001
  0
ARC
  8
0
  6
CONTINUOUS
 62
256
 10
207.908098000000000
 20
-22.873438000000000
 40
2.599999999999994
 50
0.000000000000000
 51
54.999999999999929
  0
LINE
  8
0
  6
CONTINUOUS
 62
256
 10
169.508097999999990
 20
-10.316642999999999
 11
188.202122000000000
 21
-10.316642999999999
  0
ARC
  8
0
  6
CONTINUOUS
 62
256
 10
188.202122000000000
 20
-30.316642999999999
 40
19.999999999999993
 50
55.000000000000028
 51
90.000000000000000
  0
LINE
  8
0
  6
CONTINUOUS
 62
256
 10
167.508097999999990
 20
-11.816642999999999
 11
167.508097999999990
 21
-13.525848999999999
  0
LINE
  8
0
  6
CONTINUOUS
 62
256
 10
92.508098000000004
 20
-16.816642999999999
 11
159.508097999999990
 21
-16.816642999999999
  0
LINE
  8
0
  6
CONTINUOUS
 62
256
 10
92.508098000000004
 20
-11.816642999999999
 11
167.508097999999990
 21
-11.816642999999999
  0
LINE
  8
0
  6
CONTINUOUS
 62
256
 10
166.508097999999990
 20
16.683357000000001
 11
166.508097999999990
 21
-11.816642999999999
  0
LINE
  8
0
  6
CONTINUOUS
 62
256
 10
93.508098000000004
 20
16.683357000000001
 11
93.508098000000004
 21
-11.816642999999999
  0
ARC
  8
0
  6
CONTINUOUS
 62
256
 10
94.508098000000004
 20
16.683357000000001
 40
1.000000000000000
 50
90.000000000000000
 51
180.000000000000000
  0
ARC
  8
0
  6
CONTINUOUS
 62
256
 10
165.508097999999990
 20
16.683357000000001
 40
1.000000000000000
 50
0.000000000000000
 51
90.000000000000000
  0
LINE
  8
0
  6
CONTINUOUS
 62
256
 10
94.508098000000004
 20
17.683357000000001
 11
165.508097999999990
 21
17.683357000000001
  0
LINE
  8
0
  6
CONTINUOUS
 62
256
 10
100.508098000000000
 20
17.683357000000001
 11
100.508098000000000
 21
18.183357000000001
  0
LINE
  8
0
  6
CONTINUOUS
 62
256
 10
103.008098000000000
 20
17.683357000000001
 11
103.008098000000000
 21
18.183357000000001
  0
LINE
  8
0
  6
CONTINUOUS
 62
256
 10
108.508098000000000
 20
17.683357000000001
 11
108.508098000000000
 21
18.183357000000001
  0
LINE
  8
0
  6
CONTINUOUS
 62
256
 10
100.508098000000000
 20
18.183357000000001
 11
108.508098000000000
 21
18.183357000000001
  0
LINE
  8
0
  6
CONTINUOUS
 62
256
 10
92.508098000000004
 20
-11.816642999999999
 11
92.508098000000004
 21
-16.816642999999999
  0
LINE
  8
0
  6
CONTINUOUS
 62
256
 10
166.508097999999990
 20
-13.697422000000000
 11
162.508097999999990
 21
-13.697422000000000
  0
LINE
  8
0
  6
CONTINUOUS
 62
256
 10
169.508097999999990
 20
-10.316642999999999
 11
169.508097999999990
 21
-10.697422000000000
  0
ARC
  8
0
  6
CONTINUOUS
 62
256
 10
162.508097999999990
 20
-16.697422000000000
 40
3.000000000000000
 50
90.000000000000000
 51
180.000000000000000
  0
ARC
  8
0
  6
CONTINUOUS
 62
256
 10
166.508097999999990
 20
-10.697422000000000
 40
3.000000000000000
 50
270.000000000000000
 51
0.000000000000000
  0
LINE
  8
0
  6
CONTINUOUS
 62
256
 10
159.508097999999990
 20
-134.816643000000000
 11
62.508097999999997
 21
-134.816643000000000
  0
LINE
  8
0
  6
CONTINUOUS
 62
256
 10
92.508098000000004
 20
-15.816642999999999
 11
62.508097999999997
 21
-15.816642999999999
  0
LINE
  8
0
  6
CONTINUOUS
 62
256
 10
159.508097999999990
 20
-18.316642999999999
 11
62.508097999999997
 21
-18.316642999999999
  0
LINE
  8
0
  6
CONTINUOUS
 62
256
 10
159.508097999999990
 20
-19.316642999999999
 11
62.508097999999997
 21
-19.316642999999999
  0
LINE
  8
0
  6
CONTINUOUS
 62
256
 10
159.508097999999990
 20
-20.316642999999999
 11
62.508097999999997
 21
-20.316642999999999
  0
LINE
  8
0
  6
CONTINUOUS
 62
256
 10
159.508097999999990
 20
-130.316643000000000
 11
62.508097999999997
 21
-130.316643000000000
  0
LINE
  8
0
  6
CONTINUOUS
 62
256
 10
159.508097999999990
 20
-131.316643000000000
 11
62.508097999999997
 21
-131.316643000000000
  0
LINE
  8
0
  6
CONTINUOUS
 62
256
 10
159.508097999999990
 20
-132.316643000000000
 11
62.508097999999997
 21
-132.316643000000000
  0
LINE
  8
0
  6
CONTINUOUS
 62
256
 10
92.508098000000004
 20
-134.816643000000000
 11
62.508097999999997
 21
-134.816643000000000
  0
LINE
  8
0
  6
CONTINUOUS
 62
256
 10
62.508097999999997
 20
-75.316642999999999
 11
62.508097999999997
 21
-15.842829000000000
  0
LINE
  8
0
  6
CONTINUOUS
 62
256
 10
62.508097999999997
 20
-75.316642999999999
 11
62.508097999999997
 21
-134.790457000000000
  0
LINE
  8
0
  6
CONTINUOUS
 62
256
 10
159.508097999999990
 20
-112.635828000000000
 11
62.508097999999997
 21
-112.635828000000000
  0
LINE
  8
0
  6
CONTINUOUS
 62
256
 10
159.508097999999990
 20
-111.031180000000010
 11
62.508097999999997
 21
-111.031180000000010
  0
LINE
  8
0
  6
CONTINUOUS
 62
256
 10
159.508097999999990
 20
-105.599076999999990
 11
62.508097999999997
 21
-105.599076999999990
  0
LINE
  8
0
  6
CONTINUOUS
 62
256
 10
159.508097999999990
 20
-107.067435000000000
 11
62.508097999999997
 21
-107.067435000000000
  0
LINE
  8
0
  6
CONTINUOUS
 62
256
 10
159.508097999999990
 20
-101.508577000000000
 11
62.508097999999997
 21
-101.508577000000000
  0
LINE
  8
0
  6
CONTINUOUS
 62
256
 10
159.508097999999990
 20
-100.146696000000010
 11
62.508097999999997
 21
-100.146696000000010
  0
LINE
  8
0
  6
CONTINUOUS
 62
256
 10
159.508097999999990
 20
-95.956142999999997
 11
62.508097999999997
 21
-95.956142999999997
  0
LINE
  8
0
  6
CONTINUOUS
 62
256
 10
159.508097999999990
 20
-94.689904999999996
 11
62.508097999999997
 21
-94.689904999999996
  0
LINE
  8
0
  6
CONTINUOUS
 62
256
 10
159.508097999999990
 20
-90.316642999999999
 11
62.508097999999997
 21
-90.316642999999999
  0
LINE
  8
0
  6
CONTINUOUS
 62
256
 10
159.508097999999990
 20
-120.682430000000000
 11
62.508097999999997
 21
-120.682430000000000
  0
LINE
  8
0
  6
CONTINUOUS
 62
256
 10
159.508097999999990
 20
-125.632177000000000
 11
62.508097999999997
 21
-125.632177000000000
  0
LINE
  8
0
  6
CONTINUOUS
 62
256
 10
159.508097999999990
 20
-60.316642999999999
 11
62.508097999999997
 21
-60.316642999999999
  0
LINE
  8
0
  6
CONTINUOUS
 62
256
 10
159.508097999999990
 20
-55.943381000000002
 11
62.508097999999997
 21
-55.943381000000002
  0
LINE
  8
0
  6
CONTINUOUS
 62
256
 10
159.508097999999990
 20
-54.677143000000001
 11
62.508097999999997
 21
-54.677143000000001
  0
LINE
  8
0
  6
CONTINUOUS
 62
256
 10
159.508097999999990
 20
-50.486589000000002
 11
62.508097999999997
 21
-50.486589000000002
  0
LINE
  8
0
  6
CONTINUOUS
 62
256
 10
159.508097999999990
 20
-49.124709000000003
 11
62.508097999999997
 21
-49.124709000000003
  0
LINE
  8
0
  6
CONTINUOUS
 62
256
 10
159.508097999999990
 20
-45.034208999999997
 11
62.508097999999997
 21
-45.034208999999997
  0
LINE
  8
0
  6
CONTINUOUS
 62
256
 10
159.508097999999990
 20
-43.565851000000002
 11
62.508097999999997
 21
-43.565851000000002
  0
LINE
  8
0
  6
CONTINUOUS
 62
256
 10
159.508097999999990
 20
-39.602105999999999
 11
62.508097999999997
 21
-39.602105999999999
  0
LINE
  8
0
  6
CONTINUOUS
 62
256
 10
159.508097999999990
 20
-37.997458000000002
 11
62.508097999999997
 21
-37.997458000000002
  0
LINE
  8
0
  6
CONTINUOUS
 62
256
 10
159.508097999999990
 20
-29.950856000000002
 11
62.508097999999997
 21
-29.950856000000002
  0
LINE
  8
0
  6
CONTINUOUS
 62
256
 10
159.508097999999990
 20
-25.001109000000000
 11
62.508097999999997
 21
-25.001109000000000
  0
LINE
  8
0
  6
CONTINUOUS
 62
256
 10
62.508603999999998
 20
-16.816642999999999
 11
62.508603999999998
 21
-19.066642999999999
  0
LINE
  8
0
  6
CONTINUOUS
 62
256
 10
62.508603999999998
 20
-133.816643000000000
 11
62.508603999999998
 21
-131.566643000000000
  0
LINE
  8
0
  6
CONTINUOUS
 62
256
 10
62.508603999999998
 20
-131.566643000000000
 11
62.508603999999998
 21
-133.734603999999990
  0
LINE
  8
0
  6
CONTINUOUS
 62
256
 10
62.508097999999997
 20
-133.807915000000010
 11
62.508097999999997
 21
-75.316642999999999
  0
LINE
  8
0
  6
CONTINUOUS
 62
256
 10
62.508097999999997
 20
-16.825369999999999
 11
62.508097999999997
 21
-75.316642999999999
  0
LINE
  8
0
  6
CONTINUOUS
 62
256
 10
62.508097999999997
 20
-133.816645999999990
 11
62.508097999999997
 21
-131.566645999999990
  0
LINE
  8
0
  6
CONTINUOUS
 62
256
 10
62.508097999999997
 20
-16.819081000000001
 11
62.508097999999997
 21
-133.816643000000000
  0
LINE
  8
0
  6
DASHDOT
 62
256
 10
7.360420000000000
 20
-75.316642999999999
 11
219.014098999999990
 21
-75.316642999999999
  0
LINE
  8
0
  6
DASHDOT
 62
256
 10
14.008098000000000
 20
-153.724494999999990
 11
14.008098000000000
 21
-180.435470000000010
  0
LINE
  8
0
  6
DASHDOT
 62
256
 10
-91.991901999999996
 20
-153.922919000000010
 11
-91.991901999999996
 21
-181.185236000000000
  0
LINE
  8
0
  6
CONTINUOUS
 62
256
 10
26.008098000000000
 20
-145.770952999999990
 11
26.008098000000000
 21
-20.770952999999999
  0
POINT
  8
0
  6
CONTINUOUS
 62
256
 10
-36.991902000000003
 20
-53.770952999999999
  0
ARC
  8
0
  6
CONTINUOUS
 62
256
 10
-73.991901999999996
 20
-20.770952999999999
 40
30.000000000000000
 50
90.000000000000000
 51
180.000000000000000
  0
ARC
  8
0
  6
CONTINUOUS
 62
256
 10
-3.991902000000000
 20
-20.770952999999999
 40
30.000000000000000
 50
360.000000000000000
 51
90.000000000000000
  0
LINE
  8
0
  6
CONTINUOUS
 62
256
 10
-103.991902000000000
 20
-145.770952999999990
 11
-103.991902000000000
 21
-20.770952999999999
  0
LINE
  8
0
  6
CONTINUOUS
 62
256
 10
-73.991901999999996
 20
9.229047000000000
 11
-3.991902000000000
 21
9.229047000000000
  0
POINT
  8
0
  6
DIVIDE
 62
256
 10
-36.991902000000003
 20
-39.770952999999999
  0
LINE
  8
0
  6
DASHED
 62
256
 10
39.008097999999997
 20
-94.290114000000003
 11
39.008097999999997
 21
-75.316642999999999
  0
LINE
  8
0
  6
DASHED
 62
256
 10
39.008097999999997
 20
-56.343172000000003
 11
39.008097999999997
 21
-75.316642999999999
  0
ARC
  8
0
  6
CONTINUOUS
 62
256
 10
-3.991902000000000
 20
-20.770952999999999
 40
30.000000000000000
 50
360.000000000000000
 51
90.000000000000000
  0
ARC
  8
0
  6
CONTINUOUS
 62
256
 10
23.008098000000000
 20
-161.770952999999990
 40
3.000000000000000
 50
0.000000000000000
 51
90.000000000000000
  0
ARC
  8
0
  6
CONTINUOUS
 62
256
 10
-100.991902000000000
 20
-161.770952999999990
 40
3.000000000000000
 50
90.000000000000000
 51
180.000000000000000
  0
ARC
  8
0
  6
CONTINUOUS
 62
256
 10
-73.991901999999996
 20
-20.770952999999999
 40
30.000000000000000
 50
90.000000000000000
 51
180.000000000000000
  0
ARC
  8
0
  6
CONTINUOUS
 62
256
 10
28.035101999999998
 20
-12.816642999999999
 40
3.000000000000000
 50
193.947911999999970
 51
270.000000000000000
  0
ARC
  8
0
  6
CONTINUOUS
 62
256
 10
29.008098000000000
 20
-137.816643000000000
 40
3.000000000000000
 50
90.000000000000000
 51
180.000000000000000
  0
ARC
  8
0
  6
CONTINUOUS
 62
256
 10
42.008097999999997
 20
-18.816642999999999
 40
3.000000000000000
 50
90.000000000000000
 51
180.000000000000000
  0
ARC
  8
0
  6
CONTINUOUS
 62
256
 10
42.008097999999997
 20
-131.816643000000000
 40
3.000000000000000
 50
180.000000000000000
 51
270.000000000000000
  0
ARC
  8
0
  6
CONTINUOUS
 62
256
 10
44.008097999999997
 20
-35.131912000000000
 40
5.000000000000000
 50
90.000000000000000
 51
180.000000000000000
  0
ARC
  8
0
  6
CONTINUOUS
 62
256
 10
44.008097999999997
 20
-28.220334999999999
 40
5.000000000000000
 50
90.000000000000000
 51
180.000000000000000
  0
ARC
  8
0
  6
CONTINUOUS
 62
256
 10
44.008097999999997
 20
-122.412950000000000
 40
5.000000000000000
 50
180.000000000000000
 51
270.000000000000000
  0
ARC
  8
0
  6
CONTINUOUS
 62
256
 10
44.008097999999997
 20
-115.501374000000000
 40
5.000000000000000
 50
180.000000000000000
 51
270.000000000000000
  0
ARC
  8
0
  6
CONTINUOUS
 62
256
 10
58.508097999999997
 20
-18.816642999999999
 40
3.000000000000000
 50
90.000000000000000
 51
180.000000000000000
  0
ARC
  8
0
  6
CONTINUOUS
 62
256
 10
52.508097999999997
 20
-20.220334999999999
 40
3.000000000000000
 50
270.000000000000000
 51
0.000000000000000
  0
ARC
  8
0
  6
CONTINUOUS
 62
256
 10
52.508097999999997
 20
-33.131912000000000
 40
3.000000000000000
 50
0.000000000000000
 51
90.000000000000000
  0
ARC
  8
0
  6
CONTINUOUS
 62
256
 10
52.508097999999997
 20
-39.315376000000001
 40
3.000000000000000
 50
0.000000000000000
 51
90.000000000000000
  0
ARC
  8
0
  6
CONTINUOUS
 62
256
 10
58.508097999999997
 20
-131.816643000000000
 40
3.000000000000000
 50
180.000000000000000
 51
270.000000000000000
  0
ARC
  8
0
  6
CONTINUOUS
 62
256
 10
52.508097999999997
 20
-117.501374000000000
 40
3.000000000000000
 50
270.000000000000000
 51
0.000000000000000
  0
ARC
  8
0
  6
CONTINUOUS
 62
256
 10
52.508097999999997
 20
-130.412950000000000
 40
3.000000000000000
 50
0.000000000000000
 51
90.000000000000000
  0
ARC
  8
0
  6
CONTINUOUS
 62
256
 10
52.508097999999997
 20
-111.317910000000000
 40
3.000000000000000
 50
270.000000000000000
 51
0.000000000000000
  0
LINE
  8
0
  6
CONTINUOUS
 62
256
 10
29.008098000000000
 20
-134.816643000000000
 11
62.508097999999997
 21
-134.816643000000000
  0
LINE
  8
0
  6
CONTINUOUS
 62
256
 10
28.035101999999998
 20
-15.816642999999999
 11
62.508097999999997
 21
-15.816642999999999
  0
LINE
  8
0
  6
CONTINUOUS
 62
256
 10
26.008098000000000
 20
-173.770952999999990
 11
26.008098000000000
 21
-155.602698000000000
  0
LINE
  8
0
  6
CONTINUOUS
 62
256
 10
26.008098000000000
 20
-155.602698000000000
 11
26.008098000000000
 21
-20.770952999999999
  0
LINE
  8
0
  6
CONTINUOUS
 62
256
 10
-100.991902000000000
 20
-158.770952999999990
 11
23.008098000000000
 21
-158.770952999999990
  0
LINE
  8
0
  6
CONTINUOUS
 62
256
 10
-103.991902000000000
 20
-173.770952999999990
 11
-103.991902000000000
 21
-20.770952999999999
  0
LINE
  8
0
  6
CONTINUOUS
 62
256
 10
-73.991901999999996
 20
9.229047000000000
 11
-3.991902000000000
 21
9.229047000000000
  0
LINE
  8
0
  6
CONTINUOUS
 62
256
 10
39.008097999999997
 20
-18.816642999999999
 11
39.008097999999997
 21
-131.816643000000000
  0
LINE
  8
0
  6
CONTINUOUS
 62
256
 10
52.508097999999997
 20
-23.220334999999999
 11
44.008097999999997
 21
-23.220334999999999
  0
LINE
  8
0
  6
CONTINUOUS
 62
256
 10
52.508097999999997
 20
-30.131912000000000
 11
44.008097999999997
 21
-30.131912000000000
  0
LINE
  8
0
  6
CONTINUOUS
 62
256
 10
52.508097999999997
 20
-127.412950000000000
 11
44.008097999999997
 21
-127.412950000000000
  0
LINE
  8
0
  6
CONTINUOUS
 62
256
 10
52.508097999999997
 20
-120.501374000000000
 11
44.008097999999997
 21
-120.501374000000000
  0
LINE
  8
0
  6
CONTINUOUS
 62
256
 10
62.508097999999997
 20
-55.316642999999999
 11
55.508097999999997
 21
-55.316642999999999
  0
LINE
  8
0
  6
CONTINUOUS
 62
256
 10
62.508097999999997
 20
-95.316642999999999
 11
55.508097999999997
 21
-95.316642999999999
  0
LINE
  8
0
  6
CONTINUOUS
 62
256
 10
55.508097999999997
 20
-19.816642999999999
 11
55.508097999999997
 21
-18.816642999999999
  0
LINE
  8
0
  6
CONTINUOUS
 62
256
 10
52.508097999999997
 20
-36.315376000000001
 11
47.508097999999997
 21
-36.315376000000001
  0
LINE
  8
0
  6
CONTINUOUS
 62
256
 10
55.508097999999997
 20
-33.131912000000000
 11
55.508097999999997
 21
-75.316642999999999
  0
LINE
  8
0
  6
CONTINUOUS
 62
256
 10
55.508097999999997
 20
-19.816642999999999
 11
55.508097999999997
 21
-20.220334999999999
  0
LINE
  8
0
  6
CONTINUOUS
 62
256
 10
55.508097999999997
 20
-130.816643000000000
 11
55.508097999999997
 21
-131.816643000000000
  0
LINE
  8
0
  6
CONTINUOUS
 62
256
 10
55.508097999999997
 20
-130.816643000000000
 11
55.508097999999997
 21
-130.412950000000000
  0
LINE
  8
0
  6
CONTINUOUS
 62
256
 10
55.508097999999997
 20
-130.816643000000000
 11
55.508097999999997
 21
-130.412950000000000
  0
LINE
  8
0
  6
CONTINUOUS
 62
256
 10
52.508097999999997
 20
-114.317910000000000
 11
47.508097999999997
 21
-114.317910000000000
  0
LINE
  8
0
  6
CONTINUOUS
 62
256
 10
55.508097999999997
 20
-117.501374000000000
 11
55.508097999999997
 21
-75.316642999999999
  0
LINE
  8
0
  6
CONTINUOUS
 62
256
 10
-40.991902000000003
 20
-43.770952999999999
 11
-32.991902000000003
 21
-43.770952999999999
  0
LINE
  8
0
  6
CONTINUOUS
 62
256
 10
-32.991902000000003
 20
-36.770952999999999
 11
-32.991902000000003
 21
-43.770952999999999
  0
ARC
  8
0
  6
CONTINUOUS
 62
256
 10
-36.991902000000003
 20
-53.770952999999999
 40
13.999999999999998
 50
106.601550000000000
 51
73.398450000000011
  0
LINE
  8
0
  6
CONTINUOUS
 62
256
 10
-40.991902000000003
 20
-36.770952999999999
 11
-32.991902000000003
 21
-36.770952999999999
  0
LINE
  8
0
  6
CONTINUOUS
 62
256
 10
-40.991902000000003
 20
-36.770952999999999
 11
-40.991902000000003
 21
-43.770952999999999
  0
CIRCLE
  8
0
  6
CONTINUOUS
 62
256
 10
-36.991902000000003
 20
-53.770952999999999
 40
4.000000000000000
  0
CIRCLE
  8
0
  6
CONTINUOUS
 62
256
 10
-36.991902000000003
 20
-53.770952999999999
 40
3.500000000000000
  0
LINE
  8
0
  6
CONTINUOUS
 62
256
 10
62.508097999999997
 20
-75.316642999999999
 11
62.508097999999997
 21
-134.816643000000000
  0
LINE
  8
0
  6
CONTINUOUS
 62
256
 10
62.508097999999997
 20
-75.316642999999999
 11
62.508097999999997
 21
-15.816642999999999
  0
LINE
  8
0
  6
CONTINUOUS
 62
256
 10
-36.991900000000001
 20
-173.770952999999990
 11
26.008098000000000
 21
-173.770952999999990
  0
LINE
  8
0
  6
CONTINUOUS
 62
256
 10
-103.991902000000000
 20
-173.770952999999990
 11
-36.991900000000001
 21
-173.770952999999990
  0
LINE
  8
0
  6
DASHDOT
 62
256
 10
-36.991902000000003
 20
18.887436000000001
 11
-36.991902000000003
 21
-184.848575000000010
  0
LINE
  8
0
  6
DASHDOT
 62
256
 10
-109.275111000000000
 20
-53.770952999999999
 11
46.353180999999999
 21
-53.770952999999999
  0
ARC
  8
0
  6
CONTINUOUS
 62
256
 10
-260.835123000000010
 20
37.590712000000003
 40
53.999999999999993
 50
329.521803999999970
 51
329.731816999999980
  0
CIRCLE
  8
0
  6
CONTINUOUS
 62
256
 10
-199.127852999999990
 20
-53.770952999999999
 40
4.000000000000000
  0
CIRCLE
  8
0
  6
CONTINUOUS
 62
256
 10
-199.127852999999990
 20
-53.770952999999999
 40
3.500000000000000
  0
LINE
  8
0
  6
DASHDOT
 62
256
 10
-218.330783999999990
 20
-53.770952999999999
 11
-176.599193000000010
 21
-53.770952999999999
  0
LINE
  8
0
  6
DASHDOT
 62
256
 10
-199.127852999999990
 20
-74.819275000000005
 11
-199.127852999999990
 21
-33.087685000000000
  0
LINE
  8
0
  6
CONTINUOUS
 62
256
 10
-203.127852999999990
 20
-36.770952999999999
 11
-195.127852999999990
 21
-36.770952999999999
  0
LINE
  8
0
  6
CONTINUOUS
 62
256
 10
-203.127852999999990
 20
-36.770952999999999
 11
-203.127852999999990
 21
-43.770952999999999
  0
LINE
  8
0
  6
CONTINUOUS
 62
256
 10
-203.127852999999990
 20
-43.770952999999999
 11
-195.127852999999990
 21
-43.770952999999999
  0
LINE
  8
0
  6
CONTINUOUS
 62
256
 10
-195.127852999999990
 20
-36.770952999999999
 11
-195.127852999999990
 21
-43.770952999999999
  0
ARC
  8
0
  6
CONTINUOUS
 62
256
 10
-199.127852999999990
 20
-53.770952999999999
 40
13.999999999999998
 50
106.601550000000000
 51
73.398450000000011
  0
LINE
  8
0
  6
DASHDOT
 62
256
 10
-115.177668999999990
 20
170.492454000000010
 11
218.076134999999990
 21
170.492454000000010
  0
TEXT
  8
0
  6
CONTINUOUS
 62
256
 10
544.105773925781250
 20
-223.662948608398440
 40
3.299999952316284
  1
1/1
 50
0.000002504478167
 41
0.850909097352304
  7
STANDARD1
  0
TEXT
  8
0
  6
CONTINUOUS
 62
256
 10
541.687805175781250
 20
-223.662948608398440
 40
3.299999952316284
  1
 
 50
0.000002504478167
 41
1.733333298293026
  7
STANDARD1
  0
TEXT
  8
0
  6
CONTINUOUS
 62
256
 10
528.637145996093750
 20
-223.662948608398440
 40
3.299999952316284
  1
SCALE
 50
0.000002504478167
 41
0.821052645401140
  7
STANDARD1
  0
TEXT
  8
0
  6
CONTINUOUS
 62
256
 10
525.385803222656250
 20
-223.662948608398440
 40
3.299999952316284
  1
 
 50
0.000002504478167
 41
1.733333298293026
  7
STANDARD1
  0
TEXT
  8
0
  6
CONTINUOUS
 62
256
 10
540.249023437500000
 20
-218.362945556640620
 40
3.299999952316284
  1
1/60
 50
0.000002504478167
 41
0.832000075658163
  7
STANDARD1
  0
TEXT
  8
0
  6
CONTINUOUS
 62
256
 10
536.457946777343750
 20
-218.362945556640620
 40
3.299999952316284
  1
ü`
 50
0.000002504478167
 41
1.176000019651471
  7
STANDARD1
  0
TEXT
  8
0
  6
CONTINUOUS
 62
256
 10
528.661804199218750
 20
-218.362945556640620
 40
3.299999952316284
  1
1/5
 50
0.000002504478167
 41
0.850909097352304
  7
STANDARD1
  0
TEXT
  8
0
  6
CONTINUOUS
 62
256
 10
525.385803222656250
 20
-218.362945556640620
 40
3.299999952316284
  1
 
 50
0.000002504478167
 41
1.733333298293026
  7
STANDARD1
  0
TEXT
  8
0
  6
CONTINUOUS
 62
256
 10
528.621704101562500
 20
-213.062942504882810
 40
3.299999952316284
  1
GM-SHY-RL
 50
0.000002504478167
 41
0.802285735636046
  7
STANDARD1
  0
TEXT
  8
0
  6
CONTINUOUS
 62
256
 10
525.385803222656250
 20
-213.062942504882810
 40
3.299999952316284
  1
 
 50
0.000002504478167
 41
1.733333298293026
  7
STANDARD1
  0
TEXT
  8
0
  6
CONTINUOUS
 62
256
 10
531.211181640625000
 20
-207.762954711914060
 40
3.299999952316284
  1
0.4kW
 50
0.000002504478167
 41
0.821052645401140
  7
STANDARD1
  0
TEXT
  8
0
  6
CONTINUOUS
 62
256
 10
525.385803222656250
 20
-207.762954711914060
 40
3.299999952316284
  1
  
 50
0.000002504478167
 41
1.485714400175845
  7
STANDARD1
  0
TEXT
  8
0
  6
CONTINUOUS
 62
256
 10
531.205261230468750
 20
-202.462951660156250
 40
3.299999952316284
  1
SHY044
 50
0.000002504478167
 41
0.813913121261144
  7
STANDARD1
  0
TEXT
  8
0
  6
CONTINUOUS
 62
256
 10
525.385803222656250
 20
-202.462951660156250
 40
3.299999952316284
  1
  
 50
0.000002504478167
 41
1.485714400175845
  7
STANDARD1
  0
LINE
  8
0
  6
DASHDOT
 62
256
 10
464.554709000000000
 20
-53.770952999999999
 11
270.718771000000000
 21
-53.770952999999999
  0
LINE
  8
0
  6
DASHDOT
 62
256
 10
392.879927000000010
 20
-180.418910000000010
 11
392.879927000000010
 21
25.802848000000001
  0
LINE
  8
0
  6
CONTINUOUS
 62
256
 10
362.879927000000010
 20
8.059558000000001
 11
353.827569999999980
 21
7.901549000000000
  0
LINE
  8
0
  6
CONTINUOUS
 62
256
 10
429.879927000000010
 20
9.229047000000000
 11
422.879927000000010
 21
9.106862000000000
  0
LINE
  8
0
  6
CONTINUOUS
 62
256
 10
314.879927000000010
 20
-39.770952999999999
 11
314.879927000000010
 21
-36.770952999999999
  0
LINE
  8
0
  6
CONTINUOUS
 62
256
 10
323.879927000000010
 20
-39.770952999999999
 11
278.879927000000010
 21
-39.770952999999999
  0
LINE
  8
0
  6
CONTINUOUS
 62
256
 10
278.879927000000010
 20
-53.770952999999999
 11
278.879927000000010
 21
-36.770952999999999
  0
LINE
  8
0
  6
CONTINUOUS
 62
256
 10
314.879927000000010
 20
-36.770952999999999
 11
278.879927000000010
 21
-36.770952999999999
  0
LINE
  8
0
  6
CONTINUOUS
 62
256
 10
323.879927000000010
 20
-67.770953000000006
 11
278.879927000000010
 21
-67.770953000000006
  0
LINE
  8
0
  6
CONTINUOUS
 62
256
 10
278.879927000000010
 20
-53.770952999999999
 11
278.879927000000010
 21
-67.770953000000006
  0
LINE
  8
0
  6
CONTINUOUS
 62
256
 10
323.879927000000010
 20
-53.770952999999999
 11
323.879927000000010
 21
-39.270952999999999
  0
LINE
  8
0
  6
CONTINUOUS
 62
256
 10
323.879927000000010
 20
-53.770952999999999
 11
323.879927000000010
 21
-39.270952999999999
  0
LINE
  8
0
  6
CONTINUOUS
 62
256
 10
323.879927000000010
 20
-39.270952999999999
 11
325.879927000000010
 21
-39.270952999999999
  0
LINE
  8
0
  6
CONTINUOUS
 62
256
 10
323.879927000000010
 20
-53.770952999999999
 11
323.879927000000010
 21
-68.270953000000006
  0
LINE
  8
0
  6
CONTINUOUS
 62
256
 10
323.879927000000010
 20
-53.770952999999999
 11
323.879927000000010
 21
-68.270953000000006
  0
LINE
  8
0
  6
CONTINUOUS
 62
256
 10
323.879927000000010
 20
-68.270953000000006
 11
325.879927000000010
 21
-68.270953000000006
  0
LINE
  8
0
  6
CONTINUOUS
 62
256
 10
454.900871999999990
 20
-91.590933000000007
 11
452.407810999999980
 21
-92.157460999999998
  0
LINE
  8
0
  6
CONTINUOUS
 62
256
 10
440.379643999999980
 20
-139.062968000000010
 11
440.379643999999980
 21
-131.193889000000010
  0
LINE
  8
0
  6
CONTINUOUS
 62
256
 10
437.879927000000010
 20
-142.770952999999990
 11
437.879927000000010
 21
-133.354714000000000
  0
LINE
  8
0
  6
CONTINUOUS
 62
256
 10
429.879927000000010
 20
-158.070953000000000
 11
429.879927000000010
 21
-137.522446000000000
  0
LINE
  8
0
  6
CONTINUOUS
 62
256
 10
350.879927000000010
 20
-135.333360000000000
 11
350.879927000000010
 21
-154.403786999999990
  0
LINE
  8
0
  6
CONTINUOUS
 62
256
 10
346.380210999999970
 20
-132.124148999999990
 11
346.380210999999970
 21
-137.961550999999990
  0
LINE
  8
0
  6
CONTINUOUS
 62
256
 10
330.858983000000020
 20
-91.590933000000007
 11
333.351409999999990
 21
-92.146174999999999
  0
LINE
  8
0
  6
CONTINUOUS
 62
256
 10
346.380210999999970
 20
-8.489682000000000
 11
346.380210999999970
 21
-18.509136999999999
  0
LINE
  8
0
  6
CONTINUOUS
 62
256
 10
350.879927000000010
 20
-15.299925999999999
 11
350.879927000000010
 21
4.902005000000000
  0
LINE
  8
0
  6
CONTINUOUS
 62
256
 10
429.879927000000010
 20
-13.110840000000000
 11
429.879927000000010
 21
9.229047000000000
  0
LINE
  8
0
  6
CONTINUOUS
 62
256
 10
437.879927000000010
 20
-17.278572000000000
 11
437.879927000000010
 21
8.089407000000000
  0
LINE
  8
0
  6
CONTINUOUS
 62
256
 10
440.379643999999980
 20
-5.478937000000000
 11
440.379643999999980
 21
-19.437348000000000
  0
LINE
  8
0
  6
CONTINUOUS
 62
256
 10
333.379927000000010
 20
-57.986033999999997
 11
333.379927000000010
 21
-55.816642999999999
  0
ARC
  8
0
  6
CONTINUOUS
 62
256
 10
333.879927000000010
 20
-55.816642999999999
 40
0.500000000000015
 50
133.310430000002040
 51
180.000000000000000
  0
LINE
  8
0
  6
CONTINUOUS
 62
256
 10
333.379927000000010
 20
-92.647251999999995
 11
333.379927000000010
 21
-94.816642999999999
  0
ARC
  8
0
  6
CONTINUOUS
 62
256
 10
333.879927000000010
 20
-94.816642999999999
 40
0.500000000000000
 50
180.000000000000000
 51
226.689569999997960
  0
LINE
  8
0
  6
CONTINUOUS
 62
256
 10
452.379927000000010
 20
-92.647251999999995
 11
452.379927000000010
 21
-94.816642999999999
  0
ARC
  8
0
  6
CONTINUOUS
 62
256
 10
451.879927000000010
 20
-94.816642999999999
 40
0.500000000000015
 50
313.310430000002040
 51
0.000000000000000
  0
LINE
  8
0
  6
CONTINUOUS
 62
256
 10
452.379927000000010
 20
-57.986033999999997
 11
452.379927000000010
 21
-55.816642999999999
  0
ARC
  8
0
  6
CONTINUOUS
 62
256
 10
451.879927000000010
 20
-55.816642999999999
 40
0.500000000000000
 50
0.000000000000000
 51
46.689569999997964
  0
LINE
  8
0
  6
CONTINUOUS
 62
256
 10
437.879927000000010
 20
8.089407000000000
 11
436.880080000000020
 21
9.106859000000000
  0
LINE
  8
0
  6
CONTINUOUS
 62
256
 10
429.879927000000010
 20
9.229047000000000
 11
436.880080000000020
 21
9.106859000000000
  0
ARC
  8
0
  6
CONTINUOUS
 62
256
 10
438.379643999999980
 20
-5.478937000000000
 40
2.000000000000000
 50
0.000000000000000
 51
67.971305999999956
  0
ARC
  8
0
  6
CONTINUOUS
 62
256
 10
439.879927000000010
 20
-1.770953000000000
 40
2.000000000000000
 50
180.000000000000000
 51
247.971305999999970
  0
ARC
  8
0
  6
CONTINUOUS
 62
256
 10
445.379643999999980
 20
-8.666009000000001
 40
5.000000000000000
 50
180.000000000000000
 51
260.000000000000110
  0
LINE
  8
0
  6
CONTINUOUS
 62
256
 10
457.379927000000010
 20
-18.905396000000000
 11
457.379927000000010
 21
-53.770952999999999
  0
LINE
  8
0
  6
CONTINUOUS
 62
256
 10
457.379927000000010
 20
-27.270952999999999
 11
459.579927000000000
 21
-27.270952999999999
  0
LINE
  8
0
  6
CONTINUOUS
 62
256
 10
459.879927000000010
 20
-27.570952999999999
 11
459.879927000000010
 21
-79.970952999999994
  0
LINE
  8
0
  6
CONTINUOUS
 62
256
 10
459.579927000000000
 20
-27.270952999999999
 11
459.879927000000010
 21
-27.570952999999999
  0
LINE
  8
0
  6
CONTINUOUS
 62
256
 10
459.579927000000000
 20
-80.270953000000006
 11
459.879927000000010
 21
-79.970952999999994
  0
LINE
  8
0
  6
CONTINUOUS
 62
256
 10
457.379927000000010
 20
-80.270953000000006
 11
459.579927000000000
 21
-80.270953000000006
  0
LINE
  8
0
  6
CONTINUOUS
 62
256
 10
457.379927000000010
 20
-53.770952999999999
 11
457.379927000000010
 21
-88.636509000000004
  0
ARC
  8
0
  6
CONTINUOUS
 62
256
 10
438.379643999999980
 20
-139.062968000000010
 40
2.000000000000013
 50
292.028693999999860
 51
0.000000000000000
  0
ARC
  8
0
  6
CONTINUOUS
 62
256
 10
439.879927000000010
 20
-142.770952999999990
 40
2.000000000000013
 50
112.028693999999900
 51
180.000000000000000
  0
LINE
  8
0
  6
CONTINUOUS
 62
256
 10
437.879927000000010
 20
-156.698993000000000
 11
436.880080000000020
 21
-157.716444999999990
  0
LINE
  8
0
  6
CONTINUOUS
 62
256
 10
429.879927000000010
 20
-157.768812999999990
 11
436.897532000000010
 21
-157.698686000000010
  0
LINE
  8
0
  6
CONTINUOUS
 62
256
 10
437.879927000000010
 20
-156.698993000000000
 11
437.879927000000010
 21
-142.770952999999990
  0
LINE
  8
0
  6
CONTINUOUS
 62
256
 10
454.900871999999990
 20
-15.950972999999999
 11
444.511402999999970
 21
-13.590047999999999
  0
ARC
  8
0
  6
CONTINUOUS
 62
256
 10
454.379927000000010
 20
-18.905396000000000
 40
3.000000000000000
 50
0.000000000000000
 51
80.000000000000355
  0
ARC
  8
0
  6
CONTINUOUS
 62
256
 10
454.379927000000010
 20
-88.636509000000004
 40
3.000000000000003
 50
279.999999999999660
 51
0.000000000000000
  0
ARC
  8
0
  6
CONTINUOUS
 62
256
 10
331.379927000000010
 20
-88.636509000000004
 40
3.000000000000000
 50
180.000000000000000
 51
260.000000000000340
  0
LINE
  8
0
  6
CONTINUOUS
 62
256
 10
328.379927000000010
 20
-80.270953000000006
 11
326.279926999999990
 21
-80.270953000000006
  0
LINE
  8
0
  6
CONTINUOUS
 62
256
 10
328.379927000000010
 20
-27.270952999999999
 11
326.279926999999990
 21
-27.270952999999999
  0
ARC
  8
0
  6
CONTINUOUS
 62
256
 10
331.379927000000010
 20
-18.905396000000000
 40
2.999999999999996
 50
99.999999999999659
 51
180.000000000000000
  0
POINT
  8
0
  6
CONTINUOUS
 62
256
 10
325.879927000000010
 20
-158.770952999999990
  0
POINT
  8
0
  6
CONTINUOUS
 62
256
 10
459.879927000000010
 20
-158.770952999999990
  0
LINE
  8
0
  6
CONTINUOUS
 62
256
 10
459.879927000000010
 20
-173.770952999999990
 11
325.879927000000010
 21
-173.770952999999990
  0
LINE
  8
0
  6
CONTINUOUS
 62
256
 10
325.879927000000010
 20
-27.670953000000001
 11
325.879927000000010
 21
-79.870953000000000
  0
LINE
  8
0
  6
CONTINUOUS
 62
256
 10
430.379927000000010
 20
-158.070953000000000
 11
429.879927000000010
 21
-158.070953000000000
  0
LINE
  8
0
  6
CONTINUOUS
 62
256
 10
328.379927000000010
 20
-53.770952999999999
 11
328.379927000000010
 21
-88.636509000000004
  0
LINE
  8
0
  6
CONTINUOUS
 62
256
 10
326.279926999999990
 20
-80.270953000000006
 11
325.879927000000010
 21
-79.870953000000000
  0
LINE
  8
0
  6
CONTINUOUS
 62
256
 10
326.279926999999990
 20
-27.270952999999999
 11
325.879927000000010
 21
-27.670953000000001
  0
LINE
  8
0
  6
CONTINUOUS
 62
256
 10
328.379927000000010
 20
-18.905396000000000
 11
328.379927000000010
 21
-53.770952999999999
  0
LINE
  8
0
  6
CONTINUOUS
 62
256
 10
330.858983000000020
 20
-15.950972999999999
 11
342.248451999999990
 21
-13.413721000000001
  0
ARC
  8
0
  6
CONTINUOUS
 62
256
 10
349.380210999999970
 20
-137.961550999999990
 40
3.000000000000000
 50
180.000000000000000
 51
255.519690999999710
  0
ARC
  8
0
  6
CONTINUOUS
 62
256
 10
347.879927000000010
 20
-143.770952999999990
 40
3.000000000000000
 50
0.000000000000000
 51
75.519690999999710
  0
ARC
  8
0
  6
CONTINUOUS
 62
256
 10
349.380210999999970
 20
-6.580354000000000
 40
3.000000000000004
 50
104.480309000000280
 51
180.000000000000000
  0
ARC
  8
0
  6
CONTINUOUS
 62
256
 10
347.879927000000010
 20
-0.770953000000000
 40
3.000000000000004
 50
284.480309000000320
 51
0.000000000000000
  0
ARC
  8
0
  6
CONTINUOUS
 62
256
 10
341.380210999999970
 20
-8.489682000000000
 40
4.999999999999997
 50
279.999999999999890
 51
0.000000000000000
  0
ARC
  8
0
  6
CONTINUOUS
 62
256
 10
346.879927000000010
 20
-154.403786999999990
 40
3.999999999999996
 50
271.000000000000110
 51
0.000000000000000
  0
ARC
  8
0
  6
CONTINUOUS
 62
256
 10
328.879927000000010
 20
-161.719044000000000
 40
3.000000000000011
 50
90.999999999999602
 51
180.000000000000000
  0
ARC
  8
0
  6
CONTINUOUS
 62
256
 10
456.879927000000010
 20
-161.719044000000000
 40
3.000000000000000
 50
0.000000000000000
 51
89.000000000000412
  0
ARC
  8
0
  6
CONTINUOUS
 62
256
 10
347.879927000000010
 20
-0.770953000000000
 40
3.000000000000002
 50
300.003127000000060
 51
360.000000000000000
  0
ARC
  8
0
  6
CONTINUOUS
 62
256
 10
353.879927000000010
 20
4.902005000000000
 40
2.999999999999999
 50
90.999999999999602
 51
180.000000000000000
  0
LINE
  8
0
  6
CONTINUOUS
 62
256
 10
430.379927000000010
 20
-158.270952999999990
 11
430.379927000000010
 21
-158.070953000000000
  0
LINE
  8
0
  6
CONTINUOUS
 62
256
 10
346.380210999999970
 20
-6.580354000000000
 11
346.380210999999970
 21
-8.489682000000000
  0
LINE
  8
0
  6
CONTINUOUS
 62
256
 10
328.827569999999980
 20
-158.719501000000010
 11
346.949737000000030
 21
-158.403178000000000
  0
LINE
  8
0
  6
CONTINUOUS
 62
256
 10
456.932284999999980
 20
-158.719501000000010
 11
430.379927000000010
 21
-158.256027999999990
  0
LINE
  8
0
  6
DASHDOT
 62
256
 10
337.879927000000010
 20
-178.016837000000010
 11
337.879927000000010
 21
-153.962783000000000
  0
LINE
  8
0
  6
DASHDOT
 62
256
 10
447.879927000000010
 20
-178.016837000000010
 11
447.879927000000010
 21
-153.962783000000000
  0
LINE
  8
0
  6
CONTINUOUS
 62
256
 10
325.879927000000010
 20
-173.770952999999990
 11
325.879927000000010
 21
-161.719044000000000
  0
LINE
  8
0
  6
CONTINUOUS
 62
256
 10
459.879927000000010
 20
-173.770952999999990
 11
459.879927000000010
 21
-161.219044000000000
  0
ARC
  8
0
  6
CONTINUOUS
 62
256
 10
152.279926999999990
 20
-75.316642999999999
 40
289.396999999999990
 50
352.102011000000000
 51
360.000000000000000
  0
ARC
  8
0
  6
CONTINUOUS
 62
256
 10
432.988704999999980
 20
-114.258161000000000
 40
5.999999999999989
 50
314.999999999999770
 51
352.102010999999950
  0
LINE
  8
0
  6
CONTINUOUS
 62
256
 10
437.231345999999970
 20
-118.500801999999990
 11
432.655280000000000
 21
-123.076866999999990
  0
ARC
  8
0
  6
CONTINUOUS
 62
256
 10
421.767957000000020
 20
-112.189544000000000
 40
15.397000000000000
 50
276.051984999999890
 51
315.000000000000060
  0
ARC
  8
0
  6
CONTINUOUS
 62
256
 10
392.879927000000010
 20
160.283357000000000
 40
289.396999999999990
 50
270.000000000000000
 51
276.051985000000000
  0
ARC
  8
0
  6
CONTINUOUS
 62
256
 10
152.279926999999990
 20
-75.316642999999999
 40
289.396999999999990
 50
0.000000000000000
 51
7.897989000000000
  0
ARC
  8
0
  6
CONTINUOUS
 62
256
 10
432.988704999999980
 20
-36.375124999999997
 40
5.999999999999990
 50
7.897989000000010
 51
45.000000000000149
  0
LINE
  8
0
  6
CONTINUOUS
 62
256
 10
437.231345999999970
 20
-32.132483999999998
 11
432.655280000000000
 21
-27.556419000000002
  0
ARC
  8
0
  6
CONTINUOUS
 62
256
 10
421.767957000000020
 20
-38.443742000000000
 40
15.397000000000016
 50
44.999999999999929
 51
83.948015000000069
  0
ARC
  8
0
  6
CONTINUOUS
 62
256
 10
392.879927000000010
 20
-310.916643000000020
 40
289.396999999999990
 50
83.948014999999998
 51
90.000000000000000
  0
ARC
  8
0
  6
CONTINUOUS
 62
256
 10
633.479926999999980
 20
-75.316642999999999
 40
289.396999999999990
 50
172.102011000000030
 51
180.000000000000000
  0
ARC
  8
0
  6
CONTINUOUS
 62
256
 10
352.771149999999980
 20
-36.375124999999997
 40
5.999999999999983
 50
134.999999999999890
 51
172.102011000000000
  0
LINE
  8
0
  6
CONTINUOUS
 62
256
 10
348.528508999999990
 20
-32.132483999999998
 11
353.104574000000010
 21
-27.556419000000002
  0
ARC
  8
0
  6
CONTINUOUS
 62
256
 10
363.991897999999990
 20
-38.443742000000000
 40
15.396999999999997
 50
96.051984999999931
 51
135.000000000000090
  0
ARC
  8
0
  6
CONTINUOUS
 62
256
 10
392.879927000000010
 20
-310.916643000000020
 40
289.396999999999990
 50
90.000000000000000
 51
96.051985000000002
  0
ARC
  8
0
  6
CONTINUOUS
 62
256
 10
363.991897999999990
 20
-112.189544000000000
 40
15.397000000000016
 50
224.999999999999910
 51
263.948015000000110
  0
ARC
  8
0
  6
CONTINUOUS
 62
256
 10
421.767957000000020
 20
-38.443742000000000
 40
26.600000000000019
 50
44.999999999999964
 51
83.948015000000026
  0
ARC
  8
0
  6
CONTINUOUS
 62
256
 10
421.767957000000020
 20
-112.189544000000000
 40
26.599999999999994
 50
276.051984999999950
 51
314.999999999999940
  0
ARC
  8
0
  6
CONTINUOUS
 62
256
 10
363.991897999999990
 20
-112.189544000000000
 40
26.600000000000009
 50
224.999999999999910
 51
263.948015000000050
  0
ARC
  8
0
  6
CONTINUOUS
 62
256
 10
363.991897999999990
 20
-38.443742000000000
 40
26.599999999999998
 50
96.051984999999959
 51
134.999999999999940
  0
LINE
  8
0
  6
DASHDOT
 62
256
 10
458.885211000000030
 20
-75.316642999999999
 11
328.050700000000010
 21
-75.316642999999999
  0
LINE
  8
0
  6
CONTINUOUS
 62
256
 10
338.116407999999980
 20
-123.932135000000000
 11
345.182857000000010
 21
-130.998583999999990
  0
ARC
  8
0
  6
CONTINUOUS
 62
256
 10
442.976541999999990
 20
-119.265230000000000
 40
6.600000000000017
 50
315.000000000000170
 51
351.402918000000060
  0
ARC
  8
0
  6
CONTINUOUS
 62
256
 10
152.279926999999990
 20
-75.316642999999999
 40
300.600000000000020
 50
351.402918000000000
 51
0.000000000000000
  0
ARC
  8
0
  6
CONTINUOUS
 62
256
 10
442.976541999999990
 20
-31.368054999999998
 40
6.600000000000021
 50
8.597081999999979
 51
44.999999999999829
  0
LINE
  8
0
  6
CONTINUOUS
 62
256
 10
447.643446999999980
 20
-26.701150999999999
 11
440.576997000000010
 21
-19.634702000000001
  0
ARC
  8
0
  6
CONTINUOUS
 62
256
 10
392.879927000000010
 20
-310.916643000000020
 40
300.600000000000020
 50
83.948014999999998
 51
96.051985000000002
  0
ARC
  8
0
  6
CONTINUOUS
 62
256
 10
633.479926999999980
 20
-75.316642999999999
 40
300.600000000000020
 50
171.402918000000000
 51
180.000000000000000
  0
ARC
  8
0
  6
CONTINUOUS
 62
256
 10
342.783313000000020
 20
-31.368054999999998
 40
6.600000000000019
 50
135.000000000000140
 51
171.402918000000030
  0
ARC
  8
0
  6
CONTINUOUS
 62
256
 10
152.279926999999990
 20
-75.316642999999999
 40
300.600000000000020
 50
0.000000000000000
 51
8.597082000000000
  0
ARC
  8
0
  6
CONTINUOUS
 62
256
 10
633.479926999999980
 20
-75.316642999999999
 40
300.600000000000020
 50
180.000000000000000
 51
188.597082000000000
  0
ARC
  8
0
  6
CONTINUOUS
 62
256
 10
392.879927000000010
 20
160.283357000000000
 40
300.600000000000020
 50
263.948015000000000
 51
276.051985000000000
  0
LINE
  8
0
  6
CONTINUOUS
 62
256
 10
338.116407999999980
 20
-26.701150999999999
 11
345.182857000000010
 21
-19.634702000000001
  0
LINE
  8
0
  6
CONTINUOUS
 62
256
 10
447.643446999999980
 20
-123.932135000000000
 11
440.576997000000010
 21
-130.998583999999990
  0
ARC
  8
0
  6
CONTINUOUS
 62
256
 10
351.573148000000000
 20
-71.316642999999999
 40
1.499999999999979
 50
174.468927999999720
 51
270.000000000000000
  0
ARC
  8
0
  6
CONTINUOUS
 62
256
 10
351.573148000000000
 20
-79.316642999999999
 40
1.500000000000000
 50
90.000000000000000
 51
185.531072000000280
  0
ARC
  8
0
  6
CONTINUOUS
 62
256
 10
392.879927000000010
 20
-75.316642999999999
 40
17.999999999999986
 50
131.837003999999950
 51
168.162995999999990
  0
ARC
  8
0
  6
CONTINUOUS
 62
256
 10
392.879927000000010
 20
-75.316642999999999
 40
27.499999999999989
 50
187.928142000000010
 51
232.071858000000050
  0
LINE
  8
0
  6
CONTINUOUS
 62
256
 10
351.573148000000000
 20
-72.816642999999999
 11
354.588282999999990
 21
-72.816642999999999
  0
LINE
  8
0
  6
CONTINUOUS
 62
256
 10
371.569042000000020
 20
-43.405106000000004
 11
370.061473999999980
 21
-40.793922999999999
  0
LINE
  8
0
  6
CONTINUOUS
 62
256
 10
361.130912000000020
 20
-72.816642999999999
 11
364.157113999999980
 21
-72.816642999999999
  0
ARC
  8
0
  6
CONTINUOUS
 62
256
 10
361.130912000000020
 20
-71.316642999999999
 40
1.500000000000028
 50
172.819243999999910
 51
270.000000000000000
  0
ARC
  8
0
  6
CONTINUOUS
 62
256
 10
354.588282999999990
 20
-71.316642999999999
 40
1.500000000000000
 50
270.000000000000000
 51
354.036430000000220
  0
ARC
  8
0
  6
CONTINUOUS
 62
256
 10
368.762435999999980
 20
-41.543922999999999
 40
1.500000000000025
 50
29.999999999999456
 51
125.531071999999480
  0
ARC
  8
0
  6
CONTINUOUS
 62
256
 10
392.879927000000010
 20
-75.316642999999999
 40
43.000000000000014
 50
125.531072000000020
 51
174.468928000000010
  0
ARC
  8
0
  6
CONTINUOUS
 62
256
 10
375.690638999999980
 20
-37.543922999999999
 40
1.499999999999995
 50
114.468927999999890
 51
210.000000000000510
  0
LINE
  8
0
  6
CONTINUOUS
 62
256
 10
375.899168999999970
 20
-40.905106000000004
 11
374.391600999999980
 21
-38.293922999999999
  0
ARC
  8
0
  6
CONTINUOUS
 62
256
 10
377.198207000000020
 20
-40.155106000000004
 40
1.499999999999975
 50
210.000000000000510
 51
294.036429999999600
  0
ARC
  8
0
  6
CONTINUOUS
 62
256
 10
392.879927000000010
 20
-75.316642999999999
 40
36.999999999999993
 50
65.963570000000033
 51
114.036429999999970
  0
ARC
  8
0
  6
CONTINUOUS
 62
256
 10
392.879927000000010
 20
-75.316642999999999
 40
43.000000000000007
 50
65.531071999999980
 51
114.468928000000030
  0
ARC
  8
0
  6
CONTINUOUS
 62
256
 10
410.069214999999990
 20
-37.543922999999999
 40
1.499999999999975
 50
329.999999999999490
 51
65.531072000000108
  0
LINE
  8
0
  6
CONTINUOUS
 62
256
 10
411.368252999999980
 20
-38.293922999999999
 11
409.860685999999990
 21
-40.905106000000004
  0
ARC
  8
0
  6
CONTINUOUS
 62
256
 10
408.561647999999990
 20
-40.155106000000004
 40
1.499999999999999
 50
245.963570000000350
 51
329.999999999999490
  0
ARC
  8
0
  6
CONTINUOUS
 62
256
 10
416.997417999999980
 20
-41.543922999999999
 40
1.499999999999989
 50
54.468928000000517
 51
149.999999999999460
  0
LINE
  8
0
  6
CONTINUOUS
 62
256
 10
415.698379999999990
 20
-40.793922999999999
 11
414.190812999999990
 21
-43.405106000000004
  0
LINE
  8
0
  6
CONTINUOUS
 62
256
 10
351.573148000000000
 20
-77.816642999999999
 11
354.588282999999990
 21
-77.816642999999999
  0
ARC
  8
0
  6
CONTINUOUS
 62
256
 10
354.588282999999990
 20
-79.316642999999999
 40
1.500000000000012
 50
5.963569999999792
 51
90.000000000000000
  0
LINE
  8
0
  6
CONTINUOUS
 62
256
 10
361.130912000000020
 20
-77.816642999999999
 11
364.157113999999980
 21
-77.816642999999999
  0
ARC
  8
0
  6
CONTINUOUS
 62
256
 10
361.130912000000020
 20
-79.316642999999999
 40
1.500000000000000
 50
90.000000000000000
 51
187.180756000000090
  0
ARC
  8
0
  6
CONTINUOUS
 62
256
 10
392.879927000000010
 20
-75.316642999999999
 40
23.999999999999996
 50
190.240348000000040
 51
229.759652000000020
  0
ARC
  8
0
  6
CONTINUOUS
 62
256
 10
378.345031000000010
 20
-92.491821999999999
 40
1.499999999999991
 50
229.759652000000220
 51
329.999999999999490
  0
LINE
  8
0
  6
CONTINUOUS
 62
256
 10
381.172195999999990
 20
-90.595027999999999
 11
379.644069000000000
 21
-93.241821999999999
  0
ARC
  8
0
  6
CONTINUOUS
 62
256
 10
379.873157999999990
 20
-89.845027999999999
 40
1.499999999999975
 50
329.999999999999490
 51
48.162996000000220
  0
ARC
  8
0
  6
CONTINUOUS
 62
256
 10
392.879927000000010
 20
-75.316642999999999
 40
17.999999999999975
 50
191.837004000000010
 51
228.162996000000020
  0
ARC
  8
0
  6
CONTINUOUS
 62
256
 10
373.794593000000020
 20
-79.316642999999999
 40
1.499999999999997
 50
11.837003999999803
 51
90.000000000000000
  0
LINE
  8
0
  6
CONTINUOUS
 62
256
 10
370.738337000000000
 20
-77.816642999999999
 11
373.794593000000020
 21
-77.816642999999999
  0
ARC
  8
0
  6
CONTINUOUS
 62
256
 10
370.738337000000000
 20
-79.316642999999999
 40
1.500000000000000
 50
90.000000000000000
 51
190.240347999999700
  0
ARC
  8
0
  6
CONTINUOUS
 62
256
 10
392.879927000000010
 20
-75.316642999999999
 40
14.500000000000011
 50
197.920212999999930
 51
222.079786999999930
  0
ARC
  8
0
  6
CONTINUOUS
 62
256
 10
383.231167000000030
 20
-84.028785999999997
 40
1.499999999999994
 50
222.079787000000180
 51
329.999999999999490
  0
LINE
  8
0
  6
CONTINUOUS
 62
256
 10
386.132288000000020
 20
-82.003896999999995
 11
384.530205000000020
 21
-84.778785999999997
  0
ARC
  8
0
  6
CONTINUOUS
 62
256
 10
384.833250000000020
 20
-81.253896999999995
 40
1.499999999999975
 50
329.999999999999490
 51
36.421821999999963
  0
ARC
  8
0
  6
CONTINUOUS
 62
256
 10
392.879927000000010
 20
-75.316642999999999
 40
8.499999999999991
 50
203.578178000000070
 51
216.421822000000050
  0
ARC
  8
0
  6
CONTINUOUS
 62
256
 10
383.714775999999970
 20
-79.316642999999999
 40
1.499999999999984
 50
23.578178000000403
 51
90.000000000000000
  0
LINE
  8
0
  6
CONTINUOUS
 62
256
 10
380.510609999999990
 20
-77.816642999999999
 11
383.714775999999970
 21
-77.816642999999999
  0
ARC
  8
0
  6
CONTINUOUS
 62
256
 10
380.510609999999990
 20
-79.316642999999999
 40
1.500000000000000
 50
90.000000000000000
 51
197.920212999999450
  0
ARC
  8
0
  6
CONTINUOUS
 62
256
 10
392.879927000000010
 20
-75.316642999999999
 40
23.999999999999993
 50
10.240347999999988
 51
49.759652000000010
  0
ARC
  8
0
  6
CONTINUOUS
 62
256
 10
415.021517000000020
 20
-71.316642999999999
 40
1.500000000000000
 50
270.000000000000000
 51
10.240347999999715
  0
LINE
  8
0
  6
CONTINUOUS
 62
256
 10
411.965262000000000
 20
-72.816642999999999
 11
415.021517000000020
 21
-72.816642999999999
  0
ARC
  8
0
  6
CONTINUOUS
 62
256
 10
411.965262000000000
 20
-71.316642999999999
 40
1.499999999999997
 50
191.837003999999810
 51
270.000000000000000
  0
ARC
  8
0
  6
CONTINUOUS
 62
256
 10
392.879927000000010
 20
-75.316642999999999
 40
17.999999999999975
 50
11.837004000000027
 51
48.162996000000057
  0
ARC
  8
0
  6
CONTINUOUS
 62
256
 10
405.886695999999970
 20
-60.788257999999999
 40
1.499999999999975
 50
149.999999999999460
 51
228.162996000000390
  0
LINE
  8
0
  6
CONTINUOUS
 62
256
 10
406.115786000000010
 20
-57.391463999999999
 11
404.587657999999980
 21
-60.038257999999999
  0
ARC
  8
0
  6
CONTINUOUS
 62
256
 10
407.414824000000010
 20
-58.141463999999999
 40
1.499999999999991
 50
49.759652000000230
 51
149.999999999999460
  0
ARC
  8
0
  6
CONTINUOUS
 62
256
 10
392.879927000000010
 20
-75.316642999999999
 40
14.500000000000014
 50
17.920213000000000
 51
42.079786999999946
  0
ARC
  8
0
  6
CONTINUOUS
 62
256
 10
405.249243999999980
 20
-71.316642999999999
 40
1.500000000000000
 50
270.000000000000000
 51
17.920212999999450
  0
LINE
  8
0
  6
CONTINUOUS
 62
256
 10
402.045078999999990
 20
-72.816642999999999
 11
405.249243999999980
 21
-72.816642999999999
  0
ARC
  8
0
  6
CONTINUOUS
 62
256
 10
402.045078999999990
 20
-71.316642999999999
 40
1.499999999999984
 50
203.578178000000380
 51
270.000000000000000
  0
ARC
  8
0
  6
CONTINUOUS
 62
256
 10
392.879927000000010
 20
-75.316642999999999
 40
8.499999999999991
 50
23.578178000000058
 51
36.421822000000063
  0
ARC
  8
0
  6
CONTINUOUS
 62
256
 10
400.926605000000000
 20
-69.379389000000003
 40
1.500000000000025
 50
150.000000000000540
 51
216.421821999999960
  0
LINE
  8
0
  6
CONTINUOUS
 62
256
 10
401.229648999999990
 20
-65.854500000000002
 11
399.627567000000000
 21
-68.629389000000003
  0
ARC
  8
0
  6
CONTINUOUS
 62
256
 10
402.528686999999990
 20
-66.604500000000002
 40
1.499999999999994
 50
42.079787000000181
 51
150.000000000000540
  0
ARC
  8
0
  6
CONTINUOUS
 62
256
 10
392.879927000000010
 20
-75.316642999999999
 40
24.000000000000004
 50
310.240347999999980
 51
349.759652000000020
  0
ARC
  8
0
  6
CONTINUOUS
 62
256
 10
415.021517000000020
 20
-79.316642999999999
 40
1.500000000000009
 50
349.759652000000300
 51
90.000000000000000
  0
LINE
  8
0
  6
CONTINUOUS
 62
256
 10
411.965262000000000
 20
-77.816642999999999
 11
415.021517000000020
 21
-77.816642999999999
  0
ARC
  8
0
  6
CONTINUOUS
 62
256
 10
411.965262000000000
 20
-79.316642999999999
 40
1.500000000000000
 50
90.000000000000000
 51
168.162996000000190
  0
ARC
  8
0
  6
CONTINUOUS
 62
256
 10
392.879927000000010
 20
-75.316642999999999
 40
17.999999999999989
 50
311.837003999999920
 51
348.162995999999960
  0
ARC
  8
0
  6
CONTINUOUS
 62
256
 10
405.886695999999970
 20
-89.845027999999999
 40
1.499999999999989
 50
131.837003999999810
 51
210.000000000000510
  0
LINE
  8
0
  6
CONTINUOUS
 62
256
 10
406.115786000000010
 20
-93.241821999999999
 11
404.587657999999980
 21
-90.595027999999999
  0
ARC
  8
0
  6
CONTINUOUS
 62
256
 10
407.414824000000010
 20
-92.491821999999999
 40
1.499999999999975
 50
210.000000000000510
 51
310.240347999999810
  0
ARC
  8
0
  6
CONTINUOUS
 62
256
 10
392.879927000000010
 20
-75.316642999999999
 40
14.500000000000021
 50
317.920213000000050
 51
342.079787000000010
  0
ARC
  8
0
  6
CONTINUOUS
 62
256
 10
405.249243999999980
 20
-79.316642999999999
 40
1.500000000000024
 50
342.079787000000580
 51
90.000000000000000
  0
LINE
  8
0
  6
CONTINUOUS
 62
256
 10
402.045078999999990
 20
-77.816642999999999
 11
405.249243999999980
 21
-77.816642999999999
  0
ARC
  8
0
  6
CONTINUOUS
 62
256
 10
402.045078999999990
 20
-79.316642999999999
 40
1.500000000000000
 50
90.000000000000000
 51
156.421821999999620
  0
ARC
  8
0
  6
CONTINUOUS
 62
256
 10
392.879927000000010
 20
-75.316642999999999
 40
8.499999999999989
 50
323.578177999999920
 51
336.421821999999910
  0
ARC
  8
0
  6
CONTINUOUS
 62
256
 10
400.926605000000000
 20
-81.253896999999995
 40
1.500000000000000
 50
143.578178000000040
 51
210.000000000000510
  0
LINE
  8
0
  6
CONTINUOUS
 62
256
 10
401.229648999999990
 20
-84.778785999999997
 11
399.627567000000000
 21
-82.003896999999995
  0
ARC
  8
0
  6
CONTINUOUS
 62
256
 10
402.528686999999990
 20
-84.028785999999997
 40
1.499999999999975
 50
210.000000000000510
 51
317.920212999999820
  0
ARC
  8
0
  6
CONTINUOUS
 62
256
 10
392.879927000000010
 20
-75.316642999999999
 40
23.999999999999993
 50
250.240348000000010
 51
289.759652000000020
  0
ARC
  8
0
  6
CONTINUOUS
 62
256
 10
385.273234000000000
 20
-96.491821999999999
 40
1.500000000000025
 50
150.000000000000540
 51
250.240347999999300
  0
LINE
  8
0
  6
CONTINUOUS
 62
256
 10
385.502322999999990
 20
-93.095027999999999
 11
383.974196000000010
 21
-95.741821999999999
  0
ARC
  8
0
  6
CONTINUOUS
 62
256
 10
386.801361999999980
 20
-93.845027999999999
 40
1.500000000000007
 50
71.837003999999709
 51
149.999999999999460
  0
ARC
  8
0
  6
CONTINUOUS
 62
256
 10
392.879927000000010
 20
-75.316642999999999
 40
17.999999999999996
 50
251.837003999999980
 51
288.162995999999960
  0
ARC
  8
0
  6
CONTINUOUS
 62
256
 10
398.958492999999980
 20
-93.845027999999999
 40
1.500000000000025
 50
29.999999999999456
 51
108.162996000000290
  0
LINE
  8
0
  6
CONTINUOUS
 62
256
 10
401.785659000000010
 20
-95.741821999999999
 11
400.257530999999970
 21
-93.095027999999999
  0
ARC
  8
0
  6
CONTINUOUS
 62
256
 10
400.486621000000010
 20
-96.491821999999999
 40
1.500000000000012
 50
289.759652000000640
 51
29.999999999999456
  0
ARC
  8
0
  6
CONTINUOUS
 62
256
 10
392.879927000000010
 20
-75.316642999999999
 40
14.500000000000002
 50
257.920213000000050
 51
282.079786999999950
  0
ARC
  8
0
  6
CONTINUOUS
 62
256
 10
390.159370000000020
 20
-88.028785999999997
 40
1.499999999999975
 50
149.999999999999460
 51
257.920213000000730
  0
LINE
  8
0
  6
CONTINUOUS
 62
256
 10
390.462415000000020
 20
-84.503896999999995
 11
388.860332000000030
 21
-87.278785999999997
  0
ARC
  8
0
  6
CONTINUOUS
 62
256
 10
391.761453000000020
 20
-85.253896999999995
 40
1.500000000000001
 50
83.578178000000747
 51
149.999999999999460
  0
ARC
  8
0
  6
CONTINUOUS
 62
256
 10
392.879927000000010
 20
-75.316642999999999
 40
8.500000000000007
 50
263.578177999999980
 51
276.421822000000020
  0
ARC
  8
0
  6
CONTINUOUS
 62
256
 10
393.998401000000000
 20
-85.253896999999995
 40
1.499999999999975
 50
30.000000000000544
 51
96.421821999999253
  0
LINE
  8
0
  6
CONTINUOUS
 62
256
 10
396.899521999999990
 20
-87.278785999999997
 11
395.297439999999990
 21
-84.503896999999995
  0
ARC
  8
0
  6
CONTINUOUS
 62
256
 10
395.600483999999990
 20
-88.028785999999997
 40
1.499999999999989
 50
282.079786999999270
 51
30.000000000000544
  0
ARC
  8
0
  6
CONTINUOUS
 62
256
 10
392.879927000000010
 20
-75.316642999999999
 40
23.999999999999993
 50
70.240348000000012
 51
109.759651999999990
  0
ARC
  8
0
  6
CONTINUOUS
 62
256
 10
385.273234000000000
 20
-54.141463999999999
 40
1.500000000000005
 50
109.759652000000780
 51
210.000000000000510
  0
LINE
  8
0
  6
CONTINUOUS
 62
256
 10
385.502322999999990
 20
-57.538257999999999
 11
383.974196000000010
 21
-54.891463999999999
  0
ARC
  8
0
  6
CONTINUOUS
 62
256
 10
386.801361999999980
 20
-56.788257999999999
 40
1.499999999999975
 50
210.000000000000510
 51
288.162996000000360
  0
ARC
  8
0
  6
CONTINUOUS
 62
256
 10
392.879927000000010
 20
-75.316642999999999
 40
17.999999999999996
 50
71.837004000000007
 51
108.162996000000010
  0
ARC
  8
0
  6
CONTINUOUS
 62
256
 10
398.958492999999980
 20
-56.788257999999999
 40
1.500000000000000
 50
251.837003999999610
 51
329.999999999999490
  0
LINE
  8
0
  6
CONTINUOUS
 62
256
 10
401.785659000000010
 20
-54.891463999999999
 11
400.257530999999970
 21
-57.538257999999999
  0
ARC
  8
0
  6
CONTINUOUS
 62
256
 10
400.486621000000010
 20
-54.141463999999999
 40
1.499999999999975
 50
329.999999999999490
 51
70.240347999999216
  0
ARC
  8
0
  6
CONTINUOUS
 62
256
 10
392.879927000000010
 20
-75.316642999999999
 40
14.500000000000002
 50
77.920213000000032
 51
102.079786999999980
  0
ARC
  8
0
  6
CONTINUOUS
 62
256
 10
390.159370000000020
 20
-62.604500000000002
 40
1.499999999999995
 50
102.079786999999190
 51
210.000000000000510
  0
LINE
  8
0
  6
CONTINUOUS
 62
256
 10
390.462415000000020
 20
-66.129389000000003
 11
388.860332000000030
 21
-63.354500000000002
  0
ARC
  8
0
  6
CONTINUOUS
 62
256
 10
391.761453000000020
 20
-65.379389000000003
 40
1.499999999999975
 50
210.000000000000510
 51
276.421821999999220
  0
ARC
  8
0
  6
CONTINUOUS
 62
256
 10
392.879927000000010
 20
-75.316642999999999
 40
8.500000000000007
 50
83.578177999999994
 51
96.421822000000020
  0
ARC
  8
0
  6
CONTINUOUS
 62
256
 10
393.998401000000000
 20
-65.379389000000003
 40
1.500000000000001
 50
263.578178000000780
 51
329.999999999999490
  0
LINE
  8
0
  6
CONTINUOUS
 62
256
 10
396.899521999999990
 20
-63.354500000000002
 11
395.297439999999990
 21
-66.129389000000003
  0
ARC
  8
0
  6
CONTINUOUS
 62
256
 10
395.600483999999990
 20
-62.604500000000002
 40
1.499999999999975
 50
329.999999999999490
 51
77.920213000000828
  0
ARC
  8
0
  6
CONTINUOUS
 62
256
 10
392.879927000000010
 20
-75.316642999999999
 40
8.499999999999989
 50
143.578177999999950
 51
156.421821999999930
  0
ARC
  8
0
  6
CONTINUOUS
 62
256
 10
392.879927000000010
 20
-75.316642999999999
 40
23.999999999999996
 50
130.240348000000010
 51
169.759651999999960
  0
LINE
  8
0
  6
CONTINUOUS
 62
256
 10
386.132288000000020
 20
-68.629389000000003
 11
384.530205000000020
 21
-65.854500000000002
  0
LINE
  8
0
  6
CONTINUOUS
 62
256
 10
370.738337000000000
 20
-72.816642999999999
 11
373.794593000000020
 21
-72.816642999999999
  0
LINE
  8
0
  6
CONTINUOUS
 62
256
 10
380.510609999999990
 20
-72.816642999999999
 11
383.714775999999970
 21
-72.816642999999999
  0
ARC
  8
0
  6
CONTINUOUS
 62
256
 10
392.879927000000010
 20
-75.316642999999999
 40
14.500000000000012
 50
137.920213000000070
 51
162.079787000000070
  0
LINE
  8
0
  6
CONTINUOUS
 62
256
 10
381.172195999999990
 20
-60.038257999999999
 11
379.644069000000000
 21
-57.391463999999999
  0
ARC
  8
0
  6
CONTINUOUS
 62
256
 10
383.231167000000030
 20
-66.604500000000002
 40
1.500000000000025
 50
29.999999999999456
 51
137.920212999999820
  0
ARC
  8
0
  6
CONTINUOUS
 62
256
 10
370.738337000000000
 20
-71.316642999999999
 40
1.500000000000009
 50
169.759652000000300
 51
270.000000000000000
  0
ARC
  8
0
  6
CONTINUOUS
 62
256
 10
379.873157999999990
 20
-60.788257999999999
 40
1.499999999999995
 50
311.837003999999580
 51
29.999999999999456
  0
ARC
  8
0
  6
CONTINUOUS
 62
256
 10
373.794593000000020
 20
-71.316642999999999
 40
1.500000000000000
 50
270.000000000000000
 51
348.162996000000190
  0
ARC
  8
0
  6
CONTINUOUS
 62
256
 10
380.510609999999990
 20
-71.316642999999999
 40
1.500000000000024
 50
162.079787000000550
 51
270.000000000000000
  0
ARC
  8
0
  6
CONTINUOUS
 62
256
 10
378.345031000000010
 20
-58.141463999999999
 40
1.499999999999975
 50
30.000000000000544
 51
130.240347999999780
  0
ARC
  8
0
  6
CONTINUOUS
 62
256
 10
383.714775999999970
 20
-71.316642999999999
 40
1.500000000000000
 50
270.000000000000000
 51
336.421821999999620
  0
ARC
  8
0
  6
CONTINUOUS
 62
256
 10
384.833250000000020
 20
-69.379389000000003
 40
1.500000000000000
 50
323.578178000000040
 51
29.999999999999456
  0
CIRCLE
  8
0
  6
CONTINUOUS
 62
256
 10
392.879927000000010
 20
-75.316642999999999
 40
5.000000000000000
  0
ARC
  8
0
  6
CONTINUOUS
 62
256
 10
375.054419000000000
 20
-52.441957000000002
 40
1.500000000000018
 50
307.928142000000720
 51
30.000000000000544
  0
LINE
  8
0
  6
CONTINUOUS
 62
256
 10
376.353456999999990
 20
-51.691957000000002
 11
374.840355999999990
 21
-49.071188999999997
  0
ARC
  8
0
  6
CONTINUOUS
 62
256
 10
364.157113999999980
 20
-71.316642999999999
 40
1.500000000000000
 50
270.000000000000000
 51
352.071857999999850
  0
ARC
  8
0
  6
CONTINUOUS
 62
256
 10
392.879927000000010
 20
-75.316642999999999
 40
27.500000000000004
 50
127.928141999999990
 51
172.071857999999990
  0
ARC
  8
0
  6
CONTINUOUS
 62
256
 10
373.541317999999990
 20
-49.821188999999997
 40
1.499999999999975
 50
30.000000000000544
 51
127.180755999999920
  0
ARC
  8
0
  6
CONTINUOUS
 62
256
 10
370.270003999999970
 20
-44.155106000000004
 40
1.500000000000013
 50
305.963570000000630
 51
29.999999999999456
  0
ARC
  8
0
  6
CONTINUOUS
 62
256
 10
392.879927000000010
 20
-75.316642999999999
 40
37.000000000000000
 50
125.963569999999990
 51
174.036430000000000
  0
ARC
  8
0
  6
CONTINUOUS
 62
256
 10
392.879927000000010
 20
-75.316642999999999
 40
33.500000000000000
 50
127.180756000000020
 51
172.819244000000000
  0
LINE
  8
0
  6
CONTINUOUS
 62
256
 10
380.683584000000000
 20
-49.191957000000002
 11
379.170482999999990
 21
-46.571188999999997
  0
ARC
  8
0
  6
CONTINUOUS
 62
256
 10
380.469520999999990
 20
-45.821188999999997
 40
1.499999999999989
 50
112.819243999999050
 51
210.000000000000510
  0
ARC
  8
0
  6
CONTINUOUS
 62
256
 10
381.982621999999990
 20
-48.441957000000002
 40
1.499999999999975
 50
210.000000000000510
 51
292.071857999999220
  0
ARC
  8
0
  6
CONTINUOUS
 62
256
 10
392.879927000000010
 20
-75.316642999999999
 40
27.499999999999993
 50
67.928142000000022
 51
112.071857999999980
  0
ARC
  8
0
  6
CONTINUOUS
 62
256
 10
392.879927000000010
 20
-75.316642999999999
 40
33.500000000000000
 50
67.180756000000002
 51
112.819244000000000
  0
ARC
  8
0
  6
CONTINUOUS
 62
256
 10
403.777232000000030
 20
-48.441957000000002
 40
1.499999999999991
 50
247.928142000000750
 51
329.999999999999490
  0
LINE
  8
0
  6
CONTINUOUS
 62
256
 10
406.589372000000030
 20
-46.571188999999997
 11
405.076270000000020
 21
-49.191957000000002
  0
ARC
  8
0
  6
CONTINUOUS
 62
256
 10
405.290333999999970
 20
-45.821188999999997
 40
1.499999999999975
 50
329.999999999999490
 51
67.180756000000954
  0
ARC
  8
0
  6
CONTINUOUS
 62
256
 10
434.186706000000020
 20
-71.316642999999999
 40
1.500000000000000
 50
270.000000000000000
 51
5.531072000000276
  0
LINE
  8
0
  6
CONTINUOUS
 62
256
 10
431.171570999999970
 20
-72.816642999999999
 11
434.186706000000020
 21
-72.816642999999999
  0
LINE
  8
0
  6
CONTINUOUS
 62
256
 10
421.602740999999980
 20
-72.816642999999999
 11
424.628942999999990
 21
-72.816642999999999
  0
ARC
  8
0
  6
CONTINUOUS
 62
256
 10
431.171570999999970
 20
-71.316642999999999
 40
1.500000000000012
 50
185.963569999999780
 51
270.000000000000000
  0
ARC
  8
0
  6
CONTINUOUS
 62
256
 10
424.628942999999990
 20
-71.316642999999999
 40
1.500000000000000
 50
270.000000000000000
 51
7.180756000000089
  0
ARC
  8
0
  6
CONTINUOUS
 62
256
 10
421.602740999999980
 20
-71.316642999999999
 40
1.500000000000004
 50
187.928142000000150
 51
270.000000000000000
  0
ARC
  8
0
  6
CONTINUOUS
 62
256
 10
392.879927000000010
 20
-75.316642999999999
 40
27.499999999999986
 50
7.928141999999994
 51
52.071858000000006
  0
ARC
  8
0
  6
CONTINUOUS
 62
256
 10
392.879927000000010
 20
-75.316642999999999
 40
36.999999999999979
 50
5.963570000000011
 51
54.036430000000010
  0
ARC
  8
0
  6
CONTINUOUS
 62
256
 10
392.879927000000010
 20
-75.316642999999999
 40
42.999999999999979
 50
5.531071999999997
 51
54.468927999999984
  0
ARC
  8
0
  6
CONTINUOUS
 62
256
 10
392.879927000000010
 20
-75.316642999999999
 40
33.500000000000007
 50
7.180755999999994
 51
52.819243999999983
  0
ARC
  8
0
  6
CONTINUOUS
 62
256
 10
410.705436000000020
 20
-52.441957000000002
 40
1.499999999999975
 50
149.999999999999460
 51
232.071857999999280
  0
ARC
  8
0
  6
CONTINUOUS
 62
256
 10
415.489850999999990
 20
-44.155106000000004
 40
1.499999999999975
 50
149.999999999999460
 51
234.036429999999370
  0
LINE
  8
0
  6
CONTINUOUS
 62
256
 10
410.919498999999970
 20
-49.071188999999997
 11
409.406397000000030
 21
-51.691957000000002
  0
ARC
  8
0
  6
CONTINUOUS
 62
256
 10
412.218537000000030
 20
-49.821188999999997
 40
1.500000000000000
 50
52.819244000000090
 51
149.999999999999460
  0
ARC
  8
0
  6
CONTINUOUS
 62
256
 10
434.186706000000020
 20
-79.316642999999999
 40
1.499999999999979
 50
354.468927999999720
 51
90.000000000000000
  0
LINE
  8
0
  6
CONTINUOUS
 62
256
 10
431.171570999999970
 20
-77.816642999999999
 11
434.186706000000020
 21
-77.816642999999999
  0
LINE
  8
0
  6
CONTINUOUS
 62
256
 10
421.602740999999980
 20
-77.816642999999999
 11
424.628942999999990
 21
-77.816642999999999
  0
ARC
  8
0
  6
CONTINUOUS
 62
256
 10
431.171570999999970
 20
-79.316642999999999
 40
1.500000000000000
 50
90.000000000000000
 51
174.036430000000220
  0
ARC
  8
0
  6
CONTINUOUS
 62
256
 10
424.628942999999990
 20
-79.316642999999999
 40
1.500000000000028
 50
352.819243999999910
 51
90.000000000000000
  0
ARC
  8
0
  6
CONTINUOUS
 62
256
 10
421.602740999999980
 20
-79.316642999999999
 40
1.500000000000000
 50
90.000000000000000
 51
172.071857999999850
  0
ARC
  8
0
  6
CONTINUOUS
 62
256
 10
392.879927000000010
 20
-75.316642999999999
 40
27.500000000000004
 50
307.928141999999980
 51
352.071858000000020
  0
ARC
  8
0
  6
CONTINUOUS
 62
256
 10
392.879927000000010
 20
-75.316642999999999
 40
36.999999999999993
 50
305.963570000000000
 51
354.036429999999940
  0
ARC
  8
0
  6
CONTINUOUS
 62
256
 10
392.879927000000010
 20
-75.316642999999999
 40
43.000000000000021
 50
305.531071999999990
 51
354.468928000000010
  0
ARC
  8
0
  6
CONTINUOUS
 62
256
 10
392.879927000000010
 20
-75.316642999999999
 40
33.499999999999986
 50
307.180755999999920
 51
352.819244000000030
  0
ARC
  8
0
  6
CONTINUOUS
 62
256
 10
410.705436000000020
 20
-98.191328999999996
 40
1.500000000000018
 50
127.928142000000730
 51
210.000000000000510
  0
ARC
  8
0
  6
CONTINUOUS
 62
256
 10
416.997417999999980
 20
-109.089363000000010
 40
1.499999999999975
 50
210.000000000000510
 51
305.531071999999480
  0
LINE
  8
0
  6
CONTINUOUS
 62
256
 10
415.698379999999990
 20
-109.839363000000010
 11
414.190812999999990
 21
-107.228179000000000
  0
ARC
  8
0
  6
CONTINUOUS
 62
256
 10
415.489850999999990
 20
-106.478179000000000
 40
1.500000000000018
 50
125.963570000000500
 51
210.000000000000510
  0
LINE
  8
0
  6
CONTINUOUS
 62
256
 10
410.919498999999970
 20
-101.562096999999990
 11
409.406397000000030
 21
-98.941328999999996
  0
ARC
  8
0
  6
CONTINUOUS
 62
256
 10
412.218537000000030
 20
-100.812096999999990
 40
1.499999999999975
 50
210.000000000000510
 51
307.180756000000090
  0
ARC
  8
0
  6
CONTINUOUS
 62
256
 10
375.690638999999980
 20
-113.089363000000010
 40
1.499999999999975
 50
149.999999999999460
 51
245.531072000000220
  0
LINE
  8
0
  6
CONTINUOUS
 62
256
 10
375.899168999999970
 20
-109.728179000000000
 11
374.391600999999980
 21
-112.339363000000010
  0
LINE
  8
0
  6
CONTINUOUS
 62
256
 10
380.683584000000000
 20
-101.441329000000000
 11
379.170482999999990
 21
-104.062096999999990
  0
ARC
  8
0
  6
CONTINUOUS
 62
256
 10
377.198207000000020
 20
-110.478179000000000
 40
1.499999999999999
 50
65.963570000000374
 51
150.000000000000540
  0
ARC
  8
0
  6
CONTINUOUS
 62
256
 10
380.469520999999990
 20
-104.812096999999990
 40
1.500000000000025
 50
150.000000000000540
 51
247.180756000000940
  0
ARC
  8
0
  6
CONTINUOUS
 62
256
 10
381.982621999999990
 20
-102.191329000000000
 40
1.499999999999998
 50
67.928142000000889
 51
150.000000000000540
  0
ARC
  8
0
  6
CONTINUOUS
 62
256
 10
392.879927000000010
 20
-75.316642999999999
 40
27.500000000000004
 50
247.928142000000040
 51
292.071857999999960
  0
ARC
  8
0
  6
CONTINUOUS
 62
256
 10
392.879927000000010
 20
-75.316642999999999
 40
37.000000000000014
 50
245.963569999999950
 51
294.036429999999940
  0
ARC
  8
0
  6
CONTINUOUS
 62
256
 10
392.879927000000010
 20
-75.316642999999999
 40
43.000000000000007
 50
245.531071999999970
 51
294.468927999999950
  0
ARC
  8
0
  6
CONTINUOUS
 62
256
 10
392.879927000000010
 20
-75.316642999999999
 40
33.500000000000007
 50
247.180756000000030
 51
292.819243999999970
  0
ARC
  8
0
  6
CONTINUOUS
 62
256
 10
403.777232000000030
 20
-102.191329000000000
 40
1.500000000000025
 50
29.999999999999456
 51
112.071857999999120
  0
ARC
  8
0
  6
CONTINUOUS
 62
256
 10
410.069214999999990
 20
-113.089363000000010
 40
1.500000000000002
 50
294.468927999999780
 51
29.999999999999456
  0
LINE
  8
0
  6
CONTINUOUS
 62
256
 10
411.368252999999980
 20
-112.339363000000010
 11
409.860685999999990
 21
-109.728179000000000
  0
ARC
  8
0
  6
CONTINUOUS
 62
256
 10
408.561647999999990
 20
-110.478179000000000
 40
1.500000000000025
 50
29.999999999999456
 51
114.036429999999640
  0
LINE
  8
0
  6
CONTINUOUS
 62
256
 10
406.589372000000030
 20
-104.062096999999990
 11
405.076270000000020
 21
-101.441329000000000
  0
ARC
  8
0
  6
CONTINUOUS
 62
256
 10
405.290333999999970
 20
-104.812096999999990
 40
1.499999999999989
 50
292.819243999999060
 51
30.000000000000544
  0
ARC
  8
0
  6
CONTINUOUS
 62
256
 10
368.762435999999980
 20
-109.089363000000010
 40
1.499999999999989
 50
234.468928000000520
 51
329.999999999999490
  0
LINE
  8
0
  6
CONTINUOUS
 62
256
 10
371.569042000000020
 20
-107.228179000000000
 11
370.061473999999980
 21
-109.839363000000010
  0
LINE
  8
0
  6
CONTINUOUS
 62
256
 10
376.353456999999990
 20
-98.941328999999996
 11
374.840355999999990
 21
-101.562096999999990
  0
ARC
  8
0
  6
CONTINUOUS
 62
256
 10
370.270003999999970
 20
-106.478179000000000
 40
1.499999999999975
 50
329.999999999999490
 51
54.036429999999186
  0
ARC
  8
0
  6
CONTINUOUS
 62
256
 10
373.541317999999990
 20
-100.812096999999990
 40
1.499999999999994
 50
232.819243999999940
 51
329.999999999999490
  0
ARC
  8
0
  6
CONTINUOUS
 62
256
 10
375.054419000000000
 20
-98.191328999999996
 40
1.499999999999975
 50
329.999999999999490
 51
52.071857999999288
  0
ARC
  8
0
  6
CONTINUOUS
 62
256
 10
392.879927000000010
 20
-75.316642999999999
 40
36.999999999999979
 50
185.963570000000000
 51
234.036429999999970
  0
ARC
  8
0
  6
CONTINUOUS
 62
256
 10
392.879927000000010
 20
-75.316642999999999
 40
42.999999999999979
 50
185.531071999999990
 51
234.468927999999950
  0
ARC
  8
0
  6
CONTINUOUS
 62
256
 10
392.879927000000010
 20
-75.316642999999999
 40
33.500000000000007
 50
187.180756000000000
 51
232.819243999999940
  0
ARC
  8
0
  6
CONTINUOUS
 62
256
 10
364.157113999999980
 20
-79.316642999999999
 40
1.500000000000004
 50
7.928142000000149
 51
90.000000000000000
  0
ARC
  8
0
  6
CONTINUOUS
 62
256
 10
342.783313000000020
 20
-119.265230000000000
 40
6.600000000000022
 50
188.597082000000030
 51
224.999999999999830
  0
ARC
  8
0
  6
CONTINUOUS
 62
256
 10
392.879927000000010
 20
-282.316643000000000
 40
300.000000000000000
 50
85.138594999999995
 51
90.000000000000000
  0
LINE
  8
0
  6
CONTINUOUS
 62
256
 10
422.879927000000010
 20
11.622126000000000
 11
422.879927000000010
 21
-11.816642999999999
  0
ARC
  8
0
  6
CONTINUOUS
 62
256
 10
417.879927000000010
 20
11.622126000000000
 40
5.000000000000000
 50
0.000000000000000
 51
85.138594999999938
  0
ARC
  8
0
  6
CONTINUOUS
 62
256
 10
367.879927000000010
 20
11.622126000000000
 40
5.000000000000001
 50
94.861405000000062
 51
180.000000000000000
  0
ARC
  8
0
  6
CONTINUOUS
 62
256
 10
392.879927000000010
 20
-282.316643000000000
 40
300.000000000000000
 50
90.000000000000000
 51
94.861405000000005
  0
LINE
  8
0
  6
CONTINUOUS
 62
256
 10
390.379927000000010
 20
18.183357000000001
 11
390.379927000000010
 21
17.672940000000001
  0
LINE
  8
0
  6
CONTINUOUS
 62
256
 10
395.379927000000010
 20
18.183357000000001
 11
395.379927000000010
 21
17.672940000000001
  0
LINE
  8
0
  6
CONTINUOUS
 62
256
 10
395.379927000000010
 20
18.183357000000001
 11
390.379927000000010
 21
18.183357000000001
  0
LINE
  8
0
  6
CONTINUOUS
 62
256
 10
361.379927000000010
 20
-11.971648000000000
 11
361.379927000000010
 21
-11.816642999999999
  0
LINE
  8
0
  6
CONTINUOUS
 62
256
 10
362.879927000000010
 20
11.622126000000000
 11
362.879927000000010
 21
-11.817394999999999
  0
LINE
  8
0
  6
CONTINUOUS
 62
256
 10
424.379927000000010
 20
-11.816642999999999
 11
422.872426000000020
 21
-11.816642999999999
  0
LINE
  8
0
  6
CONTINUOUS
 62
256
 10
362.887428000000000
 20
-11.816642999999999
 11
361.379927000000010
 21
-11.816642999999999
  0
LINE
  8
0
  6
CONTINUOUS
 62
256
 10
424.379927000000010
 20
-11.971648000000000
 11
424.379927000000010
 21
-11.816642999999999
  0
ARC
  8
0
  6
CONTINUOUS
 62
256
 10
392.879927000000010
 20
160.283357000000000
 40
289.397000000000050
 50
263.948015000000000
 51
270.000000000000000
  0
LINE
  8
0
  6
CONTINUOUS
 62
256
 10
348.528508999999990
 20
-118.500801999999990
 11
353.104574000000010
 21
-123.076866999999990
  0
ARC
  8
0
  6
CONTINUOUS
 62
256
 10
352.771149999999980
 20
-114.258161000000000
 40
5.999999999999990
 50
187.897989000000000
 51
225.000000000000170
  0
ARC
  8
0
  6
CONTINUOUS
 62
256
 10
633.479926999999980
 20
-75.316642999999999
 40
289.396999999999990
 50
180.000000000000000
 51
187.897988999999970
  0
LINE
  8
0
  6
CONTINUOUS
 62
256
 10
170.508097999999990
 20
116.752339000000010
 11
172.508097999999990
 21
118.404979999999990
  0
LINE
  8
0
  6
CONTINUOUS
 62
256
 10
168.508097999999990
 20
115.576553000000000
 11
170.508097999999990
 21
116.752339000000010
  0
LINE
  8
0
  6
CONTINUOUS
 62
256
 10
170.508097999999990
 20
116.752339000000010
 11
168.508097999999990
 21
118.404979999999990
  0
LINE
  8
0
  6
CONTINUOUS
 62
256
 10
172.508097999999990
 20
115.576553000000000
 11
170.508097999999990
 21
116.752339000000010
  0
POLYLINE
  8
0
  6
CONTINUOUS
 62
256
 66
1
 70
1
  0
VERTEX
  8
0
  6
CONTINUOUS
 62
256
 10
175.208097999999980
 20
118.568929000000000
  0
VERTEX
  8
0
  6
CONTINUOUS
 62
256
 10
175.117788817895160
 20
119.271885510558160
  0
VERTEX
  8
0
  6
CONTINUOUS
 62
256
 10
174.850331802803030
 20
119.947827796638140
  0
VERTEX
  8
0
  6
CONTINUOUS
 62
256
 10
174.416005177821940
 20
120.570779775258660
  0
VERTEX
  8
0
  6
CONTINUOUS
 62
256
 10
173.831499871576770
 20
121.116801751236840
  0
VERTEX
  8
0
  6
CONTINUOUS
 62
256
 10
173.119278095192100
 20
121.564910406248490
  0
VERTEX
  8
0
  6
CONTINUOUS
 62
256
 10
172.306710132115910
 20
121.897885175983750
  0
VERTEX
  8
0
  6
CONTINUOUS
 62
256
 10
171.425022513475800
 20
122.102930026776060
  0
VERTEX
  8
0
  6
CONTINUOUS
 62
256
 10
170.508097999999990
 20
122.172165199999990
  0
VERTEX
  8
0
  6
CONTINUOUS
 62
256
 10
169.591173486524180
 20
122.102930026776060
  0
VERTEX
  8
0
  6
CONTINUOUS
 62
256
 10
168.709485867884070
 20
121.897885175983750
  0
VERTEX
  8
0
  6
CONTINUOUS
 62
256
 10
167.896917904807880
 20
121.564910406248490
  0
VERTEX
  8
0
  6
CONTINUOUS
 62
256
 10
167.184696128423210
 20
121.116801751236840
  0
VERTEX
  8
0
  6
CONTINUOUS
 62
256
 10
166.600190822178040
 20
120.570779775258660
  0
VERTEX
  8
0
  6
CONTINUOUS
 62
256
 10
166.165864197196950
 20
119.947827796638140
  0
VERTEX
  8
0
  6
CONTINUOUS
 62
256
 10
165.898407182104820
 20
119.271885510558160
  0
VERTEX
  8
0
  6
CONTINUOUS
 62
256
 10
165.808098000000000
 20
118.568929000000000
  0
VERTEX
  8
0
  6
CONTINUOUS
 62
256
 10
165.898407182104820
 20
117.865972489441830
  0
VERTEX
  8
0
  6
CONTINUOUS
 62
256
 10
166.165864197196950
 20
117.190030203361860
  0
VERTEX
  8
0
  6
CONTINUOUS
 62
256
 10
166.600190822178040
 20
116.567078224741340
  0
VERTEX
  8
0
  6
CONTINUOUS
 62
256
 10
167.184696128423210
 20
116.021056248763160
  0
VERTEX
  8
0
  6
CONTINUOUS
 62
256
 10
167.896917904807880
 20
115.572947593751510
  0
VERTEX
  8
0
  6
CONTINUOUS
 62
256
 10
168.709485867884070
 20
115.239972824016260
  0
VERTEX
  8
0
  6
CONTINUOUS
 62
256
 10
169.591173486524180
 20
115.034927973223930
  0
VERTEX
  8
0
  6
CONTINUOUS
 62
256
 10
170.508097999999990
 20
114.965692800000000
  0
VERTEX
  8
0
  6
CONTINUOUS
 62
256
 10
171.425022513475800
 20
115.034927973223930
  0
VERTEX
  8
0
  6
CONTINUOUS
 62
256
 10
172.306710132115910
 20
115.239972824016250
  0
VERTEX
  8
0
  6
CONTINUOUS
 62
256
 10
173.119278095192100
 20
115.572947593751510
  0
VERTEX
  8
0
  6
CONTINUOUS
 62
256
 10
173.831499871576740
 20
116.021056248763160
  0
VERTEX
  8
0
  6
CONTINUOUS
 62
256
 10
174.416005177821940
 20
116.567078224741340
  0
VERTEX
  8
0
  6
CONTINUOUS
 62
256
 10
174.850331802803030
 20
117.190030203361860
  0
VERTEX
  8
0
  6
CONTINUOUS
 62
256
 10
175.117788817895160
 20
117.865972489441830
  0
SEQEND
  8
0
  6
CONTINUOUS
 62
256
  0
LINE
  8
0
  6
CONTINUOUS
 62
256
 10
170.508097999999990
 20
224.232569000000010
 11
172.508097999999990
 21
222.579927000000000
  0
LINE
  8
0
  6
CONTINUOUS
 62
256
 10
168.508097999999990
 20
225.408355000000000
 11
170.508097999999990
 21
224.232569000000010
  0
LINE
  8
0
  6
CONTINUOUS
 62
256
 10
170.508097999999990
 20
224.232569000000010
 11
168.508097999999990
 21
222.579927000000000
  0
LINE
  8
0
  6
CONTINUOUS
 62
256
 10
172.508097999999990
 20
225.408355000000000
 11
170.508097999999990
 21
224.232569000000010
  0
POLYLINE
  8
0
  6
CONTINUOUS
 62
256
 66
1
 70
1
  0
VERTEX
  8
0
  6
CONTINUOUS
 62
256
 10
175.208097999999980
 20
222.415978999999990
  0
VERTEX
  8
0
  6
CONTINUOUS
 62
256
 10
175.117788817895160
 20
223.118935510558170
  0
VERTEX
  8
0
  6
CONTINUOUS
 62
256
 10
174.850331802803030
 20
223.794877796638130
  0
VERTEX
  8
0
  6
CONTINUOUS
 62
256
 10
174.416005177821940
 20
224.417829775258670
  0
VERTEX
  8
0
  6
CONTINUOUS
 62
256
 10
173.831499871576770
 20
224.963851751236830
  0
VERTEX
  8
0
  6
CONTINUOUS
 62
256
 10
173.119278095192100
 20
225.411960406248480
  0
VERTEX
  8
0
  6
CONTINUOUS
 62
256
 10
172.306710132115910
 20
225.744935175983730
  0
VERTEX
  8
0
  6
CONTINUOUS
 62
256
 10
171.425022513475800
 20
225.949980026776070
  0
VERTEX
  8
0
  6
CONTINUOUS
 62
256
 10
170.508097999999990
 20
226.019215199999990
  0
VERTEX
  8
0
  6
CONTINUOUS
 62
256
 10
169.591173486524180
 20
225.949980026776070
  0
VERTEX
  8
0
  6
CONTINUOUS
 62
256
 10
168.709485867884070
 20
225.744935175983730
  0
VERTEX
  8
0
  6
CONTINUOUS
 62
256
 10
167.896917904807880
 20
225.411960406248480
  0
VERTEX
  8
0
  6
CONTINUOUS
 62
256
 10
167.184696128423210
 20
224.963851751236830
  0
VERTEX
  8
0
  6
CONTINUOUS
 62
256
 10
166.600190822178040
 20
224.417829775258670
  0
VERTEX
  8
0
  6
CONTINUOUS
 62
256
 10
166.165864197196950
 20
223.794877796638130
  0
VERTEX
  8
0
  6
CONTINUOUS
 62
256
 10
165.898407182104820
 20
223.118935510558170
  0
VERTEX
  8
0
  6
CONTINUOUS
 62
256
 10
165.808098000000000
 20
222.415978999999990
  0
VERTEX
  8
0
  6
CONTINUOUS
 62
256
 10
165.898407182104820
 20
221.713022489441810
  0
VERTEX
  8
0
  6
CONTINUOUS
 62
256
 10
166.165864197196950
 20
221.037080203361850
  0
VERTEX
  8
0
  6
CONTINUOUS
 62
256
 10
166.600190822178040
 20
220.414128224741320
  0
VERTEX
  8
0
  6
CONTINUOUS
 62
256
 10
167.184696128423210
 20
219.868106248763160
  0
VERTEX
  8
0
  6
CONTINUOUS
 62
256
 10
167.896917904807880
 20
219.419997593751500
  0
VERTEX
  8
0
  6
CONTINUOUS
 62
256
 10
168.709485867884070
 20
219.087022824016260
  0
VERTEX
  8
0
  6
CONTINUOUS
 62
256
 10
169.591173486524180
 20
218.881977973223940
  0
VERTEX
  8
0
  6
CONTINUOUS
 62
256
 10
170.508097999999990
 20
218.812742800000000
  0
VERTEX
  8
0
  6
CONTINUOUS
 62
256
 10
171.425022513475800
 20
218.881977973223940
  0
VERTEX
  8
0
  6
CONTINUOUS
 62
256
 10
172.306710132115910
 20
219.087022824016260
  0
VERTEX
  8
0
  6
CONTINUOUS
 62
256
 10
173.119278095192100
 20
219.419997593751500
  0
VERTEX
  8
0
  6
CONTINUOUS
 62
256
 10
173.831499871576740
 20
219.868106248763160
  0
VERTEX
  8
0
  6
CONTINUOUS
 62
256
 10
174.416005177821940
 20
220.414128224741320
  0
VERTEX
  8
0
  6
CONTINUOUS
 62
256
 10
174.850331802803030
 20
221.037080203361850
  0
VERTEX
  8
0
  6
CONTINUOUS
 62
256
 10
175.117788817895160
 20
221.713022489441810
  0
SEQEND
  8
0
  6
CONTINUOUS
 62
256
  0
ARC
  8
0
  6
CONTINUOUS
 62
256
 10
207.908098000000000
 20
123.049249000000000
 40
2.600000000000007
 50
305.000000000000000
 51
0.000000000000000
  0
LINE
  8
0
  6
CONTINUOUS
 62
256
 10
199.673651000000010
 20
114.109413000000000
 11
209.399396999999990
 21
120.919454000000000
  0
ARC
  8
0
  6
CONTINUOUS
 62
256
 10
188.202122000000000
 20
130.492454000000010
 40
20.000000000000000
 50
270.000000000000000
 51
304.999999999999940
  0
LINE
  8
0
  6
CONTINUOUS
 62
256
 10
210.508097999999990
 20
170.492454000000010
 11
210.508097999999990
 21
123.049249000000000
  0
LINE
  8
0
  6
CONTINUOUS
 62
256
 10
159.508097999999990
 20
110.492454000000000
 11
188.202122000000000
 21
110.492454000000000
  0
LINE
  8
0
  6
CONTINUOUS
 62
256
 10
62.508097999999997
 20
111.992454000000000
 11
62.508097999999997
 21
170.492454000000010
  0
LINE
  8
0
  6
CONTINUOUS
 62
256
 10
62.508097999999997
 20
111.992454000000000
 11
159.508097999999990
 21
111.992454000000000
  0
LINE
  8
0
  6
CONTINUOUS
 62
256
 10
169.508097999999990
 20
135.492454000000010
 11
169.508097999999990
 21
170.492454000000010
  0
ARC
  8
0
  6
CONTINUOUS
 62
256
 10
162.508097999999990
 20
129.492454000000010
 40
3.000000000000000
 50
90.000000000000000
 51
180.000000000000000
  0
LINE
  8
0
  6
CONTINUOUS
 62
256
 10
162.508097999999990
 20
132.492454000000010
 11
166.508097999999990
 21
132.492454000000010
  0
ARC
  8
0
  6
CONTINUOUS
 62
256
 10
166.508097999999990
 20
135.492454000000010
 40
3.000000000000000
 50
270.000000000000000
 51
0.000000000000000
  0
LINE
  8
0
  6
CONTINUOUS
 62
256
 10
159.508097999999990
 20
129.492454000000010
 11
159.508097999999990
 21
110.492454000000000
  0
LINE
  8
0
  6
CONTINUOUS
 62
256
 10
94.508098000000004
 20
138.992454000000010
 11
165.508097999999990
 21
138.992454000000010
  0
ARC
  8
0
  6
CONTINUOUS
 62
256
 10
165.508097999999990
 20
140.992454000000010
 40
2.000000000000000
 50
270.000000000000000
 51
0.000000000000000
  0
LINE
  8
0
  6
CONTINUOUS
 62
256
 10
167.508097999999990
 20
170.492454000000010
 11
167.508097999999990
 21
140.992454000000010
  0
LINE
  8
0
  6
CONTINUOUS
 62
256
 10
92.508098000000004
 20
170.492454000000010
 11
92.508098000000004
 21
140.992454000000010
  0
ARC
  8
0
  6
CONTINUOUS
 62
256
 10
94.508098000000004
 20
140.992454000000010
 40
2.000000000000000
 50
180.000000000000000
 51
270.000000000000000
  0
ARC
  8
0
  6
CONTINUOUS
 62
256
 10
94.508098000000004
 20
141.492454000000010
 40
1.000000000000000
 50
180.000000000000000
 51
270.000000000000000
  0
ARC
  8
0
  6
CONTINUOUS
 62
256
 10
165.508097999999990
 20
141.492454000000010
 40
1.000000000000000
 50
270.000000000000000
 51
0.000000000000000
  0
LINE
  8
0
  6
CONTINUOUS
 62
256
 10
94.508098000000004
 20
140.492454000000010
 11
165.508097999999990
 21
140.492454000000010
  0
LINE
  8
0
  6
CONTINUOUS
 62
256
 10
169.508097999999990
 20
138.741661999999990
 11
62.508097999999997
 21
138.741661999999990
  0
LINE
  8
0
  6
CONTINUOUS
 62
256
 10
169.421762000000000
 20
134.777917000000000
 11
62.508097999999997
 21
134.777917000000000
  0
LINE
  8
0
  6
CONTINUOUS
 62
256
 10
168.411091000000000
 20
133.173269000000000
 11
62.508097999999997
 21
133.173269000000000
  0
LINE
  8
0
  6
CONTINUOUS
 62
256
 10
159.508097999999990
 20
125.126667000000000
 11
62.508097999999997
 21
125.126667000000000
  0
LINE
  8
0
  6
CONTINUOUS
 62
256
 10
159.508097999999990
 20
120.176920000000000
 11
62.508097999999997
 21
120.176920000000000
  0
LINE
  8
0
  6
CONTINUOUS
 62
256
 10
159.508097999999990
 20
115.492454000000000
 11
62.508097999999997
 21
115.492454000000000
  0
LINE
  8
0
  6
CONTINUOUS
 62
256
 10
159.508097999999990
 20
114.492454000000000
 11
62.508097999999997
 21
114.492454000000000
  0
LINE
  8
0
  6
CONTINUOUS
 62
256
 10
159.508097999999990
 20
112.992454000000000
 11
62.508097999999997
 21
112.992454000000000
  0
LINE
  8
0
  6
CONTINUOUS
 62
256
 10
159.508097999999990
 20
113.492454000000000
 11
62.508097999999997
 21
113.492454000000000
  0
LINE
  8
0
  6
CONTINUOUS
 62
256
 10
169.508097999999990
 20
150.492454000000010
 11
167.508097999999990
 21
150.492454000000010
  0
LINE
  8
0
  6
CONTINUOUS
 62
256
 10
92.508098000000004
 20
150.492454000000010
 11
62.508097999999997
 21
150.492454000000010
  0
LINE
  8
0
  6
CONTINUOUS
 62
256
 10
169.508097999999990
 20
144.300520000000010
 11
167.508097999999990
 21
144.300520000000010
  0
LINE
  8
0
  6
CONTINUOUS
 62
256
 10
92.508098000000004
 20
144.300520000000010
 11
62.508097999999997
 21
144.300520000000010
  0
LINE
  8
0
  6
CONTINUOUS
 62
256
 10
169.508097999999990
 20
145.662399999999990
 11
167.508097999999990
 21
145.662399999999990
  0
LINE
  8
0
  6
CONTINUOUS
 62
256
 10
92.508098000000004
 20
145.662399999999990
 11
62.508097999999997
 21
145.662399999999990
  0
LINE
  8
0
  6
CONTINUOUS
 62
256
 10
169.508097999999990
 20
140.210019999999990
 11
167.348694999999990
 21
140.210019999999990
  0
LINE
  8
0
  6
CONTINUOUS
 62
256
 10
92.667501000000001
 20
140.210019999999990
 11
62.508097999999997
 21
140.210019999999990
  0
LINE
  8
0
  6
CONTINUOUS
 62
256
 10
93.508098000000004
 20
141.492454000000010
 11
93.508098000000004
 21
170.492454000000010
  0
LINE
  8
0
  6
CONTINUOUS
 62
256
 10
166.508097999999990
 20
141.492454000000010
 11
166.508097999999990
 21
170.492454000000010
  0
ARC
  8
0
  6
CONTINUOUS
 62
256
 10
207.908098000000000
 20
217.935658999999990
 40
2.599999999999994
 50
0.000000000000000
 51
54.999999999999801
  0
LINE
  8
0
  6
CONTINUOUS
 62
256
 10
199.673651000000010
 20
226.875495000000000
 11
209.399396999999990
 21
220.065453999999990
  0
ARC
  8
0
  6
CONTINUOUS
 62
256
 10
188.202122000000000
 20
210.492454000000010
 40
20.000000000000004
 50
55.000000000000050
 51
90.000000000000000
  0
LINE
  8
0
  6
CONTINUOUS
 62
256
 10
210.508097999999990
 20
170.492454000000010
 11
210.508097999999990
 21
217.935658999999990
  0
LINE
  8
0
  6
CONTINUOUS
 62
256
 10
159.508097999999990
 20
230.492454000000010
 11
188.202122000000000
 21
230.492454000000010
  0
LINE
  8
0
  6
CONTINUOUS
 62
256
 10
62.508097999999997
 20
228.992454000000010
 11
62.508097999999997
 21
170.492454000000010
  0
LINE
  8
0
  6
CONTINUOUS
 62
256
 10
62.508097999999997
 20
228.992454000000010
 11
159.508097999999990
 21
228.992454000000010
  0
LINE
  8
0
  6
CONTINUOUS
 62
256
 10
169.508097999999990
 20
205.492454000000010
 11
169.508097999999990
 21
170.492454000000010
  0
ARC
  8
0
  6
CONTINUOUS
 62
256
 10
162.508097999999990
 20
211.492454000000010
 40
3.000000000000000
 50
180.000000000000000
 51
270.000000000000000
  0
LINE
  8
0
  6
CONTINUOUS
 62
256
 10
162.508097999999990
 20
208.492454000000010
 11
166.508097999999990
 21
208.492454000000010
  0
ARC
  8
0
  6
CONTINUOUS
 62
256
 10
166.508097999999990
 20
205.492454000000010
 40
3.000000000000000
 50
0.000000000000000
 51
90.000000000000000
  0
LINE
  8
0
  6
CONTINUOUS
 62
256
 10
159.508097999999990
 20
211.492454000000010
 11
159.508097999999990
 21
230.492454000000010
  0
LINE
  8
0
  6
CONTINUOUS
 62
256
 10
94.508098000000004
 20
201.992454000000010
 11
165.508097999999990
 21
201.992454000000010
  0
ARC
  8
0
  6
CONTINUOUS
 62
256
 10
165.508097999999990
 20
199.992454000000010
 40
2.000000000000000
 50
0.000000000000000
 51
90.000000000000000
  0
LINE
  8
0
  6
CONTINUOUS
 62
256
 10
167.508097999999990
 20
170.492454000000010
 11
167.508097999999990
 21
199.992454000000010
  0
LINE
  8
0
  6
CONTINUOUS
 62
256
 10
92.508098000000004
 20
170.492454000000010
 11
92.508098000000004
 21
199.992454000000010
  0
ARC
  8
0
  6
CONTINUOUS
 62
256
 10
94.508098000000004
 20
199.992454000000010
 40
2.000000000000000
 50
90.000000000000000
 51
180.000000000000000
  0
ARC
  8
0
  6
CONTINUOUS
 62
256
 10
94.508098000000004
 20
199.492454000000010
 40
1.000000000000000
 50
90.000000000000000
 51
180.000000000000000
  0
ARC
  8
0
  6
CONTINUOUS
 62
256
 10
165.508097999999990
 20
199.492454000000010
 40
1.000000000000000
 50
0.000000000000000
 51
90.000000000000000
  0
LINE
  8
0
  6
CONTINUOUS
 62
256
 10
94.508098000000004
 20
200.492454000000010
 11
165.508097999999990
 21
200.492454000000010
  0
LINE
  8
0
  6
CONTINUOUS
 62
256
 10
169.508097999999990
 20
202.243246000000000
 11
62.508097999999997
 21
202.243246000000000
  0
LINE
  8
0
  6
CONTINUOUS
 62
256
 10
169.421762000000000
 20
206.206990999999990
 11
62.508097999999997
 21
206.206990999999990
  0
LINE
  8
0
  6
CONTINUOUS
 62
256
 10
168.411091000000000
 20
207.811639000000010
 11
62.508097999999997
 21
207.811639000000010
  0
LINE
  8
0
  6
CONTINUOUS
 62
256
 10
159.508097999999990
 20
215.858240999999990
 11
62.508097999999997
 21
215.858240999999990
  0
LINE
  8
0
  6
CONTINUOUS
 62
256
 10
159.508097999999990
 20
220.807987999999990
 11
62.508097999999997
 21
220.807987999999990
  0
LINE
  8
0
  6
CONTINUOUS
 62
256
 10
159.508097999999990
 20
225.492454000000010
 11
62.508097999999997
 21
225.492454000000010
  0
LINE
  8
0
  6
CONTINUOUS
 62
256
 10
159.508097999999990
 20
226.492454000000010
 11
62.508097999999997
 21
226.492454000000010
  0
LINE
  8
0
  6
CONTINUOUS
 62
256
 10
159.508097999999990
 20
227.992454000000010
 11
62.508097999999997
 21
227.992454000000010
  0
LINE
  8
0
  6
CONTINUOUS
 62
256
 10
159.508097999999990
 20
227.492454000000010
 11
62.508097999999997
 21
227.492454000000010
  0
LINE
  8
0
  6
CONTINUOUS
 62
256
 10
169.508097999999990
 20
190.492454000000010
 11
167.508097999999990
 21
190.492454000000010
  0
LINE
  8
0
  6
CONTINUOUS
 62
256
 10
92.508098000000004
 20
190.492454000000010
 11
62.508097999999997
 21
190.492454000000010
  0
LINE
  8
0
  6
CONTINUOUS
 62
256
 10
169.508097999999990
 20
196.684388000000010
 11
167.508097999999990
 21
196.684388000000010
  0
LINE
  8
0
  6
CONTINUOUS
 62
256
 10
92.508098000000004
 20
196.684388000000010
 11
62.508097999999997
 21
196.684388000000010
  0
LINE
  8
0
  6
CONTINUOUS
 62
256
 10
169.508097999999990
 20
195.322507000000000
 11
167.508097999999990
 21
195.322507000000000
  0
LINE
  8
0
  6
CONTINUOUS
 62
256
 10
92.508098000000004
 20
195.322507000000000
 11
62.508097999999997
 21
195.322507000000000
  0
LINE
  8
0
  6
CONTINUOUS
 62
256
 10
169.508097999999990
 20
200.774888000000000
 11
167.348694999999990
 21
200.774888000000000
  0
LINE
  8
0
  6
CONTINUOUS
 62
256
 10
92.667501000000001
 20
200.774888000000000
 11
62.508097999999997
 21
200.774888000000000
  0
LINE
  8
0
  6
CONTINUOUS
 62
256
 10
93.508098000000004
 20
199.492454000000010
 11
93.508098000000004
 21
170.492454000000010
  0
LINE
  8
0
  6
CONTINUOUS
 62
256
 10
166.508097999999990
 20
199.492454000000010
 11
166.508097999999990
 21
170.492454000000010
  0
ARC
  8
0
  6
CONTINUOUS
 62
256
 10
-36.991902000000003
 20
92.492453999999995
 40
4.000000000000000
 50
0.000000000000000
 51
180.000000000000000
  0
LINE
  8
0
  6
CONTINUOUS
 62
256
 10
-32.991902000000003
 20
92.492453999999995
 11
-32.991902000000003
 21
56.492454000000002
  0
LINE
  8
0
  6
CONTINUOUS
 62
256
 10
-40.991902000000003
 20
92.492453999999995
 11
-40.991902000000003
 21
56.492454000000002
  0
LINE
  8
0
  6
CONTINUOUS
 62
256
 10
-22.491902000000000
 20
101.492454000000000
 11
-22.491902000000000
 21
103.492454000000000
  0
LINE
  8
0
  6
CONTINUOUS
 62
256
 10
-36.991902000000003
 20
101.492454000000000
 11
-22.491902000000000
 21
101.492454000000000
  0
LINE
  8
0
  6
CONTINUOUS
 62
256
 10
-36.991902000000003
 20
101.492454000000000
 11
-22.491902000000000
 21
101.492454000000000
  0
LINE
  8
0
  6
CONTINUOUS
 62
256
 10
-22.991902000000000
 20
101.492454000000000
 11
-22.991902000000000
 21
56.492454000000002
  0
LINE
  8
0
  6
CONTINUOUS
 62
256
 10
-51.491902000000003
 20
101.492454000000000
 11
-51.491902000000003
 21
103.492454000000000
  0
LINE
  8
0
  6
CONTINUOUS
 62
256
 10
-36.991902000000003
 20
101.492454000000000
 11
-51.491902000000003
 21
101.492454000000000
  0
LINE
  8
0
  6
CONTINUOUS
 62
256
 10
-36.991902000000003
 20
101.492454000000000
 11
-51.491902000000003
 21
101.492454000000000
  0
LINE
  8
0
  6
CONTINUOUS
 62
256
 10
-50.991902000000003
 20
101.492454000000000
 11
-50.991902000000003
 21
56.492454000000002
  0
LINE
  8
0
  6
CONTINUOUS
 62
256
 10
-40.991902000000003
 20
92.492453999999995
 11
-32.991902000000003
 21
92.492453999999995
  0
LINE
  8
0
  6
CONTINUOUS
 62
256
 10
-22.991902000000000
 20
56.492454000000002
 11
-50.991902000000003
 21
56.492454000000002
  0
LINE
  8
0
  6
DASHDOT
 62
256
 10
-36.991902000000003
 20
244.111259999999990
 11
-36.991902000000003
 21
51.651462000000002
  0
ARC
  8
0
  6
CONTINUOUS
 62
256
 10
-88.991901999999996
 20
217.492454000000010
 40
2.000000000000000
 50
270.000000000000000
 51
337.971305999999910
  0
ARC
  8
0
  6
CONTINUOUS
 62
256
 10
-85.283917000000002
 20
215.992169999999990
 40
2.000000000000000
 50
90.000000000000000
 51
157.971305999999940
  0
ARC
  8
0
  6
CONTINUOUS
 62
256
 10
-2.126345000000000
 20
108.992454000000000
 40
3.000000000000000
 50
270.000000000000000
 51
350.000000000000060
  0
LINE
  8
0
  6
CONTINUOUS
 62
256
 10
-10.491902000000000
 20
105.992454000000000
 11
-10.491902000000000
 21
103.892454000000000
  0
LINE
  8
0
  6
CONTINUOUS
 62
256
 10
-63.491902000000003
 20
105.992454000000000
 11
-63.491902000000003
 21
103.892454000000000
  0
ARC
  8
0
  6
CONTINUOUS
 62
256
 10
-71.857459000000006
 20
108.992454000000000
 40
3.000000000000006
 50
189.999999999999890
 51
270.000000000000000
  0
LINE
  8
0
  6
CONTINUOUS
 62
256
 10
-63.491902000000003
 20
237.192454000000000
 11
-63.191901999999999
 21
237.492454000000010
  0
LINE
  8
0
  6
CONTINUOUS
 62
256
 10
-10.491902000000000
 20
237.192454000000000
 11
-10.791902000000000
 21
237.492454000000010
  0
LINE
  8
0
  6
CONTINUOUS
 62
256
 10
22.536353999999999
 20
237.492454000000010
 11
-100.520158000000000
 21
237.492454000000010
  0
ARC
  8
0
  6
CONTINUOUS
 62
256
 10
8.113041000000001
 20
222.992169999999990
 40
4.999999999999997
 50
189.999999999999860
 51
270.000000000000000
  0
ARC
  8
0
  6
CONTINUOUS
 62
256
 10
15.008098000000000
 20
217.492454000000010
 40
2.000000000000000
 50
202.028694000000060
 51
270.000000000000000
  0
ARC
  8
0
  6
CONTINUOUS
 62
256
 10
11.300114000000001
 20
215.992169999999990
 40
2.000000000000000
 50
22.028694000000055
 51
90.000000000000000
  0
LINE
  8
0
  6
CONTINUOUS
 62
256
 10
-2.126345000000000
 20
234.992454000000010
 11
-36.991902000000003
 21
234.992454000000010
  0
LINE
  8
0
  6
CONTINUOUS
 62
256
 10
-36.991902000000003
 20
234.992454000000010
 11
-71.857459000000006
 21
234.992454000000010
  0
LINE
  8
0
  6
CONTINUOUS
 62
256
 10
-10.491902000000000
 20
234.992454000000010
 11
-10.491902000000000
 21
237.192454000000000
  0
LINE
  8
0
  6
CONTINUOUS
 62
256
 10
-63.491902000000003
 20
234.992454000000010
 11
-63.491902000000003
 21
237.192454000000000
  0
ARC
  8
0
  6
CONTINUOUS
 62
256
 10
-82.096845000000002
 20
222.992169999999990
 40
5.000000000000000
 50
270.000000000000000
 51
350.000000000000110
  0
LINE
  8
0
  6
CONTINUOUS
 62
256
 10
26.008098000000000
 20
207.492454000000010
 11
25.535896999999999
 21
234.544811000000010
  0
LINE
  8
0
  6
CONTINUOUS
 62
256
 10
24.868458000000000
 20
215.492454000000010
 11
25.885909999999999
 21
214.492605999999990
  0
LINE
  8
0
  6
CONTINUOUS
 62
256
 10
-58.537591999999997
 20
215.492454000000010
 11
24.868458000000000
 21
215.492454000000010
  0
LINE
  8
0
  6
CONTINUOUS
 62
256
 10
-102.852261000000000
 20
215.492454000000010
 11
-58.537591999999997
 21
215.492454000000010
  0
LINE
  8
0
  6
CONTINUOUS
 62
256
 10
62.508097999999997
 20
170.492454000000010
 11
62.508097999999997
 21
110.992454000000000
  0
LINE
  8
0
  6
CONTINUOUS
 62
256
 10
62.508097999999997
 20
170.492454000000010
 11
62.508097999999997
 21
229.992454000000010
  0
LINE
  8
0
  6
CONTINUOUS
 62
256
 10
21.244679999999999
 20
103.492454000000000
 11
-99.228482999999997
 21
103.492454000000000
  0
LINE
  8
0
  6
CONTINUOUS
 62
256
 10
-58.537591999999997
 20
207.492454000000010
 11
26.008098000000000
 21
207.492454000000010
  0
LINE
  8
0
  6
CONTINUOUS
 62
256
 10
-85.283917000000002
 20
217.992169999999990
 11
-58.537591999999997
 21
217.992169999999990
  0
LINE
  8
0
  6
CONTINUOUS
 62
256
 10
-103.991902000000000
 20
207.492454000000010
 11
-58.537591999999997
 21
207.492454000000010
  0
ARC
  8
0
  6
CONTINUOUS
 62
256
 10
22.536353999999999
 20
234.492454000000010
 40
3.000000000000000
 50
1.000000000000147
 51
90.000000000000000
  0
ARC
  8
0
  6
CONTINUOUS
 62
256
 10
-100.520158000000000
 20
234.492454000000010
 40
3.000000000000000
 50
90.000000000000000
 51
178.999999999999860
  0
ARC
  8
0
  6
CONTINUOUS
 62
256
 10
21.244679999999999
 20
106.492454000000000
 40
3.000000000000000
 50
270.000000000000000
 51
359.000000000000110
  0
ARC
  8
0
  6
CONTINUOUS
 62
256
 10
-99.228482999999997
 20
106.492454000000000
 40
2.999999999999997
 50
180.999999999999860
 51
270.000000000000000
  0
LINE
  8
0
  6
CONTINUOUS
 62
256
 10
-103.869714000000000
 20
214.492605999999990
 11
-102.852261000000000
 21
215.492454000000010
  0
ARC
  8
0
  6
CONTINUOUS
 62
256
 10
-99.664860000000004
 20
131.492454000000010
 40
2.999999999999997
 50
181.000000000000140
 51
270.000000000000000
  0
LINE
  8
0
  6
CONTINUOUS
 62
256
 10
-103.991902000000000
 20
207.492454000000010
 11
-102.228026000000000
 21
106.440096999999990
  0
LINE
  8
0
  6
CONTINUOUS
 62
256
 10
-103.519701000000000
 20
234.544811000000010
 11
-103.991902000000000
 21
207.492454000000010
  0
LINE
  8
0
  6
DASHDOT
 62
256
 10
14.008098000000000
 20
236.863347000000000
 11
14.008098000000000
 21
214.090989000000010
  0
LINE
  8
0
  6
DASHDOT
 62
256
 10
3.147697000000000
 20
225.492454000000010
 11
25.044194999999998
 21
225.492454000000010
  0
CIRCLE
  8
0
  6
CONTINUOUS
 62
256
 10
14.008098000000000
 20
225.492454000000010
 40
5.500000000000000
  0
LINE
  8
0
  6
DASHDOT
 62
256
 10
-91.991901999999996
 20
236.863347000000000
 11
-91.991901999999996
 21
214.382943000000010
  0
LINE
  8
0
  6
DASHDOT
 62
256
 10
-103.123307000000000
 20
225.492454000000010
 11
-81.020881000000003
 21
225.492454000000010
  0
CIRCLE
  8
0
  6
CONTINUOUS
 62
256
 10
-91.991901999999996
 20
225.492454000000010
 40
5.500000000000000
  0
LINE
  8
0
  6
DASHDOT
 62
256
 10
-102.831352999999990
 20
115.492454000000000
 11
-80.642902000000007
 21
115.492454000000000
  0
LINE
  8
0
  6
DASHDOT
 62
256
 10
-91.991901999999996
 20
126.213044000000000
 11
-91.991901999999996
 21
103.492454000000000
  0
CIRCLE
  8
0
  6
CONTINUOUS
 62
256
 10
-91.991901999999996
 20
115.492454000000000
 40
5.500000000000000
  0
LINE
  8
0
  6
DASHDOT
 62
256
 10
2.563791000000000
 20
115.492454000000000
 11
24.460289000000000
 21
115.492454000000000
  0
LINE
  8
0
  6
DASHDOT
 62
256
 10
14.008098000000000
 20
126.796950000000000
 11
14.008098000000000
 21
104.900452000000000
  0
CIRCLE
  8
0
  6
CONTINUOUS
 62
256
 10
14.008098000000000
 20
115.492454000000000
 40
5.500000000000000
  0
ARC
  8
0
  6
CONTINUOUS
 62
256
 10
28.017130000000002
 20
207.492454000000010
 40
2.000000000000001
 50
181.000000000000140
 51
270.000000000000000
  0
LINE
  8
0
  6
CONTINUOUS
 62
256
 10
36.008097999999997
 20
205.492454000000010
 11
28.017130000000002
 21
205.492454000000010
  0
ARC
  8
0
  6
CONTINUOUS
 62
256
 10
36.008097999999997
 20
208.492454000000010
 40
3.000000000000000
 50
270.000000000000000
 51
0.000000000000000
  0
LINE
  8
0
  6
CONTINUOUS
 62
256
 10
24.629144000000000
 20
128.492224999999990
 11
36.008097999999997
 21
128.492224999999990
  0
ARC
  8
0
  6
CONTINUOUS
 62
256
 10
36.008097999999997
 20
125.492225000000000
 40
3.000000000000000
 50
0.000000000000000
 51
90.000000000000000
  0
LINE
  8
0
  6
CONTINUOUS
 62
256
 10
55.508097999999997
 20
212.677185000000010
 11
55.508097999999997
 21
170.492454000000010
  0
LINE
  8
0
  6
CONTINUOUS
 62
256
 10
52.508097999999997
 20
209.493720999999990
 11
47.508097999999997
 21
209.493720999999990
  0
LINE
  8
0
  6
CONTINUOUS
 62
256
 10
55.508097999999997
 20
225.992454000000010
 11
55.508097999999997
 21
225.588761000000010
  0
LINE
  8
0
  6
CONTINUOUS
 62
256
 10
55.508097999999997
 20
225.992454000000010
 11
55.508097999999997
 21
225.588761000000010
  0
LINE
  8
0
  6
CONTINUOUS
 62
256
 10
55.508097999999997
 20
225.992454000000010
 11
55.508097999999997
 21
226.992454000000010
  0
LINE
  8
0
  6
CONTINUOUS
 62
256
 10
55.508097999999997
 20
114.992454000000000
 11
55.508097999999997
 21
115.396147000000000
  0
LINE
  8
0
  6
CONTINUOUS
 62
256
 10
55.508097999999997
 20
128.307723000000010
 11
55.508097999999997
 21
170.492454000000010
  0
LINE
  8
0
  6
CONTINUOUS
 62
256
 10
52.508097999999997
 20
131.491187000000000
 11
47.508097999999997
 21
131.491187000000000
  0
LINE
  8
0
  6
CONTINUOUS
 62
256
 10
55.508097999999997
 20
114.992454000000000
 11
55.508097999999997
 21
113.992454000000000
  0
LINE
  8
0
  6
CONTINUOUS
 62
256
 10
62.508097999999997
 20
190.492454000000010
 11
55.508097999999997
 21
190.492454000000010
  0
LINE
  8
0
  6
CONTINUOUS
 62
256
 10
62.508097999999997
 20
150.492454000000010
 11
55.508097999999997
 21
150.492454000000010
  0
LINE
  8
0
  6
CONTINUOUS
 62
256
 10
52.508097999999997
 20
215.677185000000010
 11
44.008097999999997
 21
215.677185000000010
  0
LINE
  8
0
  6
CONTINUOUS
 62
256
 10
52.508097999999997
 20
222.588761000000010
 11
44.008097999999997
 21
222.588761000000010
  0
LINE
  8
0
  6
CONTINUOUS
 62
256
 10
52.508097999999997
 20
125.307723000000000
 11
44.008097999999997
 21
125.307723000000000
  0
LINE
  8
0
  6
CONTINUOUS
 62
256
 10
52.508097999999997
 20
118.396147000000000
 11
44.008097999999997
 21
118.396147000000000
  0
LINE
  8
0
  6
CONTINUOUS
 62
256
 10
39.008097999999997
 20
113.992454000000000
 11
39.008097999999997
 21
226.992454000000010
  0
LINE
  8
0
  6
CONTINUOUS
 62
256
 10
42.008097999999997
 20
110.992454000000000
 11
62.508097999999997
 21
110.992454000000000
  0
LINE
  8
0
  6
CONTINUOUS
 62
256
 10
42.008097999999997
 20
229.992454000000010
 11
62.508097999999997
 21
229.992454000000010
  0
ARC
  8
0
  6
CONTINUOUS
 62
256
 10
52.508097999999997
 20
206.493720999999990
 40
3.000000000000000
 50
0.000000000000000
 51
90.000000000000000
  0
ARC
  8
0
  6
CONTINUOUS
 62
256
 10
52.508097999999997
 20
225.588761000000010
 40
3.000000000000000
 50
270.000000000000000
 51
0.000000000000000
  0
ARC
  8
0
  6
CONTINUOUS
 62
256
 10
52.508097999999997
 20
212.677185000000010
 40
3.000000000000000
 50
0.000000000000000
 51
90.000000000000000
  0
ARC
  8
0
  6
CONTINUOUS
 62
256
 10
58.508097999999997
 20
226.992454000000010
 40
3.000000000000000
 50
90.000000000000000
 51
180.000000000000000
  0
ARC
  8
0
  6
CONTINUOUS
 62
256
 10
52.508097999999997
 20
134.491187000000000
 40
3.000000000000000
 50
270.000000000000000
 51
0.000000000000000
  0
ARC
  8
0
  6
CONTINUOUS
 62
256
 10
52.508097999999997
 20
128.307723000000010
 40
3.000000000000000
 50
270.000000000000000
 51
0.000000000000000
  0
ARC
  8
0
  6
CONTINUOUS
 62
256
 10
52.508097999999997
 20
115.396147000000000
 40
3.000000000000000
 50
0.000000000000000
 51
90.000000000000000
  0
ARC
  8
0
  6
CONTINUOUS
 62
256
 10
58.508097999999997
 20
113.992454000000000
 40
3.000000000000000
 50
180.000000000000000
 51
270.000000000000000
  0
ARC
  8
0
  6
CONTINUOUS
 62
256
 10
44.008097999999997
 20
210.677185000000010
 40
5.000000000000000
 50
90.000000000000000
 51
180.000000000000000
  0
ARC
  8
0
  6
CONTINUOUS
 62
256
 10
44.008097999999997
 20
217.588761000000010
 40
5.000000000000000
 50
90.000000000000000
 51
180.000000000000000
  0
ARC
  8
0
  6
CONTINUOUS
 62
256
 10
44.008097999999997
 20
123.396147000000000
 40
5.000000000000000
 50
180.000000000000000
 51
270.000000000000000
  0
ARC
  8
0
  6
CONTINUOUS
 62
256
 10
44.008097999999997
 20
130.307723000000010
 40
5.000000000000000
 50
180.000000000000000
 51
270.000000000000000
  0
ARC
  8
0
  6
CONTINUOUS
 62
256
 10
42.008097999999997
 20
226.992454000000010
 40
3.000000000000000
 50
90.000000000000000
 51
180.000000000000000
  0
ARC
  8
0
  6
CONTINUOUS
 62
256
 10
42.008097999999997
 20
113.992454000000000
 40
3.000000000000000
 50
180.000000000000000
 51
270.000000000000000
  0
LINE
  8
0
  6
DASHED
 62
256
 10
39.008097999999997
 20
151.518982999999990
 11
39.008097999999997
 21
170.492454000000010
  0
LINE
  8
0
  6
DASHED
 62
256
 10
39.008097999999997
 20
189.465925000000000
 11
39.008097999999997
 21
170.492454000000010
  0
LINE
  8
0
  6
CONTINUOUS
 62
256
 10
-84.182500000000005
 20
123.992738000000000
 11
-82.273172000000002
 21
123.992738000000000
  0
ARC
  8
0
  6
CONTINUOUS
 62
256
 10
-89.991901999999996
 20
125.492454000000000
 40
3.000000000000006
 50
30.003127000000021
 51
90.000000000000000
  0
ARC
  8
0
  6
CONTINUOUS
 62
256
 10
-89.991901999999996
 20
125.492454000000000
 40
2.999999999999997
 50
14.480309000000025
 51
90.000000000000000
  0
ARC
  8
0
  6
CONTINUOUS
 62
256
 10
-84.182500000000005
 20
126.992738000000000
 40
2.999999999999997
 50
194.480309000000010
 51
270.000000000000000
  0
LINE
  8
0
  6
CONTINUOUS
 62
256
 10
26.008098000000000
 20
207.492454000000010
 11
24.244223000000002
 21
106.440096999999990
  0
LINE
  8
0
  6
CONTINUOUS
 62
256
 10
10.198696000000000
 20
123.992738000000000
 11
8.289368000000000
 21
123.992738000000000
  0
ARC
  8
0
  6
CONTINUOUS
 62
256
 10
21.681056000000002
 20
131.492454000000010
 40
3.000000000000000
 50
270.000000000000000
 51
358.999999999999830
  0
ARC
  8
0
  6
CONTINUOUS
 62
256
 10
16.008098000000000
 20
125.492454000000000
 40
3.000000000000014
 50
90.000000000000000
 51
149.996872999999940
  0
ARC
  8
0
  6
CONTINUOUS
 62
256
 10
8.289368000000000
 20
118.992738000000000
 40
5.000000000000000
 50
90.000000000000000
 51
169.999999999999970
  0
ARC
  8
0
  6
CONTINUOUS
 62
256
 10
16.008098000000000
 20
125.492454000000000
 40
3.000000000000014
 50
90.000000000000000
 51
165.519691000000020
  0
ARC
  8
0
  6
CONTINUOUS
 62
256
 10
10.198696000000000
 20
126.992738000000000
 40
3.000000000000000
 50
270.000000000000000
 51
345.519691000000020
  0
LINE
  8
0
  6
CONTINUOUS
 62
256
 10
0.828078000000000
 20
108.471509000000000
 11
3.365330000000000
 21
119.860978000000000
  0
LINE
  8
0
  6
CONTINUOUS
 62
256
 10
-2.126345000000000
 20
105.992454000000000
 11
-36.991902000000003
 21
105.992454000000000
  0
LINE
  8
0
  6
CONTINUOUS
 62
256
 10
-10.491902000000000
 20
103.892454000000000
 11
-10.891902000000000
 21
103.492454000000000
  0
LINE
  8
0
  6
CONTINUOUS
 62
256
 10
-63.491902000000003
 20
103.892454000000000
 11
-63.091901999999997
 21
103.492454000000000
  0
LINE
  8
0
  6
CONTINUOUS
 62
256
 10
-36.991902000000003
 20
105.992454000000000
 11
-71.857459000000006
 21
105.992454000000000
  0
ARC
  8
0
  6
CONTINUOUS
 62
256
 10
-71.857459000000006
 20
231.992454000000010
 40
3.000000000000000
 50
90.000000000000000
 51
169.999999999999830
  0
ARC
  8
0
  6
CONTINUOUS
 62
256
 10
-2.126345000000000
 20
231.992454000000010
 40
3.000000000000002
 50
10.000000000000185
 51
90.000000000000000
  0
LINE
  8
0
  6
CONTINUOUS
 62
256
 10
0.828078000000000
 20
232.513398000000000
 11
3.189003000000000
 21
222.123929000000000
  0
LINE
  8
0
  6
CONTINUOUS
 62
256
 10
11.300114000000001
 20
217.992169999999990
 11
-58.537591999999997
 21
217.992169999999990
  0
LINE
  8
0
  6
CONTINUOUS
 62
256
 10
-58.537591999999997
 20
128.492454000000010
 11
-99.664860000000004
 21
128.492454000000010
  0
LINE
  8
0
  6
CONTINUOUS
 62
256
 10
-58.537591999999997
 20
123.992738000000000
 11
-84.182500000000005
 21
123.992738000000000
  0
LINE
  8
0
  6
CONTINUOUS
 62
256
 10
8.289368000000000
 20
123.992738000000000
 11
-58.537591999999997
 21
123.992738000000000
  0
LINE
  8
0
  6
CONTINUOUS
 62
256
 10
-58.537591999999997
 20
128.492454000000010
 11
21.681056000000002
 21
128.492454000000010
  0
ARC
  8
0
  6
CONTINUOUS
 62
256
 10
-82.273172000000002
 20
118.992738000000000
 40
5.000000000000002
 50
10.000000000000023
 51
90.000000000000000
  0
LINE
  8
0
  6
CONTINUOUS
 62
256
 10
-74.811881999999997
 20
108.471509000000000
 11
-77.349132999999995
 21
119.860978000000000
  0
LINE
  8
0
  6
CONTINUOUS
 62
256
 10
-74.811881999999997
 20
232.513398000000000
 11
-77.172805999999994
 21
222.123929000000000
  0
LINE
  8
0
  6
DASHDOT
 62
256
 10
95.699764000000002
 20
2.683357000000000
 11
114.888803999999990
 21
2.683357000000000
  0
LINE
  8
0
  6
DASHDOT
 62
256
 10
105.008098000000000
 20
-14.600493999999999
 11
105.008098000000000
 21
13.378855000000000
  0
LINE
  8
0
  6
DASHED
 62
256
 10
98.008098000000004
 20
-11.816642999999999
 11
98.008098000000004
 21
2.683357000000000
  0
LINE
  8
0
  6
DASHED
 62
256
 10
112.008098000000000
 20
-11.816642999999999
 11
112.008098000000000
 21
2.683357000000000
  0
ARC
  8
0
  6
DASHED
 62
256
 10
105.008098000000000
 20
2.683357000000000
 40
7.000000000000000
 50
0.000000000000000
 51
180.000000000000000
  0
CIRCLE
  8
0
  6
DASHED
 62
256
 10
105.008098000000000
 20
2.683357000000000
 40
6.000000000000000
  0
LINE
  8
0
  6
DASHDOT
 62
256
 10
144.597800000000010
 20
2.683357000000000
 11
164.971981000000000
 21
2.683357000000000
  0
LINE
  8
0
  6
DASHDOT
 62
256
 10
155.008097999999990
 20
-14.600493999999999
 11
155.008097999999990
 21
13.378855000000000
  0
LINE
  8
0
  6
DASHED
 62
256
 10
148.008097999999990
 20
-11.816642999999999
 11
148.008097999999990
 21
2.683357000000000
  0
LINE
  8
0
  6
DASHED
 62
256
 10
162.008097999999990
 20
-11.816642999999999
 11
162.008097999999990
 21
2.683357000000000
  0
ARC
  8
0
  6
DASHED
 62
256
 10
155.008097999999990
 20
2.683357000000000
 40
7.000000000000000
 50
0.000000000000000
 51
180.000000000000000
  0
ENDSEC
  0
EOF
