  0
SECTION
  2
HEADER
  9
$TEXTSIZE
 40
2.5
  9
$ACADVER
  1
AC1009
  9
$DIMASZ
 40
3.863703297614046
  9
$DIMEXE
 40
2.000000000000000
  9
$DIMEXO
 40
1.000000000000000
  9
$DIMLFAC
 40
1.000000000000000
  9
$DIMSCALE
 40
1.000000000000000
  9
$DIMTAD
 70
1
  9
$DIMTFAC
 40
0.625000000000000
  9
$DIMTXT
 40
3.200000047683716
  9
$LUPREC
 70
3
  9
$REGENMODE
 70
1
  9
$TEXTSTYLE
  7
STANDARD1
  0
ENDSEC
  0
SECTION
  2
TABLES
  0
TABLE
  2
LTYPE
 70
4
  0
LTYPE
  2
CONTINUOUS
 70
64
  3
Solid line
 72
65
 73
0
 40
0.0
  0
LTYPE
  2
DASHED
 70
64
  3
-- -- -- -- -- -- -- -- -- -- -- -- -- -- --
 72
65
 73
2
 40
0.75
 49
0.5
 49
-0.25
  0
LTYPE
  2
DASHDOT
 70
64
  3
__ . __ . __ . __ . __ . __ . __ . __ . __ . __
 72
65
 73
4
 40
1.0
 49
0.5
 49
-0.25
 49
0.0
 49
-0.25
  0
LTYPE
  2
DIVIDE
 70
64
  3
__ . . __ . . __ . . __ . . __ . . __ . . __
 72
65
 73
6
 40
1.25
 49
0.5
 49
-0.25
 49
0.0
 49
-0.25
 49
0.0
 49
-0.25
  0
ENDTAB
  0
TABLE
  2
LAYER
 70
3
  0
LAYER
  2
0
 70
64
 62
53
  6
CONTINUOUS
  0
LAYER
  2
1
 70
64
 62
102
  6
CONTINUOUS
  0
LAYER
  2
2
 70
64
 62
3
  6
CONTINUOUS
  0
ENDTAB
  0
TABLE
  2
STYLE
 70
4
  0
STYLE
  2
STANDARD1
 70
64
 40
0.0
 41
1.0
 50
0.0
 71
0
 42
3.200000047683716
  3
MONOTXT
  4
BIGFONT
  0
STYLE
  2
STANDARD2
 70
68
 40
0.0
 41
1.0
 50
0.0
 71
0
 42
3.200000047683716
  3
MONOTXT
  4
BIGFONT
  0
STYLE
  2
STANDARD3
 70
64
 40
0.0
 41
1.0
 50
0.0
 71
0
 42
3.200000047683716
  3
MONOTXT
  4

  0
STYLE
  2
STANDARD4
 70
68
 40
0.0
 41
1.0
 50
0.0
 71
0
 42
3.200000047683716
  3
MONOTXT
  4

  0
ENDTAB
  0
TABLE
  2
VIEW
 70
0
  0
ENDTAB
  0
ENDSEC
  0
SECTION
  2
BLOCKS
  0
ENDSEC
  0
SECTION
  2
ENTITIES
  0
LINE
  8
0
  6
DASHDOT
 62
256
 10
-337.901535000000020
 20
-212.075615000000000
 11
-337.901535000000020
 21
-245.303447000000010
  0
LINE
  8
0
  6
DASHDOT
 62
256
 10
-475.901535000000020
 20
-212.075615000000000
 11
-475.901535000000020
 21
-245.303447000000010
  0
LINE
  8
0
  6
CONTINUOUS
 62
256
 10
-455.901747000000000
 20
-218.717872000000000
 11
-456.901535000000020
 21
-217.697304000000000
  0
POINT
  8
0
  6
CONTINUOUS
 62
256
 10
-196.997924000000010
 20
-82.690448000000004
  0
LINE
  8
0
  6
CONTINUOUS
 62
256
 10
-11.958767999999999
 20
-26.690448000000000
 11
-100.458768000000010
 21
-26.690448000000000
  0
LINE
  8
0
  6
DASHDOT
 62
256
 10
-141.392294999999990
 20
-98.690448000000004
 11
59.401868000000000
 21
-98.690448000000004
  0
LINE
  8
0
  6
DASHDOT
 62
256
 10
-52.958767999999999
 20
-22.923169000000001
 11
-52.958767999999999
 21
-248.979069000000010
  0
CIRCLE
  8
0
  6
CONTINUOUS
 62
256
 10
-52.958767999999999
 20
-98.690448000000004
 40
3.500000000000000
  0
CIRCLE
  8
0
  6
CONTINUOUS
 62
256
 10
-52.958767999999999
 20
-98.690448000000004
 40
4.000000000000000
  0
LINE
  8
0
  6
CONTINUOUS
 62
256
 10
-57.958767999999999
 20
-79.690448000000004
 11
-57.958767999999999
 21
-87.690448000000004
  0
ARC
  8
0
  6
CONTINUOUS
 62
256
 10
-52.958767999999999
 20
-98.690448000000004
 40
16.000000000000004
 50
108.209956999999990
 51
71.790043000000011
  0
LINE
  8
0
  6
CONTINUOUS
 62
256
 10
-57.958767999999999
 20
-87.690448000000004
 11
-47.958767999999999
 21
-87.690448000000004
  0
LINE
  8
0
  6
CONTINUOUS
 62
256
 10
-47.958767999999999
 20
-79.690448000000004
 11
-57.958767999999999
 21
-79.690448000000004
  0
LINE
  8
0
  6
CONTINUOUS
 62
256
 10
-47.958767999999999
 20
-79.690448000000004
 11
-47.958767999999999
 21
-87.690448000000004
  0
ARC
  8
0
  6
CONTINUOUS
 62
256
 10
-100.458768000000010
 20
-61.690448000000004
 40
35.000000000000000
 50
90.000000000000000
 51
180.000000000000000
  0
LINE
  8
0
  6
CONTINUOUS
 62
256
 10
-135.458767999999990
 20
-61.690448000000004
 11
-135.458767999999990
 21
-238.690448000000000
  0
CIRCLE
  8
0
  6
CONTINUOUS
 62
256
 10
-52.958767999999999
 20
-98.690448000000004
 40
26.000000000000000
  0
CIRCLE
  8
0
  6
CONTINUOUS
 62
256
 10
-53.024416000000002
 20
-98.888186000000005
 40
32.000000000000000
  0
CIRCLE
  8
0
  6
CONTINUOUS
 62
256
 10
-53.024416000000002
 20
-98.888186000000005
 40
29.000000000000000
  0
CIRCLE
  8
0
  6
CONTINUOUS
 62
256
 10
-52.958767999999999
 20
-98.690448000000004
 40
48.496338000000002
  0
ARC
  8
0
  6
CONTINUOUS
 62
256
 10
-11.958767999999999
 20
-61.690448000000004
 40
35.000000000000000
 50
0.000000000000000
 51
90.000000000000000
  0
POINT
  8
0
  6
CONTINUOUS
 62
256
 10
-52.958767999999999
 20
-98.690448000000004
  0
CIRCLE
  8
0
  6
CONTINUOUS
 62
256
 10
-52.958767999999999
 20
-98.690448000000004
 40
44.000000000000000
  0
LINE
  8
0
  6
CONTINUOUS
 62
256
 10
23.041232000000001
 20
-61.690448000000004
 11
23.041232000000001
 21
-196.773588999999990
  0
LINE
  8
0
  6
CONTINUOUS
 62
256
 10
23.041232000000001
 20
-206.690448000000000
 11
23.041232000000001
 21
-195.822821000000000
  0
ARC
  8
0
  6
CONTINUOUS
 62
256
 10
32.541232000000001
 20
-87.711140999999998
 40
5.000000000000000
 50
90.000000000000000
 51
180.000000000000000
  0
ARC
  8
0
  6
CONTINUOUS
 62
256
 10
32.541232000000001
 20
-94.622716999999994
 40
5.000000000000000
 50
90.000000000000000
 51
180.000000000000000
  0
LINE
  8
0
  6
CONTINUOUS
 62
256
 10
27.541232000000001
 20
-191.307447999999990
 11
27.541232000000001
 21
-78.307447999999994
  0
LINE
  8
0
  6
CONTINUOUS
 62
256
 10
38.541232000000001
 20
-95.806180999999995
 11
33.541232000000001
 21
-95.806180999999995
  0
LINE
  8
0
  6
CONTINUOUS
 62
256
 10
38.541232000000001
 20
-82.711140999999998
 11
32.541232000000001
 21
-82.711140999999998
  0
LINE
  8
0
  6
CONTINUOUS
 62
256
 10
38.541232000000001
 20
-89.622716999999994
 11
32.541232000000001
 21
-89.622716999999994
  0
LINE
  8
0
  6
CONTINUOUS
 62
256
 10
38.541232000000001
 20
-173.808715000000010
 11
33.541232000000001
 21
-173.808715000000010
  0
LINE
  8
0
  6
CONTINUOUS
 62
256
 10
38.541232000000001
 20
-179.992178999999990
 11
32.541232000000001
 21
-179.992178999999990
  0
LINE
  8
0
  6
CONTINUOUS
 62
256
 10
38.541232000000001
 20
-186.903754999999990
 11
32.541232000000001
 21
-186.903754999999990
  0
ARC
  8
0
  6
CONTINUOUS
 62
256
 10
32.541232000000001
 20
-174.992178999999990
 40
5.000000000000000
 50
180.000000000000000
 51
270.000000000000000
  0
ARC
  8
0
  6
CONTINUOUS
 62
256
 10
32.541232000000001
 20
-181.903754999999990
 40
5.000000000000000
 50
180.000000000000000
 51
270.000000000000000
  0
ARC
  8
0
  6
CONTINUOUS
 62
256
 10
30.541232000000001
 20
-78.307447999999994
 40
3.000000000000000
 50
90.000000000000000
 51
180.000000000000000
  0
ARC
  8
0
  6
CONTINUOUS
 62
256
 10
30.541232000000001
 20
-191.307447999999990
 40
3.000000000000000
 50
180.000000000000000
 51
270.000000000000000
  0
ARC
  8
0
  6
CONTINUOUS
 62
256
 10
26.041232000000001
 20
-197.307447999999990
 40
3.000000000000000
 50
90.000000000000000
 51
180.000000000000000
  0
ARC
  8
0
  6
CONTINUOUS
 62
256
 10
26.041232000000001
 20
-72.307447999999994
 40
3.000000000000000
 50
180.000000000000000
 51
270.000000000000000
  0
LINE
  8
0
  6
CONTINUOUS
 62
256
 10
26.041232000000001
 20
-75.307447999999994
 11
47.541232000000001
 21
-75.307447999999994
  0
LINE
  8
0
  6
CONTINUOUS
 62
256
 10
26.041232000000001
 20
-194.307447999999990
 11
47.541232000000001
 21
-194.307447999999990
  0
LINE
  8
0
  6
CONTINUOUS
 62
256
 10
-132.458767999999990
 20
-220.690448000000000
 11
20.041232000000001
 21
-220.690448000000000
  0
ARC
  8
0
  6
CONTINUOUS
 62
256
 10
-132.458767999999990
 20
-223.690448000000000
 40
3.000000000000000
 50
90.000000000000000
 51
180.000000000000000
  0
LINE
  8
0
  6
CONTINUOUS
 62
256
 10
23.041232000000001
 20
-238.690448000000000
 11
23.041232000000001
 21
-196.822821000000000
  0
ARC
  8
0
  6
CONTINUOUS
 62
256
 10
20.041232000000001
 20
-223.690448000000000
 40
3.000000000000000
 50
0.000000000000000
 51
90.000000000000000
  0
LINE
  8
0
  6
DASHDOT
 62
256
 10
7.041232000000000
 20
-217.998122000000000
 11
7.041232000000000
 21
-245.650150999999990
  0
LINE
  8
0
  6
DASHDOT
 62
256
 10
-118.958768000000010
 20
-216.130403000000000
 11
-118.958768000000010
 21
-246.890570000000000
  0
LINE
  8
0
  6
DASHDOT
 62
256
 10
-9.783609000000000
 20
-134.807447999999990
 11
204.047234000000000
 21
-134.807447999999990
  0
ARC
  8
0
  6
CONTINUOUS
 62
256
 10
-52.958767999999999
 20
-98.690448000000004
 40
58.000000000000000
 50
0.000000000000000
 51
180.000000000000000
  0
LINE
  8
0
  6
CONTINUOUS
 62
256
 10
5.041232000000000
 20
-167.190448000000000
 11
5.041232000000000
 21
-98.690448000000004
  0
LINE
  8
0
  6
CONTINUOUS
 62
256
 10
-110.958768000000010
 20
-98.690448000000004
 11
-110.958768000000010
 21
-167.190448000000000
  0
LINE
  8
0
  6
CONTINUOUS
 62
256
 10
-80.958768000000006
 20
-197.190448000000000
 11
-24.958767999999999
 21
-197.190448000000000
  0
ARC
  8
0
  6
CONTINUOUS
 62
256
 10
-80.958768000000006
 20
-167.190448000000000
 40
30.000000000000000
 50
180.000000000000000
 51
270.000000000000000
  0
ARC
  8
0
  6
CONTINUOUS
 62
256
 10
-24.958767999999999
 20
-167.190448000000000
 40
30.000000000000000
 50
270.000000000000000
 51
0.000000000000000
  0
LINE
  8
0
  6
DASHDOT
 62
256
 10
-426.303667000000020
 20
-134.807447999999990
 11
-389.314432000000010
 21
-134.807447999999990
  0
LINE
  8
0
  6
DASHDOT
 62
256
 10
-406.901535000000020
 20
-17.403614999999999
 11
-406.901535000000020
 21
-245.303447000000010
  0
ARC
  8
0
  6
CONTINUOUS
 62
256
 10
-353.371563999999980
 20
-43.690448000000004
 40
2.999999999999979
 50
4.961108000000066
 51
90.000000000000000
  0
ARC
  8
0
  6
CONTINUOUS
 62
256
 10
-345.401535000000020
 20
-45.998612000000001
 40
5.000000000000021
 50
184.961107999999970
 51
260.000000000000110
  0
ARC
  8
0
  6
CONTINUOUS
 62
256
 10
-354.901603000000020
 20
-217.690448000000000
 40
3.000000000000000
 50
180.000000000000000
 51
270.000000000000000
  0
LINE
  8
0
  6
CONTINUOUS
 62
256
 10
-323.296380000000000
 20
-223.611917000000010
 11
-322.914207999999970
 21
-238.690448000000000
  0
ARC
  8
0
  6
CONTINUOUS
 62
256
 10
-326.295351999999980
 20
-223.690448000000000
 40
3.000000000000018
 50
1.499999999999996
 51
90.000000000000000
  0
ARC
  8
0
  6
CONTINUOUS
 62
256
 10
-487.507718000000010
 20
-223.690448000000000
 40
3.000000000000000
 50
90.000000000000000
 51
178.500000000000030
  0
LINE
  8
0
  6
CONTINUOUS
 62
256
 10
-490.506689999999990
 20
-223.611917000000010
 11
-490.888862000000020
 21
-238.690448000000000
  0
ARC
  8
0
  6
CONTINUOUS
 62
256
 10
-354.901603000000020
 20
-200.092447999999990
 40
3.000000000000000
 50
90.000000000000000
 51
180.000000000000000
  0
ARC
  8
0
  6
CONTINUOUS
 62
256
 10
-353.401535000000020
 20
-194.092447999999990
 40
3.000000000000000
 50
270.000000000000000
 51
0.000000000000000
  0
LINE
  8
0
  6
CONTINUOUS
 62
256
 10
-353.401535000000020
 20
-197.092447999999990
 11
-354.901603000000020
 21
-197.092447999999990
  0
ARC
  8
0
  6
CONTINUOUS
 62
256
 10
-360.901603000000020
 20
-31.288042000000001
 40
3.000000000000000
 50
0.000000000000000
 51
89.000000000000412
  0
LINE
  8
0
  6
CONTINUOUS
 62
256
 10
-487.507718000000010
 20
-220.690448000000000
 11
-326.295351999999980
 21
-220.690448000000000
  0
LINE
  8
0
  6
CONTINUOUS
 62
256
 10
-451.901535000000020
 20
-26.699175000000000
 11
-360.849245999999990
 21
-28.288499000000002
  0
LINE
  8
0
  6
CONTINUOUS
 62
256
 10
-353.371563999999980
 20
-40.690448000000004
 11
-354.901603000000020
 21
-40.690448000000004
  0
ARC
  8
0
  6
CONTINUOUS
 62
256
 10
-354.901603000000020
 20
-37.690448000000004
 40
3.000000000000000
 50
180.000000000000000
 51
270.000000000000000
  0
ARC
  8
0
  6
CONTINUOUS
 62
256
 10
-357.922316000000020
 20
-91.485083000000003
 40
1.999999999999981
 50
9.711408000000015
 51
38.138564000000407
  0
ARC
  8
0
  6
CONTINUOUS
 62
256
 10
-379.944863000000000
 20
-108.776914000000000
 40
30.000000000000007
 50
38.138563999999974
 51
46.250824999999971
  0
LINE
  8
0
  6
CONTINUOUS
 62
256
 10
-350.401535000000020
 20
-194.092447999999990
 11
-350.401535000000020
 21
-163.022772000000000
  0
LINE
  8
0
  6
CONTINUOUS
 62
256
 10
-357.901603000000020
 20
-217.690448000000000
 11
-357.901603000000020
 21
-181.249664999999990
  0
LINE
  8
0
  6
CONTINUOUS
 62
256
 10
-323.901467000000030
 20
-127.690448000000000
 11
-323.301467000000000
 21
-127.690448000000000
  0
ARC
  8
0
  6
CONTINUOUS
 62
256
 10
-326.901467000000030
 20
-139.732332000000010
 40
2.999999999999989
 50
279.999999999999660
 51
0.000000000000000
  0
LINE
  8
0
  6
CONTINUOUS
 62
256
 10
-322.901467000000030
 20
-127.290448000000000
 11
-322.901467000000030
 21
-70.090447999999995
  0
LINE
  8
0
  6
CONTINUOUS
 62
256
 10
-323.901467000000030
 20
-69.690448000000004
 11
-323.301467000000000
 21
-69.690448000000004
  0
ARC
  8
0
  6
CONTINUOUS
 62
256
 10
-326.901467000000030
 20
-57.648564000000000
 40
3.000000000000000
 50
0.000000000000000
 51
80.000000000000355
  0
LINE
  8
0
  6
CONTINUOUS
 62
256
 10
-326.380521999999980
 20
-54.694141000000002
 11
-346.328221999999980
 21
-50.931905999999998
  0
LINE
  8
0
  6
CONTINUOUS
 62
256
 10
-490.888862000000020
 20
-238.690448000000000
 11
-322.914207999999970
 21
-238.690448000000000
  0
ARC
  8
0
  6
CONTINUOUS
 62
256
 10
-452.901535000000020
 20
-219.690448000000000
 40
1.000000000000000
 50
270.000000000000000
 51
0.000000000000000
  0
LINE
  8
0
  6
CONTINUOUS
 62
256
 10
-323.901467000000030
 20
-139.732332000000010
 11
-323.901467000000030
 21
-98.690448000000004
  0
LINE
  8
0
  6
CONTINUOUS
 62
256
 10
-323.301467000000000
 20
-127.690448000000000
 11
-322.901467000000030
 21
-127.290448000000000
  0
LINE
  8
0
  6
CONTINUOUS
 62
256
 10
-323.901467000000030
 20
-98.690448000000004
 11
-323.901467000000030
 21
-57.648564000000000
  0
LINE
  8
0
  6
CONTINUOUS
 62
256
 10
-323.301467000000000
 20
-69.690448000000004
 11
-322.901467000000030
 21
-70.090447999999995
  0
LINE
  8
0
  6
CONTINUOUS
 62
256
 10
-463.401535000000020
 20
-43.690448000000004
 11
-463.401535000000020
 21
-47.676811000000001
  0
ARC
  8
0
  6
CONTINUOUS
 62
256
 10
-466.401535000000020
 20
-47.676811000000001
 40
2.999999999999996
 50
279.999999999999660
 51
0.000000000000000
  0
LINE
  8
0
  6
CONTINUOUS
 62
256
 10
-487.422480000000010
 20
-54.429651000000000
 11
-465.880590999999980
 21
-50.631233999999999
  0
ARC
  8
0
  6
CONTINUOUS
 62
256
 10
-466.401535000000020
 20
-47.676811000000001
 40
2.999999999999996
 50
279.999999999999660
 51
0.000000000000000
  0
LINE
  8
0
  6
CONTINUOUS
 62
256
 10
-455.901535000000020
 20
-26.690448000000000
 11
-451.901535000000020
 21
-26.690448000000000
  0
LINE
  8
0
  6
CONTINUOUS
 62
256
 10
-456.901535000000020
 20
-27.690448000000000
 11
-455.901535000000020
 21
-26.690448000000000
  0
ARC
  8
0
  6
CONTINUOUS
 62
256
 10
-459.901535000000020
 20
-37.690448000000004
 40
3.000000000000000
 50
270.000000000000000
 51
0.000000000000000
  0
ARC
  8
0
  6
CONTINUOUS
 62
256
 10
-460.401535000000020
 20
-43.690448000000004
 40
3.000000000000000
 50
90.000000000000000
 51
180.000000000000000
  0
LINE
  8
0
  6
CONTINUOUS
 62
256
 10
-490.901535000000020
 20
-70.090447999999995
 11
-490.501534999999990
 21
-69.690448000000004
  0
LINE
  8
0
  6
CONTINUOUS
 62
256
 10
-490.901535000000020
 20
-127.290448000000000
 11
-490.501534999999990
 21
-127.690448000000000
  0
LINE
  8
0
  6
CONTINUOUS
 62
256
 10
-490.901535000000020
 20
-70.090447999999995
 11
-490.901535000000020
 21
-98.690448000000004
  0
LINE
  8
0
  6
CONTINUOUS
 62
256
 10
-490.901535000000020
 20
-127.290448000000000
 11
-490.901535000000020
 21
-98.690448000000004
  0
LINE
  8
0
  6
CONTINUOUS
 62
256
 10
-460.401535000000020
 20
-40.690448000000004
 11
-459.901535000000020
 21
-40.690448000000004
  0
ARC
  8
0
  6
CONTINUOUS
 62
256
 10
-486.901535000000020
 20
-57.384073999999998
 40
2.999999999999996
 50
99.999999999999659
 51
180.000000000000000
  0
ARC
  8
0
  6
CONTINUOUS
 62
256
 10
-486.901535000000020
 20
-139.996822000000010
 40
3.000000000000000
 50
180.000000000000000
 51
260.000000000000340
  0
LINE
  8
0
  6
CONTINUOUS
 62
256
 10
-451.901535000000020
 20
-218.800164000000000
 11
-455.901747000000000
 21
-218.717872000000000
  0
LINE
  8
0
  6
CONTINUOUS
 62
256
 10
-456.901535000000020
 20
-217.697304000000000
 11
-456.901535000000020
 21
-200.127875999999990
  0
ARC
  8
0
  6
CONTINUOUS
 62
256
 10
-460.401535000000020
 20
-194.115844000000010
 40
3.000000000000000
 50
180.000000000000000
 51
268.777846999999550
  0
LINE
  8
0
  6
CONTINUOUS
 62
256
 10
-459.837548000000030
 20
-197.128559000000000
 11
-460.465522000000020
 21
-197.115161000000000
  0
ARC
  8
0
  6
CONTINUOUS
 62
256
 10
-459.901535000000020
 20
-200.127875999999990
 40
3.000000000000000
 50
0.000000000000000
 51
88.777846999999596
  0
LINE
  8
0
  6
CONTINUOUS
 62
256
 10
-489.901535000000020
 20
-57.384073999999998
 11
-489.901535000000020
 21
-127.690448000000000
  0
LINE
  8
0
  6
CONTINUOUS
 62
256
 10
-489.901535000000020
 20
-139.996822000000010
 11
-489.901535000000020
 21
-127.690448000000000
  0
LINE
  8
0
  6
CONTINUOUS
 62
256
 10
-490.501534999999990
 20
-127.690448000000000
 11
-489.901535000000020
 21
-127.690448000000000
  0
LINE
  8
0
  6
CONTINUOUS
 62
256
 10
-490.501534999999990
 20
-69.690448000000004
 11
-489.901535000000020
 21
-69.690448000000004
  0
LINE
  8
0
  6
CONTINUOUS
 62
256
 10
-451.901535000000020
 20
-185.006949999999990
 11
-451.901535000000020
 21
-219.690448000000000
  0
ARC
  8
0
  6
DASHED
 62
256
 10
-349.426536000000000
 20
-114.307447999999990
 40
0.500000000000028
 50
182.934025000000020
 51
270.000000000000000
  0
ARC
  8
0
  6
DASHED
 62
256
 10
-749.401534999999970
 20
-134.807447999999990
 40
400.000000000000000
 50
2.934025000000001
 51
4.114344999999999
  0
ARC
  8
0
  6
DASHED
 62
256
 10
-347.901535000000020
 20
-115.307447999999990
 40
0.500000000000000
 50
0.000000000000000
 51
90.000000000000000
  0
LINE
  8
0
  6
DASHED
 62
256
 10
-347.401535000000020
 20
-134.807447999999990
 11
-347.401535000000020
 21
-115.307447999999990
  0
LINE
  8
0
  6
DASHED
 62
256
 10
-347.901535000000020
 20
-114.807447999999990
 11
-349.426536000000000
 21
-114.807447999999990
  0
ARC
  8
0
  6
DASHED
 62
256
 10
-386.401535000000020
 20
-192.282446999999990
 40
0.499999999999999
 50
92.934025000000204
 51
180.000000000000000
  0
ARC
  8
0
  6
DASHED
 62
256
 10
-387.401535000000020
 20
-193.807447999999990
 40
0.500000000000000
 50
270.000000000000000
 51
0.000000000000000
  0
ARC
  8
0
  6
DASHED
 62
256
 10
-406.901535000000020
 20
207.692552000000010
 40
400.000000000000000
 50
272.934025000000020
 51
274.114345000000010
  0
LINE
  8
0
  6
DASHED
 62
256
 10
-386.901535000000020
 20
-193.807447999999990
 11
-386.901535000000020
 21
-192.282446999999990
  0
LINE
  8
0
  6
DASHED
 62
256
 10
-406.901535000000020
 20
-194.307447999999990
 11
-387.401535000000020
 21
-194.307447999999990
  0
ARC
  8
0
  6
DASHED
 62
256
 10
-406.901535000000020
 20
207.692552000000010
 40
399.999999999999940
 50
265.885654999999990
 51
267.065974999999980
  0
ARC
  8
0
  6
DASHED
 62
256
 10
-427.401535000000020
 20
-192.282446999999990
 40
0.500000000000000
 50
0.000000000000000
 51
87.065974999999796
  0
ARC
  8
0
  6
DASHED
 62
256
 10
-426.401535000000020
 20
-193.807447999999990
 40
0.500000000000000
 50
180.000000000000000
 51
270.000000000000000
  0
ARC
  8
0
  6
DASHED
 62
256
 10
-427.401535000000020
 20
-192.282446999999990
 40
0.500000000000000
 50
0.000000000000000
 51
87.065974999999796
  0
ARC
  8
0
  6
DASHED
 62
256
 10
-426.401535000000020
 20
-193.807447999999990
 40
0.500000000000000
 50
180.000000000000000
 51
270.000000000000000
  0
LINE
  8
0
  6
DASHED
 62
256
 10
-426.901535000000020
 20
-193.807447999999990
 11
-426.901535000000020
 21
-192.282446999999990
  0
LINE
  8
0
  6
DASHED
 62
256
 10
-406.901535000000020
 20
-194.307447999999990
 11
-426.401535000000020
 21
-194.307447999999990
  0
LINE
  8
0
  6
DASHED
 62
256
 10
-426.901535000000020
 20
-193.807447999999990
 11
-426.901535000000020
 21
-192.282446999999990
  0
LINE
  8
0
  6
DASHED
 62
256
 10
-406.901535000000020
 20
-194.307447999999990
 11
-426.401535000000020
 21
-194.307447999999990
  0
ARC
  8
0
  6
DASHED
 62
256
 10
-64.401534999999996
 20
-134.807447999999990
 40
400.000000000000060
 50
175.885655000000010
 51
177.065975000000010
  0
ARC
  8
0
  6
DASHED
 62
256
 10
-464.376533999999990
 20
-114.307447999999990
 40
0.500000000000000
 50
270.000000000000000
 51
357.065974999999980
  0
ARC
  8
0
  6
DASHED
 62
256
 10
-465.901535000000020
 20
-115.307447999999990
 40
0.500000000000000
 50
90.000000000000000
 51
180.000000000000000
  0
ARC
  8
0
  6
DASHED
 62
256
 10
-464.376533999999990
 20
-114.307447999999990
 40
0.500000000000000
 50
270.000000000000000
 51
357.065974999999980
  0
ARC
  8
0
  6
DASHED
 62
256
 10
-465.901535000000020
 20
-115.307447999999990
 40
0.500000000000000
 50
90.000000000000000
 51
180.000000000000000
  0
LINE
  8
0
  6
DASHED
 62
256
 10
-465.901535000000020
 20
-114.807447999999990
 11
-464.376533999999990
 21
-114.807447999999990
  0
LINE
  8
0
  6
DASHED
 62
256
 10
-466.401535000000020
 20
-134.807447999999990
 11
-466.401535000000020
 21
-115.307447999999990
  0
ARC
  8
0
  6
DASHED
 62
256
 10
-433.447990000000000
 20
-108.260993000000000
 40
30.000000000000004
 50
94.114344999999972
 51
175.885655000000010
  0
ARC
  8
0
  6
DASHED
 62
256
 10
-427.401535000000020
 20
-77.332448999999997
 40
0.499999999999999
 50
272.934025000000190
 51
0.000000000000000
  0
ARC
  8
0
  6
DASHED
 62
256
 10
-426.401535000000020
 20
-75.807447999999994
 40
0.500000000000000
 50
90.000000000000000
 51
180.000000000000000
  0
ARC
  8
0
  6
DASHED
 62
256
 10
-406.901535000000020
 20
-477.307448000000020
 40
400.000000000000000
 50
92.934025000000005
 51
94.114345000000000
  0
LINE
  8
0
  6
DASHED
 62
256
 10
-426.901535000000020
 20
-75.807447999999994
 11
-426.901535000000020
 21
-77.332448999999997
  0
LINE
  8
0
  6
DASHED
 62
256
 10
-406.901535000000020
 20
-75.307447999999994
 11
-426.401535000000020
 21
-75.307447999999994
  0
ARC
  8
0
  6
DASHED
 62
256
 10
-386.401535000000020
 20
-77.332448999999997
 40
0.500000000000000
 50
180.000000000000000
 51
267.065974999999810
  0
ARC
  8
0
  6
DASHED
 62
256
 10
-380.355079999999990
 20
-108.260993000000000
 40
30.000000000000018
 50
4.114344999999991
 51
85.885655000000028
  0
ARC
  8
0
  6
DASHED
 62
256
 10
-406.901535000000020
 20
-477.307448000000020
 40
400.000000000000060
 50
85.885655000000000
 51
87.065974999999995
  0
ARC
  8
0
  6
DASHED
 62
256
 10
-387.401535000000020
 20
-75.807447999999994
 40
0.500000000000000
 50
0.000000000000000
 51
90.000000000000000
  0
LINE
  8
0
  6
DASHED
 62
256
 10
-386.901535000000020
 20
-75.807447999999994
 11
-386.901535000000020
 21
-77.332448999999997
  0
LINE
  8
0
  6
DASHED
 62
256
 10
-406.901535000000020
 20
-75.307447999999994
 11
-387.401535000000020
 21
-75.307447999999994
  0
LINE
  8
0
  6
CONTINUOUS
 62
256
 10
-357.901603000000020
 20
-181.249664999999990
 11
-357.901603000000020
 21
-31.288042000000001
  0
LINE
  8
0
  6
CONTINUOUS
 62
256
 10
-451.901535000000020
 20
-26.699175000000000
 11
-451.901535000000020
 21
-185.006949999999990
  0
LINE
  8
0
  6
CONTINUOUS
 62
256
 10
-487.422480000000010
 20
-142.951245000000000
 11
-465.880590999999980
 21
-146.749662000000000
  0
ARC
  8
0
  6
CONTINUOUS
 62
256
 10
-466.401535000000020
 20
-149.704084999999990
 40
3.000000000000000
 50
0.000000000000000
 51
80.000000000000327
  0
LINE
  8
0
  6
CONTINUOUS
 62
256
 10
-456.901535000000020
 20
-200.127875999999990
 11
-456.901535000000020
 21
-27.690448000000000
  0
ARC
  8
0
  6
CONTINUOUS
 62
256
 10
-464.376533999999990
 20
-155.307447999999990
 40
0.500000000000028
 50
2.934025000000031
 51
90.000000000000000
  0
ARC
  8
0
  6
CONTINUOUS
 62
256
 10
-465.901535000000020
 20
-154.307447999999990
 40
0.500000000000000
 50
180.000000000000000
 51
270.000000000000000
  0
LINE
  8
0
  6
CONTINUOUS
 62
256
 10
-465.901535000000020
 20
-154.807447999999990
 11
-464.376533999999990
 21
-154.807447999999990
  0
ARC
  8
0
  6
CONTINUOUS
 62
256
 10
-464.376533999999990
 20
-155.307447999999990
 40
0.500000000000028
 50
2.934025000000031
 51
90.000000000000000
  0
LINE
  8
0
  6
CONTINUOUS
 62
256
 10
-466.401535000000020
 20
-146.568121999999990
 11
-466.401535000000020
 21
-154.307447999999990
  0
LINE
  8
0
  6
CONTINUOUS
 62
256
 10
-463.401535000000020
 20
-194.115844000000010
 11
-463.401535000000020
 21
-47.676811000000001
  0
ARC
  8
0
  6
CONTINUOUS
 62
256
 10
-64.401534999999996
 20
-134.807447999999990
 40
400.000000000000060
 50
182.934024999999990
 51
184.114344999999960
  0
LINE
  8
0
  6
DASHED
 62
256
 10
-466.401535000000020
 20
-134.807447999999990
 11
-466.401535000000020
 21
-146.657805000000000
  0
ARC
  8
0
  6
DASHED
 62
256
 10
-433.447990000000000
 20
-161.353903000000000
 40
30.000000000000004
 50
183.188951999999970
 51
265.885655000000040
  0
ARC
  8
0
  6
CONTINUOUS
 62
256
 10
-349.426536000000000
 20
-155.307447999999990
 40
0.500000000000000
 50
90.000000000000000
 51
177.065974999999950
  0
ARC
  8
0
  6
CONTINUOUS
 62
256
 10
-749.401534999999970
 20
-134.807447999999990
 40
399.999999999999940
 50
355.885654999999990
 51
357.065974999999980
  0
ARC
  8
0
  6
CONTINUOUS
 62
256
 10
-347.901535000000020
 20
-154.307447999999990
 40
0.500000000000000
 50
270.000000000000000
 51
0.000000000000000
  0
LINE
  8
0
  6
CONTINUOUS
 62
256
 10
-347.901535000000020
 20
-154.807447999999990
 11
-349.426536000000000
 21
-154.807447999999990
  0
LINE
  8
0
  6
CONTINUOUS
 62
256
 10
-347.401535000000020
 20
-146.799708000000010
 11
-347.401535000000020
 21
-154.307447999999990
  0
ARC
  8
0
  6
DASHED
 62
256
 10
-380.355079999999990
 20
-161.353903000000000
 40
29.999999999999989
 50
274.114344999999960
 51
356.811048000000030
  0
LINE
  8
0
  6
DASHED
 62
256
 10
-347.401535000000020
 20
-134.807447999999990
 11
-347.401535000000020
 21
-146.799708000000010
  0
LINE
  8
0
  6
CONTINUOUS
 62
256
 10
-350.401535000000020
 20
-43.690448000000004
 11
-350.401535000000020
 21
-163.022772000000000
  0
LINE
  8
0
  6
CONTINUOUS
 62
256
 10
-326.380521999999980
 20
-142.686755000000010
 11
-346.328221999999980
 21
-146.448990000000010
  0
ARC
  8
0
  6
CONTINUOUS
 62
256
 10
-345.401535000000020
 20
-151.362364000000010
 40
4.999999999999998
 50
100.680801000000170
 51
180.000000000000000
  0
ARC
  8
0
  6
CONTINUOUS
 62
256
 10
-321.301672000000000
 20
-81.590447999999995
 40
0.399999999999977
 50
0.000000000000000
 51
90.000000000000000
  0
ARC
  8
0
  6
CONTINUOUS
 62
256
 10
-320.501671999999990
 20
-82.290447999999998
 40
0.399999999999977
 50
180.000000000000000
 51
270.000000000000000
  0
LINE
  8
0
  6
CONTINUOUS
 62
256
 10
-305.901740000000020
 20
-79.690448000000004
 11
-305.901740000000020
 21
-82.690448000000004
  0
LINE
  8
0
  6
CONTINUOUS
 62
256
 10
-305.901740000000020
 20
-79.690448000000004
 11
-265.901740000000020
 21
-79.690448000000004
  0
LINE
  8
0
  6
CONTINUOUS
 62
256
 10
-320.501671999999990
 20
-82.690448000000004
 11
-266.701739999999970
 21
-82.690448000000004
  0
LINE
  8
0
  6
CONTINUOUS
 62
256
 10
-322.901535000000020
 20
-81.190448000000004
 11
-321.301672000000000
 21
-81.190448000000004
  0
LINE
  8
0
  6
CONTINUOUS
 62
256
 10
-320.901672000000020
 20
-81.590447999999995
 11
-320.901672000000020
 21
-115.790448000000000
  0
ARC
  8
0
  6
CONTINUOUS
 62
256
 10
-266.701739999999970
 20
-83.490448000000001
 40
0.800000000000011
 50
0.000000000000000
 51
90.000000000000000
  0
LINE
  8
0
  6
CONTINUOUS
 62
256
 10
-265.901740000000020
 20
-79.690448000000004
 11
-265.901740000000020
 21
-113.890448000000010
  0
ARC
  8
0
  6
CONTINUOUS
 62
256
 10
-321.301672000000000
 20
-115.790448000000000
 40
0.400000000000006
 50
270.000000000000000
 51
0.000000000000000
  0
ARC
  8
0
  6
CONTINUOUS
 62
256
 10
-320.501671999999990
 20
-115.090447999999990
 40
0.400000000000006
 50
90.000000000000000
 51
180.000000000000000
  0
LINE
  8
0
  6
CONTINUOUS
 62
256
 10
-320.501671999999990
 20
-114.690448000000000
 11
-266.701739999999970
 21
-114.690448000000000
  0
LINE
  8
0
  6
CONTINUOUS
 62
256
 10
-322.901535000000020
 20
-116.190448000000000
 11
-321.301672000000000
 21
-116.190448000000000
  0
ARC
  8
0
  6
CONTINUOUS
 62
256
 10
-266.701739999999970
 20
-113.890448000000010
 40
0.799999999999997
 50
270.000000000000000
 51
0.000000000000000
  0
LINE
  8
0
  6
DASHDOT
 62
256
 10
-501.164874000000000
 20
-98.690448000000004
 11
-256.796144000000030
 21
-98.690448000000004
  0
ARC
  8
0
  6
CONTINUOUS
 62
256
 10
-166.301535000000000
 20
-134.807447999999990
 40
300.600000000000020
 50
182.250299000000010
 51
188.597082000000000
  0
ARC
  8
0
  6
CONTINUOUS
 62
256
 10
-456.998150000000010
 20
-178.756035000000000
 40
6.600000000000022
 50
188.597082000000030
 51
194.020304999999890
  0
ARC
  8
0
  6
CONTINUOUS
 62
256
 10
-356.804920999999980
 20
-178.756035000000000
 40
6.599999999999993
 50
345.979694999999820
 51
351.402917999999940
  0
ARC
  8
0
  6
CONTINUOUS
 62
256
 10
-647.501534999999990
 20
-134.807447999999990
 40
300.600000000000020
 50
351.402918000000000
 51
357.751559999999980
  0
LINE
  8
0
  6
CONTINUOUS
 62
256
 10
47.541232000000001
 20
-134.807447999999990
 11
47.541232000000001
 21
-194.281262000000000
  0
LINE
  8
0
  6
CONTINUOUS
 62
256
 10
47.541232000000001
 20
-134.807447999999990
 11
47.541232000000001
 21
-75.333634000000004
  0
LINE
  8
0
  6
CONTINUOUS
 62
256
 10
77.541231999999994
 20
-194.307447999999990
 11
47.541232000000001
 21
-194.307447999999990
  0
LINE
  8
0
  6
CONTINUOUS
 62
256
 10
144.541232000000010
 20
-191.807447999999990
 11
47.541232000000001
 21
-191.807447999999990
  0
LINE
  8
0
  6
CONTINUOUS
 62
256
 10
144.541232000000010
 20
-190.807447999999990
 11
47.541232000000001
 21
-190.807447999999990
  0
LINE
  8
0
  6
CONTINUOUS
 62
256
 10
144.541232000000010
 20
-185.122982000000010
 11
47.541232000000001
 21
-185.122982000000010
  0
LINE
  8
0
  6
CONTINUOUS
 62
256
 10
144.541232000000010
 20
-180.173235000000010
 11
47.541232000000001
 21
-180.173235000000010
  0
LINE
  8
0
  6
CONTINUOUS
 62
256
 10
144.541232000000010
 20
-149.807447999999990
 11
47.541232000000001
 21
-149.807447999999990
  0
LINE
  8
0
  6
CONTINUOUS
 62
256
 10
144.541232000000010
 20
-154.180710000000000
 11
47.541232000000001
 21
-154.180710000000000
  0
LINE
  8
0
  6
CONTINUOUS
 62
256
 10
144.541232000000010
 20
-155.446947999999990
 11
47.541232000000001
 21
-155.446947999999990
  0
LINE
  8
0
  6
CONTINUOUS
 62
256
 10
144.541232000000010
 20
-159.637500999999990
 11
47.541232000000001
 21
-159.637500999999990
  0
LINE
  8
0
  6
CONTINUOUS
 62
256
 10
144.541232000000010
 20
-160.999382000000000
 11
47.541232000000001
 21
-160.999382000000000
  0
LINE
  8
0
  6
CONTINUOUS
 62
256
 10
144.541232000000010
 20
-165.089881999999990
 11
47.541232000000001
 21
-165.089881999999990
  0
LINE
  8
0
  6
CONTINUOUS
 62
256
 10
144.541232000000010
 20
-166.558240000000010
 11
47.541232000000001
 21
-166.558240000000010
  0
LINE
  8
0
  6
CONTINUOUS
 62
256
 10
144.541232000000010
 20
-170.521985000000000
 11
47.541232000000001
 21
-170.521985000000000
  0
LINE
  8
0
  6
CONTINUOUS
 62
256
 10
144.541232000000010
 20
-172.126633000000000
 11
47.541232000000001
 21
-172.126633000000000
  0
LINE
  8
0
  6
CONTINUOUS
 62
256
 10
144.541232000000010
 20
-119.807447999999990
 11
47.541232000000001
 21
-119.807447999999990
  0
LINE
  8
0
  6
CONTINUOUS
 62
256
 10
144.541232000000010
 20
-115.434186000000000
 11
47.541232000000001
 21
-115.434186000000000
  0
LINE
  8
0
  6
CONTINUOUS
 62
256
 10
144.541232000000010
 20
-114.167948000000000
 11
47.541232000000001
 21
-114.167948000000000
  0
LINE
  8
0
  6
CONTINUOUS
 62
256
 10
144.541232000000010
 20
-109.977394000000000
 11
47.541232000000001
 21
-109.977394000000000
  0
LINE
  8
0
  6
CONTINUOUS
 62
256
 10
144.541232000000010
 20
-108.615514000000000
 11
47.541232000000001
 21
-108.615514000000000
  0
LINE
  8
0
  6
CONTINUOUS
 62
256
 10
144.541232000000010
 20
-104.525014000000000
 11
47.541232000000001
 21
-104.525014000000000
  0
LINE
  8
0
  6
CONTINUOUS
 62
256
 10
144.541232000000010
 20
-103.056656000000000
 11
47.541232000000001
 21
-103.056656000000000
  0
LINE
  8
0
  6
CONTINUOUS
 62
256
 10
144.541232000000010
 20
-97.488263000000003
 11
47.541232000000001
 21
-97.488263000000003
  0
LINE
  8
0
  6
CONTINUOUS
 62
256
 10
144.541232000000010
 20
-89.441660999999996
 11
47.541232000000001
 21
-89.441660999999996
  0
LINE
  8
0
  6
CONTINUOUS
 62
256
 10
144.541232000000010
 20
-84.491913999999994
 11
47.541232000000001
 21
-84.491913999999994
  0
LINE
  8
0
  6
CONTINUOUS
 62
256
 10
144.541232000000010
 20
-79.807447999999994
 11
47.541232000000001
 21
-79.807447999999994
  0
LINE
  8
0
  6
CONTINUOUS
 62
256
 10
144.541232000000010
 20
-78.807447999999994
 11
47.541232000000001
 21
-78.807447999999994
  0
LINE
  8
0
  6
CONTINUOUS
 62
256
 10
144.541232000000010
 20
-77.807447999999994
 11
47.541232000000001
 21
-77.807447999999994
  0
LINE
  8
0
  6
CONTINUOUS
 62
256
 10
77.541231999999994
 20
-75.307447999999994
 11
47.541232000000001
 21
-75.307447999999994
  0
LINE
  8
0
  6
CONTINUOUS
 62
256
 10
144.541232000000010
 20
-194.307447999999990
 11
47.541232000000001
 21
-194.307447999999990
  0
ARC
  8
0
  6
CONTINUOUS
 62
256
 10
151.541232000000010
 20
-70.188226999999998
 40
3.000000000000000
 50
270.000000000000000
 51
0.000000000000000
  0
ARC
  8
0
  6
CONTINUOUS
 62
256
 10
147.541232000000010
 20
-76.188226999999998
 40
3.000000000000000
 50
90.000000000000000
 51
180.000000000000000
  0
LINE
  8
0
  6
CONTINUOUS
 62
256
 10
154.541232000000010
 20
-69.807447999999994
 11
154.541232000000010
 21
-70.188226999999998
  0
LINE
  8
0
  6
CONTINUOUS
 62
256
 10
151.541232000000010
 20
-73.188226999999998
 11
147.541232000000010
 21
-73.188226999999998
  0
LINE
  8
0
  6
CONTINUOUS
 62
256
 10
77.541231999999994
 20
-71.307447999999994
 11
77.541231999999994
 21
-76.307447999999994
  0
LINE
  8
0
  6
CONTINUOUS
 62
256
 10
85.541231999999994
 20
-41.307448000000001
 11
93.541231999999994
 21
-41.307448000000001
  0
LINE
  8
0
  6
CONTINUOUS
 62
256
 10
93.541231999999994
 20
-41.807448000000001
 11
93.541231999999994
 21
-41.307448000000001
  0
LINE
  8
0
  6
CONTINUOUS
 62
256
 10
88.041231999999994
 20
-41.807448000000001
 11
88.041231999999994
 21
-41.307448000000001
  0
LINE
  8
0
  6
CONTINUOUS
 62
256
 10
85.541231999999994
 20
-41.807448000000001
 11
85.541231999999994
 21
-41.307448000000001
  0
LINE
  8
0
  6
CONTINUOUS
 62
256
 10
79.541231999999994
 20
-41.807448000000001
 11
150.541232000000010
 21
-41.807448000000001
  0
ARC
  8
0
  6
CONTINUOUS
 62
256
 10
150.541232000000010
 20
-42.807448000000001
 40
1.000000000000000
 50
0.000000000000000
 51
90.000000000000000
  0
ARC
  8
0
  6
CONTINUOUS
 62
256
 10
79.541231999999994
 20
-42.807448000000001
 40
1.000000000000000
 50
90.000000000000000
 51
180.000000000000000
  0
LINE
  8
0
  6
CONTINUOUS
 62
256
 10
78.541231999999994
 20
-42.807448000000001
 11
78.541231999999994
 21
-71.307447999999994
  0
LINE
  8
0
  6
CONTINUOUS
 62
256
 10
151.541232000000010
 20
-42.807448000000001
 11
151.541232000000010
 21
-71.307447999999994
  0
LINE
  8
0
  6
CONTINUOUS
 62
256
 10
77.541231999999994
 20
-71.307447999999994
 11
152.541232000000010
 21
-71.307447999999994
  0
LINE
  8
0
  6
CONTINUOUS
 62
256
 10
77.541231999999994
 20
-76.307447999999994
 11
144.541232000000010
 21
-76.307447999999994
  0
LINE
  8
0
  6
CONTINUOUS
 62
256
 10
152.541232000000010
 20
-71.307447999999994
 11
152.541232000000010
 21
-73.016654000000003
  0
ARC
  8
0
  6
CONTINUOUS
 62
256
 10
173.235256999999990
 20
-89.807447999999994
 40
19.999999999999993
 50
55.000000000000028
 51
90.000000000000000
  0
LINE
  8
0
  6
CONTINUOUS
 62
256
 10
154.541232000000010
 20
-69.807447999999994
 11
173.235256999999990
 21
-69.807447999999994
  0
ARC
  8
0
  6
CONTINUOUS
 62
256
 10
192.941232000000010
 20
-82.364243000000002
 40
2.599999999999994
 50
0.000000000000000
 51
54.999999999999979
  0
LINE
  8
0
  6
CONTINUOUS
 62
256
 10
184.706785000000000
 20
-73.424407000000002
 11
194.432531000000010
 21
-80.234448000000000
  0
LINE
  8
0
  6
CONTINUOUS
 62
256
 10
195.541232000000010
 20
-134.807447999999990
 11
195.541232000000010
 21
-82.364243000000002
  0
LINE
  8
0
  6
CONTINUOUS
 62
256
 10
47.541232000000001
 20
-75.307447999999994
 11
47.541232000000001
 21
-134.807447999999990
  0
LINE
  8
0
  6
CONTINUOUS
 62
256
 10
144.541232000000010
 20
-134.807447999999990
 11
144.541232000000010
 21
-76.188226999999998
  0
ARC
  8
0
  6
CONTINUOUS
 62
256
 10
192.941232000000010
 20
-187.250653000000000
 40
2.599999999999996
 50
305.000000000000230
 51
0.000000000000000
  0
LINE
  8
0
  6
CONTINUOUS
 62
256
 10
184.706785000000000
 20
-196.190489000000010
 11
194.432531000000010
 21
-189.380448000000000
  0
ARC
  8
0
  6
CONTINUOUS
 62
256
 10
173.235256999999990
 20
-179.807447999999990
 40
20.000000000000000
 50
270.000000000000000
 51
305.000000000000000
  0
LINE
  8
0
  6
CONTINUOUS
 62
256
 10
195.541232000000010
 20
-134.807447999999990
 11
195.541232000000010
 21
-187.250653000000000
  0
LINE
  8
0
  6
CONTINUOUS
 62
256
 10
144.541232000000010
 20
-199.807447999999990
 11
173.235256999999990
 21
-199.807447999999990
  0
LINE
  8
0
  6
CONTINUOUS
 62
256
 10
47.541232000000001
 20
-194.307447999999990
 11
47.541232000000001
 21
-134.807447999999990
  0
LINE
  8
0
  6
CONTINUOUS
 62
256
 10
144.541232000000010
 20
-134.807447999999990
 11
144.541232000000010
 21
-199.807447999999990
  0
LINE
  8
0
  6
CONTINUOUS
 62
256
 10
155.541232000000010
 20
-188.547563000000000
 11
157.541232000000010
 21
-186.894921000000010
  0
LINE
  8
0
  6
CONTINUOUS
 62
256
 10
153.541232000000010
 20
-189.723349000000010
 11
155.541232000000010
 21
-188.547563000000000
  0
LINE
  8
0
  6
CONTINUOUS
 62
256
 10
155.541232000000010
 20
-188.547563000000000
 11
153.541232000000010
 21
-186.894921000000010
  0
LINE
  8
0
  6
CONTINUOUS
 62
256
 10
157.541232000000010
 20
-189.723349000000010
 11
155.541232000000010
 21
-188.547563000000000
  0
POLYLINE
  8
0
  6
CONTINUOUS
 62
256
 66
1
 70
1
  0
VERTEX
  8
0
  6
CONTINUOUS
 62
256
 10
160.241232000000000
 20
-186.730973000000010
  0
VERTEX
  8
0
  6
CONTINUOUS
 62
256
 10
160.150922817895180
 20
-186.028016489441820
  0
VERTEX
  8
0
  6
CONTINUOUS
 62
256
 10
159.883465802803040
 20
-185.352074203361870
  0
VERTEX
  8
0
  6
CONTINUOUS
 62
256
 10
159.449139177821960
 20
-184.729122224741330
  0
VERTEX
  8
0
  6
CONTINUOUS
 62
256
 10
158.864633871576790
 20
-184.183100248763170
  0
VERTEX
  8
0
  6
CONTINUOUS
 62
256
 10
158.152412095192120
 20
-183.734991593751520
  0
VERTEX
  8
0
  6
CONTINUOUS
 62
256
 10
157.339844132115930
 20
-183.402016824016270
  0
VERTEX
  8
0
  6
CONTINUOUS
 62
256
 10
156.458156513475810
 20
-183.196971973223920
  0
VERTEX
  8
0
  6
CONTINUOUS
 62
256
 10
155.541232000000010
 20
-183.127736800000010
  0
VERTEX
  8
0
  6
CONTINUOUS
 62
256
 10
154.624307486524200
 20
-183.196971973223920
  0
VERTEX
  8
0
  6
CONTINUOUS
 62
256
 10
153.742619867884090
 20
-183.402016824016270
  0
VERTEX
  8
0
  6
CONTINUOUS
 62
256
 10
152.930051904807900
 20
-183.734991593751520
  0
VERTEX
  8
0
  6
CONTINUOUS
 62
256
 10
152.217830128423230
 20
-184.183100248763170
  0
VERTEX
  8
0
  6
CONTINUOUS
 62
256
 10
151.633324822178050
 20
-184.729122224741330
  0
VERTEX
  8
0
  6
CONTINUOUS
 62
256
 10
151.198998197196970
 20
-185.352074203361870
  0
VERTEX
  8
0
  6
CONTINUOUS
 62
256
 10
150.931541182104840
 20
-186.028016489441820
  0
VERTEX
  8
0
  6
CONTINUOUS
 62
256
 10
150.841232000000020
 20
-186.730973000000010
  0
VERTEX
  8
0
  6
CONTINUOUS
 62
256
 10
150.931541182104840
 20
-187.433929510558190
  0
VERTEX
  8
0
  6
CONTINUOUS
 62
256
 10
151.198998197196970
 20
-188.109871796638150
  0
VERTEX
  8
0
  6
CONTINUOUS
 62
256
 10
151.633324822178050
 20
-188.732823775258680
  0
VERTEX
  8
0
  6
CONTINUOUS
 62
256
 10
152.217830128423230
 20
-189.278845751236840
  0
VERTEX
  8
0
  6
CONTINUOUS
 62
256
 10
152.930051904807900
 20
-189.726954406248500
  0
VERTEX
  8
0
  6
CONTINUOUS
 62
256
 10
153.742619867884090
 20
-190.059929175983740
  0
VERTEX
  8
0
  6
CONTINUOUS
 62
256
 10
154.624307486524200
 20
-190.264974026776060
  0
VERTEX
  8
0
  6
CONTINUOUS
 62
256
 10
155.541232000000010
 20
-190.334209200000000
  0
VERTEX
  8
0
  6
CONTINUOUS
 62
256
 10
156.458156513475810
 20
-190.264974026776060
  0
VERTEX
  8
0
  6
CONTINUOUS
 62
256
 10
157.339844132115930
 20
-190.059929175983740
  0
VERTEX
  8
0
  6
CONTINUOUS
 62
256
 10
158.152412095192120
 20
-189.726954406248500
  0
VERTEX
  8
0
  6
CONTINUOUS
 62
256
 10
158.864633871576760
 20
-189.278845751236840
  0
VERTEX
  8
0
  6
CONTINUOUS
 62
256
 10
159.449139177821960
 20
-188.732823775258680
  0
VERTEX
  8
0
  6
CONTINUOUS
 62
256
 10
159.883465802803040
 20
-188.109871796638150
  0
VERTEX
  8
0
  6
CONTINUOUS
 62
256
 10
160.150922817895180
 20
-187.433929510558190
  0
SEQEND
  8
0
  6
CONTINUOUS
 62
256
  0
LINE
  8
0
  6
CONTINUOUS
 62
256
 10
155.541232000000010
 20
-81.067333000000005
 11
157.541232000000010
 21
-82.719973999999993
  0
LINE
  8
0
  6
CONTINUOUS
 62
256
 10
153.541232000000010
 20
-79.891547000000003
 11
155.541232000000010
 21
-81.067333000000005
  0
LINE
  8
0
  6
CONTINUOUS
 62
256
 10
155.541232000000010
 20
-81.067333000000005
 11
153.541232000000010
 21
-82.719973999999993
  0
LINE
  8
0
  6
CONTINUOUS
 62
256
 10
157.541232000000010
 20
-79.891547000000003
 11
155.541232000000010
 21
-81.067333000000005
  0
POLYLINE
  8
0
  6
CONTINUOUS
 62
256
 66
1
 70
1
  0
VERTEX
  8
0
  6
CONTINUOUS
 62
256
 10
160.241232000000000
 20
-82.883922999999996
  0
VERTEX
  8
0
  6
CONTINUOUS
 62
256
 10
160.150922817895180
 20
-82.180966489441829
  0
VERTEX
  8
0
  6
CONTINUOUS
 62
256
 10
159.883465802803040
 20
-81.505024203361856
  0
VERTEX
  8
0
  6
CONTINUOUS
 62
256
 10
159.449139177821960
 20
-80.882072224741336
  0
VERTEX
  8
0
  6
CONTINUOUS
 62
256
 10
158.864633871576790
 20
-80.336050248763144
  0
VERTEX
  8
0
  6
CONTINUOUS
 62
256
 10
158.152412095192120
 20
-79.887941593751506
  0
VERTEX
  8
0
  6
CONTINUOUS
 62
256
 10
157.339844132115930
 20
-79.554966824016248
  0
VERTEX
  8
0
  6
CONTINUOUS
 62
256
 10
156.458156513475810
 20
-79.349921973223928
  0
VERTEX
  8
0
  6
CONTINUOUS
 62
256
 10
155.541232000000010
 20
-79.280686799999998
  0
VERTEX
  8
0
  6
CONTINUOUS
 62
256
 10
154.624307486524200
 20
-79.349921973223928
  0
VERTEX
  8
0
  6
CONTINUOUS
 62
256
 10
153.742619867884090
 20
-79.554966824016248
  0
VERTEX
  8
0
  6
CONTINUOUS
 62
256
 10
152.930051904807900
 20
-79.887941593751506
  0
VERTEX
  8
0
  6
CONTINUOUS
 62
256
 10
152.217830128423230
 20
-80.336050248763144
  0
VERTEX
  8
0
  6
CONTINUOUS
 62
256
 10
151.633324822178050
 20
-80.882072224741336
  0
VERTEX
  8
0
  6
CONTINUOUS
 62
256
 10
151.198998197196970
 20
-81.505024203361856
  0
VERTEX
  8
0
  6
CONTINUOUS
 62
256
 10
150.931541182104840
 20
-82.180966489441829
  0
VERTEX
  8
0
  6
CONTINUOUS
 62
256
 10
150.841232000000020
 20
-82.883922999999996
  0
VERTEX
  8
0
  6
CONTINUOUS
 62
256
 10
150.931541182104840
 20
-83.586879510558163
  0
VERTEX
  8
0
  6
CONTINUOUS
 62
256
 10
151.198998197196970
 20
-84.262821796638136
  0
VERTEX
  8
0
  6
CONTINUOUS
 62
256
 10
151.633324822178050
 20
-84.885773775258656
  0
VERTEX
  8
0
  6
CONTINUOUS
 62
256
 10
152.217830128423230
 20
-85.431795751236834
  0
VERTEX
  8
0
  6
CONTINUOUS
 62
256
 10
152.930051904807900
 20
-85.879904406248485
  0
VERTEX
  8
0
  6
CONTINUOUS
 62
256
 10
153.742619867884090
 20
-86.212879175983744
  0
VERTEX
  8
0
  6
CONTINUOUS
 62
256
 10
154.624307486524200
 20
-86.417924026776063
  0
VERTEX
  8
0
  6
CONTINUOUS
 62
256
 10
155.541232000000010
 20
-86.487159199999994
  0
VERTEX
  8
0
  6
CONTINUOUS
 62
256
 10
156.458156513475810
 20
-86.417924026776063
  0
VERTEX
  8
0
  6
CONTINUOUS
 62
256
 10
157.339844132115930
 20
-86.212879175983744
  0
VERTEX
  8
0
  6
CONTINUOUS
 62
256
 10
158.152412095192120
 20
-85.879904406248485
  0
VERTEX
  8
0
  6
CONTINUOUS
 62
256
 10
158.864633871576760
 20
-85.431795751236848
  0
VERTEX
  8
0
  6
CONTINUOUS
 62
256
 10
159.449139177821960
 20
-84.885773775258656
  0
VERTEX
  8
0
  6
CONTINUOUS
 62
256
 10
159.883465802803040
 20
-84.262821796638136
  0
VERTEX
  8
0
  6
CONTINUOUS
 62
256
 10
160.150922817895180
 20
-83.586879510558163
  0
SEQEND
  8
0
  6
CONTINUOUS
 62
256
  0
LINE
  8
0
  6
CONTINUOUS
 62
256
 10
47.541738000000002
 20
-76.307447999999994
 11
47.541738000000002
 21
-78.557447999999994
  0
LINE
  8
0
  6
CONTINUOUS
 62
256
 10
47.541738000000002
 20
-193.307447999999990
 11
47.541738000000002
 21
-191.057447999999990
  0
LINE
  8
0
  6
CONTINUOUS
 62
256
 10
47.541738000000002
 20
-191.057447999999990
 11
47.541738000000002
 21
-193.225409000000010
  0
LINE
  8
0
  6
CONTINUOUS
 62
256
 10
47.541232000000001
 20
-193.298720000000000
 11
47.541232000000001
 21
-134.807447999999990
  0
LINE
  8
0
  6
CONTINUOUS
 62
256
 10
47.541232000000001
 20
-76.316175000000001
 11
47.541232000000001
 21
-134.807447999999990
  0
LINE
  8
0
  6
CONTINUOUS
 62
256
 10
47.541232000000001
 20
-193.307450999999990
 11
47.541232000000001
 21
-191.057450999999990
  0
LINE
  8
0
  6
CONTINUOUS
 62
256
 10
47.541232000000001
 20
-76.309886000000006
 11
47.541232000000001
 21
-193.307447999999990
  0
LINE
  8
0
  6
CONTINUOUS
 62
256
 10
47.541232000000001
 20
-76.359855999999994
 11
47.541232000000001
 21
-193.255040000000010
  0
LINE
  8
0
  6
CONTINUOUS
 62
256
 10
41.541232000000001
 20
-114.807447999999990
 11
47.541232000000001
 21
-114.807447999999990
  0
LINE
  8
0
  6
CONTINUOUS
 62
256
 10
41.541232000000001
 20
-154.807447999999990
 11
47.541232000000001
 21
-154.807447999999990
  0
LINE
  8
0
  6
CONTINUOUS
 62
256
 10
41.541232000000001
 20
-190.307447999999990
 11
41.541232000000001
 21
-191.307447999999990
  0
LINE
  8
0
  6
CONTINUOUS
 62
256
 10
41.541232000000001
 20
-190.307447999999990
 11
41.541232000000001
 21
-189.903754999999990
  0
LINE
  8
0
  6
CONTINUOUS
 62
256
 10
41.541232000000001
 20
-190.307447999999990
 11
41.541232000000001
 21
-189.903754999999990
  0
LINE
  8
0
  6
CONTINUOUS
 62
256
 10
41.541232000000001
 20
-176.992178999999990
 11
41.541232000000001
 21
-134.807447999999990
  0
ARC
  8
0
  6
CONTINUOUS
 62
256
 10
44.541232000000001
 20
-191.307447999999990
 40
3.000000000000000
 50
180.000000000000000
 51
270.000000000000000
  0
ARC
  8
0
  6
CONTINUOUS
 62
256
 10
38.541232000000001
 20
-176.992178999999990
 40
3.000000000000000
 50
270.000000000000000
 51
0.000000000000000
  0
ARC
  8
0
  6
CONTINUOUS
 62
256
 10
38.541232000000001
 20
-189.903754999999990
 40
3.000000000000000
 50
0.000000000000000
 51
90.000000000000000
  0
ARC
  8
0
  6
CONTINUOUS
 62
256
 10
38.541232000000001
 20
-170.808715000000010
 40
3.000000000000000
 50
270.000000000000000
 51
0.000000000000000
  0
ARC
  8
0
  6
CONTINUOUS
 62
256
 10
44.541232000000001
 20
-78.307447999999994
 40
3.000000000000000
 50
90.000000000000000
 51
180.000000000000000
  0
LINE
  8
0
  6
CONTINUOUS
 62
256
 10
41.541232000000001
 20
-79.307447999999994
 11
41.541232000000001
 21
-78.307447999999994
  0
LINE
  8
0
  6
CONTINUOUS
 62
256
 10
41.541232000000001
 20
-92.622716999999994
 11
41.541232000000001
 21
-134.807447999999990
  0
LINE
  8
0
  6
CONTINUOUS
 62
256
 10
41.541232000000001
 20
-79.307447999999994
 11
41.541232000000001
 21
-79.711140999999998
  0
ARC
  8
0
  6
CONTINUOUS
 62
256
 10
38.541232000000001
 20
-79.711140999999998
 40
3.000000000000000
 50
270.000000000000000
 51
0.000000000000000
  0
ARC
  8
0
  6
CONTINUOUS
 62
256
 10
38.541232000000001
 20
-92.622716999999994
 40
3.000000000000000
 50
0.000000000000000
 51
90.000000000000000
  0
ARC
  8
0
  6
CONTINUOUS
 62
256
 10
38.541232000000001
 20
-98.806180999999995
 40
3.000000000000000
 50
0.000000000000000
 51
90.000000000000000
  0
LINE
  8
0
  6
CONTINUOUS
 62
256
 10
47.541232000000001
 20
-194.307447999999990
 11
47.541232000000001
 21
-134.807447999999990
  0
LINE
  8
0
  6
CONTINUOUS
 62
256
 10
47.541232000000001
 20
-75.307447999999994
 11
47.541232000000001
 21
-134.807447999999990
  0
LINE
  8
0
  6
CONTINUOUS
 62
256
 10
-135.458767999999990
 20
-238.690448000000000
 11
23.041232000000001
 21
-238.690448000000000
  0
LINE
  8
0
  6
DASHDOT
 62
256
 10
-218.217743000000010
 20
-98.690448000000004
 11
-177.120969000000000
 21
-98.690448000000004
  0
LINE
  8
0
  6
DASHDOT
 62
256
 10
-196.997924000000010
 20
-75.192435000000003
 11
-196.997924000000010
 21
-119.713939999999990
  0
LINE
  8
0
  6
CONTINUOUS
 62
256
 10
-191.997924000000010
 20
-79.690448000000004
 11
-191.997924000000010
 21
-87.690448000000004
  0
LINE
  8
0
  6
CONTINUOUS
 62
256
 10
-191.997924000000010
 20
-79.690448000000004
 11
-201.997924000000010
 21
-79.690448000000004
  0
LINE
  8
0
  6
CONTINUOUS
 62
256
 10
-201.997924000000010
 20
-79.690448000000004
 11
-201.997924000000010
 21
-87.690448000000004
  0
LINE
  8
0
  6
CONTINUOUS
 62
256
 10
-201.997924000000010
 20
-87.690448000000004
 11
-191.997924000000010
 21
-87.690448000000004
  0
ARC
  8
0
  6
CONTINUOUS
 62
256
 10
-196.997924000000010
 20
-98.690448000000004
 40
16.000000000000004
 50
108.209956999999970
 51
71.790043000000040
  0
CIRCLE
  8
0
  6
CONTINUOUS
 62
256
 10
-196.997924000000010
 20
-98.690448000000004
 40
4.000000000000000
  0
CIRCLE
  8
0
  6
CONTINUOUS
 62
256
 10
-196.997924000000010
 20
-98.690448000000004
 40
3.500000000000000
  0
LINE
  8
0
  6
DASHDOT
 62
256
 10
322.640850000000000
 20
-212.075615000000000
 11
322.640850000000000
 21
-245.303447000000010
  0
LINE
  8
0
  6
DASHDOT
 62
256
 10
460.640850000000000
 20
-212.075615000000000
 11
460.640850000000000
 21
-245.303447000000010
  0
ARC
  8
0
  6
CONTINUOUS
 62
256
 10
472.247032999999990
 20
-223.690448000000000
 40
3.000000000000018
 50
1.499999999999996
 51
90.000000000000000
  0
LINE
  8
0
  6
CONTINUOUS
 62
256
 10
475.246005000000030
 20
-223.611917000000010
 11
475.628176999999990
 21
-238.690448000000000
  0
LINE
  8
0
  6
CONTINUOUS
 62
256
 10
472.247032999999990
 20
-220.690448000000000
 11
311.034667000000010
 21
-220.690448000000000
  0
LINE
  8
0
  6
CONTINUOUS
 62
256
 10
436.640850000000000
 20
-26.699175000000000
 11
345.588561000000030
 21
-28.288499000000002
  0
ARC
  8
0
  6
CONTINUOUS
 62
256
 10
450.640850000000000
 20
-115.307447999999990
 40
0.500000000000000
 50
0.000000000000000
 51
46.689569999997964
  0
ARC
  8
0
  6
CONTINUOUS
 62
256
 10
450.640850000000000
 20
-154.307447999999990
 40
0.500000000000026
 50
313.310430000000960
 51
0.000000000000000
  0
LINE
  8
0
  6
CONTINUOUS
 62
256
 10
451.140850000000000
 20
-117.476839000000000
 11
451.140850000000000
 21
-115.307447999999990
  0
LINE
  8
0
  6
CONTINUOUS
 62
256
 10
451.140850000000000
 20
-152.138057000000000
 11
451.140850000000000
 21
-154.307447999999990
  0
LINE
  8
0
  6
CONTINUOUS
 62
256
 10
436.640850000000000
 20
-26.699175000000000
 11
436.640850000000000
 21
-76.769377000000006
  0
LINE
  8
0
  6
CONTINUOUS
 62
256
 10
475.628176999999990
 20
-238.690448000000000
 11
307.653523000000010
 21
-238.690448000000000
  0
ARC
  8
0
  6
CONTINUOUS
 62
256
 10
437.640850000000000
 20
-219.690448000000000
 40
1.000000000000000
 50
180.000000000000000
 51
270.000000000000000
  0
LINE
  8
0
  6
CONTINUOUS
 62
256
 10
448.140850000000000
 20
-43.690448000000004
 11
448.140850000000000
 21
-47.676811000000001
  0
ARC
  8
0
  6
CONTINUOUS
 62
256
 10
451.140850000000000
 20
-47.676811000000001
 40
3.000000000000000
 50
180.000000000000000
 51
260.000000000000340
  0
LINE
  8
0
  6
CONTINUOUS
 62
256
 10
472.161794999999980
 20
-54.429651000000000
 11
450.619906000000010
 21
-50.631233999999999
  0
ARC
  8
0
  6
CONTINUOUS
 62
256
 10
451.140850000000000
 20
-47.676811000000001
 40
3.000000000000000
 50
180.000000000000000
 51
260.000000000000340
  0
LINE
  8
0
  6
CONTINUOUS
 62
256
 10
441.640850000000000
 20
-37.690448000000004
 11
441.640850000000000
 21
-27.690448000000000
  0
LINE
  8
0
  6
CONTINUOUS
 62
256
 10
440.640850000000000
 20
-26.690448000000000
 11
436.640850000000000
 21
-26.690448000000000
  0
LINE
  8
0
  6
CONTINUOUS
 62
256
 10
441.640850000000000
 20
-27.690448000000000
 11
440.640850000000000
 21
-26.690448000000000
  0
ARC
  8
0
  6
CONTINUOUS
 62
256
 10
444.640850000000000
 20
-37.690448000000004
 40
3.000000000000000
 50
180.000000000000000
 51
270.000000000000000
  0
ARC
  8
0
  6
CONTINUOUS
 62
256
 10
445.140850000000000
 20
-43.690448000000004
 40
3.000000000000000
 50
0.000000000000000
 51
90.000000000000000
  0
LINE
  8
0
  6
CONTINUOUS
 62
256
 10
475.640850000000000
 20
-70.090447999999995
 11
475.240850000000020
 21
-69.690448000000004
  0
LINE
  8
0
  6
CONTINUOUS
 62
256
 10
475.640850000000000
 20
-127.290448000000000
 11
475.240850000000020
 21
-127.690448000000000
  0
LINE
  8
0
  6
CONTINUOUS
 62
256
 10
475.640850000000000
 20
-70.090447999999995
 11
475.640850000000000
 21
-98.690448000000004
  0
LINE
  8
0
  6
CONTINUOUS
 62
256
 10
475.640850000000000
 20
-127.290448000000000
 11
475.640850000000000
 21
-98.690448000000004
  0
LINE
  8
0
  6
CONTINUOUS
 62
256
 10
445.140850000000000
 20
-40.690448000000004
 11
444.640850000000000
 21
-40.690448000000004
  0
ARC
  8
0
  6
CONTINUOUS
 62
256
 10
471.640850000000000
 20
-57.384073999999998
 40
3.000000000000000
 50
0.000000000000000
 51
80.000000000000355
  0
ARC
  8
0
  6
CONTINUOUS
 62
256
 10
471.640850000000000
 20
-139.996822000000010
 40
2.999999999999989
 50
279.999999999999660
 51
0.000000000000000
  0
LINE
  8
0
  6
CONTINUOUS
 62
256
 10
436.640850000000000
 20
-218.800164000000000
 11
440.641002000000010
 21
-218.717873000000000
  0
LINE
  8
0
  6
CONTINUOUS
 62
256
 10
441.640850000000000
 20
-217.700420000000010
 11
440.641002000000010
 21
-218.717873000000000
  0
ARC
  8
0
  6
CONTINUOUS
 62
256
 10
445.140850000000000
 20
-194.115844000000010
 40
2.999999999999999
 50
271.222153000000390
 51
0.000000000000000
  0
LINE
  8
0
  6
CONTINUOUS
 62
256
 10
444.576863000000000
 20
-197.128559000000000
 11
445.204837000000000
 21
-197.115161000000000
  0
ARC
  8
0
  6
CONTINUOUS
 62
256
 10
444.640850000000000
 20
-200.127875999999990
 40
2.999999999999999
 50
91.222153000000404
 51
180.000000000000000
  0
LINE
  8
0
  6
CONTINUOUS
 62
256
 10
474.640850000000000
 20
-57.384073999999998
 11
474.640850000000000
 21
-127.690448000000000
  0
LINE
  8
0
  6
CONTINUOUS
 62
256
 10
474.640850000000000
 20
-139.996822000000010
 11
474.640850000000000
 21
-127.690448000000000
  0
LINE
  8
0
  6
CONTINUOUS
 62
256
 10
475.240850000000020
 20
-127.690448000000000
 11
474.640850000000000
 21
-127.690448000000000
  0
LINE
  8
0
  6
CONTINUOUS
 62
256
 10
475.240850000000020
 20
-69.690448000000004
 11
474.640850000000000
 21
-69.690448000000004
  0
LINE
  8
0
  6
CONTINUOUS
 62
256
 10
436.640850000000000
 20
-192.845519000000000
 11
436.640850000000000
 21
-219.690448000000000
  0
LINE
  8
0
  6
CONTINUOUS
 62
256
 10
472.161794999999980
 20
-142.951245000000000
 11
451.409037000000010
 21
-146.610515999999990
  0
LINE
  8
0
  6
CONTINUOUS
 62
256
 10
448.140850000000000
 20
-89.259906999999998
 11
448.140850000000000
 21
-47.676811000000001
  0
LINE
  8
0
  6
CONTINUOUS
 62
256
 10
448.140850000000000
 20
-194.115844000000010
 11
448.140850000000000
 21
-180.354988999999990
  0
LINE
  8
0
  6
CONTINUOUS
 62
256
 10
441.640850000000000
 20
-81.428437000000002
 11
441.640850000000000
 21
-37.690448000000004
  0
LINE
  8
0
  6
CONTINUOUS
 62
256
 10
441.640850000000000
 20
-217.700420000000010
 11
441.640850000000000
 21
-188.186459000000010
  0
ARC
  8
0
  6
CONTINUOUS
 62
256
 10
338.110879000000010
 20
-43.690448000000004
 40
3.000000000000000
 50
90.000000000000000
 51
175.038891999999950
  0
ARC
  8
0
  6
CONTINUOUS
 62
256
 10
330.140850000000000
 20
-45.998612000000001
 40
4.999999999999999
 50
279.999999999999890
 51
355.038891999999980
  0
ARC
  8
0
  6
CONTINUOUS
 62
256
 10
339.640919000000000
 20
-217.690448000000000
 40
3.000000000000000
 50
270.000000000000000
 51
0.000000000000000
  0
LINE
  8
0
  6
CONTINUOUS
 62
256
 10
308.035694999999980
 20
-223.611917000000010
 11
307.653523000000010
 21
-238.690448000000000
  0
ARC
  8
0
  6
CONTINUOUS
 62
256
 10
311.034667000000010
 20
-223.690448000000000
 40
3.000000000000000
 50
90.000000000000000
 51
178.500000000000030
  0
ARC
  8
0
  6
CONTINUOUS
 62
256
 10
339.640919000000000
 20
-200.092447999999990
 40
3.000000000000000
 50
0.000000000000000
 51
90.000000000000000
  0
ARC
  8
0
  6
CONTINUOUS
 62
256
 10
338.140850000000000
 20
-194.092447999999990
 40
3.000000000000000
 50
180.000000000000000
 51
270.000000000000000
  0
LINE
  8
0
  6
CONTINUOUS
 62
256
 10
338.140850000000000
 20
-197.092447999999990
 11
339.640919000000000
 21
-197.092447999999990
  0
ARC
  8
0
  6
CONTINUOUS
 62
256
 10
345.640919000000000
 20
-31.288042000000001
 40
3.000000000000000
 50
90.999999999999602
 51
180.000000000000000
  0
LINE
  8
0
  6
CONTINUOUS
 62
256
 10
342.640919000000000
 20
-80.428368000000006
 11
342.640919000000000
 21
-31.288042000000001
  0
LINE
  8
0
  6
CONTINUOUS
 62
256
 10
338.110879000000010
 20
-40.690448000000004
 11
339.640919000000000
 21
-40.690448000000004
  0
ARC
  8
0
  6
CONTINUOUS
 62
256
 10
339.640919000000000
 20
-37.690448000000004
 40
3.000000000000000
 50
270.000000000000000
 51
0.000000000000000
  0
ARC
  8
0
  6
CONTINUOUS
 62
256
 10
332.640850000000000
 20
-154.307447999999990
 40
0.500000000000000
 50
180.000000000000000
 51
226.689569999999090
  0
ARC
  8
0
  6
CONTINUOUS
 62
256
 10
332.640850000000000
 20
-115.307447999999990
 40
0.500000000000015
 50
133.310430000002040
 51
180.000000000000000
  0
LINE
  8
0
  6
CONTINUOUS
 62
256
 10
332.140850000000000
 20
-152.138057000000000
 11
332.140850000000000
 21
-154.307447999999990
  0
LINE
  8
0
  6
CONTINUOUS
 62
256
 10
332.140850000000000
 20
-117.476839000000000
 11
332.140850000000000
 21
-115.307447999999990
  0
LINE
  8
0
  6
CONTINUOUS
 62
256
 10
335.140850000000000
 20
-194.092447999999990
 11
335.140850000000000
 21
-180.354988999999990
  0
LINE
  8
0
  6
CONTINUOUS
 62
256
 10
342.640919000000000
 20
-217.690448000000000
 11
342.640919000000000
 21
-189.186528000000010
  0
LINE
  8
0
  6
CONTINUOUS
 62
256
 10
308.640782000000000
 20
-127.690448000000000
 11
308.040781999999980
 21
-127.690448000000000
  0
LINE
  8
0
  6
CONTINUOUS
 62
256
 10
311.119837000000020
 20
-142.686755000000010
 11
332.140850000000000
 21
-146.651422000000000
  0
ARC
  8
0
  6
CONTINUOUS
 62
256
 10
311.640782000000000
 20
-139.732332000000010
 40
3.000000000000000
 50
180.000000000000000
 51
260.000000000000340
  0
LINE
  8
0
  6
CONTINUOUS
 62
256
 10
307.640782000000000
 20
-127.290448000000000
 11
307.640782000000000
 21
-70.090447999999995
  0
LINE
  8
0
  6
CONTINUOUS
 62
256
 10
308.640782000000000
 20
-69.690448000000004
 11
308.040781999999980
 21
-69.690448000000004
  0
ARC
  8
0
  6
CONTINUOUS
 62
256
 10
311.640782000000000
 20
-57.648564000000000
 40
2.999999999999996
 50
99.999999999999659
 51
180.000000000000000
  0
LINE
  8
0
  6
CONTINUOUS
 62
256
 10
311.119837000000020
 20
-54.694141000000002
 11
331.067537000000020
 21
-50.931905999999998
  0
LINE
  8
0
  6
CONTINUOUS
 62
256
 10
308.640782000000000
 20
-139.732332000000010
 11
308.640782000000000
 21
-98.690448000000004
  0
LINE
  8
0
  6
CONTINUOUS
 62
256
 10
308.040781999999980
 20
-127.690448000000000
 11
307.640782000000000
 21
-127.290448000000000
  0
LINE
  8
0
  6
CONTINUOUS
 62
256
 10
308.640782000000000
 20
-98.690448000000004
 11
308.640782000000000
 21
-57.648564000000000
  0
LINE
  8
0
  6
CONTINUOUS
 62
256
 10
308.040781999999980
 20
-69.690448000000004
 11
307.640782000000000
 21
-70.090447999999995
  0
ARC
  8
0
  6
CONTINUOUS
 62
256
 10
306.040918999999970
 20
-81.590447999999995
 40
0.400000000000006
 50
90.000000000000000
 51
180.000000000000000
  0
ARC
  8
0
  6
CONTINUOUS
 62
256
 10
305.240919000000020
 20
-82.290447999999998
 40
0.400000000000006
 50
270.000000000000000
 51
0.000000000000000
  0
LINE
  8
0
  6
CONTINUOUS
 62
256
 10
290.640987000000000
 20
-79.690448000000004
 11
290.640987000000000
 21
-82.690448000000004
  0
LINE
  8
0
  6
CONTINUOUS
 62
256
 10
290.640987000000000
 20
-79.690448000000004
 11
250.640987000000000
 21
-79.690448000000004
  0
LINE
  8
0
  6
CONTINUOUS
 62
256
 10
305.240919000000020
 20
-82.690448000000004
 11
251.440987000000010
 21
-82.690448000000004
  0
LINE
  8
0
  6
CONTINUOUS
 62
256
 10
307.640782000000000
 20
-81.190448000000004
 11
306.040918999999970
 21
-81.190448000000004
  0
LINE
  8
0
  6
CONTINUOUS
 62
256
 10
305.640919000000000
 20
-81.590447999999995
 11
305.640919000000000
 21
-115.790448000000000
  0
ARC
  8
0
  6
CONTINUOUS
 62
256
 10
251.440987000000010
 20
-83.490448000000001
 40
0.799999999999997
 50
90.000000000000000
 51
180.000000000000000
  0
LINE
  8
0
  6
CONTINUOUS
 62
256
 10
250.640987000000000
 20
-79.690448000000004
 11
250.640987000000000
 21
-113.890448000000010
  0
ARC
  8
0
  6
CONTINUOUS
 62
256
 10
306.040918999999970
 20
-115.790448000000000
 40
0.399999999999977
 50
180.000000000000000
 51
270.000000000000000
  0
ARC
  8
0
  6
CONTINUOUS
 62
256
 10
305.240919000000020
 20
-115.090447999999990
 40
0.399999999999977
 50
0.000000000000000
 51
90.000000000000000
  0
LINE
  8
0
  6
CONTINUOUS
 62
256
 10
305.240919000000020
 20
-114.690448000000000
 11
251.440987000000010
 21
-114.690448000000000
  0
LINE
  8
0
  6
CONTINUOUS
 62
256
 10
307.640782000000000
 20
-116.190448000000000
 11
306.040918999999970
 21
-116.190448000000000
  0
ARC
  8
0
  6
CONTINUOUS
 62
256
 10
251.440987000000010
 20
-113.890448000000010
 40
0.800000000000011
 50
180.000000000000000
 51
270.000000000000000
  0
LINE
  8
0
  6
DASHDOT
 62
256
 10
245.592712000000010
 20
-98.690448000000004
 11
480.065008999999980
 21
-98.690448000000004
  0
LINE
  8
0
  6
CONTINUOUS
 62
256
 10
335.140850000000000
 20
-43.267449999999997
 11
335.140850000000000
 21
-89.259906999999998
  0
ARC
  8
0
  6
CONTINUOUS
 62
256
 10
632.240850000000020
 20
-134.807447999999990
 40
289.396999999999990
 50
180.000000000000000
 51
187.897989000000000
  0
ARC
  8
0
  6
CONTINUOUS
 62
256
 10
351.532073000000030
 20
-173.748966000000000
 40
5.999999999999990
 50
187.897989000000000
 51
225.000000000000170
  0
LINE
  8
0
  6
CONTINUOUS
 62
256
 10
347.289431999999980
 20
-177.991606999999990
 11
351.865497000000000
 21
-182.567671999999990
  0
ARC
  8
0
  6
CONTINUOUS
 62
256
 10
391.640850000000000
 20
100.792552000000000
 40
289.397000000000050
 50
263.948015000000000
 51
270.000000000000000
  0
LINE
  8
0
  6
CONTINUOUS
 62
256
 10
423.140850000000000
 20
-71.462452999999996
 11
423.140850000000000
 21
-71.307447999999994
  0
LINE
  8
0
  6
CONTINUOUS
 62
256
 10
361.648350999999990
 20
-71.307447999999994
 11
360.140850000000000
 21
-71.307447999999994
  0
LINE
  8
0
  6
CONTINUOUS
 62
256
 10
423.140850000000000
 20
-71.307447999999994
 11
421.633349000000010
 21
-71.307447999999994
  0
LINE
  8
0
  6
CONTINUOUS
 62
256
 10
361.640850000000000
 20
-47.868679000000000
 11
361.640850000000000
 21
-71.308199999999999
  0
LINE
  8
0
  6
CONTINUOUS
 62
256
 10
360.140850000000000
 20
-71.462452999999996
 11
360.140850000000000
 21
-71.307447999999994
  0
LINE
  8
0
  6
CONTINUOUS
 62
256
 10
394.140850000000000
 20
-41.307448000000001
 11
389.140850000000000
 21
-41.307448000000001
  0
LINE
  8
0
  6
CONTINUOUS
 62
256
 10
394.140850000000000
 20
-41.307448000000001
 11
394.140850000000000
 21
-41.817864999999998
  0
LINE
  8
0
  6
CONTINUOUS
 62
256
 10
389.140850000000000
 20
-41.307448000000001
 11
389.140850000000000
 21
-41.817864999999998
  0
ARC
  8
0
  6
CONTINUOUS
 62
256
 10
391.640850000000000
 20
-341.807448000000020
 40
300.000000000000000
 50
90.000000000000000
 51
94.861405000000005
  0
ARC
  8
0
  6
CONTINUOUS
 62
256
 10
366.640850000000000
 20
-47.868679000000000
 40
5.000000000000003
 50
94.861405000000062
 51
180.000000000000000
  0
ARC
  8
0
  6
CONTINUOUS
 62
256
 10
416.640850000000000
 20
-47.868679000000000
 40
5.000000000000000
 50
0.000000000000000
 51
85.138594999999953
  0
LINE
  8
0
  6
CONTINUOUS
 62
256
 10
421.640850000000000
 20
-47.868679000000000
 11
421.640850000000000
 21
-71.307447999999994
  0
ARC
  8
0
  6
CONTINUOUS
 62
256
 10
391.640850000000000
 20
-341.807448000000020
 40
300.000000000000000
 50
85.138594999999995
 51
90.000000000000000
  0
ARC
  8
0
  6
CONTINUOUS
 62
256
 10
341.544236000000010
 20
-178.756035000000000
 40
6.600000000000022
 50
188.597082000000030
 51
224.999999999999830
  0
ARC
  8
0
  6
CONTINUOUS
 62
256
 10
362.918037000000030
 20
-138.807447999999990
 40
1.500000000000004
 50
7.928142000000149
 51
90.000000000000000
  0
ARC
  8
0
  6
CONTINUOUS
 62
256
 10
391.640850000000000
 20
-134.807447999999990
 40
33.500000000000000
 50
187.180755999999970
 51
232.819244000000000
  0
ARC
  8
0
  6
CONTINUOUS
 62
256
 10
391.640850000000000
 20
-134.807447999999990
 40
42.999999999999979
 50
185.531071999999990
 51
234.468927999999950
  0
ARC
  8
0
  6
CONTINUOUS
 62
256
 10
391.640850000000000
 20
-134.807447999999990
 40
36.999999999999979
 50
185.963569999999980
 51
234.036429999999970
  0
ARC
  8
0
  6
CONTINUOUS
 62
256
 10
373.815341999999990
 20
-157.682133999999990
 40
1.499999999999975
 50
329.999999999999490
 51
52.071857999999288
  0
ARC
  8
0
  6
CONTINUOUS
 62
256
 10
372.302240999999980
 20
-160.302901999999990
 40
1.499999999999994
 50
232.819243999999940
 51
329.999999999999490
  0
ARC
  8
0
  6
CONTINUOUS
 62
256
 10
369.030927000000020
 20
-165.968984000000010
 40
1.499999999999975
 50
329.999999999999490
 51
54.036429999999186
  0
LINE
  8
0
  6
CONTINUOUS
 62
256
 10
375.114379999999980
 20
-158.432133999999990
 11
373.601278999999980
 21
-161.052901999999990
  0
LINE
  8
0
  6
CONTINUOUS
 62
256
 10
370.329965000000020
 20
-166.718984000000010
 11
368.822397000000020
 21
-169.330167999999990
  0
ARC
  8
0
  6
CONTINUOUS
 62
256
 10
367.523359000000030
 20
-168.580167999999990
 40
1.499999999999989
 50
234.468928000000520
 51
329.999999999999490
  0
ARC
  8
0
  6
CONTINUOUS
 62
256
 10
404.051256000000020
 20
-164.302901999999990
 40
1.499999999999976
 50
292.819243999999230
 51
30.000000000000544
  0
LINE
  8
0
  6
CONTINUOUS
 62
256
 10
405.350295000000020
 20
-163.552901999999990
 11
403.837193000000010
 21
-160.932133999999990
  0
ARC
  8
0
  6
CONTINUOUS
 62
256
 10
407.322570999999980
 20
-169.968984000000010
 40
1.499999999999975
 50
30.000000000000544
 51
114.036429999999850
  0
LINE
  8
0
  6
CONTINUOUS
 62
256
 10
410.129175999999970
 20
-171.830167999999990
 11
408.621608999999980
 21
-169.218984000000010
  0
ARC
  8
0
  6
CONTINUOUS
 62
256
 10
408.830137999999980
 20
-172.580167999999990
 40
1.499999999999989
 50
294.468928000000010
 51
30.000000000000544
  0
ARC
  8
0
  6
CONTINUOUS
 62
256
 10
402.538155000000020
 20
-161.682133999999990
 40
1.499999999999975
 50
30.000000000000544
 51
112.071857999999120
  0
ARC
  8
0
  6
CONTINUOUS
 62
256
 10
391.640850000000000
 20
-134.807447999999990
 40
33.500000000000007
 50
247.180756000000030
 51
292.819244000000030
  0
ARC
  8
0
  6
CONTINUOUS
 62
256
 10
391.640850000000000
 20
-134.807447999999990
 40
42.999999999999993
 50
245.531071999999970
 51
294.468927999999950
  0
ARC
  8
0
  6
CONTINUOUS
 62
256
 10
391.640850000000000
 20
-134.807447999999990
 40
37.000000000000000
 50
245.963569999999950
 51
294.036429999999940
  0
ARC
  8
0
  6
CONTINUOUS
 62
256
 10
391.640850000000000
 20
-134.807447999999990
 40
27.499999999999989
 50
247.928142000000040
 51
292.071857999999960
  0
ARC
  8
0
  6
CONTINUOUS
 62
256
 10
380.743544999999980
 20
-161.682133999999990
 40
1.499999999999998
 50
67.928142000000889
 51
149.999999999999460
  0
ARC
  8
0
  6
CONTINUOUS
 62
256
 10
379.230443999999980
 20
-164.302901999999990
 40
1.499999999999975
 50
149.999999999999460
 51
247.180756000001140
  0
ARC
  8
0
  6
CONTINUOUS
 62
256
 10
375.959130000000020
 20
-169.968984000000010
 40
1.499999999999986
 50
65.963570000000146
 51
149.999999999999460
  0
LINE
  8
0
  6
CONTINUOUS
 62
256
 10
379.444506999999990
 20
-160.932133999999990
 11
377.931405999999980
 21
-163.552901999999990
  0
LINE
  8
0
  6
CONTINUOUS
 62
256
 10
374.660092000000020
 20
-169.218984000000010
 11
373.152524000000030
 21
-171.830167999999990
  0
ARC
  8
0
  6
CONTINUOUS
 62
256
 10
374.451562000000020
 20
-172.580167999999990
 40
1.499999999999975
 50
149.999999999999460
 51
245.531072000000020
  0
ARC
  8
0
  6
CONTINUOUS
 62
256
 10
410.979460000000020
 20
-160.302901999999990
 40
1.499999999999975
 50
210.000000000000510
 51
307.180756000000090
  0
LINE
  8
0
  6
CONTINUOUS
 62
256
 10
409.680422000000020
 20
-161.052901999999990
 11
408.167320000000020
 21
-158.432133999999990
  0
ARC
  8
0
  6
CONTINUOUS
 62
256
 10
414.250773999999980
 20
-165.968984000000010
 40
1.500000000000007
 50
125.963570000000810
 51
210.000000000000510
  0
LINE
  8
0
  6
CONTINUOUS
 62
256
 10
414.459302999999980
 20
-169.330167999999990
 11
412.951735999999980
 21
-166.718984000000010
  0
ARC
  8
0
  6
CONTINUOUS
 62
256
 10
415.758340999999970
 20
-168.580167999999990
 40
1.499999999999975
 50
210.000000000000510
 51
305.531071999999480
  0
ARC
  8
0
  6
CONTINUOUS
 62
256
 10
409.466358000000010
 20
-157.682133999999990
 40
1.500000000000018
 50
127.928142000000730
 51
210.000000000000510
  0
ARC
  8
0
  6
CONTINUOUS
 62
256
 10
391.640850000000000
 20
-134.807447999999990
 40
33.500000000000000
 50
307.180755999999920
 51
352.819244000000030
  0
ARC
  8
0
  6
CONTINUOUS
 62
256
 10
391.640850000000000
 20
-134.807447999999990
 40
43.000000000000021
 50
305.531071999999990
 51
354.468928000000010
  0
ARC
  8
0
  6
CONTINUOUS
 62
256
 10
391.640850000000000
 20
-134.807447999999990
 40
36.999999999999993
 50
305.963570000000000
 51
354.036429999999940
  0
ARC
  8
0
  6
CONTINUOUS
 62
256
 10
391.640850000000000
 20
-134.807447999999990
 40
27.500000000000014
 50
307.928141999999980
 51
352.071858000000020
  0
ARC
  8
0
  6
CONTINUOUS
 62
256
 10
420.363662999999970
 20
-138.807447999999990
 40
1.500000000000000
 50
90.000000000000000
 51
172.071857999999850
  0
ARC
  8
0
  6
CONTINUOUS
 62
256
 10
423.389865999999980
 20
-138.807447999999990
 40
1.500000000000026
 50
352.819244000000480
 51
90.000000000000000
  0
ARC
  8
0
  6
CONTINUOUS
 62
256
 10
429.932494000000020
 20
-138.807447999999990
 40
1.500000000000000
 50
90.000000000000000
 51
174.036430000000220
  0
LINE
  8
0
  6
CONTINUOUS
 62
256
 10
420.363662999999970
 20
-137.307447999999990
 11
423.389865999999980
 21
-137.307447999999990
  0
LINE
  8
0
  6
CONTINUOUS
 62
256
 10
429.932494000000020
 20
-137.307447999999990
 11
432.947629000000010
 21
-137.307447999999990
  0
ARC
  8
0
  6
CONTINUOUS
 62
256
 10
432.947629000000010
 20
-138.807447999999990
 40
1.499999999999977
 50
354.468928000000290
 51
90.000000000000000
  0
ARC
  8
0
  6
CONTINUOUS
 62
256
 10
410.979460000000020
 20
-109.311994000000000
 40
1.499999999999994
 50
52.819243999999927
 51
150.000000000000540
  0
LINE
  8
0
  6
CONTINUOUS
 62
256
 10
409.680422000000020
 20
-108.561994000000000
 11
408.167320000000020
 21
-111.182762000000000
  0
ARC
  8
0
  6
CONTINUOUS
 62
256
 10
414.250773999999980
 20
-103.645911000000000
 40
1.500000000000025
 50
150.000000000000540
 51
234.036429999999170
  0
ARC
  8
0
  6
CONTINUOUS
 62
256
 10
409.466358000000010
 20
-111.932762000000000
 40
1.500000000000025
 50
150.000000000000540
 51
232.071857999999280
  0
ARC
  8
0
  6
CONTINUOUS
 62
256
 10
391.640850000000000
 20
-134.807447999999990
 40
33.500000000000007
 50
7.180756000000018
 51
52.819243999999983
  0
ARC
  8
0
  6
CONTINUOUS
 62
256
 10
391.640850000000000
 20
-134.807447999999990
 40
42.999999999999979
 50
5.531071999999997
 51
54.468927999999977
  0
ARC
  8
0
  6
CONTINUOUS
 62
256
 10
391.640850000000000
 20
-134.807447999999990
 40
36.999999999999979
 50
5.963569999999989
 51
54.036430000000010
  0
ARC
  8
0
  6
CONTINUOUS
 62
256
 10
391.640850000000000
 20
-134.807447999999990
 40
27.499999999999986
 50
7.928141999999994
 51
52.071858000000006
  0
ARC
  8
0
  6
CONTINUOUS
 62
256
 10
420.363662999999970
 20
-130.807447999999990
 40
1.500000000000004
 50
187.928142000000150
 51
270.000000000000000
  0
ARC
  8
0
  6
CONTINUOUS
 62
256
 10
423.389865999999980
 20
-130.807447999999990
 40
1.500000000000000
 50
270.000000000000000
 51
7.180755999999549
  0
ARC
  8
0
  6
CONTINUOUS
 62
256
 10
429.932494000000020
 20
-130.807447999999990
 40
1.500000000000012
 50
185.963569999999780
 51
270.000000000000000
  0
LINE
  8
0
  6
CONTINUOUS
 62
256
 10
420.363662999999970
 20
-132.307447999999990
 11
423.389865999999980
 21
-132.307447999999990
  0
LINE
  8
0
  6
CONTINUOUS
 62
256
 10
429.932494000000020
 20
-132.307447999999990
 11
432.947629000000010
 21
-132.307447999999990
  0
ARC
  8
0
  6
CONTINUOUS
 62
256
 10
432.947629000000010
 20
-130.807447999999990
 40
1.500000000000000
 50
270.000000000000000
 51
5.531071999999735
  0
ARC
  8
0
  6
CONTINUOUS
 62
256
 10
404.051256000000020
 20
-105.311994000000000
 40
1.499999999999975
 50
329.999999999999490
 51
67.180756000000954
  0
LINE
  8
0
  6
CONTINUOUS
 62
256
 10
405.350295000000020
 20
-106.061994000000000
 11
403.837193000000010
 21
-108.682762000000000
  0
ARC
  8
0
  6
CONTINUOUS
 62
256
 10
402.538155000000020
 20
-107.932762000000000
 40
1.499999999999998
 50
247.928142000000830
 51
329.999999999999490
  0
ARC
  8
0
  6
CONTINUOUS
 62
256
 10
391.640850000000000
 20
-134.807447999999990
 40
33.500000000000000
 50
67.180756000000002
 51
112.819244000000000
  0
ARC
  8
0
  6
CONTINUOUS
 62
256
 10
391.640850000000000
 20
-134.807447999999990
 40
27.499999999999989
 50
67.928142000000008
 51
112.071857999999980
  0
ARC
  8
0
  6
CONTINUOUS
 62
256
 10
380.743544999999980
 20
-107.932762000000000
 40
1.499999999999975
 50
210.000000000000510
 51
292.071857999999110
  0
ARC
  8
0
  6
CONTINUOUS
 62
256
 10
379.230443999999980
 20
-105.311994000000000
 40
1.499999999999989
 50
112.819243999999050
 51
210.000000000000510
  0
LINE
  8
0
  6
CONTINUOUS
 62
256
 10
379.444506999999990
 20
-108.682762000000000
 11
377.931405999999980
 21
-106.061994000000000
  0
ARC
  8
0
  6
CONTINUOUS
 62
256
 10
391.640850000000000
 20
-134.807447999999990
 40
33.500000000000007
 50
127.180756000000020
 51
172.819244000000000
  0
ARC
  8
0
  6
CONTINUOUS
 62
256
 10
391.640850000000000
 20
-134.807447999999990
 40
37.000000000000000
 50
125.963569999999990
 51
174.036429999999970
  0
ARC
  8
0
  6
CONTINUOUS
 62
256
 10
369.030927000000020
 20
-103.645911000000000
 40
1.500000000000007
 50
305.963570000000860
 51
29.999999999999456
  0
ARC
  8
0
  6
CONTINUOUS
 62
256
 10
372.302240999999980
 20
-109.311994000000000
 40
1.500000000000025
 50
29.999999999999456
 51
127.180756000000090
  0
ARC
  8
0
  6
CONTINUOUS
 62
256
 10
391.640850000000000
 20
-134.807447999999990
 40
27.500000000000004
 50
127.928141999999990
 51
172.071857999999990
  0
ARC
  8
0
  6
CONTINUOUS
 62
256
 10
362.918037000000030
 20
-130.807447999999990
 40
1.500000000000000
 50
270.000000000000000
 51
352.071857999999850
  0
LINE
  8
0
  6
CONTINUOUS
 62
256
 10
375.114379999999980
 20
-111.182762000000000
 11
373.601278999999980
 21
-108.561994000000000
  0
ARC
  8
0
  6
CONTINUOUS
 62
256
 10
373.815341999999990
 20
-111.932762000000000
 40
1.500000000000018
 50
307.928142000000720
 51
29.999999999999456
  0
CIRCLE
  8
0
  6
CONTINUOUS
 62
256
 10
391.640850000000000
 20
-134.807447999999990
 40
5.000000000000000
  0
ARC
  8
0
  6
CONTINUOUS
 62
256
 10
383.594173000000010
 20
-128.870194000000000
 40
1.500000000000009
 50
323.578177999999580
 51
30.000000000000544
  0
ARC
  8
0
  6
CONTINUOUS
 62
256
 10
382.475699000000020
 20
-130.807447999999990
 40
1.500000000000000
 50
270.000000000000000
 51
336.421822000000080
  0
ARC
  8
0
  6
CONTINUOUS
 62
256
 10
377.105954000000000
 20
-117.632268999999990
 40
1.500000000000025
 50
29.999999999999456
 51
130.240347999999780
  0
ARC
  8
0
  6
CONTINUOUS
 62
256
 10
379.271532999999980
 20
-130.807447999999990
 40
1.500000000000028
 50
162.079787000000040
 51
270.000000000000000
  0
ARC
  8
0
  6
CONTINUOUS
 62
256
 10
372.555515000000010
 20
-130.807447999999990
 40
1.500000000000000
 50
270.000000000000000
 51
348.162995999999680
  0
ARC
  8
0
  6
CONTINUOUS
 62
256
 10
378.634080999999980
 20
-120.279062999999990
 40
1.499999999999989
 50
311.837003999999810
 51
30.000000000000544
  0
ARC
  8
0
  6
CONTINUOUS
 62
256
 10
369.499259999999990
 20
-130.807447999999990
 40
1.500000000000012
 50
169.759651999999760
 51
270.000000000000000
  0
ARC
  8
0
  6
CONTINUOUS
 62
256
 10
381.992090000000020
 20
-126.095305000000000
 40
1.499999999999975
 50
30.000000000000544
 51
137.920212999999820
  0
LINE
  8
0
  6
CONTINUOUS
 62
256
 10
379.933118999999980
 20
-119.529062999999990
 11
378.404991999999990
 21
-116.882268999999990
  0
ARC
  8
0
  6
CONTINUOUS
 62
256
 10
391.640850000000000
 20
-134.807447999999990
 40
14.500000000000012
 50
137.920213000000070
 51
162.079787000000070
  0
LINE
  8
0
  6
CONTINUOUS
 62
256
 10
379.271532999999980
 20
-132.307447999999990
 11
382.475699000000020
 21
-132.307447999999990
  0
LINE
  8
0
  6
CONTINUOUS
 62
256
 10
369.499259999999990
 20
-132.307447999999990
 11
372.555515000000010
 21
-132.307447999999990
  0
LINE
  8
0
  6
CONTINUOUS
 62
256
 10
384.893211000000010
 20
-128.120194000000000
 11
383.291128000000010
 21
-125.345305000000000
  0
ARC
  8
0
  6
CONTINUOUS
 62
256
 10
391.640850000000000
 20
-134.807447999999990
 40
24.000000000000004
 50
130.240347999999980
 51
169.759652000000020
  0
ARC
  8
0
  6
CONTINUOUS
 62
256
 10
391.640850000000000
 20
-134.807447999999990
 40
8.499999999999989
 50
143.578177999999950
 51
156.421821999999930
  0
ARC
  8
0
  6
CONTINUOUS
 62
256
 10
394.361406999999990
 20
-122.095305000000000
 40
1.499999999999975
 50
329.999999999999490
 51
77.920213000000771
  0
LINE
  8
0
  6
CONTINUOUS
 62
256
 10
395.660444999999980
 20
-122.845305000000000
 11
394.058361999999990
 21
-125.620194000000000
  0
ARC
  8
0
  6
CONTINUOUS
 62
256
 10
392.759323999999990
 20
-124.870194000000000
 40
1.500000000000001
 50
263.578178000000780
 51
329.999999999999490
  0
ARC
  8
0
  6
CONTINUOUS
 62
256
 10
391.640850000000000
 20
-134.807447999999990
 40
8.500000000000007
 50
83.578177999999994
 51
96.421822000000020
  0
ARC
  8
0
  6
CONTINUOUS
 62
256
 10
390.522376000000010
 20
-124.870194000000000
 40
1.499999999999975
 50
210.000000000000510
 51
276.421821999999220
  0
LINE
  8
0
  6
CONTINUOUS
 62
256
 10
389.223338000000010
 20
-125.620194000000000
 11
387.621255000000020
 21
-122.845305000000000
  0
ARC
  8
0
  6
CONTINUOUS
 62
256
 10
388.920293000000020
 20
-122.095305000000000
 40
1.499999999999989
 50
102.079786999999230
 51
210.000000000000510
  0
ARC
  8
0
  6
CONTINUOUS
 62
256
 10
391.640850000000000
 20
-134.807447999999990
 40
14.500000000000002
 50
77.920213000000032
 51
102.079786999999980
  0
ARC
  8
0
  6
CONTINUOUS
 62
256
 10
399.247543000000010
 20
-113.632268999999990
 40
1.499999999999975
 50
329.999999999999490
 51
70.240347999999329
  0
LINE
  8
0
  6
CONTINUOUS
 62
256
 10
400.546582000000000
 20
-114.382268999999990
 11
399.018454000000020
 21
-117.029062999999990
  0
ARC
  8
0
  6
CONTINUOUS
 62
256
 10
397.719416000000020
 20
-116.279062999999990
 40
1.500000000000007
 50
251.837003999999720
 51
329.999999999999490
  0
ARC
  8
0
  6
CONTINUOUS
 62
256
 10
391.640850000000000
 20
-134.807447999999990
 40
17.999999999999996
 50
71.837004000000007
 51
108.162996000000010
  0
ARC
  8
0
  6
CONTINUOUS
 62
256
 10
385.562283999999980
 20
-116.279062999999990
 40
1.499999999999975
 50
210.000000000000510
 51
288.162996000000310
  0
LINE
  8
0
  6
CONTINUOUS
 62
256
 10
384.263245999999980
 20
-117.029062999999990
 11
382.735119000000000
 21
-114.382268999999990
  0
ARC
  8
0
  6
CONTINUOUS
 62
256
 10
384.034156999999990
 20
-113.632268999999990
 40
1.500000000000012
 50
109.759652000000680
 51
210.000000000000510
  0
ARC
  8
0
  6
CONTINUOUS
 62
256
 10
391.640850000000000
 20
-134.807447999999990
 40
23.999999999999993
 50
70.240348000000012
 51
109.759651999999990
  0
ARC
  8
0
  6
CONTINUOUS
 62
256
 10
394.361406999999990
 20
-147.519590999999990
 40
1.499999999999989
 50
282.079786999999270
 51
29.999999999999456
  0
LINE
  8
0
  6
CONTINUOUS
 62
256
 10
395.660444999999980
 20
-146.769590999999990
 11
394.058361999999990
 21
-143.994701999999990
  0
ARC
  8
0
  6
CONTINUOUS
 62
256
 10
392.759323999999990
 20
-144.744701999999990
 40
1.500000000000025
 50
29.999999999999456
 51
96.421821999999253
  0
ARC
  8
0
  6
CONTINUOUS
 62
256
 10
391.640850000000000
 20
-134.807447999999990
 40
8.500000000000007
 50
263.578177999999980
 51
276.421822000000020
  0
ARC
  8
0
  6
CONTINUOUS
 62
256
 10
390.522376000000010
 20
-144.744701999999990
 40
1.500000000000001
 50
83.578178000000747
 51
150.000000000000540
  0
LINE
  8
0
  6
CONTINUOUS
 62
256
 10
389.223338000000010
 20
-143.994701999999990
 11
387.621255000000020
 21
-146.769590999999990
  0
ARC
  8
0
  6
CONTINUOUS
 62
256
 10
388.920293000000020
 20
-147.519590999999990
 40
1.500000000000025
 50
150.000000000000540
 51
257.920213000000730
  0
ARC
  8
0
  6
CONTINUOUS
 62
256
 10
391.640850000000000
 20
-134.807447999999990
 40
14.499999999999986
 50
257.920212999999990
 51
282.079786999999950
  0
ARC
  8
0
  6
CONTINUOUS
 62
256
 10
399.247543000000010
 20
-155.982627000000010
 40
1.500000000000012
 50
289.759652000000640
 51
30.000000000000544
  0
LINE
  8
0
  6
CONTINUOUS
 62
256
 10
400.546582000000000
 20
-155.232627000000010
 11
399.018454000000020
 21
-152.585833000000010
  0
ARC
  8
0
  6
CONTINUOUS
 62
256
 10
397.719416000000020
 20
-153.335833000000010
 40
1.500000000000025
 50
29.999999999999456
 51
108.162996000000290
  0
ARC
  8
0
  6
CONTINUOUS
 62
256
 10
391.640850000000000
 20
-134.807447999999990
 40
17.999999999999996
 50
251.837003999999980
 51
288.162995999999960
  0
ARC
  8
0
  6
CONTINUOUS
 62
256
 10
385.562283999999980
 20
-153.335833000000010
 40
1.500000000000007
 50
71.837003999999709
 51
150.000000000000540
  0
LINE
  8
0
  6
CONTINUOUS
 62
256
 10
384.263245999999980
 20
-152.585833000000010
 11
382.735119000000000
 21
-155.232627000000010
  0
ARC
  8
0
  6
CONTINUOUS
 62
256
 10
384.034156999999990
 20
-155.982627000000010
 40
1.499999999999975
 50
149.999999999999460
 51
250.240347999999300
  0
ARC
  8
0
  6
CONTINUOUS
 62
256
 10
391.640850000000000
 20
-134.807447999999990
 40
23.999999999999993
 50
250.240348000000010
 51
289.759652000000020
  0
ARC
  8
0
  6
CONTINUOUS
 62
256
 10
401.289609999999980
 20
-143.519590999999990
 40
1.499999999999975
 50
210.000000000000510
 51
317.920212999999420
  0
LINE
  8
0
  6
CONTINUOUS
 62
256
 10
399.990571999999990
 20
-144.269590999999990
 11
398.388488999999990
 21
-141.494701999999990
  0
ARC
  8
0
  6
CONTINUOUS
 62
256
 10
399.687526999999990
 20
-140.744701999999990
 40
1.500000000000009
 50
143.578177999999610
 51
210.000000000000510
  0
ARC
  8
0
  6
CONTINUOUS
 62
256
 10
391.640850000000000
 20
-134.807447999999990
 40
8.499999999999989
 50
323.578177999999920
 51
336.421821999999910
  0
ARC
  8
0
  6
CONTINUOUS
 62
256
 10
400.806001999999980
 20
-138.807447999999990
 40
1.500000000000000
 50
90.000000000000000
 51
156.421822000000110
  0
LINE
  8
0
  6
CONTINUOUS
 62
256
 10
400.806001999999980
 20
-137.307447999999990
 11
404.010167000000020
 21
-137.307447999999990
  0
ARC
  8
0
  6
CONTINUOUS
 62
256
 10
404.010167000000020
 20
-138.807447999999990
 40
1.500000000000028
 50
342.079787000000070
 51
90.000000000000000
  0
ARC
  8
0
  6
CONTINUOUS
 62
256
 10
391.640850000000000
 20
-134.807447999999990
 40
14.500000000000012
 50
317.920213000000050
 51
342.079787000000070
  0
ARC
  8
0
  6
CONTINUOUS
 62
256
 10
406.175747000000000
 20
-151.982627000000010
 40
1.499999999999975
 50
210.000000000000510
 51
310.240347999999810
  0
LINE
  8
0
  6
CONTINUOUS
 62
256
 10
404.876709000000010
 20
-152.732627000000010
 11
403.348581000000020
 21
-150.085833000000010
  0
ARC
  8
0
  6
CONTINUOUS
 62
256
 10
404.647619000000020
 20
-149.335833000000010
 40
1.499999999999989
 50
131.837003999999810
 51
210.000000000000510
  0
ARC
  8
0
  6
CONTINUOUS
 62
256
 10
391.640850000000000
 20
-134.807447999999990
 40
17.999999999999989
 50
311.837003999999920
 51
348.162996000000020
  0
ARC
  8
0
  6
CONTINUOUS
 62
256
 10
410.726184999999990
 20
-138.807447999999990
 40
1.500000000000000
 50
90.000000000000000
 51
168.162995999999680
  0
LINE
  8
0
  6
CONTINUOUS
 62
256
 10
410.726184999999990
 20
-137.307447999999990
 11
413.782440000000010
 21
-137.307447999999990
  0
ARC
  8
0
  6
CONTINUOUS
 62
256
 10
413.782440000000010
 20
-138.807447999999990
 40
1.500000000000012
 50
349.759651999999790
 51
90.000000000000000
  0
ARC
  8
0
  6
CONTINUOUS
 62
256
 10
391.640850000000000
 20
-134.807447999999990
 40
24.000000000000004
 50
310.240347999999980
 51
349.759652000000020
  0
ARC
  8
0
  6
CONTINUOUS
 62
256
 10
401.289609999999980
 20
-126.095305000000000
 40
1.499999999999994
 50
42.079787000000181
 51
149.999999999999460
  0
LINE
  8
0
  6
CONTINUOUS
 62
256
 10
399.990571999999990
 20
-125.345305000000000
 11
398.388488999999990
 21
-128.120194000000000
  0
ARC
  8
0
  6
CONTINUOUS
 62
256
 10
399.687526999999990
 20
-128.870194000000000
 40
1.499999999999975
 50
149.999999999999460
 51
216.421822000000390
  0
ARC
  8
0
  6
CONTINUOUS
 62
256
 10
391.640850000000000
 20
-134.807447999999990
 40
8.499999999999991
 50
23.578178000000058
 51
36.421822000000063
  0
ARC
  8
0
  6
CONTINUOUS
 62
256
 10
400.806001999999980
 20
-130.807447999999990
 40
1.499999999999979
 50
203.578177999999890
 51
270.000000000000000
  0
LINE
  8
0
  6
CONTINUOUS
 62
256
 10
400.806001999999980
 20
-132.307447999999990
 11
404.010167000000020
 21
-132.307447999999990
  0
ARC
  8
0
  6
CONTINUOUS
 62
256
 10
404.010167000000020
 20
-130.807447999999990
 40
1.500000000000000
 50
270.000000000000000
 51
17.920212999999968
  0
ARC
  8
0
  6
CONTINUOUS
 62
256
 10
391.640850000000000
 20
-134.807447999999990
 40
14.500000000000011
 50
17.920212999999947
 51
42.079786999999946
  0
ARC
  8
0
  6
CONTINUOUS
 62
256
 10
406.175747000000000
 20
-117.632268999999990
 40
1.499999999999991
 50
49.759652000000230
 51
150.000000000000540
  0
LINE
  8
0
  6
CONTINUOUS
 62
256
 10
404.876709000000010
 20
-116.882268999999990
 11
403.348581000000020
 21
-119.529062999999990
  0
ARC
  8
0
  6
CONTINUOUS
 62
256
 10
404.647619000000020
 20
-120.279062999999990
 40
1.499999999999975
 50
149.999999999999460
 51
228.162996000000190
  0
ARC
  8
0
  6
CONTINUOUS
 62
256
 10
391.640850000000000
 20
-134.807447999999990
 40
17.999999999999972
 50
11.837003999999983
 51
48.162996000000071
  0
ARC
  8
0
  6
CONTINUOUS
 62
256
 10
410.726184999999990
 20
-130.807447999999990
 40
1.500000000000000
 50
191.837004000000320
 51
270.000000000000000
  0
LINE
  8
0
  6
CONTINUOUS
 62
256
 10
410.726184999999990
 20
-132.307447999999990
 11
413.782440000000010
 21
-132.307447999999990
  0
ARC
  8
0
  6
CONTINUOUS
 62
256
 10
413.782440000000010
 20
-130.807447999999990
 40
1.500000000000000
 50
270.000000000000000
 51
10.240348000000250
  0
ARC
  8
0
  6
CONTINUOUS
 62
256
 10
391.640850000000000
 20
-134.807447999999990
 40
23.999999999999993
 50
10.240347999999988
 51
49.759652000000010
  0
ARC
  8
0
  6
CONTINUOUS
 62
256
 10
379.271532999999980
 20
-138.807447999999990
 40
1.500000000000000
 50
90.000000000000000
 51
197.920212999999960
  0
LINE
  8
0
  6
CONTINUOUS
 62
256
 10
379.271532999999980
 20
-137.307447999999990
 11
382.475699000000020
 21
-137.307447999999990
  0
ARC
  8
0
  6
CONTINUOUS
 62
256
 10
382.475699000000020
 20
-138.807447999999990
 40
1.499999999999979
 50
23.578177999999905
 51
90.000000000000000
  0
ARC
  8
0
  6
CONTINUOUS
 62
256
 10
391.640850000000000
 20
-134.807447999999990
 40
8.499999999999991
 50
203.578178000000070
 51
216.421822000000050
  0
ARC
  8
0
  6
CONTINUOUS
 62
256
 10
383.594173000000010
 20
-140.744701999999990
 40
1.499999999999975
 50
329.999999999999490
 51
36.421822000000404
  0
LINE
  8
0
  6
CONTINUOUS
 62
256
 10
384.893211000000010
 20
-141.494701999999990
 11
383.291128000000010
 21
-144.269590999999990
  0
ARC
  8
0
  6
CONTINUOUS
 62
256
 10
381.992090000000020
 20
-143.519590999999990
 40
1.500000000000003
 50
222.079787000000580
 51
329.999999999999490
  0
ARC
  8
0
  6
CONTINUOUS
 62
256
 10
391.640850000000000
 20
-134.807447999999990
 40
14.500000000000011
 50
197.920212999999930
 51
222.079786999999930
  0
ARC
  8
0
  6
CONTINUOUS
 62
256
 10
369.499259999999990
 20
-138.807447999999990
 40
1.500000000000000
 50
90.000000000000000
 51
190.240348000000240
  0
LINE
  8
0
  6
CONTINUOUS
 62
256
 10
369.499259999999990
 20
-137.307447999999990
 11
372.555515000000010
 21
-137.307447999999990
  0
ARC
  8
0
  6
CONTINUOUS
 62
256
 10
372.555515000000010
 20
-138.807447999999990
 40
1.500000000000000
 50
11.837004000000336
 51
90.000000000000000
  0
ARC
  8
0
  6
CONTINUOUS
 62
256
 10
391.640850000000000
 20
-134.807447999999990
 40
17.999999999999972
 50
191.837003999999980
 51
228.162996000000080
  0
ARC
  8
0
  6
CONTINUOUS
 62
256
 10
378.634080999999980
 20
-149.335833000000010
 40
1.499999999999975
 50
329.999999999999490
 51
48.162996000000220
  0
LINE
  8
0
  6
CONTINUOUS
 62
256
 10
379.933118999999980
 20
-150.085833000000010
 11
378.404991999999990
 21
-152.732627000000010
  0
ARC
  8
0
  6
CONTINUOUS
 62
256
 10
377.105954000000000
 20
-151.982627000000010
 40
1.499999999999991
 50
229.759652000000220
 51
329.999999999999490
  0
ARC
  8
0
  6
CONTINUOUS
 62
256
 10
391.640850000000000
 20
-134.807447999999990
 40
23.999999999999993
 50
190.240347999999980
 51
229.759652000000020
  0
ARC
  8
0
  6
CONTINUOUS
 62
256
 10
359.891834000000020
 20
-138.807447999999990
 40
1.500000000000000
 50
90.000000000000000
 51
187.180755999999550
  0
LINE
  8
0
  6
CONTINUOUS
 62
256
 10
359.891834000000020
 20
-137.307447999999990
 11
362.918037000000030
 21
-137.307447999999990
  0
ARC
  8
0
  6
CONTINUOUS
 62
256
 10
353.349205999999980
 20
-138.807447999999990
 40
1.500000000000012
 50
5.963569999999792
 51
90.000000000000000
  0
LINE
  8
0
  6
CONTINUOUS
 62
256
 10
350.334070999999990
 20
-137.307447999999990
 11
353.349205999999980
 21
-137.307447999999990
  0
LINE
  8
0
  6
CONTINUOUS
 62
256
 10
414.459302999999980
 20
-100.284728000000000
 11
412.951735999999980
 21
-102.895911000000000
  0
ARC
  8
0
  6
CONTINUOUS
 62
256
 10
415.758340999999970
 20
-101.034728000000000
 40
1.499999999999989
 50
54.468928000000517
 51
150.000000000000540
  0
ARC
  8
0
  6
CONTINUOUS
 62
256
 10
407.322570999999980
 20
-99.645910999999998
 40
1.499999999999999
 50
245.963570000000350
 51
329.999999999999490
  0
LINE
  8
0
  6
CONTINUOUS
 62
256
 10
410.129175999999970
 20
-97.784728000000001
 11
408.621608999999980
 21
-100.395911000000000
  0
ARC
  8
0
  6
CONTINUOUS
 62
256
 10
408.830137999999980
 20
-97.034728000000001
 40
1.499999999999975
 50
329.999999999999490
 51
65.531072000000222
  0
ARC
  8
0
  6
CONTINUOUS
 62
256
 10
391.640850000000000
 20
-134.807447999999990
 40
43.000000000000007
 50
65.531071999999980
 51
114.468928000000030
  0
ARC
  8
0
  6
CONTINUOUS
 62
256
 10
391.640850000000000
 20
-134.807447999999990
 40
37.000000000000000
 50
65.963570000000033
 51
114.036429999999970
  0
ARC
  8
0
  6
CONTINUOUS
 62
256
 10
375.959130000000020
 20
-99.645910999999998
 40
1.499999999999975
 50
210.000000000000510
 51
294.036429999999600
  0
LINE
  8
0
  6
CONTINUOUS
 62
256
 10
374.660092000000020
 20
-100.395911000000000
 11
373.152524000000030
 21
-97.784728000000001
  0
ARC
  8
0
  6
CONTINUOUS
 62
256
 10
374.451562000000020
 20
-97.034728000000001
 40
1.500000000000002
 50
114.468927999999780
 51
210.000000000000510
  0
ARC
  8
0
  6
CONTINUOUS
 62
256
 10
391.640850000000000
 20
-134.807447999999990
 40
43.000000000000014
 50
125.531072000000020
 51
174.468928000000010
  0
ARC
  8
0
  6
CONTINUOUS
 62
256
 10
367.523359000000030
 20
-101.034728000000000
 40
1.500000000000025
 50
29.999999999999456
 51
125.531071999999480
  0
ARC
  8
0
  6
CONTINUOUS
 62
256
 10
353.349205999999980
 20
-130.807447999999990
 40
1.500000000000000
 50
270.000000000000000
 51
354.036430000000220
  0
ARC
  8
0
  6
CONTINUOUS
 62
256
 10
359.891834000000020
 20
-130.807447999999990
 40
1.500000000000026
 50
172.819244000000450
 51
270.000000000000000
  0
LINE
  8
0
  6
CONTINUOUS
 62
256
 10
359.891834000000020
 20
-132.307447999999990
 11
362.918037000000030
 21
-132.307447999999990
  0
LINE
  8
0
  6
CONTINUOUS
 62
256
 10
370.329965000000020
 20
-102.895911000000000
 11
368.822397000000020
 21
-100.284728000000000
  0
LINE
  8
0
  6
CONTINUOUS
 62
256
 10
350.334070999999990
 20
-132.307447999999990
 11
353.349205999999980
 21
-132.307447999999990
  0
ARC
  8
0
  6
CONTINUOUS
 62
256
 10
391.640850000000000
 20
-134.807447999999990
 40
27.499999999999986
 50
187.928142000000010
 51
232.071858000000050
  0
ARC
  8
0
  6
CONTINUOUS
 62
256
 10
391.640850000000000
 20
-134.807447999999990
 40
17.999999999999989
 50
131.837003999999920
 51
168.162995999999940
  0
ARC
  8
0
  6
CONTINUOUS
 62
256
 10
350.334070999999990
 20
-138.807447999999990
 40
1.500000000000000
 50
90.000000000000000
 51
185.531071999999710
  0
ARC
  8
0
  6
CONTINUOUS
 62
256
 10
350.334070999999990
 20
-130.807447999999990
 40
1.499999999999977
 50
174.468928000000290
 51
270.000000000000000
  0
LINE
  8
0
  6
CONTINUOUS
 62
256
 10
446.404368999999970
 20
-183.422940000000010
 11
439.337920000000000
 21
-190.489388999999990
  0
LINE
  8
0
  6
CONTINUOUS
 62
256
 10
336.877331000000030
 20
-86.191956000000005
 11
343.943780000000000
 21
-79.125506999999999
  0
ARC
  8
0
  6
CONTINUOUS
 62
256
 10
391.640850000000000
 20
100.792552000000000
 40
300.600000000000020
 50
263.948015000000000
 51
276.051985000000000
  0
ARC
  8
0
  6
CONTINUOUS
 62
256
 10
632.240850000000020
 20
-134.807447999999990
 40
300.600000000000020
 50
180.000000000000000
 51
188.597082000000000
  0
ARC
  8
0
  6
CONTINUOUS
 62
256
 10
151.040850000000010
 20
-134.807447999999990
 40
300.600000000000020
 50
0.000000000000000
 51
8.597081999999999
  0
ARC
  8
0
  6
CONTINUOUS
 62
256
 10
341.544236000000010
 20
-90.858861000000005
 40
6.600000000000017
 50
135.000000000000170
 51
171.402918000000080
  0
ARC
  8
0
  6
CONTINUOUS
 62
256
 10
632.240850000000020
 20
-134.807447999999990
 40
300.600000000000020
 50
171.402918000000000
 51
180.000000000000000
  0
ARC
  8
0
  6
CONTINUOUS
 62
256
 10
391.640850000000000
 20
-370.407447999999990
 40
300.600000000000020
 50
83.948014999999998
 51
96.051985000000002
  0
LINE
  8
0
  6
CONTINUOUS
 62
256
 10
446.404368999999970
 20
-86.191956000000005
 11
439.337920000000000
 21
-79.125506999999999
  0
ARC
  8
0
  6
CONTINUOUS
 62
256
 10
441.737464999999990
 20
-90.858861000000005
 40
6.600000000000019
 50
8.597081999999919
 51
44.999999999999829
  0
ARC
  8
0
  6
CONTINUOUS
 62
256
 10
151.040850000000010
 20
-134.807447999999990
 40
300.600000000000020
 50
351.402918000000000
 51
0.000000000000000
  0
ARC
  8
0
  6
CONTINUOUS
 62
256
 10
441.737464999999990
 20
-178.756035000000000
 40
6.600000000000017
 50
315.000000000000170
 51
351.402917999999940
  0
LINE
  8
0
  6
CONTINUOUS
 62
256
 10
336.877331000000030
 20
-183.422940000000010
 11
343.943780000000000
 21
-190.489388999999990
  0
LINE
  8
0
  6
DASHDOT
 62
256
 10
391.640850000000000
 20
-201.585101000000010
 11
391.640850000000000
 21
-23.101935999999998
  0
LINE
  8
0
  6
DASHDOT
 62
256
 10
457.646134000000020
 20
-134.807447999999990
 11
326.811623000000000
 21
-134.807447999999990
  0
ARC
  8
0
  6
CONTINUOUS
 62
256
 10
362.752819999999990
 20
-97.934546999999995
 40
26.599999999999994
 50
96.051984999999974
 51
135.000000000000060
  0
ARC
  8
0
  6
CONTINUOUS
 62
256
 10
362.752819999999990
 20
-171.680349000000010
 40
26.600000000000016
 50
224.999999999999940
 51
263.948015000000050
  0
ARC
  8
0
  6
CONTINUOUS
 62
256
 10
420.528880000000020
 20
-171.680349000000010
 40
26.600000000000009
 50
276.051984999999950
 51
315.000000000000060
  0
ARC
  8
0
  6
CONTINUOUS
 62
256
 10
420.528880000000020
 20
-97.934546999999995
 40
26.600000000000016
 50
44.999999999999957
 51
83.948015000000026
  0
ARC
  8
0
  6
CONTINUOUS
 62
256
 10
362.752819999999990
 20
-171.680349000000010
 40
15.397000000000016
 50
224.999999999999910
 51
263.948015000000110
  0
ARC
  8
0
  6
CONTINUOUS
 62
256
 10
391.640850000000000
 20
-370.407447999999990
 40
289.396999999999990
 50
90.000000000000000
 51
96.051985000000002
  0
ARC
  8
0
  6
CONTINUOUS
 62
256
 10
362.752819999999990
 20
-97.934546999999995
 40
15.397000000000000
 50
96.051984999999931
 51
135.000000000000090
  0
LINE
  8
0
  6
CONTINUOUS
 62
256
 10
347.289431999999980
 20
-91.623289000000000
 11
351.865497000000000
 21
-87.047224000000000
  0
ARC
  8
0
  6
CONTINUOUS
 62
256
 10
351.532073000000030
 20
-95.865930000000006
 40
5.999999999999989
 50
134.999999999999830
 51
172.102011000000000
  0
ARC
  8
0
  6
CONTINUOUS
 62
256
 10
632.240850000000020
 20
-134.807447999999990
 40
289.396999999999990
 50
172.102011000000030
 51
180.000000000000000
  0
ARC
  8
0
  6
CONTINUOUS
 62
256
 10
391.640850000000000
 20
-370.407447999999990
 40
289.396999999999990
 50
83.948014999999998
 51
90.000000000000000
  0
ARC
  8
0
  6
CONTINUOUS
 62
256
 10
420.528880000000020
 20
-97.934546999999995
 40
15.397000000000016
 50
44.999999999999929
 51
83.948015000000069
  0
LINE
  8
0
  6
CONTINUOUS
 62
256
 10
435.992268000000020
 20
-91.623289000000000
 11
431.416203000000000
 21
-87.047224000000000
  0
ARC
  8
0
  6
CONTINUOUS
 62
256
 10
431.749627999999970
 20
-95.865930000000006
 40
5.999999999999990
 50
7.897989000000010
 51
45.000000000000192
  0
ARC
  8
0
  6
CONTINUOUS
 62
256
 10
151.040850000000010
 20
-134.807447999999990
 40
289.397000000000050
 50
0.000000000000000
 51
7.897989000000000
  0
ARC
  8
0
  6
CONTINUOUS
 62
256
 10
391.640850000000000
 20
100.792552000000000
 40
289.396999999999990
 50
270.000000000000000
 51
276.051985000000000
  0
ARC
  8
0
  6
CONTINUOUS
 62
256
 10
420.528880000000020
 20
-171.680349000000010
 40
15.397000000000000
 50
276.051984999999890
 51
314.999999999999940
  0
LINE
  8
0
  6
CONTINUOUS
 62
256
 10
435.992268000000020
 20
-177.991606999999990
 11
431.416203000000000
 21
-182.567671999999990
  0
ARC
  8
0
  6
CONTINUOUS
 62
256
 10
431.749627999999970
 20
-173.748966000000000
 40
5.999999999999989
 50
314.999999999999770
 51
352.102010999999950
  0
ARC
  8
0
  6
CONTINUOUS
 62
256
 10
151.040850000000010
 20
-134.807447999999990
 40
289.396999999999990
 50
352.102011000000000
 51
360.000000000000000
  0
LINE
  8
0
  6
DASHDOT
 62
256
 10
208.174736999999990
 20
227.400478999999990
 11
-153.861689000000010
 21
227.400478999999990
  0
LINE
  8
0
  6
CONTINUOUS
 62
256
 10
155.541232000000010
 20
173.660363999999990
 11
157.541232000000010
 21
175.313006000000000
  0
LINE
  8
0
  6
CONTINUOUS
 62
256
 10
153.541232000000010
 20
172.484578000000000
 11
155.541232000000010
 21
173.660363999999990
  0
LINE
  8
0
  6
CONTINUOUS
 62
256
 10
155.541232000000010
 20
173.660363999999990
 11
153.541232000000010
 21
175.313006000000000
  0
LINE
  8
0
  6
CONTINUOUS
 62
256
 10
157.541232000000010
 20
172.484578000000000
 11
155.541232000000010
 21
173.660363999999990
  0
POLYLINE
  8
0
  6
CONTINUOUS
 62
256
 66
1
 70
1
  0
VERTEX
  8
0
  6
CONTINUOUS
 62
256
 10
160.241232000000000
 20
175.476954000000010
  0
VERTEX
  8
0
  6
CONTINUOUS
 62
256
 10
160.150922817895180
 20
176.179910510558190
  0
VERTEX
  8
0
  6
CONTINUOUS
 62
256
 10
159.883465802803040
 20
176.855852796638150
  0
VERTEX
  8
0
  6
CONTINUOUS
 62
256
 10
159.449139177821960
 20
177.478804775258680
  0
VERTEX
  8
0
  6
CONTINUOUS
 62
256
 10
158.864633871576790
 20
178.024826751236840
  0
VERTEX
  8
0
  6
CONTINUOUS
 62
256
 10
158.152412095192120
 20
178.472935406248500
  0
VERTEX
  8
0
  6
CONTINUOUS
 62
256
 10
157.339844132115930
 20
178.805910175983740
  0
VERTEX
  8
0
  6
CONTINUOUS
 62
256
 10
156.458156513475810
 20
179.010955026776090
  0
VERTEX
  8
0
  6
CONTINUOUS
 62
256
 10
155.541232000000010
 20
179.080190200000000
  0
VERTEX
  8
0
  6
CONTINUOUS
 62
256
 10
154.624307486524200
 20
179.010955026776090
  0
VERTEX
  8
0
  6
CONTINUOUS
 62
256
 10
153.742619867884090
 20
178.805910175983740
  0
VERTEX
  8
0
  6
CONTINUOUS
 62
256
 10
152.930051904807900
 20
178.472935406248500
  0
VERTEX
  8
0
  6
CONTINUOUS
 62
256
 10
152.217830128423230
 20
178.024826751236840
  0
VERTEX
  8
0
  6
CONTINUOUS
 62
256
 10
151.633324822178050
 20
177.478804775258680
  0
VERTEX
  8
0
  6
CONTINUOUS
 62
256
 10
151.198998197196970
 20
176.855852796638150
  0
VERTEX
  8
0
  6
CONTINUOUS
 62
256
 10
150.931541182104840
 20
176.179910510558190
  0
VERTEX
  8
0
  6
CONTINUOUS
 62
256
 10
150.841232000000020
 20
175.476954000000010
  0
VERTEX
  8
0
  6
CONTINUOUS
 62
256
 10
150.931541182104840
 20
174.773997489441830
  0
VERTEX
  8
0
  6
CONTINUOUS
 62
256
 10
151.198998197196970
 20
174.098055203361870
  0
VERTEX
  8
0
  6
CONTINUOUS
 62
256
 10
151.633324822178050
 20
173.475103224741330
  0
VERTEX
  8
0
  6
CONTINUOUS
 62
256
 10
152.217830128423230
 20
172.929081248763170
  0
VERTEX
  8
0
  6
CONTINUOUS
 62
256
 10
152.930051904807900
 20
172.480972593751520
  0
VERTEX
  8
0
  6
CONTINUOUS
 62
256
 10
153.742619867884090
 20
172.147997824016270
  0
VERTEX
  8
0
  6
CONTINUOUS
 62
256
 10
154.624307486524200
 20
171.942952973223950
  0
VERTEX
  8
0
  6
CONTINUOUS
 62
256
 10
155.541232000000010
 20
171.873717800000010
  0
VERTEX
  8
0
  6
CONTINUOUS
 62
256
 10
156.458156513475810
 20
171.942952973223950
  0
VERTEX
  8
0
  6
CONTINUOUS
 62
256
 10
157.339844132115930
 20
172.147997824016270
  0
VERTEX
  8
0
  6
CONTINUOUS
 62
256
 10
158.152412095192120
 20
172.480972593751520
  0
VERTEX
  8
0
  6
CONTINUOUS
 62
256
 10
158.864633871576760
 20
172.929081248763170
  0
VERTEX
  8
0
  6
CONTINUOUS
 62
256
 10
159.449139177821960
 20
173.475103224741330
  0
VERTEX
  8
0
  6
CONTINUOUS
 62
256
 10
159.883465802803040
 20
174.098055203361870
  0
VERTEX
  8
0
  6
CONTINUOUS
 62
256
 10
160.150922817895180
 20
174.773997489441830
  0
SEQEND
  8
0
  6
CONTINUOUS
 62
256
  0
LINE
  8
0
  6
CONTINUOUS
 62
256
 10
155.541232000000010
 20
281.140594000000020
 11
157.541232000000010
 21
279.487952000000010
  0
LINE
  8
0
  6
CONTINUOUS
 62
256
 10
153.541232000000010
 20
282.316379999999980
 11
155.541232000000010
 21
281.140594000000020
  0
LINE
  8
0
  6
CONTINUOUS
 62
256
 10
155.541232000000010
 20
281.140594000000020
 11
153.541232000000010
 21
279.487952000000010
  0
LINE
  8
0
  6
CONTINUOUS
 62
256
 10
157.541232000000010
 20
282.316379999999980
 11
155.541232000000010
 21
281.140594000000020
  0
POLYLINE
  8
0
  6
CONTINUOUS
 62
256
 66
1
 70
1
  0
VERTEX
  8
0
  6
CONTINUOUS
 62
256
 10
160.241232000000000
 20
279.324004000000000
  0
VERTEX
  8
0
  6
CONTINUOUS
 62
256
 10
160.150922817895180
 20
280.026960510558180
  0
VERTEX
  8
0
  6
CONTINUOUS
 62
256
 10
159.883465802803040
 20
280.702902796638110
  0
VERTEX
  8
0
  6
CONTINUOUS
 62
256
 10
159.449139177821960
 20
281.325854775258680
  0
VERTEX
  8
0
  6
CONTINUOUS
 62
256
 10
158.864633871576790
 20
281.871876751236810
  0
VERTEX
  8
0
  6
CONTINUOUS
 62
256
 10
158.152412095192120
 20
282.319985406248460
  0
VERTEX
  8
0
  6
CONTINUOUS
 62
256
 10
157.339844132115930
 20
282.652960175983710
  0
VERTEX
  8
0
  6
CONTINUOUS
 62
256
 10
156.458156513475810
 20
282.858005026776030
  0
VERTEX
  8
0
  6
CONTINUOUS
 62
256
 10
155.541232000000010
 20
282.927240199999970
  0
VERTEX
  8
0
  6
CONTINUOUS
 62
256
 10
154.624307486524200
 20
282.858005026776030
  0
VERTEX
  8
0
  6
CONTINUOUS
 62
256
 10
153.742619867884090
 20
282.652960175983710
  0
VERTEX
  8
0
  6
CONTINUOUS
 62
256
 10
152.930051904807900
 20
282.319985406248460
  0
VERTEX
  8
0
  6
CONTINUOUS
 62
256
 10
152.217830128423230
 20
281.871876751236810
  0
VERTEX
  8
0
  6
CONTINUOUS
 62
256
 10
151.633324822178050
 20
281.325854775258680
  0
VERTEX
  8
0
  6
CONTINUOUS
 62
256
 10
151.198998197196970
 20
280.702902796638110
  0
VERTEX
  8
0
  6
CONTINUOUS
 62
256
 10
150.931541182104840
 20
280.026960510558180
  0
VERTEX
  8
0
  6
CONTINUOUS
 62
256
 10
150.841232000000020
 20
279.324004000000000
  0
VERTEX
  8
0
  6
CONTINUOUS
 62
256
 10
150.931541182104840
 20
278.621047489441820
  0
VERTEX
  8
0
  6
CONTINUOUS
 62
256
 10
151.198998197196970
 20
277.945105203361890
  0
VERTEX
  8
0
  6
CONTINUOUS
 62
256
 10
151.633324822178050
 20
277.322153224741330
  0
VERTEX
  8
0
  6
CONTINUOUS
 62
256
 10
152.217830128423230
 20
276.776131248763190
  0
VERTEX
  8
0
  6
CONTINUOUS
 62
256
 10
152.930051904807900
 20
276.328022593751540
  0
VERTEX
  8
0
  6
CONTINUOUS
 62
256
 10
153.742619867884090
 20
275.995047824016300
  0
VERTEX
  8
0
  6
CONTINUOUS
 62
256
 10
154.624307486524200
 20
275.790002973223980
  0
VERTEX
  8
0
  6
CONTINUOUS
 62
256
 10
155.541232000000010
 20
275.720767800000030
  0
VERTEX
  8
0
  6
CONTINUOUS
 62
256
 10
156.458156513475810
 20
275.790002973223980
  0
VERTEX
  8
0
  6
CONTINUOUS
 62
256
 10
157.339844132115930
 20
275.995047824016300
  0
VERTEX
  8
0
  6
CONTINUOUS
 62
256
 10
158.152412095192120
 20
276.328022593751540
  0
VERTEX
  8
0
  6
CONTINUOUS
 62
256
 10
158.864633871576760
 20
276.776131248763190
  0
VERTEX
  8
0
  6
CONTINUOUS
 62
256
 10
159.449139177821960
 20
277.322153224741330
  0
VERTEX
  8
0
  6
CONTINUOUS
 62
256
 10
159.883465802803040
 20
277.945105203361890
  0
VERTEX
  8
0
  6
CONTINUOUS
 62
256
 10
160.150922817895180
 20
278.621047489441820
  0
SEQEND
  8
0
  6
CONTINUOUS
 62
256
  0
ARC
  8
0
  6
CONTINUOUS
 62
256
 10
192.941232000000010
 20
179.957274000000010
 40
2.599999999999996
 50
305.000000000000230
 51
0.000000000000000
  0
LINE
  8
0
  6
CONTINUOUS
 62
256
 10
184.706785000000000
 20
171.017438000000000
 11
194.432531000000010
 21
177.827479000000010
  0
ARC
  8
0
  6
CONTINUOUS
 62
256
 10
173.235256999999990
 20
187.400478999999990
 40
20.000000000000000
 50
270.000000000000000
 51
305.000000000000000
  0
LINE
  8
0
  6
CONTINUOUS
 62
256
 10
195.541232000000010
 20
227.400478999999990
 11
195.541232000000010
 21
179.957274000000010
  0
LINE
  8
0
  6
CONTINUOUS
 62
256
 10
144.541232000000010
 20
167.400478999999990
 11
173.235256999999990
 21
167.400478999999990
  0
LINE
  8
0
  6
CONTINUOUS
 62
256
 10
47.541232000000001
 20
168.900478999999990
 11
47.541232000000001
 21
227.400478999999990
  0
LINE
  8
0
  6
CONTINUOUS
 62
256
 10
47.541232000000001
 20
168.900478999999990
 11
144.541232000000010
 21
168.900478999999990
  0
LINE
  8
0
  6
CONTINUOUS
 62
256
 10
154.541232000000010
 20
192.400478999999990
 11
154.541232000000010
 21
227.400478999999990
  0
ARC
  8
0
  6
CONTINUOUS
 62
256
 10
147.541232000000010
 20
186.400478999999990
 40
3.000000000000000
 50
90.000000000000000
 51
180.000000000000000
  0
LINE
  8
0
  6
CONTINUOUS
 62
256
 10
147.541232000000010
 20
189.400478999999990
 11
151.541232000000010
 21
189.400478999999990
  0
ARC
  8
0
  6
CONTINUOUS
 62
256
 10
151.541232000000010
 20
192.400478999999990
 40
3.000000000000000
 50
270.000000000000000
 51
0.000000000000000
  0
LINE
  8
0
  6
CONTINUOUS
 62
256
 10
144.541232000000010
 20
186.400478999999990
 11
144.541232000000010
 21
167.400478999999990
  0
LINE
  8
0
  6
CONTINUOUS
 62
256
 10
79.541231999999994
 20
195.900478999999990
 11
150.541232000000010
 21
195.900478999999990
  0
ARC
  8
0
  6
CONTINUOUS
 62
256
 10
150.541232000000010
 20
197.900478999999990
 40
2.000000000000000
 50
270.000000000000000
 51
0.000000000000000
  0
LINE
  8
0
  6
CONTINUOUS
 62
256
 10
152.541232000000010
 20
227.400478999999990
 11
152.541232000000010
 21
197.900478999999990
  0
LINE
  8
0
  6
CONTINUOUS
 62
256
 10
77.541231999999994
 20
227.400478999999990
 11
77.541231999999994
 21
197.900478999999990
  0
ARC
  8
0
  6
CONTINUOUS
 62
256
 10
79.541231999999994
 20
197.900478999999990
 40
2.000000000000000
 50
180.000000000000000
 51
270.000000000000000
  0
ARC
  8
0
  6
CONTINUOUS
 62
256
 10
79.541231999999994
 20
198.400478999999990
 40
1.000000000000000
 50
180.000000000000000
 51
270.000000000000000
  0
ARC
  8
0
  6
CONTINUOUS
 62
256
 10
150.541232000000010
 20
198.400478999999990
 40
1.000000000000000
 50
270.000000000000000
 51
0.000000000000000
  0
LINE
  8
0
  6
CONTINUOUS
 62
256
 10
79.541231999999994
 20
197.400478999999990
 11
150.541232000000010
 21
197.400478999999990
  0
LINE
  8
0
  6
CONTINUOUS
 62
256
 10
154.541232000000010
 20
195.649687000000000
 11
47.541232000000001
 21
195.649687000000000
  0
LINE
  8
0
  6
CONTINUOUS
 62
256
 10
154.454895999999990
 20
191.685942000000010
 11
47.541232000000001
 21
191.685942000000010
  0
LINE
  8
0
  6
CONTINUOUS
 62
256
 10
153.444224999999990
 20
190.081294000000010
 11
47.541232000000001
 21
190.081294000000010
  0
LINE
  8
0
  6
CONTINUOUS
 62
256
 10
144.541232000000010
 20
182.034692000000010
 11
47.541232000000001
 21
182.034692000000010
  0
LINE
  8
0
  6
CONTINUOUS
 62
256
 10
144.541232000000010
 20
177.084945000000000
 11
47.541232000000001
 21
177.084945000000000
  0
LINE
  8
0
  6
CONTINUOUS
 62
256
 10
144.541232000000010
 20
172.400478999999990
 11
47.541232000000001
 21
172.400478999999990
  0
LINE
  8
0
  6
CONTINUOUS
 62
256
 10
144.541232000000010
 20
171.400478999999990
 11
47.541232000000001
 21
171.400478999999990
  0
LINE
  8
0
  6
CONTINUOUS
 62
256
 10
144.541232000000010
 20
169.900478999999990
 11
47.541232000000001
 21
169.900478999999990
  0
LINE
  8
0
  6
CONTINUOUS
 62
256
 10
144.541232000000010
 20
170.400478999999990
 11
47.541232000000001
 21
170.400478999999990
  0
LINE
  8
0
  6
CONTINUOUS
 62
256
 10
154.541232000000010
 20
207.400478999999990
 11
152.541232000000010
 21
207.400478999999990
  0
LINE
  8
0
  6
CONTINUOUS
 62
256
 10
77.541231999999994
 20
207.400478999999990
 11
47.541232000000001
 21
207.400478999999990
  0
LINE
  8
0
  6
CONTINUOUS
 62
256
 10
154.541232000000010
 20
201.208544999999990
 11
152.541232000000010
 21
201.208544999999990
  0
LINE
  8
0
  6
CONTINUOUS
 62
256
 10
77.541231999999994
 20
201.208544999999990
 11
47.541232000000001
 21
201.208544999999990
  0
LINE
  8
0
  6
CONTINUOUS
 62
256
 10
154.541232000000010
 20
202.570426000000000
 11
152.541232000000010
 21
202.570426000000000
  0
LINE
  8
0
  6
CONTINUOUS
 62
256
 10
77.541231999999994
 20
202.570426000000000
 11
47.541232000000001
 21
202.570426000000000
  0
LINE
  8
0
  6
CONTINUOUS
 62
256
 10
154.541232000000010
 20
197.118045000000000
 11
152.381829000000010
 21
197.118045000000000
  0
LINE
  8
0
  6
CONTINUOUS
 62
256
 10
77.700636000000003
 20
197.118045000000000
 11
47.541232000000001
 21
197.118045000000000
  0
LINE
  8
0
  6
CONTINUOUS
 62
256
 10
78.541231999999994
 20
198.400478999999990
 11
78.541231999999994
 21
227.400478999999990
  0
LINE
  8
0
  6
CONTINUOUS
 62
256
 10
151.541232000000010
 20
198.400478999999990
 11
151.541232000000010
 21
227.400478999999990
  0
ARC
  8
0
  6
CONTINUOUS
 62
256
 10
192.941232000000010
 20
274.843684000000000
 40
2.599999999999994
 50
0.000000000000000
 51
55.000000000000156
  0
LINE
  8
0
  6
CONTINUOUS
 62
256
 10
184.706785000000000
 20
283.783520000000010
 11
194.432531000000010
 21
276.973479000000000
  0
ARC
  8
0
  6
CONTINUOUS
 62
256
 10
173.235256999999990
 20
267.400479000000020
 40
20.000000000000004
 50
55.000000000000050
 51
90.000000000000000
  0
LINE
  8
0
  6
CONTINUOUS
 62
256
 10
195.541232000000010
 20
227.400478999999990
 11
195.541232000000010
 21
274.843684000000000
  0
LINE
  8
0
  6
CONTINUOUS
 62
256
 10
144.541232000000010
 20
287.400479000000020
 11
173.235256999999990
 21
287.400479000000020
  0
LINE
  8
0
  6
CONTINUOUS
 62
256
 10
47.541232000000001
 20
285.900479000000020
 11
47.541232000000001
 21
227.400478999999990
  0
LINE
  8
0
  6
CONTINUOUS
 62
256
 10
47.541232000000001
 20
285.900479000000020
 11
144.541232000000010
 21
285.900479000000020
  0
LINE
  8
0
  6
CONTINUOUS
 62
256
 10
154.541232000000010
 20
262.400479000000020
 11
154.541232000000010
 21
227.400478999999990
  0
ARC
  8
0
  6
CONTINUOUS
 62
256
 10
147.541232000000010
 20
268.400479000000020
 40
3.000000000000000
 50
180.000000000000000
 51
270.000000000000000
  0
LINE
  8
0
  6
CONTINUOUS
 62
256
 10
147.541232000000010
 20
265.400479000000020
 11
151.541232000000010
 21
265.400479000000020
  0
ARC
  8
0
  6
CONTINUOUS
 62
256
 10
151.541232000000010
 20
262.400479000000020
 40
3.000000000000000
 50
0.000000000000000
 51
90.000000000000000
  0
LINE
  8
0
  6
CONTINUOUS
 62
256
 10
144.541232000000010
 20
268.400479000000020
 11
144.541232000000010
 21
287.400479000000020
  0
LINE
  8
0
  6
CONTINUOUS
 62
256
 10
79.541231999999994
 20
258.900479000000020
 11
150.541232000000010
 21
258.900479000000020
  0
ARC
  8
0
  6
CONTINUOUS
 62
256
 10
150.541232000000010
 20
256.900479000000020
 40
2.000000000000000
 50
0.000000000000000
 51
90.000000000000000
  0
LINE
  8
0
  6
CONTINUOUS
 62
256
 10
152.541232000000010
 20
227.400478999999990
 11
152.541232000000010
 21
256.900479000000020
  0
LINE
  8
0
  6
CONTINUOUS
 62
256
 10
77.541231999999994
 20
227.400478999999990
 11
77.541231999999994
 21
256.900479000000020
  0
ARC
  8
0
  6
CONTINUOUS
 62
256
 10
79.541231999999994
 20
256.900479000000020
 40
2.000000000000000
 50
90.000000000000000
 51
180.000000000000000
  0
ARC
  8
0
  6
CONTINUOUS
 62
256
 10
79.541231999999994
 20
256.400479000000020
 40
1.000000000000000
 50
90.000000000000000
 51
180.000000000000000
  0
ARC
  8
0
  6
CONTINUOUS
 62
256
 10
150.541232000000010
 20
256.400479000000020
 40
1.000000000000000
 50
0.000000000000000
 51
90.000000000000000
  0
LINE
  8
0
  6
CONTINUOUS
 62
256
 10
79.541231999999994
 20
257.400479000000020
 11
150.541232000000010
 21
257.400479000000020
  0
LINE
  8
0
  6
CONTINUOUS
 62
256
 10
154.541232000000010
 20
259.151271000000010
 11
47.541232000000001
 21
259.151271000000010
  0
LINE
  8
0
  6
CONTINUOUS
 62
256
 10
154.454895999999990
 20
263.115016000000030
 11
47.541232000000001
 21
263.115016000000030
  0
LINE
  8
0
  6
CONTINUOUS
 62
256
 10
153.444224999999990
 20
264.719664000000020
 11
47.541232000000001
 21
264.719664000000020
  0
LINE
  8
0
  6
CONTINUOUS
 62
256
 10
144.541232000000010
 20
272.766265999999970
 11
47.541232000000001
 21
272.766265999999970
  0
LINE
  8
0
  6
CONTINUOUS
 62
256
 10
144.541232000000010
 20
277.716012999999980
 11
47.541232000000001
 21
277.716012999999980
  0
LINE
  8
0
  6
CONTINUOUS
 62
256
 10
144.541232000000010
 20
282.400479000000020
 11
47.541232000000001
 21
282.400479000000020
  0
LINE
  8
0
  6
CONTINUOUS
 62
256
 10
144.541232000000010
 20
283.400479000000020
 11
47.541232000000001
 21
283.400479000000020
  0
LINE
  8
0
  6
CONTINUOUS
 62
256
 10
144.541232000000010
 20
284.900479000000020
 11
47.541232000000001
 21
284.900479000000020
  0
LINE
  8
0
  6
CONTINUOUS
 62
256
 10
144.541232000000010
 20
284.400479000000020
 11
47.541232000000001
 21
284.400479000000020
  0
LINE
  8
0
  6
CONTINUOUS
 62
256
 10
154.541232000000010
 20
247.400478999999990
 11
152.541232000000010
 21
247.400478999999990
  0
LINE
  8
0
  6
CONTINUOUS
 62
256
 10
77.541231999999994
 20
247.400478999999990
 11
47.541232000000001
 21
247.400478999999990
  0
LINE
  8
0
  6
CONTINUOUS
 62
256
 10
154.541232000000010
 20
253.592412999999990
 11
152.541232000000010
 21
253.592412999999990
  0
LINE
  8
0
  6
CONTINUOUS
 62
256
 10
77.541231999999994
 20
253.592412999999990
 11
47.541232000000001
 21
253.592412999999990
  0
LINE
  8
0
  6
CONTINUOUS
 62
256
 10
154.541232000000010
 20
252.230532000000010
 11
152.541232000000010
 21
252.230532000000010
  0
LINE
  8
0
  6
CONTINUOUS
 62
256
 10
77.541231999999994
 20
252.230532000000010
 11
47.541232000000001
 21
252.230532000000010
  0
LINE
  8
0
  6
CONTINUOUS
 62
256
 10
154.541232000000010
 20
257.682912999999990
 11
152.381829000000010
 21
257.682912999999990
  0
LINE
  8
0
  6
CONTINUOUS
 62
256
 10
77.700636000000003
 20
257.682912999999990
 11
47.541232000000001
 21
257.682912999999990
  0
LINE
  8
0
  6
CONTINUOUS
 62
256
 10
78.541231999999994
 20
256.400479000000020
 11
78.541231999999994
 21
227.400478999999990
  0
LINE
  8
0
  6
CONTINUOUS
 62
256
 10
151.541232000000010
 20
256.400479000000020
 11
151.541232000000010
 21
227.400478999999990
  0
ARC
  8
0
  6
CONTINUOUS
 62
256
 10
-52.958767999999999
 20
126.400684000000000
 40
5.000000000000000
 50
0.000000000000000
 51
180.000000000000000
  0
LINE
  8
0
  6
CONTINUOUS
 62
256
 10
-47.958767999999999
 20
86.400683999999998
 11
-47.958767999999999
 21
126.400684000000000
  0
LINE
  8
0
  6
CONTINUOUS
 62
256
 10
-47.958767999999999
 20
126.400684000000000
 11
-57.958767999999999
 21
126.400684000000000
  0
LINE
  8
0
  6
CONTINUOUS
 62
256
 10
-57.958767999999999
 20
86.400683999999998
 11
-57.958767999999999
 21
126.400684000000000
  0
ARC
  8
0
  6
CONTINUOUS
 62
256
 10
-68.158370000000005
 20
87.200683999999995
 40
0.799999999999997
 50
180.000000000000000
 51
270.000000000000000
  0
LINE
  8
0
  6
CONTINUOUS
 62
256
 10
-68.958370000000002
 20
141.000616000000010
 11
-68.958370000000002
 21
87.200683999999995
  0
ARC
  8
0
  6
CONTINUOUS
 62
256
 10
-69.358369999999994
 20
141.000616000000010
 40
0.400000000000006
 50
0.000000000000000
 51
90.000000000000000
  0
ARC
  8
0
  6
CONTINUOUS
 62
256
 10
-70.058369999999996
 20
141.800615999999990
 40
0.400000000000006
 50
180.000000000000000
 51
270.000000000000000
  0
LINE
  8
0
  6
CONTINUOUS
 62
256
 10
-36.958370000000002
 20
86.400683999999998
 11
-68.158370000000005
 21
86.400683999999998
  0
ARC
  8
0
  6
CONTINUOUS
 62
256
 10
-37.758369999999999
 20
87.200683999999995
 40
0.799999999999997
 50
270.000000000000000
 51
0.000000000000000
  0
LINE
  8
0
  6
CONTINUOUS
 62
256
 10
-35.858370000000001
 20
141.400616000000010
 11
-70.058369999999996
 21
141.400616000000010
  0
LINE
  8
0
  6
CONTINUOUS
 62
256
 10
-36.958370000000002
 20
141.000616000000010
 11
-36.958370000000002
 21
87.200683999999995
  0
ARC
  8
0
  6
CONTINUOUS
 62
256
 10
-36.558369999999996
 20
141.000616000000010
 40
0.400000000000006
 50
90.000000000000000
 51
180.000000000000000
  0
ARC
  8
0
  6
CONTINUOUS
 62
256
 10
-35.858370000000001
 20
141.800615999999990
 40
0.400000000000006
 50
270.000000000000000
 51
0.000000000000000
  0
LINE
  8
0
  6
DASHDOT
 62
256
 10
-52.958767999999999
 20
316.981394000000020
 11
-52.958767999999999
 21
84.452539999999999
  0
LINE
  8
0
  6
CONTINUOUS
 62
256
 10
-70.458370000000002
 20
143.400478999999990
 11
-70.458370000000002
 21
141.800615999999990
  0
LINE
  8
0
  6
CONTINUOUS
 62
256
 10
-35.458370000000002
 20
143.400478999999990
 11
-35.458370000000002
 21
141.800615999999990
  0
LINE
  8
0
  6
CONTINUOUS
 62
256
 10
-23.958767999999999
 20
144.400410999999990
 11
-95.658963999999997
 21
144.400410999999990
  0
LINE
  8
0
  6
CONTINUOUS
 62
256
 10
24.532506000000001
 20
178.400478999999990
 11
-113.958768000000010
 21
178.400478999999990
  0
LINE
  8
0
  6
CONTINUOUS
 62
256
 10
5.314232000000000
 20
170.900410999999990
 11
-103.972404000000000
 21
170.900410999999990
  0
LINE
  8
0
  6
CONTINUOUS
 62
256
 10
-107.958768000000010
 20
283.900081000000000
 11
-1.945131000000000
 21
283.900081000000000
  0
LINE
  8
0
  6
CONTINUOUS
 62
256
 10
8.041232000000001
 20
277.400081000000000
 11
-123.958768000000010
 21
277.400081000000000
  0
LINE
  8
0
  6
CONTINUOUS
 62
256
 10
47.541232000000001
 20
286.900479000000020
 11
47.541232000000001
 21
227.400478999999990
  0
LINE
  8
0
  6
CONTINUOUS
 62
256
 10
27.541232000000001
 20
283.900479000000020
 11
27.541232000000001
 21
170.900478999999990
  0
ARC
  8
0
  6
CONTINUOUS
 62
256
 10
38.541232000000001
 20
263.401746000000000
 40
3.000000000000000
 50
0.000000000000000
 51
90.000000000000000
  0
ARC
  8
0
  6
CONTINUOUS
 62
256
 10
38.541232000000001
 20
282.496785999999990
 40
3.000000000000000
 50
270.000000000000000
 51
0.000000000000000
  0
ARC
  8
0
  6
CONTINUOUS
 62
256
 10
38.541232000000001
 20
269.585210000000020
 40
3.000000000000000
 50
0.000000000000000
 51
90.000000000000000
  0
LINE
  8
0
  6
CONTINUOUS
 62
256
 10
41.541232000000001
 20
269.585210000000020
 11
41.541232000000001
 21
227.400478999999990
  0
LINE
  8
0
  6
CONTINUOUS
 62
256
 10
38.541232000000001
 20
266.401746000000000
 11
33.541232000000001
 21
266.401746000000000
  0
LINE
  8
0
  6
CONTINUOUS
 62
256
 10
38.541232000000001
 20
272.585210000000020
 11
32.541232000000001
 21
272.585210000000020
  0
LINE
  8
0
  6
CONTINUOUS
 62
256
 10
38.541232000000001
 20
279.496785999999990
 11
32.541232000000001
 21
279.496785999999990
  0
ARC
  8
0
  6
CONTINUOUS
 62
256
 10
32.541232000000001
 20
267.585210000000020
 40
5.000000000000000
 50
90.000000000000000
 51
180.000000000000000
  0
ARC
  8
0
  6
CONTINUOUS
 62
256
 10
32.541232000000001
 20
274.496785999999990
 40
5.000000000000000
 50
90.000000000000000
 51
180.000000000000000
  0
LINE
  8
0
  6
CONTINUOUS
 62
256
 10
41.541232000000001
 20
247.400478999999990
 11
47.541232000000001
 21
247.400478999999990
  0
ARC
  8
0
  6
CONTINUOUS
 62
256
 10
44.541232000000001
 20
283.900479000000020
 40
3.000000000000000
 50
90.000000000000000
 51
180.000000000000000
  0
LINE
  8
0
  6
CONTINUOUS
 62
256
 10
41.541232000000001
 20
282.900479000000020
 11
41.541232000000001
 21
282.496785999999990
  0
LINE
  8
0
  6
CONTINUOUS
 62
256
 10
41.541232000000001
 20
282.900479000000020
 11
41.541232000000001
 21
282.496785999999990
  0
LINE
  8
0
  6
CONTINUOUS
 62
256
 10
41.541232000000001
 20
282.900479000000020
 11
41.541232000000001
 21
283.900479000000020
  0
ARC
  8
0
  6
CONTINUOUS
 62
256
 10
30.541232000000001
 20
283.900479000000020
 40
3.000000000000000
 50
90.000000000000000
 51
180.000000000000000
  0
ARC
  8
0
  6
CONTINUOUS
 62
256
 10
30.541232000000001
 20
170.900478999999990
 40
3.000000000000000
 50
180.000000000000000
 51
270.000000000000000
  0
LINE
  8
0
  6
CONTINUOUS
 62
256
 10
47.541232000000001
 20
167.900478999999990
 11
47.541232000000001
 21
227.400478999999990
  0
ARC
  8
0
  6
CONTINUOUS
 62
256
 10
38.541232000000001
 20
191.399212000000010
 40
3.000000000000000
 50
270.000000000000000
 51
0.000000000000000
  0
ARC
  8
0
  6
CONTINUOUS
 62
256
 10
38.541232000000001
 20
185.215747999999990
 40
3.000000000000000
 50
270.000000000000000
 51
0.000000000000000
  0
ARC
  8
0
  6
CONTINUOUS
 62
256
 10
38.541232000000001
 20
172.304171999999990
 40
3.000000000000000
 50
0.000000000000000
 51
90.000000000000000
  0
LINE
  8
0
  6
CONTINUOUS
 62
256
 10
41.541232000000001
 20
185.215747999999990
 11
41.541232000000001
 21
227.400478999999990
  0
LINE
  8
0
  6
CONTINUOUS
 62
256
 10
38.541232000000001
 20
188.399212000000010
 11
33.541232000000001
 21
188.399212000000010
  0
LINE
  8
0
  6
CONTINUOUS
 62
256
 10
38.541232000000001
 20
175.304171999999990
 11
32.541232000000001
 21
175.304171999999990
  0
LINE
  8
0
  6
CONTINUOUS
 62
256
 10
38.541232000000001
 20
182.215747999999990
 11
32.541232000000001
 21
182.215747999999990
  0
LINE
  8
0
  6
CONTINUOUS
 62
256
 10
41.541232000000001
 20
207.400478999999990
 11
47.541232000000001
 21
207.400478999999990
  0
ARC
  8
0
  6
CONTINUOUS
 62
256
 10
32.541232000000001
 20
180.304171999999990
 40
5.000000000000000
 50
180.000000000000000
 51
270.000000000000000
  0
ARC
  8
0
  6
CONTINUOUS
 62
256
 10
32.541232000000001
 20
187.215747999999990
 40
5.000000000000000
 50
180.000000000000000
 51
270.000000000000000
  0
LINE
  8
0
  6
CONTINUOUS
 62
256
 10
41.541232000000001
 20
171.900478999999990
 11
41.541232000000001
 21
172.304171999999990
  0
LINE
  8
0
  6
CONTINUOUS
 62
256
 10
41.541232000000001
 20
171.900478999999990
 11
41.541232000000001
 21
170.900478999999990
  0
ARC
  8
0
  6
CONTINUOUS
 62
256
 10
44.541232000000001
 20
170.900478999999990
 40
3.000000000000000
 50
180.000000000000000
 51
270.000000000000000
  0
LINE
  8
0
  6
CONTINUOUS
 62
256
 10
23.032505000000000
 20
272.400081000000000
 11
21.391736000000002
 21
178.400478999999990
  0
LINE
  8
0
  6
CONTINUOUS
 62
256
 10
-135.458767999999990
 20
272.900081000000000
 11
-133.860722000000010
 21
181.348121999999990
  0
LINE
  8
0
  6
CONTINUOUS
 62
256
 10
21.391736000000002
 20
178.400478999999990
 11
20.832260000000002
 21
146.348121999999990
  0
LINE
  8
0
  6
DASHDOT
 62
256
 10
-135.028462999999990
 20
158.400478999999990
 11
-101.481204000000010
 21
158.400478999999990
  0
LINE
  8
0
  6
DASHDOT
 62
256
 10
-8.560620999999999
 20
158.400478999999990
 11
22.057908999999999
 21
158.400478999999990
  0
LINE
  8
0
  6
CONTINUOUS
 62
256
 10
-23.958767999999999
 20
144.400410999999990
 11
-23.958767999999999
 21
143.700411000000000
  0
LINE
  8
0
  6
CONTINUOUS
 62
256
 10
-81.958768000000006
 20
144.400410999999990
 11
-81.958768000000006
 21
143.700411000000000
  0
LINE
  8
0
  6
CONTINUOUS
 62
256
 10
-10.258571999999999
 20
144.400410999999990
 11
-23.958767999999999
 21
144.400410999999990
  0
LINE
  8
0
  6
CONTINUOUS
 62
256
 10
-135.458767999999990
 20
272.400081000000000
 11
23.041232000000001
 21
272.400081000000000
  0
LINE
  8
0
  6
CONTINUOUS
 62
256
 10
-8.697970000000000
 20
307.921025999999980
 11
-4.899554000000000
 21
286.379137000000010
  0
LINE
  8
0
  6
CONTINUOUS
 62
256
 10
2.041232000000000
 20
283.900081000000000
 11
-1.945131000000000
 21
283.900081000000000
  0
LINE
  8
0
  6
CONTINUOUS
 62
256
 10
5.041232000000000
 20
280.900081000000000
 11
5.041232000000000
 21
280.400081000000000
  0
ARC
  8
0
  6
CONTINUOUS
 62
256
 10
2.041232000000000
 20
280.900081000000000
 40
3.000000000000000
 50
0.000000000000000
 51
90.000000000000000
  0
ARC
  8
0
  6
CONTINUOUS
 62
256
 10
8.041232000000001
 20
280.400081000000000
 40
3.000000000000000
 50
180.000000000000000
 51
270.000000000000000
  0
ARC
  8
0
  6
CONTINUOUS
 62
256
 10
-1.945131000000000
 20
286.900081000000000
 40
2.999999999999996
 50
189.999999999999660
 51
270.000000000000000
  0
ARC
  8
0
  6
CONTINUOUS
 62
256
 10
-1.945131000000000
 20
286.900081000000000
 40
2.999999999999996
 50
189.999999999999660
 51
270.000000000000000
  0
LINE
  8
0
  6
CONTINUOUS
 62
256
 10
8.041232000000001
 20
277.400081000000000
 11
18.041232000000001
 21
277.400081000000000
  0
LINE
  8
0
  6
CONTINUOUS
 62
256
 10
18.041232000000001
 20
277.400081000000000
 11
19.041232000000001
 21
276.400081000000000
  0
LINE
  8
0
  6
CONTINUOUS
 62
256
 10
19.041232000000001
 20
276.400081000000000
 11
19.041232000000001
 21
272.400081000000000
  0
LINE
  8
0
  6
CONTINUOUS
 62
256
 10
-81.958768000000006
 20
311.000081000000020
 11
-81.958768000000006
 21
310.400081000000000
  0
LINE
  8
0
  6
CONTINUOUS
 62
256
 10
-23.958767999999999
 20
311.000081000000020
 11
-23.958767999999999
 21
310.400081000000000
  0
LINE
  8
0
  6
CONTINUOUS
 62
256
 10
-11.652393000000000
 20
310.400081000000000
 11
-23.958767999999999
 21
310.400081000000000
  0
LINE
  8
0
  6
CONTINUOUS
 62
256
 10
-94.265141999999997
 20
310.400081000000000
 11
-23.958767999999999
 21
310.400081000000000
  0
ARC
  8
0
  6
CONTINUOUS
 62
256
 10
-11.652393000000000
 20
307.400081000000000
 40
2.999999999999996
 50
9.999999999999654
 51
90.000000000000000
  0
ARC
  8
0
  6
CONTINUOUS
 62
256
 10
-94.265141999999997
 20
307.400081000000000
 40
3.000000000000000
 50
90.000000000000000
 51
170.000000000000370
  0
LINE
  8
0
  6
CONTINUOUS
 62
256
 10
-110.958768000000010
 20
280.900081000000000
 11
-110.958768000000010
 21
280.400081000000000
  0
LINE
  8
0
  6
CONTINUOUS
 62
256
 10
-24.358768000000001
 20
311.400081000000000
 11
-52.958767999999999
 21
311.400081000000000
  0
LINE
  8
0
  6
CONTINUOUS
 62
256
 10
-81.558768000000001
 20
311.400081000000000
 11
-52.958767999999999
 21
311.400081000000000
  0
LINE
  8
0
  6
CONTINUOUS
 62
256
 10
-24.358768000000001
 20
311.400081000000000
 11
-23.958767999999999
 21
311.000081000000020
  0
LINE
  8
0
  6
CONTINUOUS
 62
256
 10
-81.558768000000001
 20
311.400081000000000
 11
-81.958768000000006
 21
311.000081000000020
  0
ARC
  8
0
  6
CONTINUOUS
 62
256
 10
-107.958768000000010
 20
280.900081000000000
 40
3.000000000000000
 50
90.000000000000000
 51
180.000000000000000
  0
ARC
  8
0
  6
CONTINUOUS
 62
256
 10
-113.958768000000010
 20
280.400081000000000
 40
3.000000000000000
 50
270.000000000000000
 51
0.000000000000000
  0
LINE
  8
0
  6
CONTINUOUS
 62
256
 10
-123.958768000000010
 20
277.400081000000000
 11
-124.958768000000010
 21
276.400081000000000
  0
LINE
  8
0
  6
CONTINUOUS
 62
256
 10
-124.958768000000010
 20
276.400081000000000
 11
-124.958768000000010
 21
272.400081000000000
  0
ARC
  8
0
  6
CONTINUOUS
 62
256
 10
-103.972404000000000
 20
286.900081000000000
 40
3.000000000000000
 50
270.000000000000000
 51
350.000000000000340
  0
LINE
  8
0
  6
CONTINUOUS
 62
256
 10
-97.219565000000003
 20
307.921025999999980
 11
-101.017981000000010
 21
286.379137000000010
  0
ARC
  8
0
  6
CONTINUOUS
 62
256
 10
-103.972404000000000
 20
286.900081000000000
 40
3.000000000000000
 50
270.000000000000000
 51
350.000000000000340
  0
LINE
  8
0
  6
CONTINUOUS
 62
256
 10
47.532505999999998
 20
286.900479000000020
 11
47.532505999999998
 21
283.650479000000020
  0
LINE
  8
0
  6
CONTINUOUS
 62
256
 10
47.532505999999998
 20
167.900478999999990
 11
47.532505999999998
 21
171.150478999999990
  0
LINE
  8
0
  6
CONTINUOUS
 62
256
 10
-24.258768000000000
 20
143.400410999999990
 11
-81.658767999999995
 21
143.400410999999990
  0
LINE
  8
0
  6
CONTINUOUS
 62
256
 10
-107.958768000000010
 20
170.900410999999990
 11
-103.972404000000000
 21
170.900410999999990
  0
ARC
  8
0
  6
CONTINUOUS
 62
256
 10
11.314232000000001
 20
175.400478999999990
 40
3.000000000000000
 50
90.000000000000000
 51
180.000000000000000
  0
ARC
  8
0
  6
CONTINUOUS
 62
256
 10
5.314232000000000
 20
173.900410999999990
 40
3.000000000000000
 50
270.000000000000000
 51
0.000000000000000
  0
LINE
  8
0
  6
CONTINUOUS
 62
256
 10
8.314232000000001
 20
173.900410999999990
 11
8.314232000000001
 21
175.400478999999990
  0
ARC
  8
0
  6
CONTINUOUS
 62
256
 10
-1.945131000000000
 20
167.900410999999990
 40
3.000000000000000
 50
90.000000000000000
 51
169.999999999999830
  0
ARC
  8
0
  6
CONTINUOUS
 62
256
 10
-103.972404000000000
 20
167.900410999999990
 40
3.000000000000008
 50
10.000000000000165
 51
90.000000000000000
  0
LINE
  8
0
  6
CONTINUOUS
 62
256
 10
-96.955073999999996
 20
146.379466000000010
 11
-101.017981000000010
 21
168.421355000000010
  0
LINE
  8
0
  6
CONTINUOUS
 62
256
 10
-8.962460999999999
 20
146.379466000000010
 11
-4.899554000000000
 21
168.421355000000010
  0
LINE
  8
0
  6
CONTINUOUS
 62
256
 10
47.532505999999998
 20
167.900478999999990
 11
30.532506000000001
 21
167.900478999999990
  0
LINE
  8
0
  6
CONTINUOUS
 62
256
 10
30.532506000000001
 20
286.900479000000020
 11
47.532505999999998
 21
286.900479000000020
  0
LINE
  8
0
  6
CONTINUOUS
 62
256
 10
-133.860722000000010
 20
181.348121999999990
 11
-133.249795000000010
 21
146.348121999999990
  0
LINE
  8
0
  6
CONTINUOUS
 62
256
 10
-113.958768000000010
 20
178.400478999999990
 11
-130.861178999999990
 21
178.400478999999990
  0
ARC
  8
0
  6
CONTINUOUS
 62
256
 10
-130.861178999999990
 20
181.400478999999990
 40
3.000000000000011
 50
181.000000000000140
 51
270.000000000000000
  0
LINE
  8
0
  6
CONTINUOUS
 62
256
 10
-110.958768000000010
 20
173.900410999999990
 11
-110.958768000000010
 21
175.400478999999990
  0
ARC
  8
0
  6
CONTINUOUS
 62
256
 10
-107.958768000000010
 20
173.900410999999990
 40
3.000000000000000
 50
180.000000000000000
 51
270.000000000000000
  0
ARC
  8
0
  6
CONTINUOUS
 62
256
 10
-113.958768000000010
 20
175.400478999999990
 40
3.000000000000000
 50
0.000000000000000
 51
90.000000000000000
  0
LINE
  8
0
  6
CONTINUOUS
 62
256
 10
27.532506000000001
 20
175.400478999999990
 11
27.532506000000001
 21
170.900478999999990
  0
ARC
  8
0
  6
CONTINUOUS
 62
256
 10
30.532506000000001
 20
170.900478999999990
 40
3.000000000000000
 50
180.000000000000000
 51
270.000000000000000
  0
ARC
  8
0
  6
CONTINUOUS
 62
256
 10
30.532506000000001
 20
283.900479000000020
 40
3.000000000000000
 50
90.000000000000000
 51
180.000000000000000
  0
LINE
  8
0
  6
CONTINUOUS
 62
256
 10
27.532506000000001
 20
272.400081000000000
 11
27.532506000000001
 21
283.900479000000020
  0
LINE
  8
0
  6
DASHDOT
 62
256
 10
-118.958768000000010
 20
313.422628999999970
 11
-118.958768000000010
 21
275.920343000000000
  0
LINE
  8
0
  6
DASHDOT
 62
256
 10
7.041232000000000
 20
313.422628999999970
 11
7.041232000000000
 21
275.654094999999980
  0
LINE
  8
0
  6
DASHDOT
 62
256
 10
-138.180868000000000
 20
296.400479000000020
 11
-101.214956000000000
 21
296.400479000000020
  0
CIRCLE
  8
0
  6
CONTINUOUS
 62
256
 10
-118.958768000000010
 20
296.400479000000020
 40
7.000000000000000
  0
CIRCLE
  8
0
  6
CONTINUOUS
 62
256
 10
-118.958768000000010
 20
158.400478999999990
 40
7.000000000000000
  0
CIRCLE
  8
0
  6
CONTINUOUS
 62
256
 10
7.041232000000000
 20
158.400478999999990
 40
7.000000000000001
  0
CIRCLE
  8
0
  6
CONTINUOUS
 62
256
 10
7.041232000000000
 20
296.400479000000020
 40
7.000000000000001
  0
LINE
  8
0
  6
CONTINUOUS
 62
256
 10
-131.838649000000000
 20
311.400479000000020
 11
19.421113999999999
 21
311.400479000000020
  0
LINE
  8
0
  6
CONTINUOUS
 62
256
 10
-130.250251999999990
 20
143.400478999999990
 11
-81.658835999999994
 21
143.400478999999990
  0
ARC
  8
0
  6
CONTINUOUS
 62
256
 10
-130.250251999999990
 20
146.400478999999990
 40
3.000000000000011
 50
181.000000000000140
 51
270.000000000000000
  0
LINE
  8
0
  6
CONTINUOUS
 62
256
 10
-135.458767999999990
 20
272.900081000000000
 11
-134.838191999999990
 21
308.452835999999990
  0
ARC
  8
0
  6
CONTINUOUS
 62
256
 10
-131.838649000000000
 20
308.400479000000020
 40
3.000000000000000
 50
90.000000000000000
 51
179.000000000000430
  0
ARC
  8
0
  6
CONTINUOUS
 62
256
 10
17.832716999999999
 20
146.400478999999990
 40
3.000000000000000
 50
270.000000000000000
 51
358.999999999999830
  0
LINE
  8
0
  6
CONTINUOUS
 62
256
 10
23.041232000000001
 20
272.900081000000000
 11
22.420656999999999
 21
308.452835999999990
  0
ARC
  8
0
  6
CONTINUOUS
 62
256
 10
19.421113999999999
 20
308.400479000000020
 40
3.000000000000000
 50
0.999999999999604
 51
90.000000000000000
  0
ARC
  8
0
  6
CONTINUOUS
 62
256
 10
24.532506000000001
 20
175.400478999999990
 40
3.000000000000000
 50
0.000000000000000
 51
90.000000000000000
  0
LINE
  8
0
  6
CONTINUOUS
 62
256
 10
25.032810000000001
 20
270.400081000000000
 11
25.532506000000001
 21
270.400081000000000
  0
ARC
  8
0
  6
CONTINUOUS
 62
256
 10
25.532506000000001
 20
272.400081000000000
 40
2.000000000000000
 50
270.000000000000000
 51
0.000000000000000
  0
ARC
  8
0
  6
CONTINUOUS
 62
256
 10
25.032810000000001
 20
272.400081000000000
 40
2.000000000000001
 50
178.999999999999860
 51
270.000000000000000
  0
LINE
  8
0
  6
CONTINUOUS
 62
256
 10
23.041232000000001
 20
272.900081000000000
 11
23.041232000000001
 21
272.434985999999980
  0
LINE
  8
0
  6
CONTINUOUS
 62
256
 10
-24.258699000000000
 20
143.400478999999990
 11
17.832716999999999
 21
143.400478999999990
  0
CIRCLE
  8
0
  6
DASHDOT
 62
256
 10
-118.958768000000010
 20
296.400479000000020
 40
11.500000000000000
  0
CIRCLE
  8
0
  6
DASHDOT
 62
256
 10
-118.958768000000010
 20
158.400478999999990
 40
11.500000000000000
  0
CIRCLE
  8
0
  6
DASHDOT
 62
256
 10
7.041232000000000
 20
158.400478999999990
 40
11.500000000000000
  0
CIRCLE
  8
0
  6
DASHDOT
 62
256
 10
7.041232000000000
 20
296.400479000000020
 40
11.500000000000000
  0
LINE
  8
0
  6
CONTINUOUS
 62
256
 10
-81.958768000000006
 20
143.700411000000000
 11
-81.658767999999995
 21
143.400410999999990
  0
ARC
  8
0
  6
CONTINUOUS
 62
256
 10
-94.000651000000005
 20
146.900410999999990
 40
3.000000000000008
 50
190.000000000000170
 51
236.442690000000060
  0
LINE
  8
0
  6
CONTINUOUS
 62
256
 10
-23.958767999999999
 20
143.700411000000000
 11
-24.258768000000000
 21
143.400410999999990
  0
ARC
  8
0
  6
CONTINUOUS
 62
256
 10
-11.916884000000000
 20
146.900410999999990
 40
3.000000000000001
 50
303.557309999999970
 51
349.999999999999830
  0
LINE
  8
0
  6
DASHDOT
 62
256
 10
-118.958768000000010
 20
180.071031000000000
 11
-118.958768000000010
 21
141.494488999999990
  0
LINE
  8
0
  6
DASHDOT
 62
256
 10
7.041232000000000
 20
180.071031000000000
 11
7.041232000000000
 21
141.280115000000000
  0
LINE
  8
0
  6
DASHDOT
 62
256
 10
-8.028124999999999
 20
296.400479000000020
 11
24.957927999999999
 21
296.400479000000020
  0
CIRCLE
  8
0
  6
DASHED
 62
256
 10
90.041231999999994
 20
-56.807448000000001
 40
6.000000000000000
  0
ARC
  8
0
  6
DASHED
 62
256
 10
90.041231999999994
 20
-56.807448000000001
 40
7.000000000000000
 50
0.000000000000000
 51
180.000000000000000
  0
LINE
  8
0
  6
DASHED
 62
256
 10
97.041231999999994
 20
-71.307447999999994
 11
97.041231999999994
 21
-56.807448000000001
  0
LINE
  8
0
  6
DASHED
 62
256
 10
83.041231999999994
 20
-71.307447999999994
 11
83.041231999999994
 21
-56.807448000000001
  0
LINE
  8
0
  6
DASHDOT
 62
256
 10
90.041231999999994
 20
-74.091299000000006
 11
90.041231999999994
 21
-46.111950000000000
  0
LINE
  8
0
  6
DASHDOT
 62
256
 10
80.732898000000006
 20
-56.807448000000001
 11
99.921938999999995
 21
-56.807448000000001
  0
ARC
  8
0
  6
DASHED
 62
256
 10
140.041232000000010
 20
-56.807448000000001
 40
7.000000000000000
 50
0.000000000000000
 51
180.000000000000000
  0
LINE
  8
0
  6
DASHED
 62
256
 10
147.041232000000010
 20
-71.307447999999994
 11
147.041232000000010
 21
-56.807448000000001
  0
LINE
  8
0
  6
DASHED
 62
256
 10
133.041232000000010
 20
-71.307447999999994
 11
133.041232000000010
 21
-56.807448000000001
  0
LINE
  8
0
  6
DASHDOT
 62
256
 10
140.041232000000010
 20
-74.091299000000006
 11
140.041232000000010
 21
-46.111950000000000
  0
LINE
  8
0
  6
DASHDOT
 62
256
 10
129.630934000000000
 20
-56.807448000000001
 11
150.005114999999990
 21
-56.807448000000001
  0
TEXT
  8
0
  6
CONTINUOUS
 62
256
 10
534.768981933593750
 20
-282.593994140625000
 40
3.299999952316284
  1
1/1
 50
0.000002504478167
 41
0.850909097352304
  7
STANDARD1
  0
TEXT
  8
0
  6
CONTINUOUS
 62
256
 10
532.351013183593750
 20
-282.593994140625000
 40
3.299999952316284
  1
 
 50
0.000002504478167
 41
1.733333298293026
  7
STANDARD1
  0
TEXT
  8
0
  6
CONTINUOUS
 62
256
 10
519.300354003906250
 20
-282.593994140625000
 40
3.299999952316284
  1
SCALE
 50
0.000002504478167
 41
0.821052645401140
  7
STANDARD1
  0
TEXT
  8
0
  6
CONTINUOUS
 62
256
 10
516.049011230468750
 20
-282.593994140625000
 40
3.299999952316284
  1
 
 50
0.000002504478167
 41
1.733333298293026
  7
STANDARD1
  0
TEXT
  8
0
  6
CONTINUOUS
 62
256
 10
530.903198242187500
 20
-277.294006347656250
 40
3.299999952316284
  1
1/240
 50
0.000002504478167
 41
0.821052645401140
  7
STANDARD1
  0
TEXT
  8
0
  6
CONTINUOUS
 62
256
 10
527.121154785156250
 20
-277.294006347656250
 40
3.299999952316284
  1
ü`
 50
0.000002504478167
 41
1.176000019651471
  7
STANDARD1
  0
TEXT
  8
0
  6
CONTINUOUS
 62
256
 10
516.049011230468750
 20
-277.294006347656250
 40
3.299999952316284
  1
1/80
 50
0.000002504478167
 41
0.832000075658163
  7
STANDARD1
  0
TEXT
  8
0
  6
CONTINUOUS
 62
256
 10
519.284912109375000
 20
-271.993988037109370
 40
3.299999952316284
  1
GM-SHY-RL
 50
0.000002504478167
 41
0.802285735636046
  7
STANDARD1
  0
TEXT
  8
0
  6
CONTINUOUS
 62
256
 10
516.049011230468750
 20
-271.993988037109370
 40
3.299999952316284
  1
 
 50
0.000002504478167
 41
1.733333298293026
  7
STANDARD1
  0
TEXT
  8
0
  6
CONTINUOUS
 62
256
 10
521.874389648437500
 20
-266.694000244140620
 40
3.299999952316284
  1
0.4kW
 50
0.000002504478167
 41
0.821052645401140
  7
STANDARD1
  0
TEXT
  8
0
  6
CONTINUOUS
 62
256
 10
516.049011230468750
 20
-266.694000244140620
 40
3.299999952316284
  1
  
 50
0.000002504478167
 41
1.485714400175845
  7
STANDARD1
  0
TEXT
  8
0
  6
CONTINUOUS
 62
256
 10
521.868469238281250
 20
-261.393981933593750
 40
3.299999952316284
  1
SHY045
 50
0.000002504478167
 41
0.813913121261144
  7
STANDARD1
  0
TEXT
  8
0
  6
CONTINUOUS
 62
256
 10
516.049011230468750
 20
-261.393981933593750
 40
3.299999952316284
  1
  
 50
0.000002504478167
 41
1.485714400175845
  7
STANDARD1
  0
ENDSEC
  0
EOF
