  0
SECTION
  2
HEADER
  9
$TEXTSIZE
 40
2.5
  9
$ACADVER
  1
AC1009
  9
$DIMASZ
 40
3.863703297614046
  9
$DIMEXE
 40
2.000000000000000
  9
$DIMEXO
 40
1.000000000000000
  9
$DIMLFAC
 40
1.000000000000000
  9
$DIMSCALE
 40
1.000000000000000
  9
$DIMTAD
 70
1
  9
$DIMTFAC
 40
0.625000000000000
  9
$DIMTXT
 40
3.200000047683716
  9
$LUPREC
 70
3
  9
$REGENMODE
 70
1
  9
$TEXTSTYLE
  7
STANDARD1
  0
ENDSEC
  0
SECTION
  2
TABLES
  0
TABLE
  2
LTYPE
 70
4
  0
LTYPE
  2
CONTINUOUS
 70
64
  3
Solid line
 72
65
 73
0
 40
0.0
  0
LTYPE
  2
DASHED
 70
64
  3
-- -- -- -- -- -- -- -- -- -- -- -- -- -- --
 72
65
 73
2
 40
0.75
 49
0.5
 49
-0.25
  0
LTYPE
  2
DASHDOT
 70
64
  3
__ . __ . __ . __ . __ . __ . __ . __ . __ . __
 72
65
 73
4
 40
1.0
 49
0.5
 49
-0.25
 49
0.0
 49
-0.25
  0
LTYPE
  2
DIVIDE
 70
64
  3
__ . . __ . . __ . . __ . . __ . . __ . . __
 72
65
 73
6
 40
1.25
 49
0.5
 49
-0.25
 49
0.0
 49
-0.25
 49
0.0
 49
-0.25
  0
ENDTAB
  0
TABLE
  2
LAYER
 70
2
  0
LAYER
  2
0
 70
64
 62
53
  6
CONTINUOUS
  0
LAYER
  2
1
 70
64
 62
102
  6
CONTINUOUS
  0
ENDTAB
  0
TABLE
  2
STYLE
 70
4
  0
STYLE
  2
STANDARD1
 70
64
 40
0.0
 41
1.0
 50
0.0
 71
0
 42
3.200000047683716
  3
MONOTXT
  4
BIGFONT
  0
STYLE
  2
STANDARD2
 70
68
 40
0.0
 41
1.0
 50
0.0
 71
0
 42
3.200000047683716
  3
MONOTXT
  4
BIGFONT
  0
STYLE
  2
STANDARD3
 70
64
 40
0.0
 41
1.0
 50
0.0
 71
0
 42
3.200000047683716
  3
MONOTXT
  4

  0
STYLE
  2
STANDARD4
 70
68
 40
0.0
 41
1.0
 50
0.0
 71
0
 42
3.200000047683716
  3
MONOTXT
  4

  0
ENDTAB
  0
TABLE
  2
VIEW
 70
0
  0
ENDTAB
  0
ENDSEC
  0
SECTION
  2
BLOCKS
  0
BLOCK
  8
0
  2
ZU_SYM_1
 70
64
 10
0.000000000000000
 20
0.000000000000000
  0
CIRCLE
  8
0
  6
CONTINUOUS
 62
256
 10
0.000000000000000
 20
0.000000000000000
 40
5.000000000000000
  0
POINT
  8
0
  6
CONTINUOUS
 62
256
 10
0.000000000000000
 20
0.000000000000000
  0
LINE
  8
0
  6
CONTINUOUS
 62
256
 10
-2.499998000000000
 20
-1.443372000000000
 11
-2.499999000000000
 21
1.443378000000000
  0
LINE
  8
0
  6
CONTINUOUS
 62
256
 10
2.499998000000000
 20
1.443372000000000
 11
2.499999000000000
 21
-1.443374000000000
  0
LINE
  8
0
  6
CONTINUOUS
 62
256
 10
0.000005000000000
 20
2.886749000000000
 11
2.499999000000000
 21
1.443372000000000
  0
LINE
  8
0
  6
CONTINUOUS
 62
256
 10
-0.000006000000000
 20
-2.886747000000000
 11
-2.499998000000000
 21
-1.443372000000000
  0
LINE
  8
0
  6
CONTINUOUS
 62
256
 10
0.000005000000000
 20
2.886748000000000
 11
-2.500000000000000
 21
1.443377000000000
  0
LINE
  8
0
  6
CONTINUOUS
 62
256
 10
2.499999000000000
 20
-1.443374000000000
 11
-0.000005000000000
 21
-2.886748000000000
  0
ENDBLK
  8
0
  0
BLOCK
  8
0
  2
ZU_SYM_2
 70
64
 10
0.000000000000000
 20
0.000000000000000
  0
CIRCLE
  8
0
  6
CONTINUOUS
 62
256
 10
0.000000000000000
 20
0.000000000000000
 40
5.000000000000000
  0
POINT
  8
0
  6
CONTINUOUS
 62
256
 10
0.000000000000000
 20
0.000000000000000
  0
LINE
  8
0
  6
CONTINUOUS
 62
256
 10
-2.499998000000000
 20
-1.443372000000000
 11
-2.499999000000000
 21
1.443378000000000
  0
LINE
  8
0
  6
CONTINUOUS
 62
256
 10
2.499998000000000
 20
1.443372000000000
 11
2.499999000000000
 21
-1.443374000000000
  0
LINE
  8
0
  6
CONTINUOUS
 62
256
 10
0.000005000000000
 20
2.886749000000000
 11
2.499999000000000
 21
1.443372000000000
  0
LINE
  8
0
  6
CONTINUOUS
 62
256
 10
-0.000006000000000
 20
-2.886747000000000
 11
-2.499998000000000
 21
-1.443372000000000
  0
LINE
  8
0
  6
CONTINUOUS
 62
256
 10
0.000005000000000
 20
2.886748000000000
 11
-2.500000000000000
 21
1.443377000000000
  0
LINE
  8
0
  6
CONTINUOUS
 62
256
 10
2.499999000000000
 20
-1.443374000000000
 11
-0.000005000000000
 21
-2.886748000000000
  0
ENDBLK
  8
0
  0
BLOCK
  8
0
  2
ZU_SYM_3
 70
64
 10
0.000000000000000
 20
0.000000000000000
  0
CIRCLE
  8
0
  6
CONTINUOUS
 62
256
 10
0.000000000000000
 20
0.000000000000000
 40
5.000000000000000
  0
POINT
  8
0
  6
CONTINUOUS
 62
256
 10
0.000000000000000
 20
0.000000000000000
  0
LINE
  8
0
  6
CONTINUOUS
 62
256
 10
-2.499998000000000
 20
-1.443372000000000
 11
-2.499999000000000
 21
1.443378000000000
  0
LINE
  8
0
  6
CONTINUOUS
 62
256
 10
2.499998000000000
 20
1.443372000000000
 11
2.499999000000000
 21
-1.443374000000000
  0
LINE
  8
0
  6
CONTINUOUS
 62
256
 10
0.000005000000000
 20
2.886749000000000
 11
2.499999000000000
 21
1.443372000000000
  0
LINE
  8
0
  6
CONTINUOUS
 62
256
 10
-0.000006000000000
 20
-2.886747000000000
 11
-2.499998000000000
 21
-1.443372000000000
  0
LINE
  8
0
  6
CONTINUOUS
 62
256
 10
0.000005000000000
 20
2.886748000000000
 11
-2.500000000000000
 21
1.443377000000000
  0
LINE
  8
0
  6
CONTINUOUS
 62
256
 10
2.499999000000000
 20
-1.443374000000000
 11
-0.000005000000000
 21
-2.886748000000000
  0
ENDBLK
  8
0
  0
BLOCK
  8
0
  2
ZU_SYM_4
 70
64
 10
0.000000000000000
 20
0.000000000000000
  0
CIRCLE
  8
0
  6
CONTINUOUS
 62
256
 10
0.000000000000000
 20
0.000000000000000
 40
5.000000000000000
  0
POINT
  8
0
  6
CONTINUOUS
 62
256
 10
0.000000000000000
 20
0.000000000000000
  0
LINE
  8
0
  6
CONTINUOUS
 62
256
 10
-2.499998000000000
 20
-1.443372000000000
 11
-2.499999000000000
 21
1.443378000000000
  0
LINE
  8
0
  6
CONTINUOUS
 62
256
 10
2.499998000000000
 20
1.443372000000000
 11
2.499999000000000
 21
-1.443374000000000
  0
LINE
  8
0
  6
CONTINUOUS
 62
256
 10
0.000005000000000
 20
2.886749000000000
 11
2.499999000000000
 21
1.443372000000000
  0
LINE
  8
0
  6
CONTINUOUS
 62
256
 10
-0.000006000000000
 20
-2.886747000000000
 11
-2.499998000000000
 21
-1.443372000000000
  0
LINE
  8
0
  6
CONTINUOUS
 62
256
 10
0.000005000000000
 20
2.886748000000000
 11
-2.500000000000000
 21
1.443377000000000
  0
LINE
  8
0
  6
CONTINUOUS
 62
256
 10
2.499999000000000
 20
-1.443374000000000
 11
-0.000005000000000
 21
-2.886748000000000
  0
ENDBLK
  8
0
  0
ENDSEC
  0
SECTION
  2
ENTITIES
  0
TEXT
  8
0
  6
CONTINUOUS
 62
256
 10
-70.375488281250000
 20
-13.156250000000000
 40
2.799999952316284
  1
ü@
 50
0.000002504478167
 41
0.996000017370497
  7
STANDARD1
  0
TEXT
  8
0
  6
CONTINUOUS
 62
256
 10
1.624511957168579
 20
-253.406250000000000
 40
2.799999952316284
  1
ü@
 50
0.000002504478167
 41
0.996000017370497
  7
STANDARD1
  0
CIRCLE
  8
0
  6
CONTINUOUS
 62
256
 10
27.982944000000000
 20
-42.912179000000002
 40
5.000000000000004
  0
CIRCLE
  8
0
  6
CONTINUOUS
 62
256
 10
27.982944000000000
 20
-42.912179000000002
 40
4.187999999999999
  0
LINE
  8
0
  6
DASHDOT
 62
256
 10
509.579904000000000
 20
-164.912179000000010
 11
408.496690000000000
 21
-164.912179000000010
  0
LINE
  8
0
  6
DASHDOT
 62
256
 10
509.579904000000000
 20
-42.912179000000002
 11
408.496690000000000
 21
-42.912179000000002
  0
ARC
  8
0
  6
CONTINUOUS
 62
256
 10
413.711873000000030
 20
-145.325591000000000
 40
6.599999999999971
 50
185.743681999999920
 51
224.999999999999830
  0
ARC
  8
0
  6
CONTINUOUS
 62
256
 10
805.733819000000040
 20
-105.894724000000000
 40
400.600000000000080
 50
181.003722000000010
 51
185.743681999999980
  0
LINE
  8
0
  6
CONTINUOUS
 62
256
 10
410.133819000000020
 20
-151.081346999999990
 11
409.044967999999980
 21
-149.992494999999990
  0
ARC
  8
0
  6
CONTINUOUS
 62
256
 10
459.133819000000020
 20
102.605276000000000
 40
300.000000000000000
 50
263.967951000000030
 51
276.032048999999970
  0
ARC
  8
0
  6
CONTINUOUS
 62
256
 10
490.133819000000020
 20
-190.761389000000010
 40
5.000000000000002
 50
276.032049000000030
 51
0.000000000000000
  0
ARC
  8
0
  6
CONTINUOUS
 62
256
 10
428.133819000000020
 20
-190.761389000000010
 40
5.000000000000000
 50
180.000000000000000
 51
263.967950999999970
  0
LINE
  8
0
  6
CONTINUOUS
 62
256
 10
456.633819000000020
 20
-197.894724000000000
 11
456.633819000000020
 21
-197.384307000000010
  0
LINE
  8
0
  6
CONTINUOUS
 62
256
 10
456.633819000000020
 20
-197.894724000000000
 11
461.633819000000020
 21
-197.894724000000000
  0
LINE
  8
0
  6
CONTINUOUS
 62
256
 10
461.633819000000020
 20
-197.894724000000000
 11
461.633819000000020
 21
-197.384307000000010
  0
LINE
  8
0
  6
CONTINUOUS
 62
256
 10
423.133819000000020
 20
-177.885766999999990
 11
423.133819000000020
 21
-190.761389000000010
  0
LINE
  8
0
  6
CONTINUOUS
 62
256
 10
495.133819000000020
 20
-176.612464999999990
 11
495.133819000000020
 21
-190.761389000000010
  0
LINE
  8
0
  6
CONTINUOUS
 62
256
 10
508.133819000000020
 20
-151.081346999999990
 11
509.222670999999990
 21
-149.992494999999990
  0
ARC
  8
0
  6
CONTINUOUS
 62
256
 10
504.555766000000010
 20
-145.325591000000000
 40
6.600000000000017
 50
315.000000000000170
 51
354.256318000000020
  0
ARC
  8
0
  6
CONTINUOUS
 62
256
 10
112.533818999999990
 20
-105.894724000000000
 40
400.600000000000020
 50
354.256318000000020
 51
358.996278000000020
  0
LINE
  8
0
  6
CONTINUOUS
 62
256
 10
-147.517056000000000
 20
-52.394723999999997
 11
-231.517056000000000
 21
-52.394723999999997
  0
LINE
  8
0
  6
CONTINUOUS
 62
256
 10
-231.517056000000000
 20
-91.894723999999997
 11
-147.517056000000000
 21
-91.894723999999997
  0
LINE
  8
0
  6
CONTINUOUS
 62
256
 10
-231.517056000000000
 20
-86.266689000000000
 11
-147.517056000000000
 21
-86.266689000000000
  0
LINE
  8
0
  6
CONTINUOUS
 62
256
 10
-231.517056000000000
 20
-87.508609000000007
 11
-147.517056000000000
 21
-87.508609000000007
  0
LINE
  8
0
  6
CONTINUOUS
 62
256
 10
-231.517056000000000
 20
-83.056483999999998
 11
-147.517056000000000
 21
-83.056483999999998
  0
LINE
  8
0
  6
CONTINUOUS
 62
256
 10
-231.517056000000000
 20
-81.710082000000000
 11
-147.517056000000000
 21
-81.710082000000000
  0
LINE
  8
0
  6
CONTINUOUS
 62
256
 10
-231.517056000000000
 20
-78.617350999999999
 11
-147.517056000000000
 21
-78.617350999999999
  0
LINE
  8
0
  6
CONTINUOUS
 62
256
 10
-231.517056000000000
 20
-77.138328000000001
 11
-147.517056000000000
 21
-77.138328000000001
  0
LINE
  8
0
  6
CONTINUOUS
 62
256
 10
-231.517056000000000
 20
-74.180333000000005
 11
-147.517056000000000
 21
-74.180333000000005
  0
LINE
  8
0
  6
CONTINUOUS
 62
256
 10
-231.517056000000000
 20
-72.591122999999996
 11
-147.517056000000000
 21
-72.591122999999996
  0
LINE
  8
0
  6
CONTINUOUS
 62
256
 10
-231.517056000000000
 20
-64.852810000000005
 11
-147.517056000000000
 21
-64.852810000000005
  0
LINE
  8
0
  6
CONTINUOUS
 62
256
 10
-231.517056000000000
 20
-59.761640999999997
 11
-147.517056000000000
 21
-59.761640999999997
  0
LINE
  8
0
  6
CONTINUOUS
 62
256
 10
-231.517056000000000
 20
-55.394723999999997
 11
-147.517056000000000
 21
-55.394723999999997
  0
LINE
  8
0
  6
CONTINUOUS
 62
256
 10
-231.517056000000000
 20
-54.894723999999997
 11
-147.517056000000000
 21
-54.894723999999997
  0
LINE
  8
0
  6
CONTINUOUS
 62
256
 10
-147.517056000000000
 20
-52.394723999999997
 11
-147.517056000000000
 21
-105.894724000000000
  0
LINE
  8
0
  6
CONTINUOUS
 62
256
 10
-231.517056000000000
 20
-139.198325000000010
 11
-147.517056000000000
 21
-139.198325000000010
  0
LINE
  8
0
  6
CONTINUOUS
 62
256
 10
-231.517056000000000
 20
-137.609115000000000
 11
-147.517056000000000
 21
-137.609115000000000
  0
LINE
  8
0
  6
CONTINUOUS
 62
256
 10
-231.517056000000000
 20
-134.651118999999990
 11
-147.517056000000000
 21
-134.651118999999990
  0
LINE
  8
0
  6
CONTINUOUS
 62
256
 10
-231.517056000000000
 20
-133.172096000000010
 11
-147.517056000000000
 21
-133.172096000000010
  0
LINE
  8
0
  6
CONTINUOUS
 62
256
 10
-231.517056000000000
 20
-130.079365000000000
 11
-147.517056000000000
 21
-130.079365000000000
  0
LINE
  8
0
  6
CONTINUOUS
 62
256
 10
-231.517056000000000
 20
-128.732963000000010
 11
-147.517056000000000
 21
-128.732963000000010
  0
LINE
  8
0
  6
CONTINUOUS
 62
256
 10
-231.517056000000000
 20
-125.522758000000000
 11
-147.517056000000000
 21
-125.522758000000000
  0
LINE
  8
0
  6
CONTINUOUS
 62
256
 10
-231.517056000000000
 20
-124.280839000000000
 11
-147.517056000000000
 21
-124.280839000000000
  0
LINE
  8
0
  6
CONTINUOUS
 62
256
 10
-231.517056000000000
 20
-119.894724000000000
 11
-147.517056000000000
 21
-119.894724000000000
  0
LINE
  8
0
  6
DASHDOT
 62
256
 10
-106.398991000000000
 20
-105.894724000000000
 11
-337.835019999999990
 21
-105.894724000000000
  0
LINE
  8
0
  6
CONTINUOUS
 62
256
 10
-147.517056000000000
 20
-159.394724000000000
 11
-147.517056000000000
 21
-105.894724000000000
  0
LINE
  8
0
  6
CONTINUOUS
 62
256
 10
-231.517056000000000
 20
-46.894723999999997
 11
-309.021901000000010
 21
-46.894723999999997
  0
LINE
  8
0
  6
CONTINUOUS
 62
256
 10
-320.837575000000020
 20
-50.620192000000003
 11
-328.408353999999970
 21
-55.921308000000003
  0
LINE
  8
0
  6
CONTINUOUS
 62
256
 10
-329.517056000000030
 20
-58.051104000000002
 11
-329.517056000000030
 21
-105.894724000000000
  0
ARC
  8
0
  6
CONTINUOUS
 62
256
 10
-326.917056000000000
 20
-58.051104000000002
 40
2.600000000000001
 50
125.000000000000110
 51
180.000000000000000
  0
ARC
  8
0
  6
CONTINUOUS
 62
256
 10
-309.021901000000010
 20
-67.494724000000005
 40
20.600000000000001
 50
90.000000000000000
 51
124.999999999999990
  0
LINE
  8
0
  6
CONTINUOUS
 62
256
 10
-231.517056000000000
 20
-46.894723999999997
 11
-231.517056000000000
 21
-105.894724000000000
  0
LINE
  8
0
  6
CONTINUOUS
 62
256
 10
-242.517056000000000
 20
-56.750802999999998
 11
-244.517056000000000
 21
-58.403444000000000
  0
LINE
  8
0
  6
CONTINUOUS
 62
256
 10
-240.517056000000000
 20
-55.575017000000003
 11
-242.517056000000000
 21
-56.750802999999998
  0
LINE
  8
0
  6
CONTINUOUS
 62
256
 10
-242.517056000000000
 20
-56.750802999999998
 11
-240.517056000000000
 21
-58.403444000000000
  0
LINE
  8
0
  6
CONTINUOUS
 62
256
 10
-244.517056000000000
 20
-55.575017000000003
 11
-242.517056000000000
 21
-56.750802999999998
  0
POLYLINE
  8
0
  6
CONTINUOUS
 62
256
 66
1
 70
1
  0
VERTEX
  8
0
  6
CONTINUOUS
 62
256
 10
-237.817056000000010
 20
-58.567393000000003
  0
VERTEX
  8
0
  6
CONTINUOUS
 62
256
 10
-237.907365182104830
 20
-57.864436489441836
  0
VERTEX
  8
0
  6
CONTINUOUS
 62
256
 10
-238.174822197196960
 20
-57.188494203361863
  0
VERTEX
  8
0
  6
CONTINUOUS
 62
256
 10
-238.609148822178040
 20
-56.565542224741343
  0
VERTEX
  8
0
  6
CONTINUOUS
 62
256
 10
-239.193654128423220
 20
-56.019520248763165
  0
VERTEX
  8
0
  6
CONTINUOUS
 62
256
 10
-239.905875904807890
 20
-55.571411593751513
  0
VERTEX
  8
0
  6
CONTINUOUS
 62
256
 10
-240.718443867884080
 20
-55.238436824016269
  0
VERTEX
  8
0
  6
CONTINUOUS
 62
256
 10
-241.600131486524190
 20
-55.033391973223942
  0
VERTEX
  8
0
  6
CONTINUOUS
 62
256
 10
-242.517056000000000
 20
-54.964156800000012
  0
VERTEX
  8
0
  6
CONTINUOUS
 62
256
 10
-243.433980513475800
 20
-55.033391973223942
  0
VERTEX
  8
0
  6
CONTINUOUS
 62
256
 10
-244.315668132115920
 20
-55.238436824016269
  0
VERTEX
  8
0
  6
CONTINUOUS
 62
256
 10
-245.128236095192110
 20
-55.571411593751513
  0
VERTEX
  8
0
  6
CONTINUOUS
 62
256
 10
-245.840457871576770
 20
-56.019520248763165
  0
VERTEX
  8
0
  6
CONTINUOUS
 62
256
 10
-246.424963177821950
 20
-56.565542224741343
  0
VERTEX
  8
0
  6
CONTINUOUS
 62
256
 10
-246.859289802803030
 20
-57.188494203361863
  0
VERTEX
  8
0
  6
CONTINUOUS
 62
256
 10
-247.126746817895170
 20
-57.864436489441836
  0
VERTEX
  8
0
  6
CONTINUOUS
 62
256
 10
-247.217055999999990
 20
-58.567393000000003
  0
VERTEX
  8
0
  6
CONTINUOUS
 62
256
 10
-247.126746817895170
 20
-59.270349510558169
  0
VERTEX
  8
0
  6
CONTINUOUS
 62
256
 10
-246.859289802803030
 20
-59.946291796638143
  0
VERTEX
  8
0
  6
CONTINUOUS
 62
256
 10
-246.424963177821950
 20
-60.569243775258663
  0
VERTEX
  8
0
  6
CONTINUOUS
 62
256
 10
-245.840457871576770
 20
-61.115265751236841
  0
VERTEX
  8
0
  6
CONTINUOUS
 62
256
 10
-245.128236095192110
 20
-61.563374406248492
  0
VERTEX
  8
0
  6
CONTINUOUS
 62
256
 10
-244.315668132115920
 20
-61.896349175983737
  0
VERTEX
  8
0
  6
CONTINUOUS
 62
256
 10
-243.433980513475800
 20
-62.101394026776063
  0
VERTEX
  8
0
  6
CONTINUOUS
 62
256
 10
-242.517056000000000
 20
-62.170629199999993
  0
VERTEX
  8
0
  6
CONTINUOUS
 62
256
 10
-241.600131486524190
 20
-62.101394026776063
  0
VERTEX
  8
0
  6
CONTINUOUS
 62
256
 10
-240.718443867884080
 20
-61.896349175983737
  0
VERTEX
  8
0
  6
CONTINUOUS
 62
256
 10
-239.905875904807890
 20
-61.563374406248492
  0
VERTEX
  8
0
  6
CONTINUOUS
 62
256
 10
-239.193654128423250
 20
-61.115265751236841
  0
VERTEX
  8
0
  6
CONTINUOUS
 62
256
 10
-238.609148822178040
 20
-60.569243775258663
  0
VERTEX
  8
0
  6
CONTINUOUS
 62
256
 10
-238.174822197196960
 20
-59.946291796638143
  0
VERTEX
  8
0
  6
CONTINUOUS
 62
256
 10
-237.907365182104830
 20
-59.270349510558169
  0
SEQEND
  8
0
  6
CONTINUOUS
 62
256
  0
LINE
  8
0
  6
CONTINUOUS
 62
256
 10
-239.317056000000010
 20
-163.394724000000000
 11
-149.317056000000010
 21
-163.394724000000000
  0
LINE
  8
0
  6
CONTINUOUS
 62
256
 10
-239.317056000000010
 20
-160.343054000000000
 11
-239.317056000000010
 21
-196.394724000000000
  0
LINE
  8
0
  6
CONTINUOUS
 62
256
 10
-241.517056000000000
 20
-164.894724000000000
 11
-241.517056000000000
 21
-163.234420000000000
  0
LINE
  8
0
  6
CONTINUOUS
 62
256
 10
-241.517056000000000
 20
-164.894724000000000
 11
-309.021901000000010
 21
-164.894724000000000
  0
ARC
  8
0
  6
CONTINUOUS
 62
256
 10
-238.517056000000000
 20
-163.234420000000000
 40
3.000000000000000
 50
90.000000000000000
 51
180.000000000000000
  0
LINE
  8
0
  6
CONTINUOUS
 62
256
 10
-238.517056000000000
 20
-160.234420000000000
 11
-234.517056000000000
 21
-160.234420000000000
  0
ARC
  8
0
  6
CONTINUOUS
 62
256
 10
-234.517056000000000
 20
-157.234420000000000
 40
3.000000000000000
 50
270.000000000000000
 51
0.000000000000000
  0
LINE
  8
0
  6
CONTINUOUS
 62
256
 10
-231.517056000000000
 20
-157.234420000000000
 11
-231.517056000000000
 21
-105.894724000000000
  0
LINE
  8
0
  6
CONTINUOUS
 62
256
 10
-242.517056000000000
 20
-155.038645000000000
 11
-244.517056000000000
 21
-153.386002999999990
  0
LINE
  8
0
  6
CONTINUOUS
 62
256
 10
-240.517056000000000
 20
-156.214429999999990
 11
-242.517056000000000
 21
-155.038645000000000
  0
LINE
  8
0
  6
CONTINUOUS
 62
256
 10
-242.517056000000000
 20
-155.038645000000000
 11
-240.517056000000000
 21
-153.386002999999990
  0
LINE
  8
0
  6
CONTINUOUS
 62
256
 10
-244.517056000000000
 20
-156.214429999999990
 11
-242.517056000000000
 21
-155.038645000000000
  0
POLYLINE
  8
0
  6
CONTINUOUS
 62
256
 66
1
 70
1
  0
VERTEX
  8
0
  6
CONTINUOUS
 62
256
 10
-237.817056000000010
 20
-153.222055000000010
  0
VERTEX
  8
0
  6
CONTINUOUS
 62
256
 10
-237.907365182104830
 20
-152.519098489441830
  0
VERTEX
  8
0
  6
CONTINUOUS
 62
256
 10
-238.174822197196960
 20
-151.843156203361870
  0
VERTEX
  8
0
  6
CONTINUOUS
 62
256
 10
-238.609148822178040
 20
-151.220204224741340
  0
VERTEX
  8
0
  6
CONTINUOUS
 62
256
 10
-239.193654128423220
 20
-150.674182248763170
  0
VERTEX
  8
0
  6
CONTINUOUS
 62
256
 10
-239.905875904807890
 20
-150.226073593751520
  0
VERTEX
  8
0
  6
CONTINUOUS
 62
256
 10
-240.718443867884080
 20
-149.893098824016280
  0
VERTEX
  8
0
  6
CONTINUOUS
 62
256
 10
-241.600131486524190
 20
-149.688053973223930
  0
VERTEX
  8
0
  6
CONTINUOUS
 62
256
 10
-242.517056000000000
 20
-149.618818800000010
  0
VERTEX
  8
0
  6
CONTINUOUS
 62
256
 10
-243.433980513475800
 20
-149.688053973223930
  0
VERTEX
  8
0
  6
CONTINUOUS
 62
256
 10
-244.315668132115920
 20
-149.893098824016280
  0
VERTEX
  8
0
  6
CONTINUOUS
 62
256
 10
-245.128236095192110
 20
-150.226073593751520
  0
VERTEX
  8
0
  6
CONTINUOUS
 62
256
 10
-245.840457871576770
 20
-150.674182248763170
  0
VERTEX
  8
0
  6
CONTINUOUS
 62
256
 10
-246.424963177821950
 20
-151.220204224741340
  0
VERTEX
  8
0
  6
CONTINUOUS
 62
256
 10
-246.859289802803030
 20
-151.843156203361870
  0
VERTEX
  8
0
  6
CONTINUOUS
 62
256
 10
-247.126746817895170
 20
-152.519098489441830
  0
VERTEX
  8
0
  6
CONTINUOUS
 62
256
 10
-247.217055999999990
 20
-153.222055000000010
  0
VERTEX
  8
0
  6
CONTINUOUS
 62
256
 10
-247.126746817895170
 20
-153.925011510558190
  0
VERTEX
  8
0
  6
CONTINUOUS
 62
256
 10
-246.859289802803030
 20
-154.600953796638150
  0
VERTEX
  8
0
  6
CONTINUOUS
 62
256
 10
-246.424963177821950
 20
-155.223905775258690
  0
VERTEX
  8
0
  6
CONTINUOUS
 62
256
 10
-245.840457871576770
 20
-155.769927751236850
  0
VERTEX
  8
0
  6
CONTINUOUS
 62
256
 10
-245.128236095192110
 20
-156.218036406248500
  0
VERTEX
  8
0
  6
CONTINUOUS
 62
256
 10
-244.315668132115920
 20
-156.551011175983750
  0
VERTEX
  8
0
  6
CONTINUOUS
 62
256
 10
-243.433980513475800
 20
-156.756056026776060
  0
VERTEX
  8
0
  6
CONTINUOUS
 62
256
 10
-242.517056000000000
 20
-156.825291200000010
  0
VERTEX
  8
0
  6
CONTINUOUS
 62
256
 10
-241.600131486524190
 20
-156.756056026776060
  0
VERTEX
  8
0
  6
CONTINUOUS
 62
256
 10
-240.718443867884080
 20
-156.551011175983750
  0
VERTEX
  8
0
  6
CONTINUOUS
 62
256
 10
-239.905875904807890
 20
-156.218036406248500
  0
VERTEX
  8
0
  6
CONTINUOUS
 62
256
 10
-239.193654128423250
 20
-155.769927751236850
  0
VERTEX
  8
0
  6
CONTINUOUS
 62
256
 10
-238.609148822178040
 20
-155.223905775258690
  0
VERTEX
  8
0
  6
CONTINUOUS
 62
256
 10
-238.174822197196960
 20
-154.600953796638150
  0
VERTEX
  8
0
  6
CONTINUOUS
 62
256
 10
-237.907365182104830
 20
-153.925011510558190
  0
SEQEND
  8
0
  6
CONTINUOUS
 62
256
  0
LINE
  8
0
  6
CONTINUOUS
 62
256
 10
-149.317056000000010
 20
-158.394724000000000
 11
-231.517056000000000
 21
-158.394724000000000
  0
LINE
  8
0
  6
CONTINUOUS
 62
256
 10
-232.317056000000010
 20
-197.394724000000000
 11
-232.317056000000010
 21
-197.894724000000000
  0
LINE
  8
0
  6
CONTINUOUS
 62
256
 10
-224.317056000000010
 20
-197.394724000000000
 11
-224.317056000000010
 21
-197.894724000000000
  0
LINE
  8
0
  6
CONTINUOUS
 62
256
 10
-156.317056000000010
 20
-197.394724000000000
 11
-156.317056000000010
 21
-197.894724000000000
  0
LINE
  8
0
  6
CONTINUOUS
 62
256
 10
-164.317056000000010
 20
-197.394724000000000
 11
-164.317056000000010
 21
-197.894724000000000
  0
LINE
  8
0
  6
CONTINUOUS
 62
256
 10
-164.317056000000010
 20
-197.894724000000000
 11
-156.317056000000010
 21
-197.894724000000000
  0
LINE
  8
0
  6
CONTINUOUS
 62
256
 10
-232.317056000000010
 20
-197.894724000000000
 11
-224.317056000000010
 21
-197.894724000000000
  0
ARC
  8
0
  6
CONTINUOUS
 62
256
 10
-238.317056000000010
 20
-196.394724000000000
 40
1.000000000000000
 50
180.000000000000000
 51
270.000000000000000
  0
LINE
  8
0
  6
CONTINUOUS
 62
256
 10
-238.317056000000010
 20
-197.394724000000000
 11
-150.317056000000010
 21
-197.394724000000000
  0
ARC
  8
0
  6
CONTINUOUS
 62
256
 10
-150.317056000000010
 20
-196.394724000000000
 40
1.000000000000000
 50
270.000000000000000
 51
0.000000000000000
  0
LINE
  8
0
  6
CONTINUOUS
 62
256
 10
-149.317056000000010
 20
-158.394724000000000
 11
-149.317056000000010
 21
-196.394724000000000
  0
LINE
  8
0
  6
CONTINUOUS
 62
256
 10
-147.517056000000000
 20
-159.394724000000000
 11
-149.317056000000010
 21
-159.394724000000000
  0
LINE
  8
0
  6
CONTINUOUS
 62
256
 10
-231.517056000000000
 20
-156.894724000000000
 11
-147.517056000000000
 21
-156.894724000000000
  0
LINE
  8
0
  6
CONTINUOUS
 62
256
 10
-231.517056000000000
 20
-156.394724000000000
 11
-147.517056000000000
 21
-156.394724000000000
  0
LINE
  8
0
  6
CONTINUOUS
 62
256
 10
-231.517056000000000
 20
-152.027806000000000
 11
-147.517056000000000
 21
-152.027806000000000
  0
LINE
  8
0
  6
CONTINUOUS
 62
256
 10
-231.517056000000000
 20
-146.936637999999990
 11
-147.517056000000000
 21
-146.936637999999990
  0
LINE
  8
0
  6
CONTINUOUS
 62
256
 10
-329.517056000000030
 20
-153.738344000000010
 11
-329.517056000000030
 21
-105.894724000000000
  0
LINE
  8
0
  6
CONTINUOUS
 62
256
 10
-320.837575000000020
 20
-161.169255999999990
 11
-328.408353999999970
 21
-155.868139000000010
  0
ARC
  8
0
  6
CONTINUOUS
 62
256
 10
-326.917056000000000
 20
-153.738344000000010
 40
2.600000000000023
 50
180.000000000000000
 51
234.999999999999770
  0
ARC
  8
0
  6
CONTINUOUS
 62
256
 10
-309.021901000000010
 20
-144.294724000000000
 40
20.599999999999991
 50
235.000000000000000
 51
270.000000000000000
  0
LINE
  8
0
  6
CONTINUOUS
 62
256
 10
516.133819000000020
 20
-111.912178999999990
 11
516.133819000000020
 21
-90.912178999999995
  0
ARC
  8
0
  6
CONTINUOUS
 62
256
 10
515.133819000000020
 20
-111.912178999999990
 40
1.000000000000000
 50
270.000000000000000
 51
0.000000000000000
  0
LINE
  8
0
  6
CONTINUOUS
 62
256
 10
512.133819000000020
 20
-112.912178999999990
 11
515.133819000000020
 21
-112.912178999999990
  0
LINE
  8
0
  6
CONTINUOUS
 62
256
 10
516.133819000000020
 20
-69.912178999999995
 11
516.133819000000020
 21
-90.912178999999995
  0
ARC
  8
0
  6
CONTINUOUS
 62
256
 10
515.133819000000020
 20
-69.912178999999995
 40
1.000000000000000
 50
0.000000000000000
 51
90.000000000000000
  0
LINE
  8
0
  6
CONTINUOUS
 62
256
 10
512.133819000000020
 20
-68.912178999999995
 11
515.133819000000020
 21
-68.912178999999995
  0
LINE
  8
0
  6
CONTINUOUS
 62
256
 10
402.133819000000020
 20
-111.912178999999990
 11
402.133819000000020
 21
-90.912178999999995
  0
ARC
  8
0
  6
CONTINUOUS
 62
256
 10
403.133819000000020
 20
-111.912178999999990
 40
1.000000000000000
 50
180.000000000000000
 51
270.000000000000000
  0
LINE
  8
0
  6
CONTINUOUS
 62
256
 10
406.133819000000020
 20
-112.912178999999990
 11
403.133819000000020
 21
-112.912178999999990
  0
LINE
  8
0
  6
CONTINUOUS
 62
256
 10
402.133819000000020
 20
-69.912178999999995
 11
402.133819000000020
 21
-90.912178999999995
  0
ARC
  8
0
  6
CONTINUOUS
 62
256
 10
403.133819000000020
 20
-69.912178999999995
 40
1.000000000000000
 50
90.000000000000000
 51
180.000000000000000
  0
LINE
  8
0
  6
CONTINUOUS
 62
256
 10
406.133819000000020
 20
-68.912178999999995
 11
403.133819000000020
 21
-68.912178999999995
  0
ARC
  8
0
  6
DASHED
 62
256
 10
807.133819000000020
 20
-125.894724000000000
 40
400.000000000000000
 50
180.071529999999970
 51
181.150993999999970
  0
LINE
  8
0
  6
CONTINUOUS
 62
256
 10
508.133819000000020
 20
-133.412179000000010
 11
512.133819000000020
 21
-133.412179000000010
  0
LINE
  8
0
  6
CONTINUOUS
 62
256
 10
508.133819000000020
 20
-48.412179000000002
 11
512.133819000000020
 21
-48.412179000000002
  0
LINE
  8
0
  6
CONTINUOUS
 62
256
 10
512.133819000000020
 20
-133.412179000000010
 11
512.133819000000020
 21
-48.412179000000002
  0
LINE
  8
0
  6
CONTINUOUS
 62
256
 10
422.133819000000020
 20
-177.912179000000010
 11
410.133819000000020
 21
-177.702718000000000
  0
LINE
  8
0
  6
CONTINUOUS
 62
256
 10
406.133819000000020
 20
-48.412179000000002
 11
410.133819000000020
 21
-48.412179000000002
  0
LINE
  8
0
  6
CONTINUOUS
 62
256
 10
422.133819000000020
 20
-29.885995999999999
 11
498.133819000000020
 21
-31.230035999999998
  0
LINE
  8
0
  6
CONTINUOUS
 62
256
 10
410.133819000000020
 20
-30.121639999999999
 11
422.133819000000020
 21
-29.912178999999998
  0
LINE
  8
0
  6
CONTINUOUS
 62
256
 10
498.133819000000020
 20
-31.230035999999998
 11
508.133819000000020
 21
-31.230035999999998
  0
LINE
  8
0
  6
CONTINUOUS
 62
256
 10
498.133819000000020
 20
-176.559411000000010
 11
508.133819000000020
 21
-176.559411000000010
  0
LINE
  8
0
  6
CONTINUOUS
 62
256
 10
422.133819000000020
 20
-177.903450999999990
 11
498.133819000000020
 21
-176.559411000000010
  0
LINE
  8
0
  6
CONTINUOUS
 62
256
 10
508.133819000000020
 20
-176.559411000000010
 11
508.133819000000020
 21
-145.269066000000010
  0
LINE
  8
0
  6
CONTINUOUS
 62
256
 10
406.133819000000020
 20
-48.412179000000002
 11
406.133819000000020
 21
-133.412179000000010
  0
LINE
  8
0
  6
CONTINUOUS
 62
256
 10
410.133819000000020
 20
-177.702718000000000
 11
410.133819000000020
 21
-145.269066000000010
  0
LINE
  8
0
  6
CONTINUOUS
 62
256
 10
508.133819000000020
 20
-145.269066000000010
 11
508.133819000000020
 21
-31.230035999999998
  0
LINE
  8
0
  6
CONTINUOUS
 62
256
 10
410.133819000000020
 20
-145.269066000000010
 11
410.133819000000020
 21
-30.121639999999999
  0
LINE
  8
0
  6
CONTINUOUS
 62
256
 10
406.133819000000020
 20
-133.412179000000010
 11
410.133819000000020
 21
-133.412179000000010
  0
LINE
  8
0
  6
CONTINUOUS
 62
256
 10
422.133819000000020
 20
-29.885995999999999
 11
422.133819000000020
 21
-177.903450999999990
  0
LINE
  8
0
  6
DASHDOT
 62
256
 10
468.131667999999990
 20
-105.894724000000000
 11
448.143728000000010
 21
-105.894724000000000
  0
LINE
  8
0
  6
DASHDOT
 62
256
 10
459.133819000000020
 20
-203.280828000000010
 11
459.133819000000020
 21
-25.942674000000000
  0
ARC
  8
0
  6
DASHED
 62
256
 10
439.633819000000020
 20
-52.894723999999997
 40
0.500000000000000
 50
90.000000000000000
 51
180.000000000000000
  0
ARC
  8
0
  6
DASHED
 62
256
 10
438.633819000000020
 20
-52.894723999999997
 40
0.500000000000000
 50
270.000000000000000
 51
0.000000000000000
  0
ARC
  8
0
  6
DASHED
 62
256
 10
439.633819000000020
 20
-453.394724000000000
 40
400.000000000000000
 50
90.071529999999996
 51
90.859540999999993
  0
ARC
  8
0
  6
DASHED
 62
256
 10
432.133819000000020
 20
-78.394723999999997
 40
25.000000000000000
 50
86.561350000000019
 51
174.269825000000000
  0
ARC
  8
0
  6
DASHED
 62
256
 10
406.633819000000020
 20
-85.394723999999997
 40
0.500000000000000
 50
270.000000000000000
 51
0.000000000000000
  0
ARC
  8
0
  6
DASHED
 62
256
 10
406.633819000000020
 20
-86.394723999999997
 40
0.500000000000000
 50
90.000000000000000
 51
180.000000000000000
  0
ARC
  8
0
  6
DASHED
 62
256
 10
807.133819000000020
 20
-85.894723999999997
 40
400.000000000000000
 50
178.568016000000000
 51
179.928470000000000
  0
ARC
  8
0
  6
DASHED
 62
256
 10
406.633819000000020
 20
-126.394724000000000
 40
0.500000000000000
 50
0.000000000000000
 51
90.000000000000000
  0
ARC
  8
0
  6
DASHED
 62
256
 10
406.633819000000020
 20
-125.394724000000000
 40
0.500000000000000
 50
180.000000000000000
 51
270.000000000000000
  0
ARC
  8
0
  6
DASHED
 62
256
 10
439.633819000000020
 20
-158.894724000000000
 40
0.500000000000000
 50
180.000000000000000
 51
270.000000000000000
  0
ARC
  8
0
  6
DASHED
 62
256
 10
438.633819000000020
 20
-158.894724000000000
 40
0.500000000000000
 50
0.000000000000000
 51
90.000000000000000
  0
ARC
  8
0
  6
DASHED
 62
256
 10
439.633819000000020
 20
241.605276000000000
 40
400.000000000000000
 50
268.568016000000060
 51
269.928470000000000
  0
ARC
  8
0
  6
DASHED
 62
256
 10
478.633819000000020
 20
-158.894724000000000
 40
0.500000000000000
 50
270.000000000000000
 51
0.000000000000000
  0
LINE
  8
0
  6
DASHED
 62
256
 10
439.633819000000020
 20
-159.394724000000000
 11
478.633819000000020
 21
-159.394724000000000
  0
ARC
  8
0
  6
DASHED
 62
256
 10
479.633819000000020
 20
-158.894724000000000
 40
0.500000000000000
 50
90.000000000000000
 51
180.000000000000000
  0
ARC
  8
0
  6
DASHED
 62
256
 10
478.633819000000020
 20
241.605276000000000
 40
400.000000000000000
 50
270.071530000000000
 51
271.431984000000000
  0
ARC
  8
0
  6
DASHED
 62
256
 10
511.633819000000020
 20
-126.394724000000000
 40
0.500000000000000
 50
90.000000000000000
 51
180.000000000000000
  0
ARC
  8
0
  6
DASHED
 62
256
 10
511.633819000000020
 20
-85.394723999999997
 40
0.500000000000000
 50
180.000000000000000
 51
270.000000000000000
  0
ARC
  8
0
  6
DASHED
 62
256
 10
111.133819000000000
 20
-85.894723999999997
 40
399.999999999999940
 50
0.053000000000000
 51
1.431984000000000
  0
ARC
  8
0
  6
DASHED
 62
256
 10
479.633819000000020
 20
-52.894723999999997
 40
0.500000000000000
 50
180.000000000000000
 51
270.000000000000000
  0
ARC
  8
0
  6
DASHED
 62
256
 10
478.633819000000020
 20
-52.894723999999997
 40
0.500000000000000
 50
0.000000000000000
 51
90.000000000000000
  0
ARC
  8
0
  6
DASHED
 62
256
 10
486.133819000000020
 20
-78.394723999999997
 40
24.999999999999979
 50
5.730175000000014
 51
93.438649999999981
  0
ARC
  8
0
  6
DASHED
 62
256
 10
478.633819000000020
 20
-453.394724000000000
 40
400.000000000000000
 50
89.140459000000007
 51
89.928470000000004
  0
LINE
  8
0
  6
DASHED
 62
256
 10
478.633819000000020
 20
-52.394723999999997
 11
439.633819000000020
 21
-52.394723999999997
  0
ARC
  8
0
  6
DASHED
 62
256
 10
432.133819000000020
 20
-133.394724000000000
 40
25.000000000000000
 50
208.357637000000040
 51
264.269825000000080
  0
ARC
  8
0
  6
DASHED
 62
256
 10
486.133819000000020
 20
-133.394724000000000
 40
25.000000000000011
 50
275.730175000000030
 51
331.642362999999990
  0
ARC
  8
0
  6
DASHED
 62
256
 10
111.133819000000000
 20
-125.894724000000000
 40
400.000000000000000
 50
358.849005999999970
 51
359.928470000000000
  0
ARC
  8
0
  6
CONTINUOUS
 62
256
 10
511.633819000000020
 20
-125.394724000000000
 40
0.500000000000000
 50
270.000000000000000
 51
0.000000000000000
  0
ARC
  8
0
  6
CONTINUOUS
 62
256
 10
111.133819000000000
 20
-125.894724000000000
 40
400.000000000000000
 50
358.568016000000060
 51
358.849005999999970
  0
ARC
  8
0
  6
CONTINUOUS
 62
256
 10
807.133819000000020
 20
-125.894724000000000
 40
400.000000000000000
 50
181.076859999999980
 51
181.431983999999970
  0
ARC
  8
0
  6
CONTINUOUS
 62
256
 10
432.133819000000020
 20
-133.394724000000000
 40
24.999999999999979
 50
185.730174999999970
 51
208.357637000000040
  0
ARC
  8
0
  6
CONTINUOUS
 62
256
 10
486.133819000000020
 20
-133.394724000000000
 40
25.000000000000000
 50
331.642362999999990
 51
354.269824999999970
  0
LINE
  8
0
  6
CONTINUOUS
 62
256
 10
512.133819000000020
 20
-125.394724000000000
 11
512.133819000000020
 21
-86.394723999999997
  0
LINE
  8
0
  6
CONTINUOUS
 62
256
 10
406.133819000000020
 20
-86.394723999999997
 11
406.133819000000020
 21
-125.394724000000000
  0
LINE
  8
0
  6
DASHDOT
 62
256
 10
520.322401000000010
 20
-90.912178999999995
 11
394.842555000000000
 21
-90.912178999999995
  0
INSERT
  8
0
  2
ZU_SYM_1
 10
13.482944000000000
 20
-37.412179000000002
  0
INSERT
  8
0
  2
ZU_SYM_2
 10
-91.517055999999997
 20
-37.412179000000002
  0
LINE
  8
0
  6
CONTINUOUS
 62
256
 10
-147.517056000000000
 20
-105.912178999999990
 11
-147.517056000000000
 21
-52.412179000000002
  0
LINE
  8
0
  6
CONTINUOUS
 62
256
 10
-147.517056000000000
 20
-105.912178999999990
 11
-147.517056000000000
 21
-159.412179000000010
  0
LINE
  8
0
  6
DASHED
 62
256
 10
-118.017010000000000
 20
-105.912178999999990
 11
-118.017010000000000
 21
-118.512179000000000
  0
LINE
  8
0
  6
DASHED
 62
256
 10
-118.017010000000000
 20
-105.912178999999990
 11
-118.017010000000000
 21
-93.312179000000000
  0
ARC
  8
0
  6
CONTINUOUS
 62
256
 10
7.974141000000000
 20
-177.412179000000010
 40
0.500000000000000
 50
0.999999999998518
 51
90.000000000000000
  0
LINE
  8
0
  6
CONTINUOUS
 62
256
 10
8.474064000000000
 20
-177.403453000000010
 11
8.482944000000000
 21
-177.912179000000010
  0
ARC
  8
0
  6
CONTINUOUS
 62
256
 10
18.991748000000001
 20
-177.412179000000010
 40
0.500000000000000
 50
90.000000000000000
 51
179.000000000001480
  0
LINE
  8
0
  6
CONTINUOUS
 62
256
 10
18.491824000000001
 20
-177.403453000000010
 11
18.482944000000000
 21
-177.912179000000010
  0
ARC
  8
0
  6
CONTINUOUS
 62
256
 10
-86.008251999999999
 20
-177.412179000000010
 40
0.500000000000000
 50
90.000000000000000
 51
179.000000000001510
  0
LINE
  8
0
  6
CONTINUOUS
 62
256
 10
-86.508176000000006
 20
-177.403453000000010
 11
-86.517055999999997
 21
-177.912179000000010
  0
ARC
  8
0
  6
CONTINUOUS
 62
256
 10
-97.025858999999997
 20
-177.412179000000010
 40
0.500000000000006
 50
0.999999999998505
 51
90.000000000000000
  0
LINE
  8
0
  6
CONTINUOUS
 62
256
 10
-96.525936000000002
 20
-177.403453000000010
 11
-96.517055999999997
 21
-177.912179000000010
  0
LINE
  8
0
  6
CONTINUOUS
 62
256
 10
-96.525936000000002
 20
-30.420905000000001
 11
-96.517055999999997
 21
-29.912178999999998
  0
ARC
  8
0
  6
CONTINUOUS
 62
256
 10
-97.025858999999997
 20
-30.412178999999998
 40
0.500000000000000
 50
270.000000000000000
 51
358.999999999999830
  0
LINE
  8
0
  6
CONTINUOUS
 62
256
 10
-86.508176000000006
 20
-30.420905000000001
 11
-86.517055999999997
 21
-29.912178999999998
  0
ARC
  8
0
  6
CONTINUOUS
 62
256
 10
-86.008251999999999
 20
-30.412178999999998
 40
0.500000000000007
 50
181.000000000000110
 51
270.000000000000000
  0
ARC
  8
0
  6
CONTINUOUS
 62
256
 10
7.974141000000000
 20
-30.412178999999998
 40
0.500000000000000
 50
270.000000000000000
 51
358.999999999999830
  0
LINE
  8
0
  6
CONTINUOUS
 62
256
 10
8.474064000000000
 20
-30.420905000000001
 11
8.482944000000000
 21
-29.912178999999998
  0
ARC
  8
0
  6
CONTINUOUS
 62
256
 10
18.991748000000001
 20
-30.412178999999998
 40
0.499999999999999
 50
181.000000000000140
 51
270.000000000000000
  0
LINE
  8
0
  6
CONTINUOUS
 62
256
 10
18.491824000000001
 20
-30.420905000000001
 11
18.482944000000000
 21
-29.912178999999998
  0
LINE
  8
0
  6
CONTINUOUS
 62
256
 10
-142.517056000000000
 20
-58.412179000000002
 11
-142.517056000000000
 21
-54.360118000000000
  0
ARC
  8
0
  6
CONTINUOUS
 62
256
 10
-144.517056000000000
 20
-54.360118000000000
 40
2.000000000000000
 50
0.000000000000000
 51
91.000000000000156
  0
ARC
  8
0
  6
CONTINUOUS
 62
256
 10
-139.517056000000000
 20
-58.412179000000002
 40
3.000000000000000
 50
180.000000000000000
 51
270.000000000000000
  0
LINE
  8
0
  6
CONTINUOUS
 62
256
 10
-142.517056000000000
 20
-105.912178999999990
 11
-142.517056000000000
 21
-66.482527000000005
  0
ARC
  8
0
  6
CONTINUOUS
 62
256
 10
-140.517056000000000
 20
-66.482527000000005
 40
2.000000000000000
 50
90.000000000000000
 51
180.000000000000000
  0
ARC
  8
0
  6
CONTINUOUS
 62
256
 10
-139.517056000000000
 20
-75.020013000000006
 40
3.000000000000000
 50
90.000000000000000
 51
180.000000000000000
  0
LINE
  8
0
  6
CONTINUOUS
 62
256
 10
-134.452045000000000
 20
-72.020013000000006
 11
-139.517056000000000
 21
-72.020013000000006
  0
LINE
  8
0
  6
CONTINUOUS
 62
256
 10
-142.517056000000000
 20
-85.912178999999995
 11
-147.517056000000000
 21
-85.912178999999995
  0
LINE
  8
0
  6
CONTINUOUS
 62
256
 10
-142.517056000000000
 20
-105.912178999999990
 11
-142.517056000000000
 21
-145.341829999999990
  0
LINE
  8
0
  6
CONTINUOUS
 62
256
 10
-142.517056000000000
 20
-125.912178999999990
 11
-147.517056000000000
 21
-125.912178999999990
  0
ARC
  8
0
  6
CONTINUOUS
 62
256
 10
-139.517056000000000
 20
-153.412179000000010
 40
3.000000000000000
 50
90.000000000000000
 51
180.000000000000000
  0
LINE
  8
0
  6
CONTINUOUS
 62
256
 10
-134.212374000000010
 20
-139.804345000000010
 11
-139.517056000000000
 21
-139.804345000000010
  0
ARC
  8
0
  6
CONTINUOUS
 62
256
 10
-140.517056000000000
 20
-145.341829999999990
 40
2.000000000000000
 50
180.000000000000000
 51
270.000000000000000
  0
ARC
  8
0
  6
CONTINUOUS
 62
256
 10
-139.517056000000000
 20
-136.804345000000010
 40
3.000000000000000
 50
180.000000000000000
 51
270.000000000000000
  0
LINE
  8
0
  6
CONTINUOUS
 62
256
 10
-142.517056000000000
 20
-153.412179000000010
 11
-142.517056000000000
 21
-157.464238999999990
  0
ARC
  8
0
  6
CONTINUOUS
 62
256
 10
-144.517056000000000
 20
-157.464238999999990
 40
1.999999999999998
 50
268.999999999999830
 51
0.000000000000000
  0
LINE
  8
0
  6
CONTINUOUS
 62
256
 10
-139.517056000000000
 20
-61.412179000000002
 11
-132.517056000000000
 21
-61.412179000000002
  0
LINE
  8
0
  6
CONTINUOUS
 62
256
 10
-140.517056000000000
 20
-64.482527000000005
 11
-132.517056000000000
 21
-64.482527000000005
  0
LINE
  8
0
  6
CONTINUOUS
 62
256
 10
-140.517056000000000
 20
-147.341829999999990
 11
-132.517056000000000
 21
-147.341829999999990
  0
LINE
  8
0
  6
CONTINUOUS
 62
256
 10
-139.517056000000000
 20
-150.412179000000010
 11
-132.517056000000000
 21
-150.412179000000010
  0
ARC
  8
0
  6
CONTINUOUS
 62
256
 10
-132.517056000000000
 20
-64.412178999999995
 40
3.000000000000000
 50
0.000000000000000
 51
90.000000000000000
  0
ARC
  8
0
  6
CONTINUOUS
 62
256
 10
-132.517056000000000
 20
-67.482527000000005
 40
3.000000000000000
 50
0.000000000000000
 51
90.000000000000000
  0
ARC
  8
0
  6
CONTINUOUS
 62
256
 10
-132.517056000000000
 20
-147.412179000000010
 40
3.000000000000000
 50
270.000000000000000
 51
0.000000000000000
  0
ARC
  8
0
  6
CONTINUOUS
 62
256
 10
-132.517056000000000
 20
-144.341829999999990
 40
3.000000000000000
 50
270.000000000000000
 51
0.000000000000000
  0
ARC
  8
0
  6
CONTINUOUS
 62
256
 10
-132.517056000000000
 20
-156.638640000000010
 40
3.000000000000011
 50
268.999999999999830
 51
0.000000000000000
  0
ARC
  8
0
  6
CONTINUOUS
 62
256
 10
-132.517056000000000
 20
-55.185716999999997
 40
3.000000000000000
 50
0.000000000000000
 51
91.000000000000156
  0
LINE
  8
0
  6
CONTINUOUS
 62
256
 10
-129.517056000000000
 20
-55.185716999999997
 11
-129.517056000000000
 21
-156.638640000000010
  0
CIRCLE
  8
0
  6
CONTINUOUS
 62
256
 10
-91.517055999999997
 20
-170.412179000000010
 40
5.500000000000000
  0
CIRCLE
  8
0
  6
CONTINUOUS
 62
256
 10
13.482944000000000
 20
-170.412179000000010
 40
5.500000000000000
  0
ARC
  8
0
  6
CONTINUOUS
 62
256
 10
31.982944000000000
 20
-168.912179000000010
 40
8.000000000000000
 50
270.000000000000000
 51
0.000000000000000
  0
ARC
  8
0
  6
CONTINUOUS
 62
256
 10
-110.017056000000000
 20
-168.912179000000010
 40
8.000000000000000
 50
180.000000000000000
 51
270.000000000000000
  0
LINE
  8
0
  6
CONTINUOUS
 62
256
 10
-110.017056000000000
 20
-176.912179000000010
 11
-97.025858999999997
 21
-176.912179000000010
  0
ARC
  8
0
  6
CONTINUOUS
 62
256
 10
-91.517055999999997
 20
-170.412179000000010
 40
12.499999999999989
 50
26.847212999999968
 51
83.651414999999986
  0
ARC
  8
0
  6
CONTINUOUS
 62
256
 10
-89.803110000000004
 20
-155.007231999999990
 40
3.000000000000004
 50
211.420366000000090
 51
263.651414999999990
  0
LINE
  8
0
  6
CONTINUOUS
 62
256
 10
-77.687738999999993
 20
-166.412179000000010
 11
-0.346372000000000
 21
-166.412179000000010
  0
ARC
  8
0
  6
CONTINUOUS
 62
256
 10
-77.687738999999993
 20
-163.412179000000010
 40
3.000000000000002
 50
206.847212999999810
 51
270.000000000000000
  0
ARC
  8
0
  6
CONTINUOUS
 62
256
 10
-77.687738999999993
 20
-163.412179000000010
 40
6.000000000000005
 50
206.847213000000100
 51
270.000000000000000
  0
LINE
  8
0
  6
CONTINUOUS
 62
256
 10
-77.687738999999993
 20
-169.412179000000010
 11
-0.346372000000000
 21
-169.412179000000010
  0
ARC
  8
0
  6
CONTINUOUS
 62
256
 10
13.482944000000000
 20
-170.412179000000010
 40
12.500000000000012
 50
96.348584999999986
 51
153.152786999999930
  0
ARC
  8
0
  6
CONTINUOUS
 62
256
 10
-0.346372000000000
 20
-163.412179000000010
 40
3.000000000000000
 50
270.000000000000000
 51
333.152787000000100
  0
ARC
  8
0
  6
CONTINUOUS
 62
256
 10
-0.346372000000000
 20
-163.412179000000010
 40
6.000000000000000
 50
270.000000000000000
 51
333.152786999999880
  0
ARC
  8
0
  6
CONTINUOUS
 62
256
 10
11.768999000000001
 20
-155.007231999999990
 40
2.999999999999989
 50
276.348585000000010
 51
328.579633999999880
  0
LINE
  8
0
  6
CONTINUOUS
 62
256
 10
-86.008251999999999
 20
-176.912179000000010
 11
7.974141000000000
 21
-176.912179000000010
  0
LINE
  8
0
  6
CONTINUOUS
 62
256
 10
18.991748000000001
 20
-176.912179000000010
 11
31.982944000000000
 21
-176.912179000000010
  0
CIRCLE
  8
0
  6
CONTINUOUS
 62
256
 10
13.482944000000000
 20
-37.412179000000002
 40
5.500000000000000
  0
CIRCLE
  8
0
  6
CONTINUOUS
 62
256
 10
-91.517055999999997
 20
-37.412179000000002
 40
5.500000000000000
  0
LINE
  8
0
  6
CONTINUOUS
 62
256
 10
39.982944000000003
 20
-168.912179000000010
 11
39.982944000000003
 21
-38.912179000000002
  0
ARC
  8
0
  6
CONTINUOUS
 62
256
 10
31.982944000000000
 20
-38.912179000000002
 40
8.000000000000004
 50
0.000000000000000
 51
90.000000000000000
  0
LINE
  8
0
  6
CONTINUOUS
 62
256
 10
31.982944000000000
 20
-30.912178999999998
 11
18.991748000000001
 21
-30.912178999999998
  0
ARC
  8
0
  6
CONTINUOUS
 62
256
 10
-110.017056000000000
 20
-38.912179000000002
 40
8.000000000000000
 50
90.000000000000000
 51
180.000000000000000
  0
LINE
  8
0
  6
CONTINUOUS
 62
256
 10
-118.017056000000000
 20
-38.912179000000002
 11
-118.017056000000000
 21
-168.912179000000010
  0
ARC
  8
0
  6
CONTINUOUS
 62
256
 10
-91.517055999999997
 20
-37.412179000000002
 40
12.499999999999998
 50
276.348585000000010
 51
333.152786999999990
  0
ARC
  8
0
  6
CONTINUOUS
 62
256
 10
-77.687738999999993
 20
-44.412179000000002
 40
3.000000000000000
 50
90.000000000000000
 51
153.152787000000070
  0
ARC
  8
0
  6
CONTINUOUS
 62
256
 10
-77.687738999999993
 20
-44.412179000000002
 40
6.000000000000000
 50
90.000000000000000
 51
153.152786999999990
  0
ARC
  8
0
  6
CONTINUOUS
 62
256
 10
-106.017056000000000
 20
-42.912179000000002
 40
15.999999999999998
 50
283.835223999999980
 51
328.579634000000000
  0
ARC
  8
0
  6
CONTINUOUS
 62
256
 10
-89.803110000000004
 20
-52.817126000000002
 40
3.000000000000002
 50
96.348585000000014
 51
148.579634000000030
  0
LINE
  8
0
  6
CONTINUOUS
 62
256
 10
-107.517056000000000
 20
-65.244889999999998
 11
-107.517056000000000
 21
-142.579466999999990
  0
ARC
  8
0
  6
CONTINUOUS
 62
256
 10
-100.517056000000000
 20
-65.244889999999998
 40
7.000000000000003
 50
103.835224000000000
 51
180.000000000000000
  0
LINE
  8
0
  6
CONTINUOUS
 62
256
 10
-110.517056000000000
 20
-65.244889999999998
 11
-110.517056000000000
 21
-142.579466999999990
  0
ARC
  8
0
  6
CONTINUOUS
 62
256
 10
-100.517056000000000
 20
-65.244889999999998
 40
9.999999999999998
 50
103.835224000000000
 51
180.000000000000000
  0
ARC
  8
0
  6
CONTINUOUS
 62
256
 10
-100.517056000000000
 20
-142.579466999999990
 40
7.000000000000000
 50
180.000000000000000
 51
256.164776000000020
  0
ARC
  8
0
  6
CONTINUOUS
 62
256
 10
-100.517056000000000
 20
-142.579466999999990
 40
10.000000000000000
 50
180.000000000000000
 51
256.164776000000020
  0
ARC
  8
0
  6
CONTINUOUS
 62
256
 10
-106.017056000000000
 20
-164.912179000000010
 40
16.000000000000004
 50
31.420365999999976
 51
76.164776000000032
  0
ARC
  8
0
  6
CONTINUOUS
 62
256
 10
27.982944000000000
 20
-164.912179000000010
 40
15.999999999999998
 50
103.835224000000000
 51
148.579634000000030
  0
ARC
  8
0
  6
CONTINUOUS
 62
256
 10
22.482944000000000
 20
-142.579466999999990
 40
7.000000000000010
 50
283.835223999999980
 51
0.000000000000000
  0
ARC
  8
0
  6
CONTINUOUS
 62
256
 10
22.482944000000000
 20
-142.579466999999990
 40
10.000000000000005
 50
283.835223999999980
 51
0.000000000000000
  0
LINE
  8
0
  6
CONTINUOUS
 62
256
 10
29.482944000000000
 20
-142.579466999999990
 11
29.482944000000000
 21
-65.244889999999998
  0
LINE
  8
0
  6
CONTINUOUS
 62
256
 10
32.482944000000003
 20
-142.579466999999990
 11
32.482944000000003
 21
-65.244889999999998
  0
ARC
  8
0
  6
CONTINUOUS
 62
256
 10
22.482944000000000
 20
-65.244889999999998
 40
7.000000000000000
 50
0.000000000000000
 51
76.164775999999989
  0
ARC
  8
0
  6
CONTINUOUS
 62
256
 10
22.482944000000000
 20
-65.244889999999998
 40
10.000000000000004
 50
0.000000000000000
 51
76.164775999999989
  0
ARC
  8
0
  6
CONTINUOUS
 62
256
 10
27.982944000000000
 20
-42.912179000000002
 40
16.000000000000004
 50
211.420366000000000
 51
256.164776000000020
  0
ARC
  8
0
  6
CONTINUOUS
 62
256
 10
11.768999000000001
 20
-52.817126000000002
 40
2.999999999999999
 50
31.420365999999994
 51
83.651415000000000
  0
LINE
  8
0
  6
CONTINUOUS
 62
256
 10
-97.025858999999997
 20
-30.912178999999998
 11
-110.017056000000000
 21
-30.912178999999998
  0
INSERT
  8
0
  2
ZU_SYM_3
 10
13.482944000000000
 20
-170.412179000000010
  0
INSERT
  8
0
  2
ZU_SYM_4
 10
-91.517055999999997
 20
-170.412179000000010
  0
LINE
  8
0
  6
DASHDOT
 62
256
 10
-84.635043999999994
 20
-170.412179000000010
 11
-98.956526999999994
 21
-170.412179000000010
  0
LINE
  8
0
  6
DASHDOT
 62
256
 10
-84.258953000000005
 20
-37.412179000000002
 11
-98.745474999999999
 21
-37.412179000000002
  0
LINE
  8
0
  6
DASHDOT
 62
256
 10
-91.517055999999997
 20
-163.619643000000000
 11
-91.517055999999997
 21
-179.194255000000000
  0
LINE
  8
0
  6
DASHDOT
 62
256
 10
-94.206272999999996
 20
-42.912179000000002
 11
-120.435162000000010
 21
-42.912179000000002
  0
LINE
  8
0
  6
DASHDOT
 62
256
 10
-106.017056000000000
 20
-154.310678999999990
 11
-106.017056000000000
 21
-175.255846999999990
  0
LINE
  8
0
  6
DASHDOT
 62
256
 10
27.982944000000000
 20
-153.415586999999990
 11
27.982944000000000
 21
-179.463336000000000
  0
LINE
  8
0
  6
DASHDOT
 62
256
 10
13.482944000000000
 20
-161.829456999999990
 11
13.482944000000000
 21
-179.463336000000000
  0
LINE
  8
0
  6
DASHDOT
 62
256
 10
-95.555175000000006
 20
-164.912179000000010
 11
-116.679361000000000
 21
-164.912179000000010
  0
LINE
  8
0
  6
CONTINUOUS
 62
256
 10
31.982944000000000
 20
-177.912179000000010
 11
-110.017056000000000
 21
-177.912179000000010
  0
ARC
  8
0
  6
CONTINUOUS
 62
256
 10
-110.017056000000000
 20
-168.912179000000010
 40
9.000000000000000
 50
180.000000000000000
 51
270.000000000000000
  0
ARC
  8
0
  6
CONTINUOUS
 62
256
 10
31.982944000000000
 20
-168.912179000000010
 40
9.000000000000000
 50
270.000000000000000
 51
0.000000000000000
  0
LINE
  8
0
  6
DASHDOT
 62
256
 10
21.164905999999998
 20
-170.412179000000010
 11
5.590294000000000
 21
-170.412179000000010
  0
LINE
  8
0
  6
DASHDOT
 62
256
 10
38.887740000000001
 20
-164.912179000000010
 11
17.405517000000000
 21
-164.912179000000010
  0
ARC
  8
0
  6
CONTINUOUS
 62
256
 10
-106.017056000000000
 20
-164.912179000000010
 40
12.999999999999998
 50
31.420365999999952
 51
76.164776000000032
  0
ARC
  8
0
  6
CONTINUOUS
 62
256
 10
-91.517055999999997
 20
-170.412179000000010
 40
9.500000000000000
 50
26.847212999999975
 51
83.651414999999972
  0
ARC
  8
0
  6
CONTINUOUS
 62
256
 10
-89.803110000000004
 20
-155.007231999999990
 40
6.000000000000008
 50
211.420366000000090
 51
263.651414999999990
  0
ARC
  8
0
  6
CONTINUOUS
 62
256
 10
13.482944000000000
 20
-170.412179000000010
 40
9.499999999999996
 50
96.348585000000000
 51
153.152787000000020
  0
ARC
  8
0
  6
CONTINUOUS
 62
256
 10
11.768999000000001
 20
-155.007231999999990
 40
6.000000000000005
 50
276.348585000000010
 51
328.579633999999880
  0
ARC
  8
0
  6
CONTINUOUS
 62
256
 10
27.982944000000000
 20
-164.912179000000010
 40
13.000000000000002
 50
103.835224000000000
 51
148.579634000000060
  0
LINE
  8
0
  6
CONTINUOUS
 62
256
 10
-119.017056000000000
 20
-168.912179000000010
 11
-119.017056000000000
 21
-38.912179000000002
  0
LINE
  8
0
  6
CONTINUOUS
 62
256
 10
40.982944000000003
 20
-38.912179000000002
 11
40.982944000000003
 21
-168.912179000000010
  0
ARC
  8
0
  6
CONTINUOUS
 62
256
 10
-110.017056000000000
 20
-38.912179000000002
 40
9.000000000000000
 50
90.000000000000000
 51
180.000000000000000
  0
ARC
  8
0
  6
CONTINUOUS
 62
256
 10
31.982944000000000
 20
-38.912179000000002
 40
9.000000000000004
 50
0.000000000000000
 51
90.000000000000000
  0
LINE
  8
0
  6
DASHDOT
 62
256
 10
20.725804000000000
 20
-37.412179000000002
 11
6.124119000000000
 21
-37.412179000000002
  0
LINE
  8
0
  6
DASHDOT
 62
256
 10
13.482944000000000
 20
-28.912178999999998
 11
13.482944000000000
 21
-46.363975000000003
  0
LINE
  8
0
  6
DASHDOT
 62
256
 10
-91.517055999999997
 20
-29.234591000000002
 11
-91.517055999999997
 21
-45.352702999999998
  0
LINE
  8
0
  6
DASHDOT
 62
256
 10
-106.017056000000000
 20
-32.344670000000001
 11
-106.017056000000000
 21
-54.789903000000002
  0
ARC
  8
0
  6
CONTINUOUS
 62
256
 10
-106.017056000000000
 20
-42.912179000000002
 40
13.000000000000002
 50
283.835223999999980
 51
328.579633999999940
  0
ARC
  8
0
  6
CONTINUOUS
 62
256
 10
-89.803110000000004
 20
-52.817126000000002
 40
5.999999999999997
 50
96.348585000000028
 51
148.579634000000030
  0
ARC
  8
0
  6
CONTINUOUS
 62
256
 10
-91.517055999999997
 20
-37.412179000000002
 40
9.500000000000004
 50
276.348585000000010
 51
333.152786999999990
  0
ARC
  8
0
  6
CONTINUOUS
 62
256
 10
27.982944000000000
 20
-42.912179000000002
 40
13.000000000000000
 50
211.420365999999970
 51
256.164776000000020
  0
ARC
  8
0
  6
CONTINUOUS
 62
256
 10
13.482944000000000
 20
-37.412179000000002
 40
9.500000000000002
 50
206.847213000000010
 51
263.651414999999990
  0
ARC
  8
0
  6
CONTINUOUS
 62
256
 10
11.768999000000001
 20
-52.817126000000002
 40
5.999999999999998
 50
31.420365999999994
 51
83.651415000000000
  0
LINE
  8
0
  6
CONTINUOUS
 62
256
 10
-147.517056000000000
 20
-159.429637000000010
 11
-121.964699000000000
 21
-159.875654999999990
  0
LINE
  8
0
  6
CONTINUOUS
 62
256
 10
-147.517056000000000
 20
-52.394720999999997
 11
-121.964699000000000
 21
-51.948703000000002
  0
ARC
  8
0
  6
CONTINUOUS
 62
256
 10
-122.017056000000000
 20
-48.949159999999999
 40
2.999999999999997
 50
270.999999999999890
 51
0.000000000000000
  0
ARC
  8
0
  6
CONTINUOUS
 62
256
 10
-122.017056000000000
 20
-162.875198000000010
 40
3.000000000000000
 50
0.000000000000000
 51
89.000000000000128
  0
ARC
  8
0
  6
CONTINUOUS
 62
256
 10
-20.017056000000000
 20
-90.912178999999995
 40
15.000000000000004
 50
105.466010000000000
 51
74.533990000000017
  0
LINE
  8
0
  6
CONTINUOUS
 62
256
 10
-24.017056000000000
 20
-76.455347000000003
 11
-24.017056000000000
 21
-72.612178999999998
  0
LINE
  8
0
  6
CONTINUOUS
 62
256
 10
-24.017056000000000
 20
-72.612178999999998
 11
-16.017056000000000
 21
-72.612178999999998
  0
LINE
  8
0
  6
CONTINUOUS
 62
256
 10
-16.017056000000000
 20
-76.455347000000003
 11
-16.017056000000000
 21
-72.612178999999998
  0
LINE
  8
0
  6
CONTINUOUS
 62
256
 10
-110.017056000000000
 20
-29.912178999999998
 11
31.982944000000000
 21
-29.912178999999998
  0
LINE
  8
0
  6
CONTINUOUS
 62
256
 10
7.974141000000000
 20
-30.912178999999998
 11
-86.008251999999999
 21
-30.912178999999998
  0
ARC
  8
0
  6
CONTINUOUS
 62
256
 10
13.482944000000000
 20
-37.412179000000002
 40
12.500000000000000
 50
206.847213000000010
 51
263.651414999999990
  0
ARC
  8
0
  6
CONTINUOUS
 62
256
 10
-0.346372000000000
 20
-44.412179000000002
 40
3.000000000000000
 50
26.847213000000000
 51
90.000000000000000
  0
ARC
  8
0
  6
CONTINUOUS
 62
256
 10
-0.346372000000000
 20
-44.412179000000002
 40
5.999999999999999
 50
26.847213000000000
 51
90.000000000000000
  0
LINE
  8
0
  6
CONTINUOUS
 62
256
 10
-0.346372000000000
 20
-38.412179000000002
 11
-77.687738999999993
 21
-38.412179000000002
  0
LINE
  8
0
  6
CONTINUOUS
 62
256
 10
-0.346372000000000
 20
-41.412179000000002
 11
-77.687738999999993
 21
-41.412179000000002
  0
CIRCLE
  8
0
  6
CONTINUOUS
 62
256
 10
-20.017056000000000
 20
-90.912178999999995
 40
47.000000000000000
  0
CIRCLE
  8
0
  6
CONTINUOUS
 62
256
 10
-20.017056000000000
 20
-90.912178999999995
 40
42.500000000000000
  0
CIRCLE
  8
0
  6
CONTINUOUS
 62
256
 10
-20.017056000000000
 20
-90.912178999999995
 40
22.000000000000000
  0
LINE
  8
0
  6
DASHDOT
 62
256
 10
46.201228000000000
 20
-90.912178999999995
 11
-79.515378999999996
 21
-90.912178999999995
  0
LINE
  8
0
  6
DASHDOT
 62
256
 10
-20.017056000000000
 20
-26.999399000000000
 11
-20.017056000000000
 21
-186.933366000000010
  0
ARC
  8
0
  6
CONTINUOUS
 62
256
 10
127.276832000000000
 20
-68.612119000000007
 40
0.200000000000003
 50
90.000000000000000
 51
170.405932000000040
  0
LINE
  8
0
  6
CONTINUOUS
 62
256
 10
140.585226000000010
 20
-68.412136000000004
 11
127.585226000000010
 21
-68.412152000000006
  0
ARC
  8
0
  6
CONTINUOUS
 62
256
 10
113.084954000000000
 20
-73.912119000000004
 40
2.000000000000000
 50
180.000000000000000
 51
270.000000000000000
  0
ARC
  8
0
  6
CONTINUOUS
 62
256
 10
111.484954000000000
 20
-69.312118999999996
 40
0.400000000000006
 50
90.000000000000000
 51
180.000000000000000
  0
LINE
  8
0
  6
CONTINUOUS
 62
256
 10
111.084954000000000
 20
-112.512119000000000
 11
111.084954000000000
 21
-69.312118999999996
  0
LINE
  8
0
  6
CONTINUOUS
 62
256
 10
126.685224000000010
 20
-68.912119000000004
 11
111.484954000000000
 21
-68.912119000000004
  0
ARC
  8
0
  6
CONTINUOUS
 62
256
 10
126.685224000000010
 20
-68.512118999999998
 40
0.400000000000006
 50
270.000000000000000
 51
350.405932000000400
  0
LINE
  8
0
  6
CONTINUOUS
 62
256
 10
131.084954000000010
 20
-75.912119000000004
 11
113.084954000000000
 21
-75.912119000000004
  0
LINE
  8
0
  6
CONTINUOUS
 62
256
 10
133.084954000000010
 20
-74.662178999999995
 11
133.084954000000010
 21
-90.912119000000004
  0
LINE
  8
0
  6
CONTINUOUS
 62
256
 10
131.084954000000010
 20
-74.662178999999995
 11
131.084954000000010
 21
-107.162178999999990
  0
LINE
  8
0
  6
CONTINUOUS
 62
256
 10
133.084954000000010
 20
-74.662178999999995
 11
131.084954000000010
 21
-74.662178999999995
  0
LINE
  8
0
  6
CONTINUOUS
 62
256
 10
126.685224000000010
 20
-112.912119000000000
 11
111.484954000000000
 21
-112.912119000000000
  0
ARC
  8
0
  6
CONTINUOUS
 62
256
 10
111.484954000000000
 20
-112.512119000000000
 40
0.400000000000006
 50
180.000000000000000
 51
270.000000000000000
  0
ARC
  8
0
  6
CONTINUOUS
 62
256
 10
113.084954000000000
 20
-107.912119000000000
 40
2.000000000000000
 50
90.000000000000000
 51
180.000000000000000
  0
LINE
  8
0
  6
CONTINUOUS
 62
256
 10
131.084954000000010
 20
-105.912119000000000
 11
113.084954000000000
 21
-105.912119000000000
  0
LINE
  8
0
  6
CONTINUOUS
 62
256
 10
133.084954000000010
 20
-107.162178999999990
 11
133.084954000000010
 21
-90.912119000000004
  0
ARC
  8
0
  6
CONTINUOUS
 62
256
 10
126.685224000000010
 20
-113.312119000000000
 40
0.400000000000005
 50
9.594067999999622
 51
90.000000000000000
  0
ARC
  8
0
  6
CONTINUOUS
 62
256
 10
127.276832000000000
 20
-113.212119000000000
 40
0.199999999999996
 50
189.594067999999960
 51
270.000000000000000
  0
LINE
  8
0
  6
CONTINUOUS
 62
256
 10
140.585280000000010
 20
-113.412121000000000
 11
127.585280000000000
 21
-113.412136000000000
  0
LINE
  8
0
  6
CONTINUOUS
 62
256
 10
133.084954000000010
 20
-107.162178999999990
 11
131.084954000000010
 21
-107.162178999999990
  0
LINE
  8
0
  6
CONTINUOUS
 62
256
 10
157.084954000000010
 20
-105.912119000000000
 11
133.084954000000010
 21
-105.912119000000000
  0
LINE
  8
0
  6
CONTINUOUS
 62
256
 10
157.084954000000010
 20
-106.212119000000000
 11
157.084954000000010
 21
-90.912119000000004
  0
LINE
  8
0
  6
CONTINUOUS
 62
256
 10
157.084954000000010
 20
-106.112119000000010
 11
179.084954000000010
 21
-106.112119000000010
  0
LINE
  8
0
  6
CONTINUOUS
 62
256
 10
158.085237000000010
 20
-115.412178999999990
 11
176.585237000000010
 21
-115.412178999999990
  0
LINE
  8
0
  6
CONTINUOUS
 62
256
 10
127.276832000000000
 20
-113.412119000000000
 11
157.685237000000000
 21
-113.412119000000000
  0
ARC
  8
0
  6
CONTINUOUS
 62
256
 10
157.685237000000000
 20
-113.812119000000000
 40
0.400000000000006
 50
0.000000000000000
 51
90.000000000000000
  0
LINE
  8
0
  6
CONTINUOUS
 62
256
 10
158.085237000000010
 20
-115.412178999999990
 11
158.085237000000010
 21
-113.812119000000000
  0
LINE
  8
0
  6
CONTINUOUS
 62
256
 10
176.585237000000010
 20
-116.312179000000000
 11
176.585237000000010
 21
-115.412178999999990
  0
LINE
  8
0
  6
CONTINUOUS
 62
256
 10
179.084954000000010
 20
-106.212119000000000
 11
179.084954000000010
 21
-90.912119000000004
  0
LINE
  8
0
  6
CONTINUOUS
 62
256
 10
157.084954000000010
 20
-75.712119000000001
 11
179.084954000000010
 21
-75.712119000000001
  0
LINE
  8
0
  6
CONTINUOUS
 62
256
 10
179.084954000000010
 20
-75.612119000000007
 11
179.084954000000010
 21
-90.912119000000004
  0
LINE
  8
0
  6
CONTINUOUS
 62
256
 10
157.084954000000010
 20
-75.912119000000004
 11
133.084954000000010
 21
-75.912119000000004
  0
LINE
  8
0
  6
CONTINUOUS
 62
256
 10
157.084954000000010
 20
-75.712119000000001
 11
157.084954000000010
 21
-90.912119000000004
  0
LINE
  8
0
  6
CONTINUOUS
 62
256
 10
127.276832000000000
 20
-68.412119000000004
 11
157.685237000000000
 21
-68.412119000000004
  0
ARC
  8
0
  6
CONTINUOUS
 62
256
 10
157.685237000000000
 20
-68.012118999999998
 40
0.400000000000006
 50
270.000000000000000
 51
0.000000000000000
  0
LINE
  8
0
  6
CONTINUOUS
 62
256
 10
111.084954000000000
 20
-72.612178999999998
 11
225.084954000000010
 21
-72.612178999999998
  0
LINE
  8
0
  6
CONTINUOUS
 62
256
 10
203.084954000000010
 20
-75.912119000000004
 11
179.084954000000010
 21
-75.912119000000004
  0
ARC
  8
0
  6
CONTINUOUS
 62
256
 10
194.484683999999990
 20
-68.012179000000003
 40
0.399999999999989
 50
179.999927000000550
 51
270.000000000000000
  0
ARC
  8
0
  6
CONTINUOUS
 62
256
 10
194.484683999999990
 20
-68.012118999999998
 40
0.399999999999989
 50
179.999927000000550
 51
270.000000000000000
  0
LINE
  8
0
  6
CONTINUOUS
 62
256
 10
194.084684000000010
 20
-68.012118999999998
 11
194.084687000000000
 21
-65.912178999999995
  0
LINE
  8
0
  6
CONTINUOUS
 62
256
 10
205.084954000000010
 20
-74.662178999999995
 11
203.084954000000010
 21
-74.662178999999995
  0
LINE
  8
0
  6
CONTINUOUS
 62
256
 10
203.084954000000010
 20
-74.662178999999995
 11
203.084954000000010
 21
-90.912119000000004
  0
LINE
  8
0
  6
CONTINUOUS
 62
256
 10
203.084954000000010
 20
-105.912119000000000
 11
179.084954000000010
 21
-105.912119000000000
  0
LINE
  8
0
  6
CONTINUOUS
 62
256
 10
203.084954000000010
 20
-107.162178999999990
 11
203.084954000000010
 21
-90.912119000000004
  0
LINE
  8
0
  6
CONTINUOUS
 62
256
 10
205.084954000000010
 20
-107.162178999999990
 11
203.084954000000010
 21
-107.162178999999990
  0
LINE
  8
0
  6
CONTINUOUS
 62
256
 10
205.084954000000010
 20
-74.662178999999995
 11
205.084954000000010
 21
-107.162178999999990
  0
LINE
  8
0
  6
CONTINUOUS
 62
256
 10
176.585237000000010
 20
-116.312179000000000
 11
194.084701000000000
 21
-116.312179000000000
  0
ARC
  8
0
  6
CONTINUOUS
 62
256
 10
194.484683999999990
 20
-113.812119000000000
 40
0.400000000000006
 50
90.000000000000000
 51
180.000072999999450
  0
LINE
  8
0
  6
CONTINUOUS
 62
256
 10
194.084684000000010
 20
-113.812119999999990
 11
194.084687000000000
 21
-116.312179000000000
  0
LINE
  8
0
  6
CONTINUOUS
 62
256
 10
194.484683999999990
 20
-113.412119000000000
 11
208.884683000000000
 21
-113.412119000000000
  0
LINE
  8
0
  6
DASHDOT
 62
256
 10
228.650490999999990
 20
-90.912178999999995
 11
107.182677000000000
 21
-90.912178999999995
  0
ARC
  8
0
  6
CONTINUOUS
 62
256
 10
208.884683000000000
 20
-113.212119000000000
 40
0.200000000000003
 50
270.000000000000000
 51
350.405932000000010
  0
ARC
  8
0
  6
CONTINUOUS
 62
256
 10
209.476291000000000
 20
-113.312119000000000
 40
0.400000000000006
 50
90.000000000000000
 51
170.405932000000040
  0
LINE
  8
0
  6
CONTINUOUS
 62
256
 10
194.484683999999990
 20
-68.412119000000004
 11
208.884683000000000
 21
-68.412119000000004
  0
ARC
  8
0
  6
CONTINUOUS
 62
256
 10
208.884683000000000
 20
-68.612119000000007
 40
0.199999999999996
 50
9.594067999999961
 51
90.000000000000000
  0
LINE
  8
0
  6
CONTINUOUS
 62
256
 10
209.476291000000000
 20
-68.912119000000004
 11
225.084954000000010
 21
-68.912119000000004
  0
ARC
  8
0
  6
CONTINUOUS
 62
256
 10
209.476291000000000
 20
-68.512118999999998
 40
0.399999999999991
 50
189.594067999999960
 51
270.000000000000000
  0
LINE
  8
0
  6
CONTINUOUS
 62
256
 10
223.084954000000010
 20
-75.912119000000004
 11
205.084954000000010
 21
-75.912119000000004
  0
ARC
  8
0
  6
CONTINUOUS
 62
256
 10
223.084954000000010
 20
-73.912119000000004
 40
2.000000000000000
 50
270.000000000000000
 51
0.000000000000000
  0
LINE
  8
0
  6
CONTINUOUS
 62
256
 10
225.084954000000010
 20
-112.512119000000000
 11
225.084954000000010
 21
-68.912119000000004
  0
LINE
  8
0
  6
CONTINUOUS
 62
256
 10
223.084954000000010
 20
-105.912119000000000
 11
205.084954000000010
 21
-105.912119000000000
  0
LINE
  8
0
  6
CONTINUOUS
 62
256
 10
209.476291000000000
 20
-112.912119000000000
 11
224.684954000000000
 21
-112.912119000000000
  0
ARC
  8
0
  6
CONTINUOUS
 62
256
 10
223.084954000000010
 20
-107.912119000000000
 40
2.000000000000000
 50
0.000000000000000
 51
90.000000000000000
  0
ARC
  8
0
  6
CONTINUOUS
 62
256
 10
224.684954000000000
 20
-112.512119000000000
 40
0.400000000000006
 50
270.000000000000000
 51
0.000000000000000
  0
LINE
  8
0
  6
CONTINUOUS
 62
256
 10
313.038162000000000
 20
-72.612178999999998
 11
313.038162000000000
 21
-76.455347000000003
  0
LINE
  8
0
  6
CONTINUOUS
 62
256
 10
321.038162000000000
 20
-72.612178999999998
 11
313.038162000000000
 21
-72.612178999999998
  0
CIRCLE
  8
0
  6
CONTINUOUS
 62
256
 10
317.038162000000000
 20
-90.912178999999995
 40
22.000000000000000
  0
ARC
  8
0
  6
CONTINUOUS
 62
256
 10
317.038162000000000
 20
-90.912178999999995
 40
15.000000000000002
 50
105.466009999999980
 51
74.533990000000031
  0
LINE
  8
0
  6
CONTINUOUS
 62
256
 10
321.038162000000000
 20
-72.612178999999998
 11
321.038162000000000
 21
-76.455347000000003
  0
LINE
  8
0
  6
DASHDOT
 62
256
 10
317.038162000000000
 20
-63.458824000000000
 11
317.038162000000000
 21
-117.734480000000000
  0
LINE
  8
0
  6
DASHDOT
 62
256
 10
342.324013999999980
 20
-90.912178999999995
 11
291.256771000000010
 21
-90.912178999999995
  0
LINE
  8
0
  6
DASHDOT
 62
256
 10
27.982944000000000
 20
-29.412178999999998
 11
27.982944000000000
 21
-55.180087000000000
  0
LINE
  8
0
  6
DASHDOT
 62
256
 10
41.482944000000003
 20
-42.912179000000002
 11
16.937631000000000
 21
-42.912179000000002
  0
CIRCLE
  8
0
  6
CONTINUOUS
 62
256
 10
-106.017056000000000
 20
-42.912179000000002
 40
4.188000000000002
  0
CIRCLE
  8
0
  6
CONTINUOUS
 62
256
 10
-106.017056000000000
 20
-42.912179000000002
 40
5.000000000000000
  0
CIRCLE
  8
0
  6
CONTINUOUS
 62
256
 10
-106.017056000000000
 20
-164.912179000000010
 40
4.188000000000002
  0
CIRCLE
  8
0
  6
CONTINUOUS
 62
256
 10
-106.017056000000000
 20
-164.912179000000010
 40
5.000000000000000
  0
CIRCLE
  8
0
  6
CONTINUOUS
 62
256
 10
27.982944000000000
 20
-164.912179000000010
 40
4.187999999999999
  0
CIRCLE
  8
0
  6
CONTINUOUS
 62
256
 10
27.982944000000000
 20
-164.912179000000010
 40
5.000000000000004
  0
TEXT
  8
0
  6
CONTINUOUS
 62
256
 10
559.995727539062500
 20
-226.837249755859370
 40
3.299999952316284
  1
1/1
 50
0.000002504478167
 41
0.850909097352304
  7
STANDARD1
  0
TEXT
  8
0
  6
CONTINUOUS
 62
256
 10
557.577758789062500
 20
-226.837249755859370
 40
3.299999952316284
  1
 
 50
0.000002504478167
 41
1.733333298293026
  7
STANDARD1
  0
TEXT
  8
0
  6
CONTINUOUS
 62
256
 10
544.527099609375000
 20
-226.837249755859370
 40
3.299999952316284
  1
SCALE
 50
0.000002504478167
 41
0.821052645401140
  7
STANDARD1
  0
TEXT
  8
0
  6
CONTINUOUS
 62
256
 10
541.275756835937500
 20
-226.837249755859370
 40
3.299999952316284
  1
 
 50
0.000002504478167
 41
1.733333298293026
  7
STANDARD1
  0
TEXT
  8
0
  6
CONTINUOUS
 62
256
 10
556.129943847656250
 20
-221.537246704101560
 40
3.299999952316284
  1
1/240
 50
0.000002504478167
 41
0.821052645401140
  7
STANDARD1
  0
TEXT
  8
0
  6
CONTINUOUS
 62
256
 10
552.347900390625000
 20
-221.537246704101560
 40
3.299999952316284
  1
ü`
 50
0.000002504478167
 41
1.176000019651471
  7
STANDARD1
  0
TEXT
  8
0
  6
CONTINUOUS
 62
256
 10
541.275756835937500
 20
-221.537246704101560
 40
3.299999952316284
  1
1/80
 50
0.000002504478167
 41
0.832000075658163
  7
STANDARD1
  0
TEXT
  8
0
  6
CONTINUOUS
 62
256
 10
541.275756835937500
 20
-216.237243652343750
 40
3.299999952316284
  1
GM-SHYMB-RH
 50
0.000002504478167
 41
0.798139564113939
  7
STANDARD1
  0
TEXT
  8
0
  6
CONTINUOUS
 62
256
 10
547.101135253906250
 20
-210.937255859375000
 40
3.299999952316284
  1
0.2kW
 50
0.000002504478167
 41
0.821052645401140
  7
STANDARD1
  0
TEXT
  8
0
  6
CONTINUOUS
 62
256
 10
541.275756835937500
 20
-210.937255859375000
 40
3.299999952316284
  1
  
 50
0.000002504478167
 41
1.485714400175845
  7
STANDARD1
  0
TEXT
  8
0
  6
CONTINUOUS
 62
256
 10
547.095214843750000
 20
-205.637252807617190
 40
3.299999952316284
  1
SHY053
 50
0.000002504478167
 41
0.813913121261144
  7
STANDARD1
  0
TEXT
  8
0
  6
CONTINUOUS
 62
256
 10
541.275756835937500
 20
-205.637252807617190
 40
3.299999952316284
  1
  
 50
0.000002504478167
 41
1.485714400175845
  7
STANDARD1
  0
LINE
  8
0
  6
DASHDOT
 62
256
 10
-460.009960999999980
 20
-23.525472000000001
 11
-460.009960999999980
 21
-200.399115999999990
  0
LINE
  8
0
  6
DASHDOT
 62
256
 10
-521.733691000000020
 20
-105.894724000000000
 11
-396.515732000000010
 21
-105.894724000000000
  0
LINE
  8
0
  6
CONTINUOUS
 62
256
 10
-424.009960999999980
 20
-163.394724000000000
 11
-424.009960999999980
 21
-190.761389000000010
  0
LINE
  8
0
  6
CONTINUOUS
 62
256
 10
-496.009960999999980
 20
-163.394724000000000
 11
-496.009960999999980
 21
-190.761389000000010
  0
LINE
  8
0
  6
CONTINUOUS
 62
256
 10
-457.509960999999980
 20
-197.894724000000000
 11
-457.509960999999980
 21
-197.384307000000010
  0
LINE
  8
0
  6
CONTINUOUS
 62
256
 10
-462.509960999999980
 20
-197.894724000000000
 11
-457.509960999999980
 21
-197.894724000000000
  0
LINE
  8
0
  6
CONTINUOUS
 62
256
 10
-462.509960999999980
 20
-197.894724000000000
 11
-462.509960999999980
 21
-197.384307000000010
  0
ARC
  8
0
  6
CONTINUOUS
 62
256
 10
-491.009960999999980
 20
-190.761389000000010
 40
5.000000000000000
 50
180.000000000000000
 51
263.967950999999970
  0
ARC
  8
0
  6
CONTINUOUS
 62
256
 10
-429.009960999999980
 20
-190.761389000000010
 40
5.000000000000002
 50
276.032049000000030
 51
0.000000000000000
  0
ARC
  8
0
  6
CONTINUOUS
 62
256
 10
-460.009960999999980
 20
102.605276000000000
 40
300.000000000000000
 50
263.967951000000030
 51
276.032048999999970
  0
ARC
  8
0
  6
CONTINUOUS
 62
256
 10
-442.353518000000010
 20
-109.394724000000000
 40
1.000000000000000
 50
90.000000000000000
 51
168.787729000000270
  0
LINE
  8
0
  6
CONTINUOUS
 62
256
 10
-439.303681999999980
 20
-108.394724000000000
 11
-442.353518000000010
 21
-108.394724000000000
  0
ARC
  8
0
  6
CONTINUOUS
 62
256
 10
-439.303681999999980
 20
-109.394724000000000
 40
0.999999999999978
 50
350.405932000000010
 51
90.000000000000000
  0
ARC
  8
0
  6
CONTINUOUS
 62
256
 10
-433.742110000000030
 20
-109.394724000000000
 40
1.000000000000000
 50
90.000000000000000
 51
172.410458000000010
  0
LINE
  8
0
  6
CONTINUOUS
 62
256
 10
-430.718324000000000
 20
-108.394724000000000
 11
-433.742110000000030
 21
-108.394724000000000
  0
ARC
  8
0
  6
CONTINUOUS
 62
256
 10
-430.718324000000000
 20
-109.394724000000000
 40
1.000000000000019
 50
353.186146000000240
 51
90.000000000000000
  0
ARC
  8
0
  6
CONTINUOUS
 62
256
 10
-425.185401000000010
 20
-109.394724000000000
 40
1.000000000000000
 50
90.000000000000000
 51
174.260829999999570
  0
LINE
  8
0
  6
CONTINUOUS
 62
256
 10
-422.171489000000010
 20
-108.394724000000000
 11
-425.185401000000010
 21
-108.394724000000000
  0
ARC
  8
0
  6
CONTINUOUS
 62
256
 10
-422.171489000000010
 20
-109.394724000000000
 40
1.000000000000027
 50
354.715267000000210
 51
90.000000000000000
  0
ARC
  8
0
  6
CONTINUOUS
 62
256
 10
-442.333054000000000
 20
-129.512025999999990
 40
0.999999999999984
 50
210.000000000000510
 51
306.813854000001190
  0
LINE
  8
0
  6
CONTINUOUS
 62
256
 10
-443.199078999999980
 20
-130.012025999999990
 11
-444.710972000000030
 21
-127.393350000000000
  0
ARC
  8
0
  6
CONTINUOUS
 62
256
 10
-443.844946999999990
 20
-126.893350000000000
 40
0.999999999999993
 50
127.589541999998830
 51
210.000000000000510
  0
ARC
  8
0
  6
CONTINUOUS
 62
256
 10
-438.059636000000010
 20
-136.913802000000000
 40
0.999999999999984
 50
210.000000000000510
 51
305.284733000000980
  0
LINE
  8
0
  6
CONTINUOUS
 62
256
 10
-438.925661999999990
 20
-137.413802000000000
 11
-440.432617999999990
 21
-134.803677999999990
  0
ARC
  8
0
  6
CONTINUOUS
 62
256
 10
-439.566592000000010
 20
-134.303677999999990
 40
0.999999999999998
 50
125.739170000000210
 51
210.000000000000510
  0
ARC
  8
0
  6
CONTINUOUS
 62
256
 10
-452.562992000000010
 20
-111.793253000000010
 40
0.999999999999985
 50
141.618271999999000
 51
210.000000000000510
  0
LINE
  8
0
  6
CONTINUOUS
 62
256
 10
-451.844898000000000
 20
-115.037029000000000
 11
-453.429016999999990
 21
-112.293253000000010
  0
ARC
  8
0
  6
CONTINUOUS
 62
256
 10
-448.150650999999980
 20
-119.435652000000000
 40
1.000000000000006
 50
131.212270999999760
 51
210.000000000000510
  0
LINE
  8
0
  6
CONTINUOUS
 62
256
 10
-447.491758000000000
 20
-122.576888000000000
 11
-449.016676000000020
 21
-119.935652000000000
  0
ARC
  8
0
  6
CONTINUOUS
 62
256
 10
-446.625733000000030
 20
-122.076888000000000
 40
0.999999999999984
 50
210.000000000000510
 51
309.594067999999310
  0
ARC
  8
0
  6
CONTINUOUS
 62
256
 10
-451.178200000000000
 20
-109.394724000000000
 40
1.000000000000000
 50
90.000000000000000
 51
158.381728000000550
  0
ARC
  8
0
  6
CONTINUOUS
 62
256
 10
-460.009960999999980
 20
-105.894724000000000
 40
8.500000000000005
 50
321.618272000000050
 51
338.381728000000010
  0
ARC
  8
0
  6
CONTINUOUS
 62
256
 10
-450.978872000000020
 20
-114.537029000000000
 40
0.999999999999984
 50
210.000000000000510
 51
316.260205000000270
  0
LINE
  8
0
  6
CONTINUOUS
 62
256
 10
-448.009960999999980
 20
-108.394724000000000
 11
-451.178200000000000
 21
-108.394724000000000
  0
ARC
  8
0
  6
CONTINUOUS
 62
256
 10
-448.009960999999980
 20
-109.394724000000000
 40
0.999999999999976
 50
343.739794999999330
 51
90.000000000000000
  0
ARC
  8
0
  6
CONTINUOUS
 62
256
 10
-460.009960999999980
 20
-105.894724000000000
 40
13.500000000000004
 50
316.260204999999980
 51
343.739794999999960
  0
ARC
  8
0
  6
CONTINUOUS
 62
256
 10
-460.009960999999980
 20
-105.894724000000000
 40
17.000000000000014
 50
311.212270999999990
 51
348.787729000000010
  0
ARC
  8
0
  6
CONTINUOUS
 62
256
 10
-460.009960999999980
 20
-105.894724000000000
 40
21.999999999999986
 50
309.594067999999940
 51
350.405932000000010
  0
ARC
  8
0
  6
CONTINUOUS
 62
256
 10
-460.009960999999980
 20
-105.894724000000000
 40
30.500000000000025
 50
306.813854000000050
 51
353.186146000000010
  0
ARC
  8
0
  6
CONTINUOUS
 62
256
 10
-460.009960999999980
 20
-105.894724000000000
 40
25.499999999999986
 50
307.589541999999990
 51
352.410458000000010
  0
ARC
  8
0
  6
CONTINUOUS
 62
256
 10
-460.009960999999980
 20
-105.894724000000000
 40
33.999999999999972
 50
305.739169999999940
 51
354.260830000000000
  0
ARC
  8
0
  6
CONTINUOUS
 62
256
 10
-460.009960999999980
 20
-105.894724000000000
 40
39.000000000000000
 50
305.284733000000020
 51
354.715266999999980
  0
ARC
  8
0
  6
CONTINUOUS
 62
256
 10
-448.395232000000020
 20
-133.012025999999990
 40
1.000000000000000
 50
293.186146000000120
 51
30.000000000000544
  0
LINE
  8
0
  6
CONTINUOUS
 62
256
 10
-447.529205999999990
 20
-132.512025999999990
 11
-449.041098999999970
 21
-129.893350000000000
  0
ARC
  8
0
  6
CONTINUOUS
 62
256
 10
-449.907125000000010
 20
-130.393350000000000
 40
0.999999999999984
 50
30.000000000000544
 51
112.410458000000460
  0
ARC
  8
0
  6
CONTINUOUS
 62
256
 10
-444.121813999999970
 20
-140.413802000000000
 40
1.000000000000004
 50
294.715267000000150
 51
30.000000000000544
  0
LINE
  8
0
  6
CONTINUOUS
 62
256
 10
-443.255788999999990
 20
-139.913802000000000
 11
-444.762745000000000
 21
-137.303677999999990
  0
ARC
  8
0
  6
CONTINUOUS
 62
256
 10
-445.628769999999970
 20
-137.803677999999990
 40
0.999999999999984
 50
30.000000000000544
 51
114.260829999998650
  0
ARC
  8
0
  6
CONTINUOUS
 62
256
 10
-458.625170000000030
 20
-115.293253000000010
 40
0.999999999999984
 50
30.000000000000544
 51
98.381727999998901
  0
LINE
  8
0
  6
CONTINUOUS
 62
256
 10
-456.175025000000010
 20
-117.537029000000000
 11
-457.759143999999990
 21
-114.793253000000010
  0
ARC
  8
0
  6
CONTINUOUS
 62
256
 10
-454.212828000000000
 20
-122.935652000000000
 40
0.999999999999984
 50
30.000000000000544
 51
108.787729000000750
  0
LINE
  8
0
  6
CONTINUOUS
 62
256
 10
-451.821885000000010
 20
-125.076888000000000
 11
-453.346803000000020
 21
-122.435652000000000
  0
ARC
  8
0
  6
CONTINUOUS
 62
256
 10
-452.687910999999990
 20
-125.576888000000000
 40
0.999999999999993
 50
290.405931999999840
 51
30.000000000000544
  0
ARC
  8
0
  6
CONTINUOUS
 62
256
 10
-461.394752999999980
 20
-115.293253000000010
 40
0.999999999999998
 50
81.618272000001099
 51
149.999999999999460
  0
ARC
  8
0
  6
CONTINUOUS
 62
256
 10
-460.009960999999980
 20
-105.894724000000000
 40
8.500000000000002
 50
261.618271999999930
 51
278.381728000000070
  0
ARC
  8
0
  6
CONTINUOUS
 62
256
 10
-457.041049999999980
 20
-118.037029000000000
 40
1.000000000000011
 50
283.739795000001270
 51
30.000000000000544
  0
LINE
  8
0
  6
CONTINUOUS
 62
256
 10
-463.844898000000000
 20
-117.537029000000000
 11
-462.260778000000020
 21
-114.793253000000010
  0
ARC
  8
0
  6
CONTINUOUS
 62
256
 10
-462.978872000000020
 20
-118.037029000000000
 40
0.999999999999984
 50
149.999999999999460
 51
256.260204999998730
  0
ARC
  8
0
  6
CONTINUOUS
 62
256
 10
-460.009960999999980
 20
-105.894724000000000
 40
13.500000000000004
 50
256.260205000000040
 51
283.739794999999960
  0
ARC
  8
0
  6
CONTINUOUS
 62
256
 10
-465.807094000000010
 20
-122.935652000000000
 40
1.000000000000010
 50
71.212270999999262
 51
149.999999999999460
  0
LINE
  8
0
  6
CONTINUOUS
 62
256
 10
-468.198037000000000
 20
-125.076888000000000
 11
-466.673119999999980
 21
-122.435652000000000
  0
ARC
  8
0
  6
CONTINUOUS
 62
256
 10
-460.009960999999980
 20
-105.894724000000000
 40
16.999999999999993
 50
251.212271000000040
 51
288.787728999999960
  0
ARC
  8
0
  6
CONTINUOUS
 62
256
 10
-467.332012000000020
 20
-125.576888000000000
 40
0.999999999999984
 50
149.999999999999460
 51
249.594068000000160
  0
ARC
  8
0
  6
CONTINUOUS
 62
256
 10
-470.112798000000000
 20
-130.393350000000000
 40
1.000000000000009
 50
67.589541999999554
 51
149.999999999999460
  0
ARC
  8
0
  6
CONTINUOUS
 62
256
 10
-474.391152999999970
 20
-137.803677999999990
 40
0.999999999999992
 50
65.739170000001337
 51
149.999999999999460
  0
ARC
  8
0
  6
CONTINUOUS
 62
256
 10
-460.009960999999980
 20
-105.894724000000000
 40
21.999999999999996
 50
249.594067999999990
 51
290.405932000000010
  0
LINE
  8
0
  6
CONTINUOUS
 62
256
 10
-472.490716000000020
 20
-132.512025999999990
 11
-470.978822999999980
 21
-129.893350000000000
  0
ARC
  8
0
  6
CONTINUOUS
 62
256
 10
-471.624690999999980
 20
-133.012025999999990
 40
0.999999999999984
 50
149.999999999999460
 51
246.813853999999880
  0
ARC
  8
0
  6
CONTINUOUS
 62
256
 10
-460.009960999999980
 20
-105.894724000000000
 40
30.500000000000011
 50
246.813853999999990
 51
293.186146000000010
  0
ARC
  8
0
  6
CONTINUOUS
 62
256
 10
-460.009960999999980
 20
-105.894724000000000
 40
25.500000000000007
 50
247.589541999999940
 51
292.410458000000010
  0
ARC
  8
0
  6
CONTINUOUS
 62
256
 10
-460.009960999999980
 20
-105.894724000000000
 40
34.000000000000014
 50
245.739170000000000
 51
294.260830000000000
  0
ARC
  8
0
  6
CONTINUOUS
 62
256
 10
-460.009960999999980
 20
-105.894724000000000
 40
39.000000000000014
 50
245.284732999999960
 51
294.715266999999980
  0
LINE
  8
0
  6
CONTINUOUS
 62
256
 10
-476.764134000000010
 20
-139.913802000000000
 11
-475.257178000000010
 21
-137.303677999999990
  0
ARC
  8
0
  6
CONTINUOUS
 62
256
 10
-475.898108999999980
 20
-140.413802000000000
 40
0.999999999999984
 50
149.999999999999460
 51
245.284732999999870
  0
CIRCLE
  8
0
  6
CONTINUOUS
 62
256
 10
-460.009960999999980
 20
-105.894724000000000
 40
5.000000000000000
  0
ARC
  8
0
  6
CONTINUOUS
 62
256
 10
-481.960286999999990
 20
-136.913802000000000
 40
1.000000000000016
 50
234.715266999999020
 51
329.999999999999490
  0
ARC
  8
0
  6
CONTINUOUS
 62
256
 10
-480.453329999999990
 20
-134.303677999999990
 40
0.999999999999984
 50
329.999999999999490
 51
54.260829999999778
  0
ARC
  8
0
  6
CONTINUOUS
 62
256
 10
-494.834521999999990
 20
-109.394724000000000
 40
0.999999999999978
 50
5.739170000000447
 51
90.000000000000000
  0
ARC
  8
0
  6
CONTINUOUS
 62
256
 10
-497.848434000000000
 20
-109.394724000000000
 40
1.000000000000000
 50
90.000000000000000
 51
185.284732999999760
  0
ARC
  8
0
  6
CONTINUOUS
 62
256
 10
-486.277811999999980
 20
-109.394724000000000
 40
0.999999999999990
 50
7.589541999999997
 51
90.000000000000000
  0
ARC
  8
0
  6
CONTINUOUS
 62
256
 10
-477.686869000000000
 20
-129.512025999999990
 40
1.000000000000000
 50
233.186145999998760
 51
329.999999999999490
  0
ARC
  8
0
  6
CONTINUOUS
 62
256
 10
-476.174976000000020
 20
-126.893350000000000
 40
0.999999999999984
 50
329.999999999999490
 51
52.410458000001171
  0
ARC
  8
0
  6
CONTINUOUS
 62
256
 10
-489.301598000000010
 20
-109.394724000000000
 40
1.000000000000000
 50
90.000000000000000
 51
186.813853999999760
  0
ARC
  8
0
  6
CONTINUOUS
 62
256
 10
-480.716241000000020
 20
-109.394724000000000
 40
1.000000000000000
 50
90.000000000000000
 51
189.594067999999960
  0
ARC
  8
0
  6
CONTINUOUS
 62
256
 10
-477.666405000000000
 20
-109.394724000000000
 40
1.000000000000016
 50
11.212270999999729
 51
90.000000000000000
  0
ARC
  8
0
  6
CONTINUOUS
 62
256
 10
-473.394189999999980
 20
-122.076888000000000
 40
0.999999999999988
 50
230.405932000000690
 51
329.999999999999490
  0
ARC
  8
0
  6
CONTINUOUS
 62
256
 10
-471.869272000000020
 20
-119.435652000000000
 40
0.999999999999984
 50
329.999999999999490
 51
48.787728999999715
  0
ARC
  8
0
  6
CONTINUOUS
 62
256
 10
-469.041049999999980
 20
-114.537029000000000
 40
1.000000000000005
 50
223.739794999999760
 51
329.999999999999490
  0
ARC
  8
0
  6
CONTINUOUS
 62
256
 10
-472.009960999999980
 20
-109.394724000000000
 40
1.000000000000000
 50
90.000000000000000
 51
196.260205000000670
  0
ARC
  8
0
  6
CONTINUOUS
 62
256
 10
-468.841722000000000
 20
-109.394724000000000
 40
1.000000000000013
 50
21.618271999999475
 51
90.000000000000000
  0
ARC
  8
0
  6
CONTINUOUS
 62
256
 10
-467.456931000000000
 20
-111.793253000000010
 40
0.999999999999984
 50
329.999999999999490
 51
38.381728000001026
  0
ARC
  8
0
  6
CONTINUOUS
 62
256
 10
-460.009960999999980
 20
-105.894724000000000
 40
38.999999999999986
 50
185.284732999999990
 51
234.715266999999980
  0
ARC
  8
0
  6
CONTINUOUS
 62
256
 10
-460.009960999999980
 20
-105.894724000000000
 40
30.499999999999986
 50
186.813853999999990
 51
233.186146000000040
  0
ARC
  8
0
  6
CONTINUOUS
 62
256
 10
-460.009960999999980
 20
-105.894724000000000
 40
34.000000000000028
 50
185.739169999999970
 51
234.260829999999970
  0
ARC
  8
0
  6
CONTINUOUS
 62
256
 10
-460.009960999999980
 20
-105.894724000000000
 40
25.500000000000011
 50
187.589541999999990
 51
232.410458000000030
  0
ARC
  8
0
  6
CONTINUOUS
 62
256
 10
-460.009960999999980
 20
-105.894724000000000
 40
21.999999999999975
 50
189.594067999999960
 51
230.405932000000060
  0
ARC
  8
0
  6
CONTINUOUS
 62
256
 10
-460.009960999999980
 20
-105.894724000000000
 40
16.999999999999993
 50
191.212271000000020
 51
228.787728999999980
  0
ARC
  8
0
  6
CONTINUOUS
 62
256
 10
-460.009960999999980
 20
-105.894724000000000
 40
13.499999999999989
 50
196.260205000000010
 51
223.739794999999960
  0
ARC
  8
0
  6
CONTINUOUS
 62
256
 10
-460.009960999999980
 20
-105.894724000000000
 40
8.500000000000016
 50
201.618271999999960
 51
218.381727999999950
  0
LINE
  8
0
  6
CONTINUOUS
 62
256
 10
-476.820843000000020
 20
-130.012025999999990
 11
-475.308949999999980
 21
-127.393350000000000
  0
LINE
  8
0
  6
CONTINUOUS
 62
256
 10
-497.848434000000000
 20
-108.394724000000000
 11
-494.834521999999990
 21
-108.394724000000000
  0
LINE
  8
0
  6
CONTINUOUS
 62
256
 10
-481.094261000000020
 20
-137.413802000000000
 11
-479.587305000000010
 21
-134.803677999999990
  0
LINE
  8
0
  6
CONTINUOUS
 62
256
 10
-472.528164000000000
 20
-122.576888000000000
 11
-471.003246999999990
 21
-119.935652000000000
  0
LINE
  8
0
  6
CONTINUOUS
 62
256
 10
-468.175025000000010
 20
-115.037029000000000
 11
-466.590905000000020
 21
-112.293253000000010
  0
LINE
  8
0
  6
CONTINUOUS
 62
256
 10
-472.009960999999980
 20
-108.394724000000000
 11
-468.841722000000000
 21
-108.394724000000000
  0
LINE
  8
0
  6
CONTINUOUS
 62
256
 10
-480.716241000000020
 20
-108.394724000000000
 11
-477.666405000000000
 21
-108.394724000000000
  0
LINE
  8
0
  6
CONTINUOUS
 62
256
 10
-489.301598000000010
 20
-108.394724000000000
 11
-486.277811999999980
 21
-108.394724000000000
  0
ARC
  8
0
  6
CONTINUOUS
 62
256
 10
-460.009960999999980
 20
-105.894724000000000
 40
38.999999999999993
 50
65.284733000000031
 51
114.715266999999980
  0
ARC
  8
0
  6
CONTINUOUS
 62
256
 10
-460.009960999999980
 20
-105.894724000000000
 40
34.000000000000000
 50
65.739169999999987
 51
114.260830000000010
  0
ARC
  8
0
  6
CONTINUOUS
 62
256
 10
-460.009960999999980
 20
-105.894724000000000
 40
25.500000000000007
 50
67.589541999999966
 51
112.410458000000050
  0
ARC
  8
0
  6
CONTINUOUS
 62
256
 10
-460.009960999999980
 20
-105.894724000000000
 40
30.500000000000011
 50
66.813853999999992
 51
113.186146000000010
  0
ARC
  8
0
  6
CONTINUOUS
 62
256
 10
-460.009960999999980
 20
-105.894724000000000
 40
21.999999999999996
 50
69.594067999999993
 51
110.405932000000020
  0
ARC
  8
0
  6
CONTINUOUS
 62
256
 10
-460.009960999999980
 20
-105.894724000000000
 40
16.999999999999993
 50
71.212271000000044
 51
108.787728999999960
  0
ARC
  8
0
  6
CONTINUOUS
 62
256
 10
-460.009960999999980
 20
-105.894724000000000
 40
13.500000000000004
 50
76.260205000000070
 51
103.739794999999930
  0
ARC
  8
0
  6
CONTINUOUS
 62
256
 10
-457.041049999999980
 20
-93.752419000000003
 40
0.999999999999984
 50
329.999999999999490
 51
76.260204999998734
  0
ARC
  8
0
  6
CONTINUOUS
 62
256
 10
-452.687910999999990
 20
-86.212559999999996
 40
0.999999999999984
 50
329.999999999999490
 51
69.594068000000149
  0
LINE
  8
0
  6
CONTINUOUS
 62
256
 10
-451.821885000000010
 20
-86.712559999999996
 11
-453.346803000000020
 21
-89.353795000000005
  0
ARC
  8
0
  6
CONTINUOUS
 62
256
 10
-454.212828000000000
 20
-88.853795000000005
 40
1.000000000000010
 50
251.212270999999220
 51
329.999999999999490
  0
LINE
  8
0
  6
CONTINUOUS
 62
256
 10
-456.175025000000010
 20
-94.252419000000003
 11
-457.759143999999990
 21
-96.996194000000003
  0
ARC
  8
0
  6
CONTINUOUS
 62
256
 10
-458.625170000000030
 20
-96.496194000000003
 40
0.999999999999998
 50
261.618272000001130
 51
329.999999999999490
  0
ARC
  8
0
  6
CONTINUOUS
 62
256
 10
-445.628769999999970
 20
-73.985770000000002
 40
0.999999999999992
 50
245.739170000001340
 51
329.999999999999490
  0
LINE
  8
0
  6
CONTINUOUS
 62
256
 10
-443.255788999999990
 20
-71.875645000000006
 11
-444.762745000000000
 21
-74.485770000000002
  0
ARC
  8
0
  6
CONTINUOUS
 62
256
 10
-444.121813999999970
 20
-71.375645000000006
 40
0.999999999999984
 50
329.999999999999490
 51
65.284732999999861
  0
ARC
  8
0
  6
CONTINUOUS
 62
256
 10
-449.907125000000010
 20
-81.396096999999997
 40
1.000000000000009
 50
247.589541999999540
 51
329.999999999999490
  0
LINE
  8
0
  6
CONTINUOUS
 62
256
 10
-447.529205999999990
 20
-79.277422000000001
 11
-449.041098999999970
 21
-81.896096999999997
  0
ARC
  8
0
  6
CONTINUOUS
 62
256
 10
-448.395232000000020
 20
-78.777422000000001
 40
0.999999999999984
 50
329.999999999999490
 51
66.813853999999878
  0
ARC
  8
0
  6
CONTINUOUS
 62
256
 10
-460.009960999999980
 20
-105.894724000000000
 40
38.999999999999986
 50
5.284733000000007
 51
54.715266999999990
  0
ARC
  8
0
  6
CONTINUOUS
 62
256
 10
-460.009960999999980
 20
-105.894724000000000
 40
34.000000000000028
 50
5.739170000000004
 51
54.260829999999963
  0
ARC
  8
0
  6
CONTINUOUS
 62
256
 10
-460.009960999999980
 20
-105.894724000000000
 40
25.500000000000011
 50
7.589541999999985
 51
52.410458000000027
  0
ARC
  8
0
  6
CONTINUOUS
 62
256
 10
-460.009960999999980
 20
-105.894724000000000
 40
30.499999999999986
 50
6.813854000000005
 51
53.186146000000043
  0
ARC
  8
0
  6
CONTINUOUS
 62
256
 10
-460.009960999999980
 20
-105.894724000000000
 40
21.999999999999979
 50
9.594068000000020
 51
50.405932000000043
  0
ARC
  8
0
  6
CONTINUOUS
 62
256
 10
-460.009960999999980
 20
-105.894724000000000
 40
16.999999999999993
 50
11.212271000000010
 51
48.787728999999970
  0
ARC
  8
0
  6
CONTINUOUS
 62
256
 10
-460.009960999999980
 20
-105.894724000000000
 40
13.499999999999989
 50
16.260205000000035
 51
43.739795000000001
  0
ARC
  8
0
  6
CONTINUOUS
 62
256
 10
-448.009960999999980
 20
-102.394724000000000
 40
1.000000000000000
 50
270.000000000000000
 51
16.260205000000671
  0
LINE
  8
0
  6
CONTINUOUS
 62
256
 10
-448.009960999999980
 20
-103.394724000000000
 11
-451.178200000000000
 21
-103.394724000000000
  0
ARC
  8
0
  6
CONTINUOUS
 62
256
 10
-450.978872000000020
 20
-97.252419000000003
 40
1.000000000000005
 50
43.739794999999773
 51
149.999999999999460
  0
ARC
  8
0
  6
CONTINUOUS
 62
256
 10
-460.009960999999980
 20
-105.894724000000000
 40
8.500000000000016
 50
21.618271999999980
 51
38.381727999999960
  0
ARC
  8
0
  6
CONTINUOUS
 62
256
 10
-451.178200000000000
 20
-102.394724000000000
 40
1.000000000000013
 50
201.618271999999450
 51
270.000000000000000
  0
ARC
  8
0
  6
CONTINUOUS
 62
256
 10
-446.625733000000030
 20
-89.712559999999996
 40
0.999999999999988
 50
50.405932000000682
 51
149.999999999999460
  0
LINE
  8
0
  6
CONTINUOUS
 62
256
 10
-447.491758000000000
 20
-89.212559999999996
 11
-449.016676000000020
 21
-91.853795000000005
  0
ARC
  8
0
  6
CONTINUOUS
 62
256
 10
-448.150650999999980
 20
-92.353795000000005
 40
0.999999999999984
 50
149.999999999999460
 51
228.787728999999730
  0
LINE
  8
0
  6
CONTINUOUS
 62
256
 10
-451.844898000000000
 20
-96.752419000000003
 11
-453.429016999999990
 21
-99.496194000000003
  0
ARC
  8
0
  6
CONTINUOUS
 62
256
 10
-452.562992000000010
 20
-99.996194000000003
 40
0.999999999999984
 50
149.999999999999460
 51
218.381728000001000
  0
ARC
  8
0
  6
CONTINUOUS
 62
256
 10
-439.566592000000010
 20
-77.485770000000002
 40
0.999999999999984
 50
149.999999999999460
 51
234.260829999999740
  0
LINE
  8
0
  6
CONTINUOUS
 62
256
 10
-438.925661999999990
 20
-74.375645000000006
 11
-440.432617999999990
 21
-76.985770000000002
  0
ARC
  8
0
  6
CONTINUOUS
 62
256
 10
-438.059636000000010
 20
-74.875645000000006
 40
1.000000000000016
 50
54.715266999999017
 51
149.999999999999460
  0
ARC
  8
0
  6
CONTINUOUS
 62
256
 10
-443.844946999999990
 20
-84.896096999999997
 40
0.999999999999984
 50
149.999999999999460
 51
232.410458000001200
  0
LINE
  8
0
  6
CONTINUOUS
 62
256
 10
-443.199078999999980
 20
-81.777422000000001
 11
-444.710972000000030
 21
-84.396096999999997
  0
ARC
  8
0
  6
CONTINUOUS
 62
256
 10
-442.333054000000000
 20
-82.277422000000001
 40
1.000000000000011
 50
53.186145999999269
 51
149.999999999999460
  0
ARC
  8
0
  6
CONTINUOUS
 62
256
 10
-422.171489000000010
 20
-102.394724000000000
 40
1.000000000000000
 50
270.000000000000000
 51
5.284732999999778
  0
LINE
  8
0
  6
CONTINUOUS
 62
256
 10
-422.171489000000010
 20
-103.394724000000000
 11
-425.185401000000010
 21
-103.394724000000000
  0
ARC
  8
0
  6
CONTINUOUS
 62
256
 10
-425.185401000000010
 20
-102.394724000000000
 40
0.999999999999978
 50
185.739170000000430
 51
270.000000000000000
  0
ARC
  8
0
  6
CONTINUOUS
 62
256
 10
-430.718324000000000
 20
-102.394724000000000
 40
1.000000000000000
 50
270.000000000000000
 51
6.813853999999752
  0
LINE
  8
0
  6
CONTINUOUS
 62
256
 10
-430.718324000000000
 20
-103.394724000000000
 11
-433.742110000000030
 21
-103.394724000000000
  0
ARC
  8
0
  6
CONTINUOUS
 62
256
 10
-433.742110000000030
 20
-102.394724000000000
 40
0.999999999999990
 50
187.589541999999990
 51
270.000000000000000
  0
ARC
  8
0
  6
CONTINUOUS
 62
256
 10
-439.303681999999980
 20
-102.394724000000000
 40
1.000000000000000
 50
270.000000000000000
 51
9.594067999999961
  0
LINE
  8
0
  6
CONTINUOUS
 62
256
 10
-439.303681999999980
 20
-103.394724000000000
 11
-442.353518000000010
 21
-103.394724000000000
  0
ARC
  8
0
  6
CONTINUOUS
 62
256
 10
-442.353518000000010
 20
-102.394724000000000
 40
1.000000000000016
 50
191.212270999999730
 51
270.000000000000000
  0
ARC
  8
0
  6
CONTINUOUS
 62
256
 10
-462.978872000000020
 20
-93.752419000000003
 40
1.000000000000011
 50
103.739795000001280
 51
210.000000000000510
  0
LINE
  8
0
  6
CONTINUOUS
 62
256
 10
-463.844898000000000
 20
-94.252419000000003
 11
-462.260778000000020
 21
-96.996194000000003
  0
ARC
  8
0
  6
CONTINUOUS
 62
256
 10
-460.009960999999980
 20
-105.894724000000000
 40
8.500000000000002
 50
81.618271999999948
 51
98.381728000000052
  0
ARC
  8
0
  6
CONTINUOUS
 62
256
 10
-461.394752999999980
 20
-96.496194000000003
 40
0.999999999999984
 50
210.000000000000510
 51
278.381727999998870
  0
LINE
  8
0
  6
CONTINUOUS
 62
256
 10
-489.301598000000010
 20
-103.394724000000000
 11
-486.277811999999980
 21
-103.394724000000000
  0
LINE
  8
0
  6
CONTINUOUS
 62
256
 10
-480.716241000000020
 20
-103.394724000000000
 11
-477.666405000000000
 21
-103.394724000000000
  0
LINE
  8
0
  6
CONTINUOUS
 62
256
 10
-472.009960999999980
 20
-103.394724000000000
 11
-468.841722000000000
 21
-103.394724000000000
  0
LINE
  8
0
  6
CONTINUOUS
 62
256
 10
-468.175025000000010
 20
-96.752419000000003
 11
-466.590905000000020
 21
-99.496194000000003
  0
LINE
  8
0
  6
CONTINUOUS
 62
256
 10
-472.528164000000000
 20
-89.212559999999996
 11
-471.003246999999990
 21
-91.853795000000005
  0
LINE
  8
0
  6
CONTINUOUS
 62
256
 10
-481.094261000000020
 20
-74.375645000000006
 11
-479.587305000000010
 21
-76.985770000000002
  0
LINE
  8
0
  6
CONTINUOUS
 62
256
 10
-476.820843000000020
 20
-81.777422000000001
 11
-475.308949999999980
 21
-84.396096999999997
  0
ARC
  8
0
  6
CONTINUOUS
 62
256
 10
-460.009960999999980
 20
-105.894724000000000
 40
8.500000000000005
 50
141.618272000000020
 51
158.381728000000040
  0
ARC
  8
0
  6
CONTINUOUS
 62
256
 10
-460.009960999999980
 20
-105.894724000000000
 40
13.500000000000004
 50
136.260205000000010
 51
163.739794999999960
  0
ARC
  8
0
  6
CONTINUOUS
 62
256
 10
-460.009960999999980
 20
-105.894724000000000
 40
17.000000000000014
 50
131.212271000000020
 51
168.787728999999980
  0
ARC
  8
0
  6
CONTINUOUS
 62
256
 10
-460.009960999999980
 20
-105.894724000000000
 40
21.999999999999986
 50
129.594067999999940
 51
170.405931999999980
  0
ARC
  8
0
  6
CONTINUOUS
 62
256
 10
-460.009960999999980
 20
-105.894724000000000
 40
25.499999999999996
 50
127.589541999999970
 51
172.410458000000010
  0
ARC
  8
0
  6
CONTINUOUS
 62
256
 10
-460.009960999999980
 20
-105.894724000000000
 40
34.000000000000007
 50
125.739170000000040
 51
174.260830000000000
  0
ARC
  8
0
  6
CONTINUOUS
 62
256
 10
-460.009960999999980
 20
-105.894724000000000
 40
30.499999999999993
 50
126.813853999999980
 51
173.186145999999980
  0
ARC
  8
0
  6
CONTINUOUS
 62
256
 10
-460.009960999999980
 20
-105.894724000000000
 40
39.000000000000000
 50
125.284733000000000
 51
174.715267000000010
  0
ARC
  8
0
  6
CONTINUOUS
 62
256
 10
-467.456931000000000
 20
-99.996194000000003
 40
0.999999999999985
 50
321.618271999998970
 51
30.000000000000544
  0
ARC
  8
0
  6
CONTINUOUS
 62
256
 10
-468.841722000000000
 20
-102.394724000000000
 40
1.000000000000000
 50
270.000000000000000
 51
338.381728000000520
  0
ARC
  8
0
  6
CONTINUOUS
 62
256
 10
-472.009960999999980
 20
-102.394724000000000
 40
0.999999999999976
 50
163.739794999999330
 51
270.000000000000000
  0
ARC
  8
0
  6
CONTINUOUS
 62
256
 10
-469.041049999999980
 20
-97.252419000000003
 40
0.999999999999984
 50
30.000000000000544
 51
136.260205000000240
  0
ARC
  8
0
  6
CONTINUOUS
 62
256
 10
-471.869272000000020
 20
-92.353795000000005
 40
1.000000000000006
 50
311.212270999999760
 51
30.000000000000544
  0
ARC
  8
0
  6
CONTINUOUS
 62
256
 10
-473.394189999999980
 20
-89.712559999999996
 40
0.999999999999984
 50
30.000000000000544
 51
129.594067999999310
  0
ARC
  8
0
  6
CONTINUOUS
 62
256
 10
-477.666405000000000
 20
-102.394724000000000
 40
1.000000000000000
 50
270.000000000000000
 51
348.787729000000300
  0
ARC
  8
0
  6
CONTINUOUS
 62
256
 10
-480.716241000000020
 20
-102.394724000000000
 40
0.999999999999978
 50
170.405932000000040
 51
270.000000000000000
  0
ARC
  8
0
  6
CONTINUOUS
 62
256
 10
-476.174976000000020
 20
-84.896096999999997
 40
0.999999999999993
 50
307.589541999998800
 51
30.000000000000544
  0
ARC
  8
0
  6
CONTINUOUS
 62
256
 10
-477.686869000000000
 20
-82.277422000000001
 40
0.999999999999984
 50
30.000000000000544
 51
126.813854000000730
  0
ARC
  8
0
  6
CONTINUOUS
 62
256
 10
-486.277811999999980
 20
-102.394724000000000
 40
1.000000000000000
 50
270.000000000000000
 51
352.410458000000010
  0
ARC
  8
0
  6
CONTINUOUS
 62
256
 10
-480.453329999999990
 20
-77.485770000000002
 40
0.999999999999998
 50
305.739170000000230
 51
30.000000000000544
  0
ARC
  8
0
  6
CONTINUOUS
 62
256
 10
-481.960286999999990
 20
-74.875645000000006
 40
0.999999999999984
 50
30.000000000000544
 51
125.284733000000970
  0
ARC
  8
0
  6
CONTINUOUS
 62
256
 10
-475.898108999999980
 20
-71.375645000000006
 40
1.000000000000004
 50
114.715267000000150
 51
210.000000000000510
  0
LINE
  8
0
  6
CONTINUOUS
 62
256
 10
-476.764134000000010
 20
-71.875645000000006
 11
-475.257178000000010
 21
-74.485770000000002
  0
ARC
  8
0
  6
CONTINUOUS
 62
256
 10
-471.624690999999980
 20
-78.777422000000001
 40
1.000000000000000
 50
113.186146000000120
 51
210.000000000000510
  0
LINE
  8
0
  6
CONTINUOUS
 62
256
 10
-472.490716000000020
 20
-79.277422000000001
 11
-470.978822999999980
 21
-81.896096999999997
  0
ARC
  8
0
  6
CONTINUOUS
 62
256
 10
-474.391152999999970
 20
-73.985770000000002
 40
0.999999999999984
 50
210.000000000000510
 51
294.260829999998690
  0
ARC
  8
0
  6
CONTINUOUS
 62
256
 10
-470.112798000000000
 20
-81.396096999999997
 40
0.999999999999984
 50
210.000000000000510
 51
292.410458000000400
  0
ARC
  8
0
  6
CONTINUOUS
 62
256
 10
-467.332012000000020
 20
-86.212559999999996
 40
0.999999999999993
 50
110.405931999999860
 51
210.000000000000510
  0
LINE
  8
0
  6
CONTINUOUS
 62
256
 10
-468.198037000000000
 20
-86.712559999999996
 11
-466.673119999999980
 21
-89.353795000000005
  0
ARC
  8
0
  6
CONTINUOUS
 62
256
 10
-465.807094000000010
 20
-88.853795000000005
 40
0.999999999999984
 50
210.000000000000510
 51
288.787729000000750
  0
LINE
  8
0
  6
CONTINUOUS
 62
256
 10
-497.848434000000000
 20
-103.394724000000000
 11
-494.834521999999990
 21
-103.394724000000000
  0
ARC
  8
0
  6
CONTINUOUS
 62
256
 10
-489.301598000000010
 20
-102.394724000000000
 40
1.000000000000019
 50
173.186146000000240
 51
270.000000000000000
  0
ARC
  8
0
  6
CONTINUOUS
 62
256
 10
-497.848434000000000
 20
-102.394724000000000
 40
1.000000000000027
 50
174.715267000000240
 51
270.000000000000000
  0
ARC
  8
0
  6
CONTINUOUS
 62
256
 10
-494.834521999999990
 20
-102.394724000000000
 40
1.000000000000000
 50
270.000000000000000
 51
354.260829999999540
  0
ARC
  8
0
  6
CONTINUOUS
 62
256
 10
-806.609961000000000
 20
-105.894724000000000
 40
400.600000000000020
 50
354.256318000000020
 51
0.000000000000000
  0
ARC
  8
0
  6
CONTINUOUS
 62
256
 10
-414.588014999999980
 20
-145.325591000000000
 40
6.600000000000017
 50
315.000000000000170
 51
354.256318000000020
  0
ARC
  8
0
  6
CONTINUOUS
 62
256
 10
-806.609961000000000
 20
-105.894724000000000
 40
390.797000000000030
 50
354.582036000000020
 51
0.000000000000000
  0
ARC
  8
0
  6
CONTINUOUS
 62
256
 10
-420.545479000000000
 20
-142.510689000000010
 40
3.000000000000004
 50
315.000000000000340
 51
354.582035999999790
  0
ARC
  8
0
  6
CONTINUOUS
 62
256
 10
-499.474443000000010
 20
-142.510689000000010
 40
2.999999999999998
 50
185.417964000000180
 51
224.999999999999630
  0
ARC
  8
0
  6
CONTINUOUS
 62
256
 10
-113.409961000000000
 20
-105.894724000000000
 40
390.797000000000030
 50
180.000000000000000
 51
185.417963999999980
  0
ARC
  8
0
  6
CONTINUOUS
 62
256
 10
-483.549758999999990
 20
-133.266614000000000
 40
20.797000000000015
 50
225.000000000000000
 51
264.998350000000070
  0
LINE
  8
0
  6
CONTINUOUS
 62
256
 10
-498.255458999999970
 20
-147.972314000000010
 11
-501.595763999999970
 21
-144.632009000000010
  0
ARC
  8
0
  6
CONTINUOUS
 62
256
 10
-460.009960999999980
 20
135.705276000000000
 40
290.797000000000030
 50
264.998350000000070
 51
270.000000000000000
  0
ARC
  8
0
  6
CONTINUOUS
 62
256
 10
-499.474443000000010
 20
-69.278758999999994
 40
3.000000000000014
 50
135.000000000000200
 51
174.582036000000070
  0
ARC
  8
0
  6
CONTINUOUS
 62
256
 10
-113.409961000000000
 20
-105.894724000000000
 40
390.797000000000030
 50
174.582035999999990
 51
180.000000000000000
  0
ARC
  8
0
  6
CONTINUOUS
 62
256
 10
-483.549758999999990
 20
-78.522833000000006
 40
20.797000000000001
 50
95.001650000000041
 51
135.000000000000030
  0
LINE
  8
0
  6
CONTINUOUS
 62
256
 10
-498.255458999999970
 20
-63.817132999999998
 11
-501.595763999999970
 21
-67.157437999999999
  0
ARC
  8
0
  6
CONTINUOUS
 62
256
 10
-460.009960999999980
 20
-347.494724000000020
 40
290.797000000000030
 50
90.000000000000000
 51
95.001649999999998
  0
ARC
  8
0
  6
CONTINUOUS
 62
256
 10
-420.545479000000000
 20
-69.278758999999994
 40
2.999999999999996
 50
5.417963999999932
 51
44.999999999999808
  0
ARC
  8
0
  6
CONTINUOUS
 62
256
 10
-806.609961000000000
 20
-105.894724000000000
 40
390.797000000000030
 50
0.000000000000000
 51
5.417963999999998
  0
ARC
  8
0
  6
CONTINUOUS
 62
256
 10
-436.470164000000010
 20
-78.522833000000006
 40
20.797000000000008
 50
44.999999999999972
 51
84.998349999999959
  0
LINE
  8
0
  6
CONTINUOUS
 62
256
 10
-421.764463999999980
 20
-63.817132999999998
 11
-418.424158999999970
 21
-67.157437999999999
  0
ARC
  8
0
  6
CONTINUOUS
 62
256
 10
-460.009960999999980
 20
-347.494724000000020
 40
290.797000000000030
 50
84.998350000000002
 51
90.000000000000000
  0
ARC
  8
0
  6
CONTINUOUS
 62
256
 10
-431.946205000000020
 20
-142.884791000000010
 40
20.599999999999991
 50
275.752282999999860
 51
315.000000000000000
  0
LINE
  8
0
  6
CONTINUOUS
 62
256
 10
-417.379804999999980
 20
-157.451190999999990
 11
-409.921110000000000
 21
-149.992494999999990
  0
ARC
  8
0
  6
CONTINUOUS
 62
256
 10
-460.009960999999980
 20
135.705276000000000
 40
300.600000000000020
 50
270.000000000000000
 51
275.752282999999980
  0
ARC
  8
0
  6
CONTINUOUS
 62
256
 10
-431.946205000000020
 20
-142.884791000000010
 40
10.796999999999988
 50
275.752283000000030
 51
315.000000000000000
  0
LINE
  8
0
  6
CONTINUOUS
 62
256
 10
-424.311573000000010
 20
-150.519422999999990
 11
-418.424158999999970
 21
-144.632009000000010
  0
ARC
  8
0
  6
CONTINUOUS
 62
256
 10
-460.009960999999980
 20
135.705276000000000
 40
290.797000000000030
 50
270.000000000000000
 51
275.752282999999980
  0
ARC
  8
0
  6
CONTINUOUS
 62
256
 10
-460.009960999999980
 20
135.705276000000000
 40
300.600000000000020
 50
264.247717000000020
 51
270.000000000000000
  0
LINE
  8
0
  6
CONTINUOUS
 62
256
 10
-502.640117999999970
 20
-157.451190999999990
 11
-510.098813000000010
 21
-149.992494999999990
  0
ARC
  8
0
  6
CONTINUOUS
 62
256
 10
-488.073717999999990
 20
-142.884791000000010
 40
20.599999999999991
 50
225.000000000000000
 51
264.247716999999910
  0
ARC
  8
0
  6
CONTINUOUS
 62
256
 10
-113.409961000000000
 20
-105.894724000000000
 40
400.599999999999970
 50
180.000000000000000
 51
185.743681999999980
  0
ARC
  8
0
  6
CONTINUOUS
 62
256
 10
-505.431908000000020
 20
-145.325591000000000
 40
6.599999999999971
 50
185.743681999999920
 51
224.999999999999830
  0
ARC
  8
0
  6
CONTINUOUS
 62
256
 10
-460.009960999999980
 20
-347.494724000000020
 40
300.600000000000020
 50
90.000000000000000
 51
95.752283000000006
  0
LINE
  8
0
  6
CONTINUOUS
 62
256
 10
-502.640117999999970
 20
-54.338256999999999
 11
-510.098813000000010
 21
-61.796951999999997
  0
ARC
  8
0
  6
CONTINUOUS
 62
256
 10
-488.073717999999990
 20
-68.904657000000000
 40
20.600000000000009
 50
95.752283000000077
 51
135.000000000000000
  0
ARC
  8
0
  6
CONTINUOUS
 62
256
 10
-113.409961000000000
 20
-105.894724000000000
 40
400.600000000000080
 50
174.256317999999990
 51
180.000000000000000
  0
ARC
  8
0
  6
CONTINUOUS
 62
256
 10
-505.431908000000020
 20
-66.463857000000004
 40
6.600000000000017
 50
135.000000000000170
 51
174.256317999999940
  0
ARC
  8
0
  6
CONTINUOUS
 62
256
 10
-460.009960999999980
 20
-347.494724000000020
 40
300.600000000000020
 50
84.247716999999994
 51
90.000000000000000
  0
LINE
  8
0
  6
CONTINUOUS
 62
256
 10
-417.379804999999980
 20
-54.338256999999999
 11
-409.921110000000000
 21
-61.796951999999997
  0
ARC
  8
0
  6
CONTINUOUS
 62
256
 10
-431.946205000000020
 20
-68.904657000000000
 40
20.599999999999994
 50
45.000000000000014
 51
84.247716999999938
  0
ARC
  8
0
  6
CONTINUOUS
 62
256
 10
-806.609961000000000
 20
-105.894724000000000
 40
400.600000000000020
 50
0.000000000000000
 51
5.743682000000000
  0
ARC
  8
0
  6
CONTINUOUS
 62
256
 10
-414.588014999999980
 20
-66.463857000000004
 40
6.599999999999973
 50
5.743682000000063
 51
44.999999999999829
  0
LINE
  8
0
  6
CONTINUOUS
 62
256
 10
-430.021976000000000
 20
-163.394724000000000
 11
-424.009960999999980
 21
-163.394724000000000
  0
LINE
  8
0
  6
CONTINUOUS
 62
256
 10
-424.009960999999980
 20
-161.894684000000010
 11
-424.009960999999980
 21
-163.394724000000000
  0
LINE
  8
0
  6
CONTINUOUS
 62
256
 10
-496.009960999999980
 20
-161.894684000000010
 11
-496.009960999999980
 21
-163.394724000000000
  0
LINE
  8
0
  6
CONTINUOUS
 62
256
 10
-496.009960999999980
 20
-163.394724000000000
 11
-490.002459999999990
 21
-163.394724000000000
  0
LINE
  8
0
  6
CONTINUOUS
 62
256
 10
-499.009960999999980
 20
-31.230035999999998
 11
-509.009960999999980
 21
-31.230035999999998
  0
LINE
  8
0
  6
CONTINUOUS
 62
256
 10
-509.009960999999980
 20
-48.412179000000002
 11
-513.009960999999980
 21
-48.412179000000002
  0
LINE
  8
0
  6
CONTINUOUS
 62
256
 10
-509.009960999999980
 20
-60.708100000000002
 11
-509.009960999999980
 21
-31.230035999999998
  0
LINE
  8
0
  6
CONTINUOUS
 62
256
 10
-513.009960999999980
 20
-77.606916999999996
 11
-513.009960999999980
 21
-48.412179000000002
  0
LINE
  8
0
  6
CONTINUOUS
 62
256
 10
-513.009960999999980
 20
-68.912178999999995
 11
-516.009960999999980
 21
-68.912178999999995
  0
ARC
  8
0
  6
CONTINUOUS
 62
256
 10
-516.009960999999980
 20
-69.912178999999995
 40
1.000000000000000
 50
90.000000000000000
 51
180.000000000000000
  0
LINE
  8
0
  6
CONTINUOUS
 62
256
 10
-517.009960999999980
 20
-69.912178999999995
 11
-517.009960999999980
 21
-90.912178999999995
  0
LINE
  8
0
  6
CONTINUOUS
 62
256
 10
-517.009960999999980
 20
-111.912178999999990
 11
-517.009960999999980
 21
-90.912178999999995
  0
ARC
  8
0
  6
CONTINUOUS
 62
256
 10
-516.009960999999980
 20
-111.912178999999990
 40
1.000000000000000
 50
180.000000000000000
 51
270.000000000000000
  0
LINE
  8
0
  6
CONTINUOUS
 62
256
 10
-513.948492999999980
 20
-112.912178999999990
 11
-516.009960999999980
 21
-112.912178999999990
  0
LINE
  8
0
  6
CONTINUOUS
 62
256
 10
-411.009960999999980
 20
-30.121639999999999
 11
-423.009960999999980
 21
-29.912178999999998
  0
LINE
  8
0
  6
CONTINUOUS
 62
256
 10
-423.009960999999980
 20
-29.885995999999999
 11
-499.009960999999980
 21
-31.230035999999998
  0
LINE
  8
0
  6
CONTINUOUS
 62
256
 10
-423.009960999999980
 20
-29.885995999999999
 11
-423.009960999999980
 21
-50.343850000000003
  0
LINE
  8
0
  6
CONTINUOUS
 62
256
 10
-411.009960999999980
 20
-60.708100000000002
 11
-411.009960999999980
 21
-30.121639999999999
  0
LINE
  8
0
  6
CONTINUOUS
 62
256
 10
-407.009960999999980
 20
-48.412179000000002
 11
-411.009960999999980
 21
-48.412179000000002
  0
LINE
  8
0
  6
CONTINUOUS
 62
256
 10
-407.009960999999980
 20
-48.412179000000002
 11
-407.009960999999980
 21
-77.606916999999996
  0
LINE
  8
0
  6
CONTINUOUS
 62
256
 10
-403.009960999999980
 20
-69.912178999999995
 11
-403.009960999999980
 21
-90.912178999999995
  0
LINE
  8
0
  6
CONTINUOUS
 62
256
 10
-407.009960999999980
 20
-68.912178999999995
 11
-404.009960999999980
 21
-68.912178999999995
  0
ARC
  8
0
  6
CONTINUOUS
 62
256
 10
-404.009960999999980
 20
-69.912178999999995
 40
1.000000000000000
 50
0.000000000000000
 51
90.000000000000000
  0
ARC
  8
0
  6
CONTINUOUS
 62
256
 10
-404.009960999999980
 20
-111.912178999999990
 40
1.000000000000000
 50
270.000000000000000
 51
0.000000000000000
  0
LINE
  8
0
  6
CONTINUOUS
 62
256
 10
-403.009960999999980
 20
-111.912178999999990
 11
-403.009960999999980
 21
-90.912178999999995
  0
LINE
  8
0
  6
CONTINUOUS
 62
256
 10
-406.071430000000020
 20
-112.912178999999990
 11
-404.009960999999980
 21
-112.912178999999990
  0
LINE
  8
0
  6
CONTINUOUS
 62
256
 10
-499.009960999999980
 20
-176.559411000000010
 11
-509.009960999999980
 21
-176.559411000000010
  0
LINE
  8
0
  6
CONTINUOUS
 62
256
 10
-509.009960999999980
 20
-176.559411000000010
 11
-509.009960999999980
 21
-151.081346999999990
  0
LINE
  8
0
  6
CONTINUOUS
 62
256
 10
-496.009960999999980
 20
-176.612464999999990
 11
-499.009960999999980
 21
-176.559411000000010
  0
LINE
  8
0
  6
CONTINUOUS
 62
256
 10
-423.009960999999980
 20
-177.912179000000010
 11
-411.009960999999980
 21
-177.702718000000000
  0
LINE
  8
0
  6
CONTINUOUS
 62
256
 10
-411.009960999999980
 20
-177.702718000000000
 11
-411.009960999999980
 21
-151.081346999999990
  0
LINE
  8
0
  6
CONTINUOUS
 62
256
 10
-423.009960999999980
 20
-161.445597999999990
 11
-423.009960999999980
 21
-177.903450999999990
  0
LINE
  8
0
  6
CONTINUOUS
 62
256
 10
-423.009960999999980
 20
-177.903450999999990
 11
-424.009960999999980
 21
-177.885766999999990
  0
ARC
  8
0
  6
CONTINUOUS
 62
256
 10
-309.021901000000010
 20
81.738862999999995
 40
20.600000000000001
 50
235.000000000000030
 51
270.000000000000000
  0
ARC
  8
0
  6
CONTINUOUS
 62
256
 10
-326.917056000000000
 20
72.295242999999999
 40
2.600000000000023
 50
180.000000000000000
 51
234.999999999999940
  0
LINE
  8
0
  6
CONTINUOUS
 62
256
 10
-329.517056000000030
 20
72.295242999999999
 11
-329.517056000000030
 21
115.138863000000000
  0
LINE
  8
0
  6
CONTINUOUS
 62
256
 10
-320.837575000000020
 20
64.864331000000007
 11
-328.408353999999970
 21
70.165447999999998
  0
LINE
  8
0
  6
CONTINUOUS
 62
256
 10
-231.517056000000000
 20
81.835262000000000
 11
-147.517056000000000
 21
81.835262000000000
  0
LINE
  8
0
  6
CONTINUOUS
 62
256
 10
-231.517056000000000
 20
83.424471999999994
 11
-147.517056000000000
 21
83.424471999999994
  0
LINE
  8
0
  6
CONTINUOUS
 62
256
 10
-231.517056000000000
 20
95.138863000000001
 11
-147.517056000000000
 21
95.138863000000001
  0
LINE
  8
0
  6
CONTINUOUS
 62
256
 10
-231.517056000000000
 20
92.300623000000002
 11
-147.517056000000000
 21
92.300623000000002
  0
LINE
  8
0
  6
CONTINUOUS
 62
256
 10
-231.517056000000000
 20
90.954222000000001
 11
-147.517056000000000
 21
90.954222000000001
  0
LINE
  8
0
  6
CONTINUOUS
 62
256
 10
-231.517056000000000
 20
87.861491000000001
 11
-147.517056000000000
 21
87.861491000000001
  0
LINE
  8
0
  6
CONTINUOUS
 62
256
 10
-231.517056000000000
 20
86.382468000000003
 11
-147.517056000000000
 21
86.382468000000003
  0
LINE
  8
0
  6
CONTINUOUS
 62
256
 10
-231.674656000000000
 20
75.098427999999998
 11
-147.517056000000000
 21
75.098427999999998
  0
LINE
  8
0
  6
CONTINUOUS
 62
256
 10
-231.517056000000000
 20
74.096948999999995
 11
-147.517056000000000
 21
74.096948999999995
  0
LINE
  8
0
  6
CONTINUOUS
 62
256
 10
-231.517056000000000
 20
70.634208000000001
 11
-147.517056000000000
 21
70.634208000000001
  0
LINE
  8
0
  6
CONTINUOUS
 62
256
 10
-231.517056000000000
 20
69.005780000000001
 11
-147.517056000000000
 21
69.005780000000001
  0
LINE
  8
0
  6
CONTINUOUS
 62
256
 10
-231.517056000000000
 20
64.138863000000001
 11
-147.517056000000000
 21
64.138863000000001
  0
LINE
  8
0
  6
CONTINUOUS
 62
256
 10
-231.517056000000000
 20
64.638863000000001
 11
-147.517056000000000
 21
64.638863000000001
  0
LINE
  8
0
  6
CONTINUOUS
 62
256
 10
-147.517056000000000
 20
62.638863000000001
 11
-231.517056000000000
 21
62.638863000000001
  0
ARC
  8
0
  6
CONTINUOUS
 62
256
 10
-309.021901000000010
 20
148.538862999999990
 40
20.599999999999994
 50
90.000000000000000
 51
125.000000000000010
  0
ARC
  8
0
  6
CONTINUOUS
 62
256
 10
-326.917056000000000
 20
157.982483000000000
 40
2.599999999999996
 50
125.000000000000210
 51
180.000000000000000
  0
LINE
  8
0
  6
CONTINUOUS
 62
256
 10
-329.517056000000030
 20
157.982483000000000
 11
-329.517056000000030
 21
115.138863000000000
  0
LINE
  8
0
  6
CONTINUOUS
 62
256
 10
-320.837575000000020
 20
165.413395000000010
 11
-328.408353999999970
 21
160.112279000000000
  0
LINE
  8
0
  6
CONTINUOUS
 62
256
 10
-231.517056000000000
 20
148.442464000000000
 11
-147.517056000000000
 21
148.442464000000000
  0
LINE
  8
0
  6
CONTINUOUS
 62
256
 10
-231.517056000000000
 20
146.853253999999990
 11
-147.517056000000000
 21
146.853253999999990
  0
LINE
  8
0
  6
CONTINUOUS
 62
256
 10
-231.517056000000000
 20
135.138862999999990
 11
-147.517056000000000
 21
135.138862999999990
  0
LINE
  8
0
  6
CONTINUOUS
 62
256
 10
-231.517056000000000
 20
137.977103000000000
 11
-147.517056000000000
 21
137.977103000000000
  0
LINE
  8
0
  6
CONTINUOUS
 62
256
 10
-231.517056000000000
 20
139.323504000000010
 11
-147.517056000000000
 21
139.323504000000010
  0
LINE
  8
0
  6
CONTINUOUS
 62
256
 10
-231.517056000000000
 20
142.416235000000000
 11
-147.517056000000000
 21
142.416235000000000
  0
LINE
  8
0
  6
CONTINUOUS
 62
256
 10
-231.517056000000000
 20
143.895259000000010
 11
-147.517056000000000
 21
143.895259000000010
  0
LINE
  8
0
  6
CONTINUOUS
 62
256
 10
-231.674656000000000
 20
155.179297999999990
 11
-147.517056000000000
 21
155.179297999999990
  0
LINE
  8
0
  6
CONTINUOUS
 62
256
 10
-231.517056000000000
 20
156.180777000000010
 11
-147.517056000000000
 21
156.180777000000010
  0
LINE
  8
0
  6
CONTINUOUS
 62
256
 10
-231.517056000000000
 20
159.643519000000000
 11
-147.517056000000000
 21
159.643519000000000
  0
LINE
  8
0
  6
CONTINUOUS
 62
256
 10
-231.517056000000000
 20
161.271946000000010
 11
-147.517056000000000
 21
161.271946000000010
  0
LINE
  8
0
  6
CONTINUOUS
 62
256
 10
-231.517056000000000
 20
166.138862999999990
 11
-147.517056000000000
 21
166.138862999999990
  0
LINE
  8
0
  6
CONTINUOUS
 62
256
 10
-231.517056000000000
 20
165.638862999999990
 11
-147.517056000000000
 21
165.638862999999990
  0
LINE
  8
0
  6
CONTINUOUS
 62
256
 10
-147.517056000000000
 20
167.638862999999990
 11
-231.517056000000000
 21
167.638862999999990
  0
LINE
  8
0
  6
DASHDOT
 62
256
 10
46.197218999999997
 20
115.138863000000000
 11
-333.380158999999990
 21
115.138863000000000
  0
POLYLINE
  8
0
  6
CONTINUOUS
 62
256
 66
1
 70
1
  0
VERTEX
  8
0
  6
CONTINUOUS
 62
256
 10
-237.817056000000010
 20
162.466194000000000
  0
VERTEX
  8
0
  6
CONTINUOUS
 62
256
 10
-237.907365182104830
 20
163.169150510558180
  0
VERTEX
  8
0
  6
CONTINUOUS
 62
256
 10
-238.174822197196960
 20
163.845092796638140
  0
VERTEX
  8
0
  6
CONTINUOUS
 62
256
 10
-238.609148822178040
 20
164.468044775258680
  0
VERTEX
  8
0
  6
CONTINUOUS
 62
256
 10
-239.193654128423220
 20
165.014066751236840
  0
VERTEX
  8
0
  6
CONTINUOUS
 62
256
 10
-239.905875904807890
 20
165.462175406248490
  0
VERTEX
  8
0
  6
CONTINUOUS
 62
256
 10
-240.718443867884080
 20
165.795150175983740
  0
VERTEX
  8
0
  6
CONTINUOUS
 62
256
 10
-241.600131486524190
 20
166.000195026776080
  0
VERTEX
  8
0
  6
CONTINUOUS
 62
256
 10
-242.517056000000000
 20
166.069430200000000
  0
VERTEX
  8
0
  6
CONTINUOUS
 62
256
 10
-243.433980513475800
 20
166.000195026776080
  0
VERTEX
  8
0
  6
CONTINUOUS
 62
256
 10
-244.315668132115920
 20
165.795150175983740
  0
VERTEX
  8
0
  6
CONTINUOUS
 62
256
 10
-245.128236095192110
 20
165.462175406248490
  0
VERTEX
  8
0
  6
CONTINUOUS
 62
256
 10
-245.840457871576770
 20
165.014066751236840
  0
VERTEX
  8
0
  6
CONTINUOUS
 62
256
 10
-246.424963177821950
 20
164.468044775258680
  0
VERTEX
  8
0
  6
CONTINUOUS
 62
256
 10
-246.859289802803030
 20
163.845092796638140
  0
VERTEX
  8
0
  6
CONTINUOUS
 62
256
 10
-247.126746817895170
 20
163.169150510558180
  0
VERTEX
  8
0
  6
CONTINUOUS
 62
256
 10
-247.217055999999990
 20
162.466194000000000
  0
VERTEX
  8
0
  6
CONTINUOUS
 62
256
 10
-247.126746817895170
 20
161.763237489441820
  0
VERTEX
  8
0
  6
CONTINUOUS
 62
256
 10
-246.859289802803030
 20
161.087295203361860
  0
VERTEX
  8
0
  6
CONTINUOUS
 62
256
 10
-246.424963177821950
 20
160.464343224741330
  0
VERTEX
  8
0
  6
CONTINUOUS
 62
256
 10
-245.840457871576770
 20
159.918321248763160
  0
VERTEX
  8
0
  6
CONTINUOUS
 62
256
 10
-245.128236095192110
 20
159.470212593751510
  0
VERTEX
  8
0
  6
CONTINUOUS
 62
256
 10
-244.315668132115920
 20
159.137237824016270
  0
VERTEX
  8
0
  6
CONTINUOUS
 62
256
 10
-243.433980513475800
 20
158.932192973223950
  0
VERTEX
  8
0
  6
CONTINUOUS
 62
256
 10
-242.517056000000000
 20
158.862957800000000
  0
VERTEX
  8
0
  6
CONTINUOUS
 62
256
 10
-241.600131486524190
 20
158.932192973223950
  0
VERTEX
  8
0
  6
CONTINUOUS
 62
256
 10
-240.718443867884080
 20
159.137237824016270
  0
VERTEX
  8
0
  6
CONTINUOUS
 62
256
 10
-239.905875904807890
 20
159.470212593751510
  0
VERTEX
  8
0
  6
CONTINUOUS
 62
256
 10
-239.193654128423250
 20
159.918321248763160
  0
VERTEX
  8
0
  6
CONTINUOUS
 62
256
 10
-238.609148822178040
 20
160.464343224741330
  0
VERTEX
  8
0
  6
CONTINUOUS
 62
256
 10
-238.174822197196960
 20
161.087295203361860
  0
VERTEX
  8
0
  6
CONTINUOUS
 62
256
 10
-237.907365182104830
 20
161.763237489441820
  0
SEQEND
  8
0
  6
CONTINUOUS
 62
256
  0
LINE
  8
0
  6
CONTINUOUS
 62
256
 10
-244.517056000000000
 20
165.458570000000010
 11
-242.517056000000000
 21
164.282783999999990
  0
LINE
  8
0
  6
CONTINUOUS
 62
256
 10
-242.517056000000000
 20
164.282783999999990
 11
-240.517056000000000
 21
162.630142000000010
  0
LINE
  8
0
  6
CONTINUOUS
 62
256
 10
-240.517056000000000
 20
165.458570000000010
 11
-242.517056000000000
 21
164.282783999999990
  0
LINE
  8
0
  6
CONTINUOUS
 62
256
 10
-242.517056000000000
 20
164.282783999999990
 11
-244.517056000000000
 21
162.630142000000010
  0
POLYLINE
  8
0
  6
CONTINUOUS
 62
256
 66
1
 70
1
  0
VERTEX
  8
0
  6
CONTINUOUS
 62
256
 10
-237.817056000000010
 20
67.811532000000000
  0
VERTEX
  8
0
  6
CONTINUOUS
 62
256
 10
-237.907365182104830
 20
68.514488510558166
  0
VERTEX
  8
0
  6
CONTINUOUS
 62
256
 10
-238.174822197196960
 20
69.190430796638140
  0
VERTEX
  8
0
  6
CONTINUOUS
 62
256
 10
-238.609148822178040
 20
69.813382775258660
  0
VERTEX
  8
0
  6
CONTINUOUS
 62
256
 10
-239.193654128423220
 20
70.359404751236838
  0
VERTEX
  8
0
  6
CONTINUOUS
 62
256
 10
-239.905875904807890
 20
70.807513406248489
  0
VERTEX
  8
0
  6
CONTINUOUS
 62
256
 10
-240.718443867884080
 20
71.140488175983748
  0
VERTEX
  8
0
  6
CONTINUOUS
 62
256
 10
-241.600131486524190
 20
71.345533026776067
  0
VERTEX
  8
0
  6
CONTINUOUS
 62
256
 10
-242.517056000000000
 20
71.414768199999997
  0
VERTEX
  8
0
  6
CONTINUOUS
 62
256
 10
-243.433980513475800
 20
71.345533026776067
  0
VERTEX
  8
0
  6
CONTINUOUS
 62
256
 10
-244.315668132115920
 20
71.140488175983748
  0
VERTEX
  8
0
  6
CONTINUOUS
 62
256
 10
-245.128236095192110
 20
70.807513406248489
  0
VERTEX
  8
0
  6
CONTINUOUS
 62
256
 10
-245.840457871576770
 20
70.359404751236838
  0
VERTEX
  8
0
  6
CONTINUOUS
 62
256
 10
-246.424963177821950
 20
69.813382775258660
  0
VERTEX
  8
0
  6
CONTINUOUS
 62
256
 10
-246.859289802803030
 20
69.190430796638140
  0
VERTEX
  8
0
  6
CONTINUOUS
 62
256
 10
-247.126746817895170
 20
68.514488510558166
  0
VERTEX
  8
0
  6
CONTINUOUS
 62
256
 10
-247.217055999999990
 20
67.811532000000000
  0
VERTEX
  8
0
  6
CONTINUOUS
 62
256
 10
-247.126746817895170
 20
67.108575489441833
  0
VERTEX
  8
0
  6
CONTINUOUS
 62
256
 10
-246.859289802803030
 20
66.432633203361860
  0
VERTEX
  8
0
  6
CONTINUOUS
 62
256
 10
-246.424963177821950
 20
65.809681224741340
  0
VERTEX
  8
0
  6
CONTINUOUS
 62
256
 10
-245.840457871576770
 20
65.263659248763162
  0
VERTEX
  8
0
  6
CONTINUOUS
 62
256
 10
-245.128236095192110
 20
64.815550593751510
  0
VERTEX
  8
0
  6
CONTINUOUS
 62
256
 10
-244.315668132115920
 20
64.482575824016266
  0
VERTEX
  8
0
  6
CONTINUOUS
 62
256
 10
-243.433980513475800
 20
64.277530973223932
  0
VERTEX
  8
0
  6
CONTINUOUS
 62
256
 10
-242.517056000000000
 20
64.208295800000002
  0
VERTEX
  8
0
  6
CONTINUOUS
 62
256
 10
-241.600131486524190
 20
64.277530973223932
  0
VERTEX
  8
0
  6
CONTINUOUS
 62
256
 10
-240.718443867884080
 20
64.482575824016251
  0
VERTEX
  8
0
  6
CONTINUOUS
 62
256
 10
-239.905875904807890
 20
64.815550593751510
  0
VERTEX
  8
0
  6
CONTINUOUS
 62
256
 10
-239.193654128423250
 20
65.263659248763162
  0
VERTEX
  8
0
  6
CONTINUOUS
 62
256
 10
-238.609148822178040
 20
65.809681224741340
  0
VERTEX
  8
0
  6
CONTINUOUS
 62
256
 10
-238.174822197196960
 20
66.432633203361860
  0
VERTEX
  8
0
  6
CONTINUOUS
 62
256
 10
-237.907365182104830
 20
67.108575489441833
  0
SEQEND
  8
0
  6
CONTINUOUS
 62
256
  0
LINE
  8
0
  6
CONTINUOUS
 62
256
 10
-244.517056000000000
 20
64.819157000000004
 11
-242.517056000000000
 21
65.994941999999995
  0
LINE
  8
0
  6
CONTINUOUS
 62
256
 10
-242.517056000000000
 20
65.994941999999995
 11
-240.517056000000000
 21
67.647583999999995
  0
LINE
  8
0
  6
CONTINUOUS
 62
256
 10
-240.517056000000000
 20
64.819157000000004
 11
-242.517056000000000
 21
65.994941999999995
  0
LINE
  8
0
  6
CONTINUOUS
 62
256
 10
-242.517056000000000
 20
65.994941999999995
 11
-244.517056000000000
 21
67.647583999999995
  0
LINE
  8
0
  6
CONTINUOUS
 62
256
 10
-231.517056000000000
 20
169.138862999999990
 11
-309.021901000000010
 21
169.138862999999990
  0
LINE
  8
0
  6
CONTINUOUS
 62
256
 10
-231.517056000000000
 20
169.138862999999990
 11
-231.517056000000000
 21
115.138863000000000
  0
LINE
  8
0
  6
CONTINUOUS
 62
256
 10
-231.517056000000000
 20
61.138863000000001
 11
-231.517056000000000
 21
115.138863000000000
  0
LINE
  8
0
  6
CONTINUOUS
 62
256
 10
-231.517056000000000
 20
61.138863000000001
 11
-309.021901000000010
 21
61.138863000000001
  0
LINE
  8
0
  6
CONTINUOUS
 62
256
 10
-147.517056000000000
 20
115.138863000000000
 11
-147.517056000000000
 21
61.603949999999998
  0
LINE
  8
0
  6
CONTINUOUS
 62
256
 10
-147.517056000000000
 20
115.138863000000000
 11
-147.517056000000000
 21
168.638866000000010
  0
LINE
  8
0
  6
CONTINUOUS
 62
256
 10
-147.517056000000000
 20
168.638866000000010
 11
-132.569413000000000
 21
168.899778000000000
  0
LINE
  8
0
  6
CONTINUOUS
 62
256
 10
-147.517056000000000
 20
61.603949999999998
 11
-132.569413000000000
 21
61.343038000000000
  0
LINE
  8
0
  6
CONTINUOUS
 62
256
 10
-119.873749000000000
 20
154.638862999999990
 11
-126.517056000000000
 21
154.638862999999990
  0
ARC
  8
0
  6
CONTINUOUS
 62
256
 10
-132.517056000000000
 20
64.342580999999996
 40
2.999999999999997
 50
268.999999999999830
 51
0.000000000000000
  0
ARC
  8
0
  6
CONTINUOUS
 62
256
 10
-132.517056000000000
 20
165.900235000000010
 40
3.000000000000000
 50
0.000000000000000
 51
91.000000000000142
  0
ARC
  8
0
  6
CONTINUOUS
 62
256
 10
-119.873749000000000
 20
156.638862999999990
 40
2.000000000000000
 50
270.000000000000000
 51
0.000000000000000
  0
ARC
  8
0
  6
CONTINUOUS
 62
256
 10
-121.209366000000000
 20
78.138863000000001
 40
1.999999999999998
 50
358.999999999999830
 51
90.000000000000000
  0
LINE
  8
0
  6
CONTINUOUS
 62
256
 10
-62.517055999999997
 20
168.138862999999990
 11
22.482944000000000
 21
168.138862999999990
  0
LINE
  8
0
  6
CONTINUOUS
 62
256
 10
-62.517055999999997
 20
164.138862999999990
 11
-62.517055999999997
 21
168.138862999999990
  0
LINE
  8
0
  6
CONTINUOUS
 62
256
 10
22.482944000000000
 20
62.138863000000001
 11
22.482944000000000
 21
66.138863000000001
  0
LINE
  8
0
  6
CONTINUOUS
 62
256
 10
22.482944000000000
 20
164.138862999999990
 11
22.482944000000000
 21
168.138862999999990
  0
LINE
  8
0
  6
CONTINUOUS
 62
256
 10
40.773482999999999
 20
78.138863000000001
 11
-119.217789000000000
 21
78.138863000000001
  0
LINE
  8
0
  6
CONTINUOUS
 62
256
 10
-62.517055999999997
 20
62.138863000000001
 11
-62.517055999999997
 21
66.138863000000001
  0
LINE
  8
0
  6
CONTINUOUS
 62
256
 10
-74.609585999999993
 20
66.138863000000001
 11
40.537840000000003
 21
66.138863000000001
  0
LINE
  8
0
  6
CONTINUOUS
 62
256
 10
-74.609585999999993
 20
164.138862999999990
 11
39.429442999999999
 21
164.138862999999990
  0
LINE
  8
0
  6
CONTINUOUS
 62
256
 10
-119.017056000000000
 20
66.138863000000001
 11
-74.609585999999993
 21
66.138863000000001
  0
LINE
  8
0
  6
CONTINUOUS
 62
256
 10
22.482944000000000
 20
62.138863000000001
 11
-62.517055999999997
 21
62.138863000000001
  0
LINE
  8
0
  6
CONTINUOUS
 62
256
 10
-117.873749000000000
 20
164.138862999999990
 11
-74.609585999999993
 21
164.138862999999990
  0
LINE
  8
0
  6
CONTINUOUS
 62
256
 10
-119.217789000000000
 20
78.138863000000001
 11
-117.873749000000000
 21
154.138862999999990
  0
LINE
  8
0
  6
CONTINUOUS
 62
256
 10
-117.873749000000000
 20
154.138862999999990
 11
-117.873749000000000
 21
164.138862999999990
  0
LINE
  8
0
  6
CONTINUOUS
 62
256
 10
39.429442999999999
 20
154.138862999999990
 11
39.429442999999999
 21
164.138862999999990
  0
LINE
  8
0
  6
CONTINUOUS
 62
256
 10
40.537840000000003
 20
66.138863000000001
 11
40.747301000000000
 21
78.138863000000001
  0
LINE
  8
0
  6
CONTINUOUS
 62
256
 10
40.773482999999999
 20
78.138863000000001
 11
39.429442999999999
 21
154.138862999999990
  0
LINE
  8
0
  6
CONTINUOUS
 62
256
 10
-119.226517000000000
 20
78.138863000000001
 11
-119.017056000000000
 21
66.138863000000001
  0
LINE
  8
0
  6
CONTINUOUS
 62
256
 10
-142.517056000000000
 20
162.621408000000000
 11
-142.517056000000000
 21
166.673469000000010
  0
ARC
  8
0
  6
CONTINUOUS
 62
256
 10
-144.517056000000000
 20
166.673469000000010
 40
2.000000000000000
 50
0.000000000000000
 51
91.000000000000156
  0
ARC
  8
0
  6
CONTINUOUS
 62
256
 10
-139.517056000000000
 20
162.621408000000000
 40
3.000000000000000
 50
180.000000000000000
 51
270.000000000000000
  0
LINE
  8
0
  6
CONTINUOUS
 62
256
 10
-142.517056000000000
 20
115.121408000000000
 11
-142.517056000000000
 21
154.551060000000010
  0
ARC
  8
0
  6
CONTINUOUS
 62
256
 10
-140.517056000000000
 20
154.551060000000010
 40
2.000000000000000
 50
90.000000000000000
 51
180.000000000000000
  0
ARC
  8
0
  6
CONTINUOUS
 62
256
 10
-139.517056000000000
 20
146.013574000000010
 40
3.000000000000000
 50
90.000000000000000
 51
180.000000000000000
  0
LINE
  8
0
  6
CONTINUOUS
 62
256
 10
-134.452045000000000
 20
149.013574000000010
 11
-139.517056000000000
 21
149.013574000000010
  0
LINE
  8
0
  6
CONTINUOUS
 62
256
 10
-139.517056000000000
 20
159.621408000000000
 11
-132.517056000000000
 21
159.621408000000000
  0
LINE
  8
0
  6
CONTINUOUS
 62
256
 10
-140.517056000000000
 20
156.551060000000010
 11
-132.517056000000000
 21
156.551060000000010
  0
ARC
  8
0
  6
CONTINUOUS
 62
256
 10
-132.517056000000000
 20
156.621408000000000
 40
3.000000000000000
 50
0.000000000000000
 51
90.000000000000000
  0
ARC
  8
0
  6
CONTINUOUS
 62
256
 10
-132.517056000000000
 20
153.551060000000010
 40
3.000000000000000
 50
0.000000000000000
 51
90.000000000000000
  0
LINE
  8
0
  6
CONTINUOUS
 62
256
 10
-129.517056000000000
 20
165.900235000000010
 11
-129.517056000000000
 21
64.342580999999996
  0
LINE
  8
0
  6
CONTINUOUS
 62
256
 10
-142.517056000000000
 20
115.121408000000000
 11
-142.517056000000000
 21
75.691755999999998
  0
LINE
  8
0
  6
CONTINUOUS
 62
256
 10
-142.517056000000000
 20
95.121408000000002
 11
-147.517056000000000
 21
95.121408000000002
  0
ARC
  8
0
  6
CONTINUOUS
 62
256
 10
-139.517056000000000
 20
67.621408000000002
 40
3.000000000000000
 50
90.000000000000000
 51
180.000000000000000
  0
LINE
  8
0
  6
CONTINUOUS
 62
256
 10
-134.212374000000010
 20
81.229241999999999
 11
-139.517056000000000
 21
81.229241999999999
  0
ARC
  8
0
  6
CONTINUOUS
 62
256
 10
-140.517056000000000
 20
75.691755999999998
 40
2.000000000000000
 50
180.000000000000000
 51
270.000000000000000
  0
ARC
  8
0
  6
CONTINUOUS
 62
256
 10
-139.517056000000000
 20
84.229241999999999
 40
3.000000000000000
 50
180.000000000000000
 51
270.000000000000000
  0
LINE
  8
0
  6
CONTINUOUS
 62
256
 10
-142.517056000000000
 20
67.621408000000002
 11
-142.517056000000000
 21
63.569347000000000
  0
ARC
  8
0
  6
CONTINUOUS
 62
256
 10
-144.517056000000000
 20
63.569347000000000
 40
1.999999999999998
 50
268.999999999999830
 51
0.000000000000000
  0
LINE
  8
0
  6
CONTINUOUS
 62
256
 10
-140.517056000000000
 20
73.691755999999998
 11
-132.517056000000000
 21
73.691755999999998
  0
LINE
  8
0
  6
CONTINUOUS
 62
256
 10
-139.517056000000000
 20
70.621408000000002
 11
-132.517056000000000
 21
70.621408000000002
  0
ARC
  8
0
  6
CONTINUOUS
 62
256
 10
-132.517056000000000
 20
73.621408000000002
 40
3.000000000000000
 50
270.000000000000000
 51
0.000000000000000
  0
ARC
  8
0
  6
CONTINUOUS
 62
256
 10
-132.517056000000000
 20
76.691755999999998
 40
3.000000000000000
 50
270.000000000000000
 51
0.000000000000000
  0
ARC
  8
0
  6
CONTINUOUS
 62
256
 10
-126.517056000000000
 20
77.138863000000001
 40
3.000000000000000
 50
90.000000000000000
 51
180.000000000000000
  0
LINE
  8
0
  6
CONTINUOUS
 62
256
 10
-126.517056000000000
 20
80.138863000000001
 11
-121.209366000000000
 21
80.138863000000001
  0
ARC
  8
0
  6
CONTINUOUS
 62
256
 10
-126.517056000000000
 20
157.638862999999990
 40
3.000000000000000
 50
180.000000000000000
 51
270.000000000000000
  0
LINE
  8
0
  6
CONTINUOUS
 62
256
 10
1.982944000000000
 20
62.138863000000001
 11
1.982944000000000
 21
59.138863000000001
  0
ARC
  8
0
  6
CONTINUOUS
 62
256
 10
0.982944000000000
 20
59.138863000000001
 40
1.000000000000000
 50
270.000000000000000
 51
0.000000000000000
  0
LINE
  8
0
  6
CONTINUOUS
 62
256
 10
0.982944000000000
 20
58.138863000000001
 11
-20.017056000000000
 21
58.138863000000001
  0
LINE
  8
0
  6
CONTINUOUS
 62
256
 10
-42.017055999999997
 20
62.138863000000001
 11
-42.017055999999997
 21
59.138863000000001
  0
ARC
  8
0
  6
CONTINUOUS
 62
256
 10
-41.017055999999997
 20
59.138863000000001
 40
1.000000000000000
 50
180.000000000000000
 51
270.000000000000000
  0
LINE
  8
0
  6
CONTINUOUS
 62
256
 10
-41.017055999999997
 20
58.138863000000001
 11
-20.017056000000000
 21
58.138863000000001
  0
LINE
  8
0
  6
CONTINUOUS
 62
256
 10
1.982944000000000
 20
168.138862999999990
 11
1.982944000000000
 21
171.138862999999990
  0
ARC
  8
0
  6
CONTINUOUS
 62
256
 10
0.982944000000000
 20
171.138862999999990
 40
1.000000000000000
 50
0.000000000000000
 51
90.000000000000000
  0
LINE
  8
0
  6
CONTINUOUS
 62
256
 10
0.982944000000000
 20
172.138862999999990
 11
-20.017056000000000
 21
172.138862999999990
  0
LINE
  8
0
  6
CONTINUOUS
 62
256
 10
-42.017055999999997
 20
168.138862999999990
 11
-42.017055999999997
 21
171.138862999999990
  0
ARC
  8
0
  6
CONTINUOUS
 62
256
 10
-41.017055999999997
 20
171.138862999999990
 40
1.000000000000000
 50
90.000000000000000
 51
180.000000000000000
  0
LINE
  8
0
  6
CONTINUOUS
 62
256
 10
-41.017055999999997
 20
172.138862999999990
 11
-20.017056000000000
 21
172.138862999999990
  0
LINE
  8
0
  6
DASHDOT
 62
256
 10
-20.017056000000000
 20
178.599223999999990
 11
-20.017056000000000
 21
50.646760999999998
  0
LINE
  8
0
  6
CONTINUOUS
 62
256
 10
194.084684000000010
 20
-68.012237999999996
 11
194.084687000000000
 21
-65.512179000000003
  0
LINE
  8
0
  6
CONTINUOUS
 62
256
 10
176.585237000000010
 20
-65.512179000000003
 11
194.084701000000000
 21
-65.512179000000003
  0
LINE
  8
0
  6
CONTINUOUS
 62
256
 10
176.585237000000010
 20
-65.512179000000003
 11
176.585237000000010
 21
-66.412178999999995
  0
LINE
  8
0
  6
CONTINUOUS
 62
256
 10
158.085237000000010
 20
-66.412178999999995
 11
158.085237000000010
 21
-68.012237999999996
  0
LINE
  8
0
  6
CONTINUOUS
 62
256
 10
158.085237000000010
 20
-66.412178999999995
 11
176.585237000000010
 21
-66.412178999999995
  0
LINE
  8
0
  6
CONTINUOUS
 62
256
 10
-142.517056000000000
 20
135.156318000000000
 11
-147.517056000000000
 21
135.156318000000000
  0
ENDSEC
  0
EOF
