  0
SECTION
  2
HEADER
  9
$TEXTSIZE
 40
2.5
  9
$ACADVER
  1
AC1009
  9
$DIMASZ
 40
3.863703297614046
  9
$DIMEXE
 40
2.000000000000000
  9
$DIMEXO
 40
1.000000000000000
  9
$DIMLFAC
 40
1.000000000000000
  9
$DIMSCALE
 40
1.000000000000000
  9
$DIMTAD
 70
1
  9
$DIMTFAC
 40
0.625000000000000
  9
$DIMTXT
 40
3.200000047683716
  9
$LUPREC
 70
3
  9
$REGENMODE
 70
1
  9
$TEXTSTYLE
  7
STANDARD1
  0
ENDSEC
  0
SECTION
  2
TABLES
  0
TABLE
  2
LTYPE
 70
4
  0
LTYPE
  2
CONTINUOUS
 70
64
  3
Solid line
 72
65
 73
0
 40
0.0
  0
LTYPE
  2
DASHED
 70
64
  3
-- -- -- -- -- -- -- -- -- -- -- -- -- -- --
 72
65
 73
2
 40
0.75
 49
0.5
 49
-0.25
  0
LTYPE
  2
DASHDOT
 70
64
  3
__ . __ . __ . __ . __ . __ . __ . __ . __ . __
 72
65
 73
4
 40
1.0
 49
0.5
 49
-0.25
 49
0.0
 49
-0.25
  0
LTYPE
  2
DIVIDE
 70
64
  3
__ . . __ . . __ . . __ . . __ . . __ . . __
 72
65
 73
6
 40
1.25
 49
0.5
 49
-0.25
 49
0.0
 49
-0.25
 49
0.0
 49
-0.25
  0
ENDTAB
  0
TABLE
  2
LAYER
 70
3
  0
LAYER
  2
0
 70
64
 62
53
  6
CONTINUOUS
  0
LAYER
  2
1
 70
64
 62
102
  6
CONTINUOUS
  0
LAYER
  2
2
 70
64
 62
102
  6
CONTINUOUS
  0
ENDTAB
  0
TABLE
  2
STYLE
 70
4
  0
STYLE
  2
STANDARD1
 70
64
 40
0.0
 41
1.0
 50
0.0
 71
0
 42
3.200000047683716
  3
MONOTXT
  4
BIGFONT
  0
STYLE
  2
STANDARD2
 70
68
 40
0.0
 41
1.0
 50
0.0
 71
0
 42
3.200000047683716
  3
MONOTXT
  4
BIGFONT
  0
STYLE
  2
STANDARD3
 70
64
 40
0.0
 41
1.0
 50
0.0
 71
0
 42
3.200000047683716
  3
MONOTXT
  4

  0
STYLE
  2
STANDARD4
 70
68
 40
0.0
 41
1.0
 50
0.0
 71
0
 42
3.200000047683716
  3
MONOTXT
  4

  0
ENDTAB
  0
TABLE
  2
VIEW
 70
0
  0
ENDTAB
  0
ENDSEC
  0
SECTION
  2
BLOCKS
  0
BLOCK
  8
0
  2
ZU_SYM_1
 70
64
 10
0.000000000000000
 20
0.000000000000000
  0
CIRCLE
  8
0
  6
CONTINUOUS
 62
256
 10
0.000000000000000
 20
0.000000000000000
 40
5.000000000000000
  0
POINT
  8
0
  6
CONTINUOUS
 62
256
 10
0.000000000000000
 20
0.000000000000000
  0
LINE
  8
0
  6
CONTINUOUS
 62
256
 10
-2.499998000000000
 20
-1.443372000000000
 11
-2.499999000000000
 21
1.443378000000000
  0
LINE
  8
0
  6
CONTINUOUS
 62
256
 10
2.499998000000000
 20
1.443372000000000
 11
2.499999000000000
 21
-1.443374000000000
  0
LINE
  8
0
  6
CONTINUOUS
 62
256
 10
0.000005000000000
 20
2.886749000000000
 11
2.499999000000000
 21
1.443372000000000
  0
LINE
  8
0
  6
CONTINUOUS
 62
256
 10
-0.000006000000000
 20
-2.886747000000000
 11
-2.499998000000000
 21
-1.443372000000000
  0
LINE
  8
0
  6
CONTINUOUS
 62
256
 10
0.000005000000000
 20
2.886748000000000
 11
-2.500000000000000
 21
1.443377000000000
  0
LINE
  8
0
  6
CONTINUOUS
 62
256
 10
2.499999000000000
 20
-1.443374000000000
 11
-0.000005000000000
 21
-2.886748000000000
  0
ENDBLK
  8
0
  0
BLOCK
  8
0
  2
ZU_SYM_2
 70
64
 10
0.000000000000000
 20
0.000000000000000
  0
CIRCLE
  8
0
  6
CONTINUOUS
 62
256
 10
0.000000000000000
 20
0.000000000000000
 40
5.000000000000000
  0
POINT
  8
0
  6
CONTINUOUS
 62
256
 10
0.000000000000000
 20
0.000000000000000
  0
LINE
  8
0
  6
CONTINUOUS
 62
256
 10
-2.499998000000000
 20
-1.443372000000000
 11
-2.499999000000000
 21
1.443378000000000
  0
LINE
  8
0
  6
CONTINUOUS
 62
256
 10
2.499998000000000
 20
1.443372000000000
 11
2.499999000000000
 21
-1.443374000000000
  0
LINE
  8
0
  6
CONTINUOUS
 62
256
 10
0.000005000000000
 20
2.886749000000000
 11
2.499999000000000
 21
1.443372000000000
  0
LINE
  8
0
  6
CONTINUOUS
 62
256
 10
-0.000006000000000
 20
-2.886747000000000
 11
-2.499998000000000
 21
-1.443372000000000
  0
LINE
  8
0
  6
CONTINUOUS
 62
256
 10
0.000005000000000
 20
2.886748000000000
 11
-2.500000000000000
 21
1.443377000000000
  0
LINE
  8
0
  6
CONTINUOUS
 62
256
 10
2.499999000000000
 20
-1.443374000000000
 11
-0.000005000000000
 21
-2.886748000000000
  0
ENDBLK
  8
0
  0
BLOCK
  8
0
  2
ZU_SYM_3
 70
64
 10
0.000000000000000
 20
0.000000000000000
  0
CIRCLE
  8
0
  6
CONTINUOUS
 62
256
 10
0.000000000000000
 20
0.000000000000000
 40
5.000000000000000
  0
POINT
  8
0
  6
CONTINUOUS
 62
256
 10
0.000000000000000
 20
0.000000000000000
  0
LINE
  8
0
  6
CONTINUOUS
 62
256
 10
-2.499998000000000
 20
-1.443372000000000
 11
-2.499999000000000
 21
1.443378000000000
  0
LINE
  8
0
  6
CONTINUOUS
 62
256
 10
2.499998000000000
 20
1.443372000000000
 11
2.499999000000000
 21
-1.443374000000000
  0
LINE
  8
0
  6
CONTINUOUS
 62
256
 10
0.000005000000000
 20
2.886749000000000
 11
2.499999000000000
 21
1.443372000000000
  0
LINE
  8
0
  6
CONTINUOUS
 62
256
 10
-0.000006000000000
 20
-2.886747000000000
 11
-2.499998000000000
 21
-1.443372000000000
  0
LINE
  8
0
  6
CONTINUOUS
 62
256
 10
0.000005000000000
 20
2.886748000000000
 11
-2.500000000000000
 21
1.443377000000000
  0
LINE
  8
0
  6
CONTINUOUS
 62
256
 10
2.499999000000000
 20
-1.443374000000000
 11
-0.000005000000000
 21
-2.886748000000000
  0
ENDBLK
  8
0
  0
BLOCK
  8
0
  2
ZU_SYM_4
 70
64
 10
0.000000000000000
 20
0.000000000000000
  0
CIRCLE
  8
0
  6
CONTINUOUS
 62
256
 10
0.000000000000000
 20
0.000000000000000
 40
5.000000000000000
  0
POINT
  8
0
  6
CONTINUOUS
 62
256
 10
0.000000000000000
 20
0.000000000000000
  0
LINE
  8
0
  6
CONTINUOUS
 62
256
 10
-2.499998000000000
 20
-1.443372000000000
 11
-2.499999000000000
 21
1.443378000000000
  0
LINE
  8
0
  6
CONTINUOUS
 62
256
 10
2.499998000000000
 20
1.443372000000000
 11
2.499999000000000
 21
-1.443374000000000
  0
LINE
  8
0
  6
CONTINUOUS
 62
256
 10
0.000005000000000
 20
2.886749000000000
 11
2.499999000000000
 21
1.443372000000000
  0
LINE
  8
0
  6
CONTINUOUS
 62
256
 10
-0.000006000000000
 20
-2.886747000000000
 11
-2.499998000000000
 21
-1.443372000000000
  0
LINE
  8
0
  6
CONTINUOUS
 62
256
 10
0.000005000000000
 20
2.886748000000000
 11
-2.500000000000000
 21
1.443377000000000
  0
LINE
  8
0
  6
CONTINUOUS
 62
256
 10
2.499999000000000
 20
-1.443374000000000
 11
-0.000005000000000
 21
-2.886748000000000
  0
ENDBLK
  8
0
  0
ENDSEC
  0
SECTION
  2
ENTITIES
  0
TEXT
  8
0
  6
CONTINUOUS
 62
256
 10
-70.375488281250000
 20
-13.156250000000000
 40
2.799999952316284
  1
ü@
 50
0.000002504478167
 41
0.996000017370497
  7
STANDARD1
  0
TEXT
  8
0
  6
CONTINUOUS
 62
256
 10
1.624511957168579
 20
-253.406250000000000
 40
2.799999952316284
  1
ü@
 50
0.000002504478167
 41
0.996000017370497
  7
STANDARD1
  0
LINE
  8
0
  6
DASHDOT
 62
256
 10
54.234023000000001
 20
-37.194177000000003
 11
54.234023000000001
 21
-53.028191000000000
  0
LINE
  8
0
  6
DASHDOT
 62
256
 10
45.977195000000002
 20
-45.704058000000003
 11
68.186380000000000
 21
-45.704058000000003
  0
CIRCLE
  8
0
  6
CONTINUOUS
 62
256
 10
54.234023000000001
 20
-45.704058000000003
 40
5.000000000000000
  0
CIRCLE
  8
0
  6
CONTINUOUS
 62
256
 10
54.234023000000001
 20
-45.704058000000003
 40
4.188000000000002
  0
LINE
  8
0
  6
DASHDOT
 62
256
 10
555.830981999999950
 20
-167.704058000000000
 11
454.747768000000010
 21
-167.704058000000000
  0
LINE
  8
0
  6
DASHDOT
 62
256
 10
555.830981999999950
 20
-45.704058000000003
 11
454.747768000000010
 21
-45.704058000000003
  0
LINE
  8
0
  6
CONTINUOUS
 62
256
 10
450.621378999999990
 20
-165.319550999999990
 11
456.384898000000020
 21
-171.083069999999990
  0
LINE
  8
0
  6
CONTINUOUS
 62
256
 10
450.621378999999990
 20
-68.088566000000000
 11
452.384898000000020
 21
-66.325046999999998
  0
ARC
  8
0
  6
CONTINUOUS
 62
256
 10
455.288282999999980
 20
-72.755471000000000
 40
6.600000000000017
 50
135.000000000000170
 51
171.402918000000080
  0
ARC
  8
0
  6
CONTINUOUS
 62
256
 10
745.984898000000040
 20
-116.704058000000000
 40
300.600000000000020
 50
171.402918000000000
 51
171.436491999999990
  0
ARC
  8
0
  6
CONTINUOUS
 62
256
 10
455.288282999999980
 20
-160.652646000000000
 40
6.600000000000022
 50
188.597082000000030
 51
224.999999999999830
  0
ARC
  8
0
  6
CONTINUOUS
 62
256
 10
745.984898000000040
 20
-116.704058000000000
 40
300.600000000000020
 50
180.000000000000000
 51
188.597082000000000
  0
ARC
  8
0
  6
CONTINUOUS
 62
256
 10
505.384898000000020
 20
85.795941999999997
 40
300.000000000000000
 50
263.967951000000030
 51
276.032048999999970
  0
LINE
  8
0
  6
CONTINUOUS
 62
256
 10
502.884898000000020
 20
-214.193642000000010
 11
502.884898000000020
 21
-214.704058000000000
  0
LINE
  8
0
  6
CONTINUOUS
 62
256
 10
507.884898000000020
 20
-214.204057000000010
 11
507.884898000000020
 21
-214.704058000000000
  0
LINE
  8
0
  6
CONTINUOUS
 62
256
 10
502.884898000000020
 20
-214.704058000000000
 11
507.884898000000020
 21
-214.704058000000000
  0
ARC
  8
0
  6
CONTINUOUS
 62
256
 10
474.384898000000020
 20
-207.570722999999990
 40
5.000000000000000
 50
180.000000000000000
 51
263.967950999999970
  0
LINE
  8
0
  6
CONTINUOUS
 62
256
 10
469.384898000000020
 20
-180.721514000000010
 11
469.384898000000020
 21
-207.570722999999990
  0
LINE
  8
0
  6
CONTINUOUS
 62
256
 10
541.384898000000020
 20
-179.368745999999990
 11
541.384898000000020
 21
-207.570722999999990
  0
ARC
  8
0
  6
CONTINUOUS
 62
256
 10
536.384898000000020
 20
-207.570722999999990
 40
4.999999999999996
 50
276.032048999999350
 51
0.000000000000000
  0
LINE
  8
0
  6
CONTINUOUS
 62
256
 10
560.148416999999990
 20
-68.088566000000000
 11
558.384898000000020
 21
-66.325046999999998
  0
LINE
  8
0
  6
CONTINUOUS
 62
256
 10
560.148416999999990
 20
-165.319550999999990
 11
554.384898000000020
 21
-171.083069999999990
  0
ARC
  8
0
  6
CONTINUOUS
 62
256
 10
264.784898000000000
 20
-116.704058000000000
 40
300.600000000000020
 50
351.402918000000000
 51
0.000000000000000
  0
ARC
  8
0
  6
CONTINUOUS
 62
256
 10
555.481511999999950
 20
-160.652646000000000
 40
6.599999999999977
 50
314.999999999999830
 51
351.402917999999940
  0
ARC
  8
0
  6
CONTINUOUS
 62
256
 10
264.784898000000000
 20
-116.704058000000000
 40
300.600000000000020
 50
0.000000000000000
 51
8.101502999999999
  0
ARC
  8
0
  6
CONTINUOUS
 62
256
 10
555.481511999999950
 20
-72.755471000000000
 40
6.600000000000019
 50
8.597081999999919
 51
45.000000000000178
  0
LINE
  8
0
  6
CONTINUOUS
 62
256
 10
-222.765976999999990
 20
-167.019592999999990
 11
-125.765977000000010
 21
-167.019592999999990
  0
LINE
  8
0
  6
CONTINUOUS
 62
256
 10
-232.765976999999990
 20
-181.704058000000000
 11
-232.765976999999990
 21
-181.323279000000010
  0
LINE
  8
0
  6
CONTINUOUS
 62
256
 10
-222.765976999999990
 20
-57.204058000000003
 11
-125.765977000000010
 21
-57.204058000000003
  0
LINE
  8
0
  6
CONTINUOUS
 62
256
 10
-314.931530000000010
 20
-178.087098999999990
 11
-324.657276000000020
 21
-171.277059000000010
  0
ARC
  8
0
  6
CONTINUOUS
 62
256
 10
-323.165977000000000
 20
-169.147264000000010
 40
2.600000000000023
 50
180.000000000000000
 51
234.999999999999770
  0
LINE
  8
0
  6
DASHDOT
 62
256
 10
-76.814019999999999
 20
-116.704058000000000
 11
-335.695190000000030
 21
-116.704058000000000
  0
LINE
  8
0
  6
CONTINUOUS
 62
256
 10
-232.765976999999990
 20
-181.704058000000000
 11
-303.460001999999970
 21
-181.704058000000000
  0
POLYLINE
  8
0
  6
CONTINUOUS
 62
256
 66
1
 70
1
  0
VERTEX
  8
0
  6
CONTINUOUS
 62
256
 10
-229.065977000000000
 20
-168.627584000000010
  0
VERTEX
  8
0
  6
CONTINUOUS
 62
256
 10
-229.156286182104820
 20
-167.924627489441830
  0
VERTEX
  8
0
  6
CONTINUOUS
 62
256
 10
-229.423743197196960
 20
-167.248685203361870
  0
VERTEX
  8
0
  6
CONTINUOUS
 62
256
 10
-229.858069822178040
 20
-166.625733224741340
  0
VERTEX
  8
0
  6
CONTINUOUS
 62
256
 10
-230.442575128423210
 20
-166.079711248763180
  0
VERTEX
  8
0
  6
CONTINUOUS
 62
256
 10
-231.154796904807880
 20
-165.631602593751520
  0
VERTEX
  8
0
  6
CONTINUOUS
 62
256
 10
-231.967364867884070
 20
-165.298627824016280
  0
VERTEX
  8
0
  6
CONTINUOUS
 62
256
 10
-232.849052486524190
 20
-165.093582973223930
  0
VERTEX
  8
0
  6
CONTINUOUS
 62
256
 10
-233.765976999999990
 20
-165.024347800000020
  0
VERTEX
  8
0
  6
CONTINUOUS
 62
256
 10
-234.682901513475800
 20
-165.093582973223930
  0
VERTEX
  8
0
  6
CONTINUOUS
 62
256
 10
-235.564589132115910
 20
-165.298627824016280
  0
VERTEX
  8
0
  6
CONTINUOUS
 62
256
 10
-236.377157095192100
 20
-165.631602593751520
  0
VERTEX
  8
0
  6
CONTINUOUS
 62
256
 10
-237.089378871576770
 20
-166.079711248763180
  0
VERTEX
  8
0
  6
CONTINUOUS
 62
256
 10
-237.673884177821950
 20
-166.625733224741340
  0
VERTEX
  8
0
  6
CONTINUOUS
 62
256
 10
-238.108210802803030
 20
-167.248685203361870
  0
VERTEX
  8
0
  6
CONTINUOUS
 62
256
 10
-238.375667817895160
 20
-167.924627489441830
  0
VERTEX
  8
0
  6
CONTINUOUS
 62
256
 10
-238.465976999999980
 20
-168.627584000000010
  0
VERTEX
  8
0
  6
CONTINUOUS
 62
256
 10
-238.375667817895160
 20
-169.330540510558190
  0
VERTEX
  8
0
  6
CONTINUOUS
 62
256
 10
-238.108210802803030
 20
-170.006482796638150
  0
VERTEX
  8
0
  6
CONTINUOUS
 62
256
 10
-237.673884177821950
 20
-170.629434775258690
  0
VERTEX
  8
0
  6
CONTINUOUS
 62
256
 10
-237.089378871576770
 20
-171.175456751236850
  0
VERTEX
  8
0
  6
CONTINUOUS
 62
256
 10
-236.377157095192100
 20
-171.623565406248500
  0
VERTEX
  8
0
  6
CONTINUOUS
 62
256
 10
-235.564589132115910
 20
-171.956540175983750
  0
VERTEX
  8
0
  6
CONTINUOUS
 62
256
 10
-234.682901513475800
 20
-172.161585026776070
  0
VERTEX
  8
0
  6
CONTINUOUS
 62
256
 10
-233.765976999999990
 20
-172.230820200000010
  0
VERTEX
  8
0
  6
CONTINUOUS
 62
256
 10
-232.849052486524190
 20
-172.161585026776070
  0
VERTEX
  8
0
  6
CONTINUOUS
 62
256
 10
-231.967364867884070
 20
-171.956540175983750
  0
VERTEX
  8
0
  6
CONTINUOUS
 62
256
 10
-231.154796904807880
 20
-171.623565406248500
  0
VERTEX
  8
0
  6
CONTINUOUS
 62
256
 10
-230.442575128423240
 20
-171.175456751236850
  0
VERTEX
  8
0
  6
CONTINUOUS
 62
256
 10
-229.858069822178040
 20
-170.629434775258690
  0
VERTEX
  8
0
  6
CONTINUOUS
 62
256
 10
-229.423743197196960
 20
-170.006482796638150
  0
VERTEX
  8
0
  6
CONTINUOUS
 62
256
 10
-229.156286182104820
 20
-169.330540510558190
  0
SEQEND
  8
0
  6
CONTINUOUS
 62
256
  0
LINE
  8
0
  6
CONTINUOUS
 62
256
 10
-235.765976999999990
 20
-171.619958999999990
 11
-233.765976999999990
 21
-170.444174000000000
  0
LINE
  8
0
  6
CONTINUOUS
 62
256
 10
-233.765976999999990
 20
-170.444174000000000
 11
-231.765976999999990
 21
-168.791531999999990
  0
ARC
  8
0
  6
CONTINUOUS
 62
256
 10
-303.460001999999970
 20
-161.704058000000000
 40
19.999999999999996
 50
234.999999999999940
 51
270.000000000000000
  0
LINE
  8
0
  6
CONTINUOUS
 62
256
 10
-140.565977000000000
 20
-176.204058000000000
 11
-125.765977000000010
 21
-176.204058000000000
  0
LINE
  8
0
  6
CONTINUOUS
 62
256
 10
-231.765976999999990
 20
-171.619958999999990
 11
-233.765976999999990
 21
-170.444174000000000
  0
LINE
  8
0
  6
CONTINUOUS
 62
256
 10
-233.765976999999990
 20
-170.444174000000000
 11
-235.765976999999990
 21
-168.791531999999990
  0
POLYLINE
  8
0
  6
CONTINUOUS
 62
256
 66
1
 70
1
  0
VERTEX
  8
0
  6
CONTINUOUS
 62
256
 10
-229.065977000000000
 20
-64.780533000000005
  0
VERTEX
  8
0
  6
CONTINUOUS
 62
256
 10
-229.156286182104820
 20
-64.077576489441839
  0
VERTEX
  8
0
  6
CONTINUOUS
 62
256
 10
-229.423743197196960
 20
-63.401634203361866
  0
VERTEX
  8
0
  6
CONTINUOUS
 62
256
 10
-229.858069822178040
 20
-62.778682224741345
  0
VERTEX
  8
0
  6
CONTINUOUS
 62
256
 10
-230.442575128423210
 20
-62.232660248763167
  0
VERTEX
  8
0
  6
CONTINUOUS
 62
256
 10
-231.154796904807880
 20
-61.784551593751516
  0
VERTEX
  8
0
  6
CONTINUOUS
 62
256
 10
-231.967364867884070
 20
-61.451576824016271
  0
VERTEX
  8
0
  6
CONTINUOUS
 62
256
 10
-232.849052486524190
 20
-61.246531973223945
  0
VERTEX
  8
0
  6
CONTINUOUS
 62
256
 10
-233.765976999999990
 20
-61.177296800000015
  0
VERTEX
  8
0
  6
CONTINUOUS
 62
256
 10
-234.682901513475800
 20
-61.246531973223945
  0
VERTEX
  8
0
  6
CONTINUOUS
 62
256
 10
-235.564589132115910
 20
-61.451576824016271
  0
VERTEX
  8
0
  6
CONTINUOUS
 62
256
 10
-236.377157095192100
 20
-61.784551593751516
  0
VERTEX
  8
0
  6
CONTINUOUS
 62
256
 10
-237.089378871576770
 20
-62.232660248763167
  0
VERTEX
  8
0
  6
CONTINUOUS
 62
256
 10
-237.673884177821950
 20
-62.778682224741345
  0
VERTEX
  8
0
  6
CONTINUOUS
 62
256
 10
-238.108210802803030
 20
-63.401634203361866
  0
VERTEX
  8
0
  6
CONTINUOUS
 62
256
 10
-238.375667817895160
 20
-64.077576489441839
  0
VERTEX
  8
0
  6
CONTINUOUS
 62
256
 10
-238.465976999999980
 20
-64.780533000000005
  0
VERTEX
  8
0
  6
CONTINUOUS
 62
256
 10
-238.375667817895160
 20
-65.483489510558172
  0
VERTEX
  8
0
  6
CONTINUOUS
 62
256
 10
-238.108210802803030
 20
-66.159431796638145
  0
VERTEX
  8
0
  6
CONTINUOUS
 62
256
 10
-237.673884177821950
 20
-66.782383775258666
  0
VERTEX
  8
0
  6
CONTINUOUS
 62
256
 10
-237.089378871576770
 20
-67.328405751236843
  0
VERTEX
  8
0
  6
CONTINUOUS
 62
256
 10
-236.377157095192100
 20
-67.776514406248495
  0
VERTEX
  8
0
  6
CONTINUOUS
 62
256
 10
-235.564589132115910
 20
-68.109489175983740
  0
VERTEX
  8
0
  6
CONTINUOUS
 62
256
 10
-234.682901513475800
 20
-68.314534026776059
  0
VERTEX
  8
0
  6
CONTINUOUS
 62
256
 10
-233.765976999999990
 20
-68.383769199999989
  0
VERTEX
  8
0
  6
CONTINUOUS
 62
256
 10
-232.849052486524190
 20
-68.314534026776059
  0
VERTEX
  8
0
  6
CONTINUOUS
 62
256
 10
-231.967364867884070
 20
-68.109489175983740
  0
VERTEX
  8
0
  6
CONTINUOUS
 62
256
 10
-231.154796904807880
 20
-67.776514406248495
  0
VERTEX
  8
0
  6
CONTINUOUS
 62
256
 10
-230.442575128423240
 20
-67.328405751236843
  0
VERTEX
  8
0
  6
CONTINUOUS
 62
256
 10
-229.858069822178040
 20
-66.782383775258666
  0
VERTEX
  8
0
  6
CONTINUOUS
 62
256
 10
-229.423743197196960
 20
-66.159431796638145
  0
VERTEX
  8
0
  6
CONTINUOUS
 62
256
 10
-229.156286182104820
 20
-65.483489510558172
  0
SEQEND
  8
0
  6
CONTINUOUS
 62
256
  0
LINE
  8
0
  6
CONTINUOUS
 62
256
 10
-235.765976999999990
 20
-61.788158000000003
 11
-233.765976999999990
 21
-62.963943000000000
  0
LINE
  8
0
  6
CONTINUOUS
 62
256
 10
-233.765976999999990
 20
-62.963943000000000
 11
-231.765976999999990
 21
-64.616585000000001
  0
LINE
  8
0
  6
CONTINUOUS
 62
256
 10
-231.765976999999990
 20
-61.788158000000003
 11
-233.765976999999990
 21
-62.963943000000000
  0
LINE
  8
0
  6
CONTINUOUS
 62
256
 10
-233.765976999999990
 20
-62.963943000000000
 11
-235.765976999999990
 21
-64.616585000000001
  0
LINE
  8
0
  6
CONTINUOUS
 62
256
 10
-222.765976999999990
 20
-173.704058000000000
 11
-125.765977000000010
 21
-173.704058000000000
  0
LINE
  8
0
  6
CONTINUOUS
 62
256
 10
-222.765976999999990
 20
-172.704058000000000
 11
-125.765977000000010
 21
-172.704058000000000
  0
LINE
  8
0
  6
CONTINUOUS
 62
256
 10
-222.765976999999990
 20
-171.704058000000000
 11
-125.765977000000010
 21
-171.704058000000000
  0
LINE
  8
0
  6
CONTINUOUS
 62
256
 10
-222.765976999999990
 20
-162.069844999999990
 11
-125.765977000000010
 21
-162.069844999999990
  0
LINE
  8
0
  6
CONTINUOUS
 62
256
 10
-222.765976999999990
 20
-154.023244000000010
 11
-125.765977000000010
 21
-154.023244000000010
  0
LINE
  8
0
  6
CONTINUOUS
 62
256
 10
-222.765976999999990
 20
-152.418596000000010
 11
-125.765977000000010
 21
-152.418596000000010
  0
LINE
  8
0
  6
CONTINUOUS
 62
256
 10
-222.765976999999990
 20
-148.454849999999990
 11
-125.765977000000010
 21
-148.454849999999990
  0
LINE
  8
0
  6
CONTINUOUS
 62
256
 10
-222.765976999999990
 20
-146.986493000000000
 11
-125.765977000000010
 21
-146.986493000000000
  0
LINE
  8
0
  6
CONTINUOUS
 62
256
 10
-222.765976999999990
 20
-142.895992000000010
 11
-125.765977000000010
 21
-142.895992000000010
  0
LINE
  8
0
  6
CONTINUOUS
 62
256
 10
-222.765976999999990
 20
-141.534111999999990
 11
-125.765977000000010
 21
-141.534111999999990
  0
LINE
  8
0
  6
CONTINUOUS
 62
256
 10
-222.765976999999990
 20
-137.343558000000000
 11
-125.765977000000010
 21
-137.343558000000000
  0
LINE
  8
0
  6
CONTINUOUS
 62
256
 10
-222.765976999999990
 20
-136.077319999999990
 11
-125.765977000000010
 21
-136.077319999999990
  0
LINE
  8
0
  6
CONTINUOUS
 62
256
 10
-222.765976999999990
 20
-131.704058000000000
 11
-125.765977000000010
 21
-131.704058000000000
  0
LINE
  8
0
  6
CONTINUOUS
 62
256
 10
-222.765976999999990
 20
-79.384872999999999
 11
-125.765977000000010
 21
-79.384872999999999
  0
LINE
  8
0
  6
CONTINUOUS
 62
256
 10
-222.765976999999990
 20
-80.989520999999996
 11
-125.765977000000010
 21
-80.989520999999996
  0
LINE
  8
0
  6
CONTINUOUS
 62
256
 10
-222.765976999999990
 20
-84.953266999999997
 11
-125.765977000000010
 21
-84.953266999999997
  0
LINE
  8
0
  6
CONTINUOUS
 62
256
 10
-222.765976999999990
 20
-86.421623999999994
 11
-125.765977000000010
 21
-86.421623999999994
  0
LINE
  8
0
  6
CONTINUOUS
 62
256
 10
-222.765976999999990
 20
-90.512124999999997
 11
-125.765977000000010
 21
-90.512124999999997
  0
LINE
  8
0
  6
CONTINUOUS
 62
256
 10
-222.765976999999990
 20
-91.874004999999997
 11
-125.765977000000010
 21
-91.874004999999997
  0
LINE
  8
0
  6
CONTINUOUS
 62
256
 10
-222.765976999999990
 20
-96.064559000000003
 11
-125.765977000000010
 21
-96.064559000000003
  0
LINE
  8
0
  6
CONTINUOUS
 62
256
 10
-222.765976999999990
 20
-97.330797000000004
 11
-125.765977000000010
 21
-97.330797000000004
  0
LINE
  8
0
  6
CONTINUOUS
 62
256
 10
-222.765976999999990
 20
-101.704058000000000
 11
-125.765977000000010
 21
-101.704058000000000
  0
LINE
  8
0
  6
CONTINUOUS
 62
256
 10
-222.765976999999990
 20
-71.338272000000003
 11
-125.765977000000010
 21
-71.338272000000003
  0
LINE
  8
0
  6
CONTINUOUS
 62
256
 10
-222.765976999999990
 20
-66.388524000000004
 11
-125.765977000000010
 21
-66.388524000000004
  0
LINE
  8
0
  6
CONTINUOUS
 62
256
 10
-222.765976999999990
 20
-116.704058000000000
 11
-222.765976999999990
 21
-51.704058000000003
  0
LINE
  8
0
  6
CONTINUOUS
 62
256
 10
-222.765976999999990
 20
-61.704058000000003
 11
-125.765977000000010
 21
-61.704058000000003
  0
LINE
  8
0
  6
CONTINUOUS
 62
256
 10
-222.765976999999990
 20
-60.704058000000003
 11
-125.765977000000010
 21
-60.704058000000003
  0
LINE
  8
0
  6
CONTINUOUS
 62
256
 10
-222.765976999999990
 20
-59.704058000000003
 11
-125.765977000000010
 21
-59.704058000000003
  0
LINE
  8
0
  6
CONTINUOUS
 62
256
 10
-155.765976999999990
 20
-57.204058000000003
 11
-125.765977000000010
 21
-57.204058000000003
  0
LINE
  8
0
  6
CONTINUOUS
 62
256
 10
-125.765977000000010
 20
-57.204058000000003
 11
-125.765977000000010
 21
-116.704058000000000
  0
LINE
  8
0
  6
CONTINUOUS
 62
256
 10
-222.765976999999990
 20
-51.704058000000003
 11
-303.460001999999970
 21
-51.704058000000003
  0
LINE
  8
0
  6
CONTINUOUS
 62
256
 10
-325.765977000000020
 20
-116.704058000000000
 11
-325.765977000000020
 21
-64.260852999999997
  0
ARC
  8
0
  6
CONTINUOUS
 62
256
 10
-303.460001999999970
 20
-71.704058000000003
 40
20.000000000000000
 50
90.000000000000000
 51
125.000000000000040
  0
LINE
  8
0
  6
CONTINUOUS
 62
256
 10
-314.931530000000010
 20
-55.321018000000002
 11
-324.657276000000020
 21
-62.131058000000003
  0
ARC
  8
0
  6
CONTINUOUS
 62
256
 10
-323.165977000000000
 20
-64.260852999999997
 40
2.600000000000001
 50
125.000000000000110
 51
180.000000000000000
  0
ARC
  8
0
  6
CONTINUOUS
 62
256
 10
-225.765976999999990
 20
-175.323279000000010
 40
3.000000000000000
 50
270.000000000000000
 51
0.000000000000000
  0
ARC
  8
0
  6
CONTINUOUS
 62
256
 10
-229.765976999999990
 20
-181.323279000000010
 40
3.000000000000000
 50
90.000000000000000
 51
180.000000000000000
  0
LINE
  8
0
  6
CONTINUOUS
 62
256
 10
-222.765976999999990
 20
-116.704058000000000
 11
-222.765976999999990
 21
-175.323279000000010
  0
LINE
  8
0
  6
CONTINUOUS
 62
256
 10
-125.765977000000010
 20
-176.204058000000000
 11
-125.765977000000010
 21
-116.704058000000000
  0
LINE
  8
0
  6
CONTINUOUS
 62
256
 10
-325.765977000000020
 20
-116.704058000000000
 11
-325.765977000000020
 21
-169.147264000000010
  0
LINE
  8
0
  6
CONTINUOUS
 62
256
 10
-229.765976999999990
 20
-178.323279000000010
 11
-225.765976999999990
 21
-178.323279000000010
  0
LINE
  8
0
  6
CONTINUOUS
 62
256
 10
-150.065977000000000
 20
-214.204058000000000
 11
-150.065977000000000
 21
-214.704058000000000
  0
LINE
  8
0
  6
CONTINUOUS
 62
256
 10
-221.065977000000000
 20
-214.204058000000000
 11
-221.065977000000000
 21
-214.704058000000000
  0
LINE
  8
0
  6
CONTINUOUS
 62
256
 10
-223.565977000000000
 20
-214.204058000000000
 11
-223.565977000000000
 21
-214.704058000000000
  0
LINE
  8
0
  6
CONTINUOUS
 62
256
 10
-215.565977000000000
 20
-214.204058000000000
 11
-215.565977000000000
 21
-214.704058000000000
  0
LINE
  8
0
  6
CONTINUOUS
 62
256
 10
-155.565977000000000
 20
-214.204058000000000
 11
-155.565977000000000
 21
-214.704058000000000
  0
LINE
  8
0
  6
CONTINUOUS
 62
256
 10
-147.565977000000000
 20
-214.204058000000000
 11
-147.565977000000000
 21
-214.704058000000000
  0
LINE
  8
0
  6
CONTINUOUS
 62
256
 10
-223.565977000000000
 20
-214.704058000000000
 11
-215.565977000000000
 21
-214.704058000000000
  0
LINE
  8
0
  6
CONTINUOUS
 62
256
 10
-155.565977000000000
 20
-214.704058000000000
 11
-147.565977000000000
 21
-214.704058000000000
  0
ARC
  8
0
  6
CONTINUOUS
 62
256
 10
-141.565977000000000
 20
-213.204058000000000
 40
1.000000000000000
 50
270.000000000000000
 51
0.000000000000000
  0
LINE
  8
0
  6
CONTINUOUS
 62
256
 10
-140.565977000000000
 20
-180.204058000000000
 11
-140.565977000000000
 21
-213.204058000000000
  0
LINE
  8
0
  6
CONTINUOUS
 62
256
 10
-230.565977000000000
 20
-180.204058000000000
 11
-140.565977000000000
 21
-180.204058000000000
  0
ARC
  8
0
  6
CONTINUOUS
 62
256
 10
-229.565977000000000
 20
-213.204058000000000
 40
1.000000000000000
 50
180.000000000000000
 51
270.000000000000000
  0
LINE
  8
0
  6
CONTINUOUS
 62
256
 10
-230.565977000000000
 20
-180.204058000000000
 11
-230.565977000000000
 21
-213.204058000000000
  0
LINE
  8
0
  6
CONTINUOUS
 62
256
 10
-229.565977000000000
 20
-214.204058000000000
 11
-141.565977000000000
 21
-214.204058000000000
  0
LINE
  8
0
  6
CONTINUOUS
 62
256
 10
-140.565977000000000
 20
-175.204058000000000
 11
-222.765976999999990
 21
-175.204058000000000
  0
LINE
  8
0
  6
CONTINUOUS
 62
256
 10
-140.565977000000000
 20
-180.204058000000000
 11
-140.565977000000000
 21
-175.204058000000000
  0
LINE
  8
0
  6
CONTINUOUS
 62
256
 10
-140.565977000000000
 20
-180.204058000000000
 11
-230.565977000000000
 21
-180.204058000000000
  0
LINE
  8
0
  6
CONTINUOUS
 62
256
 10
-230.565977000000000
 20
-180.204058000000000
 11
-230.565977000000000
 21
-178.431913000000010
  0
ARC
  8
0
  6
CONTINUOUS
 62
256
 10
505.884898000000020
 20
-116.704058000000000
 40
58.500000000000000
 50
169.390857000000010
 51
212.204227999999970
  0
ARC
  8
0
  6
CONTINUOUS
 62
256
 10
504.884898000000020
 20
-116.704058000000000
 40
58.499999999999993
 50
327.795772000000000
 51
10.609142999999984
  0
LINE
  8
0
  6
CONTINUOUS
 62
256
 10
563.884898000000020
 20
-96.704058000000003
 11
562.384898000000020
 21
-96.704058000000003
  0
LINE
  8
0
  6
CONTINUOUS
 62
256
 10
562.384898000000020
 20
-72.704058000000003
 11
562.384898000000020
 21
-93.704058000000003
  0
ARC
  8
0
  6
CONTINUOUS
 62
256
 10
561.384898000000020
 20
-72.704058000000003
 40
1.000000000000000
 50
0.000000000000000
 51
90.000000000000000
  0
LINE
  8
0
  6
CONTINUOUS
 62
256
 10
558.384898000000020
 20
-71.704058000000003
 11
561.384898000000020
 21
-71.704058000000003
  0
LINE
  8
0
  6
CONTINUOUS
 62
256
 10
562.384898000000020
 20
-114.704058000000000
 11
562.384898000000020
 21
-93.704058000000003
  0
ARC
  8
0
  6
CONTINUOUS
 62
256
 10
561.384898000000020
 20
-114.704058000000000
 40
1.000000000000000
 50
270.000000000000000
 51
0.000000000000000
  0
LINE
  8
0
  6
CONTINUOUS
 62
256
 10
558.384898000000020
 20
-115.704058000000000
 11
561.384898000000020
 21
-115.704058000000000
  0
LINE
  8
0
  6
CONTINUOUS
 62
256
 10
448.384898000000020
 20
-72.704058000000003
 11
448.384898000000020
 21
-93.704058000000003
  0
ARC
  8
0
  6
CONTINUOUS
 62
256
 10
449.384898000000020
 20
-72.704058000000003
 40
1.000000000000000
 50
90.000000000000000
 51
180.000000000000000
  0
LINE
  8
0
  6
CONTINUOUS
 62
256
 10
452.384898000000020
 20
-71.704058000000003
 11
449.384898000000020
 21
-71.704058000000003
  0
LINE
  8
0
  6
CONTINUOUS
 62
256
 10
448.384898000000020
 20
-114.704058000000000
 11
448.384898000000020
 21
-93.704058000000003
  0
ARC
  8
0
  6
CONTINUOUS
 62
256
 10
449.384898000000020
 20
-114.704058000000000
 40
1.000000000000000
 50
180.000000000000000
 51
270.000000000000000
  0
LINE
  8
0
  6
CONTINUOUS
 62
256
 10
452.384898000000020
 20
-115.704058000000000
 11
449.384898000000020
 21
-115.704058000000000
  0
LINE
  8
0
  6
CONTINUOUS
 62
256
 10
468.384898000000020
 20
-116.704058000000000
 11
468.384898000000020
 21
-180.712785999999990
  0
LINE
  8
0
  6
CONTINUOUS
 62
256
 10
468.384898000000020
 20
-180.704058000000000
 11
456.384898000000020
 21
-180.494598000000000
  0
LINE
  8
0
  6
CONTINUOUS
 62
256
 10
554.384898000000020
 20
-179.368745999999990
 11
554.384898000000020
 21
-162.567209999999990
  0
LINE
  8
0
  6
CONTINUOUS
 62
256
 10
544.384898000000020
 20
-179.368745999999990
 11
554.384898000000020
 21
-179.368745999999990
  0
LINE
  8
0
  6
CONTINUOUS
 62
256
 10
468.384898000000020
 20
-180.712785999999990
 11
544.384898000000020
 21
-179.368745999999990
  0
LINE
  8
0
  6
CONTINUOUS
 62
256
 10
544.384898000000020
 20
-34.039371000000003
 11
554.384898000000020
 21
-34.039371000000003
  0
LINE
  8
0
  6
CONTINUOUS
 62
256
 10
554.384898000000020
 20
-51.204058000000003
 11
558.384898000000020
 21
-51.204058000000003
  0
LINE
  8
0
  6
CONTINUOUS
 62
256
 10
558.384898000000020
 20
-116.704058000000000
 11
558.384898000000020
 21
-51.204058000000003
  0
LINE
  8
0
  6
CONTINUOUS
 62
256
 10
554.384898000000020
 20
-162.567209999999990
 11
554.384898000000020
 21
-34.039371000000003
  0
LINE
  8
0
  6
CONTINUOUS
 62
256
 10
468.384898000000020
 20
-32.695331000000003
 11
468.384898000000020
 21
-116.704058000000000
  0
LINE
  8
0
  6
CONTINUOUS
 62
256
 10
468.384898000000020
 20
-32.695331000000003
 11
544.384898000000020
 21
-34.039371000000003
  0
LINE
  8
0
  6
CONTINUOUS
 62
256
 10
554.384898000000020
 20
-136.204058000000000
 11
558.384898000000020
 21
-136.204058000000000
  0
LINE
  8
0
  6
CONTINUOUS
 62
256
 10
452.384898000000020
 20
-136.204058000000000
 11
452.384898000000020
 21
-116.704058000000000
  0
LINE
  8
0
  6
CONTINUOUS
 62
256
 10
558.384898000000020
 20
-116.704058000000000
 11
558.384898000000020
 21
-136.204058000000000
  0
LINE
  8
0
  6
CONTINUOUS
 62
256
 10
452.384898000000020
 20
-136.204058000000000
 11
456.384898000000020
 21
-136.204058000000000
  0
LINE
  8
0
  6
CONTINUOUS
 62
256
 10
456.384898000000020
 20
-32.913519000000001
 11
468.384898000000020
 21
-32.704058000000003
  0
LINE
  8
0
  6
CONTINUOUS
 62
256
 10
452.384898000000020
 20
-51.204058000000003
 11
456.384898000000020
 21
-51.204058000000003
  0
LINE
  8
0
  6
CONTINUOUS
 62
256
 10
452.384898000000020
 20
-51.204058000000003
 11
452.384898000000020
 21
-116.704058000000000
  0
LINE
  8
0
  6
CONTINUOUS
 62
256
 10
456.384898000000020
 20
-180.494598000000000
 11
456.384898000000020
 21
-162.567209999999990
  0
LINE
  8
0
  6
CONTINUOUS
 62
256
 10
456.384898000000020
 20
-162.567209999999990
 11
456.384898000000020
 21
-32.913519000000001
  0
ARC
  8
0
  6
CONTINUOUS
 62
256
 10
552.526339000000010
 20
-160.102859000000000
 40
3.000000000000037
 50
321.379370000000850
 51
44.999999999999616
  0
ARC
  8
0
  6
CONTINUOUS
 62
256
 10
458.243456999999980
 20
-160.102859000000000
 40
3.000000000000004
 50
135.000000000000370
 51
218.620629999999860
  0
ARC
  8
0
  6
CONTINUOUS
 62
256
 10
446.884898000000020
 20
-97.204058000000003
 40
0.500000000000000
 50
90.000000000000000
 51
180.000000000000000
  0
ARC
  8
0
  6
CONTINUOUS
 62
256
 10
446.884898000000020
 20
-97.204058000000003
 40
0.500000000000000
 50
90.000000000000000
 51
180.000000000000000
  0
ARC
  8
0
  6
CONTINUOUS
 62
256
 10
448.409899000000000
 20
-137.204058000000000
 40
0.500000000000028
 50
2.934025000000031
 51
90.000000000000000
  0
ARC
  8
0
  6
CONTINUOUS
 62
256
 10
448.409899000000000
 20
-137.204058000000000
 40
0.500000000000028
 50
2.934025000000031
 51
90.000000000000000
  0
ARC
  8
0
  6
CONTINUOUS
 62
256
 10
446.884898000000020
 20
-136.204058000000000
 40
0.500000000000000
 50
180.000000000000000
 51
270.000000000000000
  0
ARC
  8
0
  6
CONTINUOUS
 62
256
 10
848.384898000000020
 20
-116.704058000000000
 40
400.000000000000000
 50
182.934025000000020
 51
184.114344999999960
  0
ARC
  8
0
  6
CONTINUOUS
 62
256
 10
479.338442999999980
 20
-143.250513000000010
 40
30.000000000000018
 50
184.114344999999960
 51
220.082492999999970
  0
ARC
  8
0
  6
CONTINUOUS
 62
256
 10
531.431351999999950
 20
-143.250513000000010
 40
30.000000000000004
 50
319.917507000000000
 51
355.885654999999990
  0
ARC
  8
0
  6
CONTINUOUS
 62
256
 10
562.359897000000050
 20
-137.204058000000000
 40
0.500000000000000
 50
90.000000000000000
 51
177.065974999999950
  0
ARC
  8
0
  6
CONTINUOUS
 62
256
 10
162.384897999999990
 20
-116.704058000000000
 40
399.999999999999940
 50
355.885654999999990
 51
357.065974999999980
  0
ARC
  8
0
  6
CONTINUOUS
 62
256
 10
563.884898000000020
 20
-136.204058000000000
 40
0.500000000000000
 50
270.000000000000000
 51
0.000000000000000
  0
ARC
  8
0
  6
CONTINUOUS
 62
256
 10
563.884898000000020
 20
-97.204058000000003
 40
0.500000000000000
 50
0.000000000000000
 51
90.000000000000000
  0
LINE
  8
0
  6
DASHED
 62
256
 10
456.122136000000010
 20
-157.981538000000000
 11
456.384898000000020
 21
-157.718776999999990
  0
LINE
  8
0
  6
DASHDOT
 62
256
 10
505.384898000000020
 20
-29.929613000000000
 11
505.384898000000020
 21
-218.625466999999990
  0
LINE
  8
0
  6
CONTINUOUS
 62
256
 10
446.884898000000020
 20
-96.704058000000003
 11
448.409899000000000
 21
-96.704058000000003
  0
LINE
  8
0
  6
CONTINUOUS
 62
256
 10
446.384898000000020
 20
-116.704058000000000
 11
446.384898000000020
 21
-97.204058000000003
  0
LINE
  8
0
  6
CONTINUOUS
 62
256
 10
446.884898000000020
 20
-136.704058000000000
 11
448.409899000000000
 21
-136.704058000000000
  0
LINE
  8
0
  6
CONTINUOUS
 62
256
 10
446.384898000000020
 20
-116.704058000000000
 11
446.384898000000020
 21
-136.204058000000000
  0
LINE
  8
0
  6
CONTINUOUS
 62
256
 10
563.884898000000020
 20
-136.704058000000000
 11
562.359897000000050
 21
-136.704058000000000
  0
LINE
  8
0
  6
CONTINUOUS
 62
256
 10
564.384898000000020
 20
-116.704058000000000
 11
564.384898000000020
 21
-136.204058000000000
  0
LINE
  8
0
  6
CONTINUOUS
 62
256
 10
564.384898000000020
 20
-116.704058000000000
 11
564.384898000000020
 21
-97.204058000000003
  0
LINE
  8
0
  6
DASHDOT
 62
256
 10
494.465665000000000
 20
-116.704058000000000
 11
514.399699000000060
 21
-116.704058000000000
  0
LINE
  8
0
  6
DASHED
 62
256
 10
554.647658999999980
 20
-157.981538000000000
 11
554.384898000000020
 21
-157.718776999999990
  0
LINE
  8
0
  6
DASHDOT
 62
256
 10
569.218290000000020
 20
-93.704058000000003
 11
441.640476999999980
 21
-93.704058000000003
  0
ARC
  8
0
  6
CONTINUOUS
 62
256
 10
-110.765977000000010
 20
-69.607750999999993
 40
5.000000000000000
 50
0.000000000000000
 51
90.000000000000000
  0
ARC
  8
0
  6
CONTINUOUS
 62
256
 10
-110.765977000000010
 20
-76.519327000000004
 40
5.000000000000000
 50
0.000000000000000
 51
90.000000000000000
  0
ARC
  8
0
  6
CONTINUOUS
 62
256
 10
-110.765977000000010
 20
-156.888790000000000
 40
5.000000000000000
 50
270.000000000000000
 51
0.000000000000000
  0
ARC
  8
0
  6
CONTINUOUS
 62
256
 10
-110.765977000000010
 20
-163.800366000000000
 40
5.000000000000000
 50
270.000000000000000
 51
0.000000000000000
  0
ARC
  8
0
  6
CONTINUOUS
 62
256
 10
-100.765977000000010
 20
-69.607750999999993
 40
5.000000000000000
 50
180.000000000000000
 51
252.542396999999970
  0
ARC
  8
0
  6
CONTINUOUS
 62
256
 10
-100.765977000000010
 20
-76.155270999999999
 40
5.000000000000000
 50
180.000000000000000
 51
252.542396999999970
  0
ARC
  8
0
  6
CONTINUOUS
 62
256
 10
-100.765977000000010
 20
-157.252846000000010
 40
5.000000000000007
 50
107.457603000000080
 51
180.000000000000000
  0
ARC
  8
0
  6
CONTINUOUS
 62
256
 10
-100.765977000000010
 20
-163.800366000000000
 40
5.000000000000007
 50
107.457603000000080
 51
180.000000000000000
  0
LINE
  8
0
  6
CONTINUOUS
 62
256
 10
-115.765977000000010
 20
-71.519327000000004
 11
-110.765977000000010
 21
-71.519327000000004
  0
LINE
  8
0
  6
CONTINUOUS
 62
256
 10
-115.765977000000010
 20
-64.607750999999993
 11
-110.765977000000010
 21
-64.607750999999993
  0
LINE
  8
0
  6
CONTINUOUS
 62
256
 10
-115.765977000000010
 20
-161.888790000000000
 11
-110.765977000000010
 21
-161.888790000000000
  0
LINE
  8
0
  6
CONTINUOUS
 62
256
 10
-115.765977000000010
 20
-168.800366000000000
 11
-110.765977000000010
 21
-168.800366000000000
  0
LINE
  8
0
  6
CONTINUOUS
 62
256
 10
-118.765977000000010
 20
-158.888790000000000
 11
-118.765977000000010
 21
-116.704058000000000
  0
LINE
  8
0
  6
CONTINUOUS
 62
256
 10
-115.765977000000010
 20
-155.705324999999990
 11
-110.765977000000010
 21
-155.705324999999990
  0
LINE
  8
0
  6
CONTINUOUS
 62
256
 10
-118.765977000000010
 20
-172.204058000000000
 11
-118.765977000000010
 21
-171.800366000000000
  0
LINE
  8
0
  6
CONTINUOUS
 62
256
 10
-118.765977000000010
 20
-172.204058000000000
 11
-118.765977000000010
 21
-171.800366000000000
  0
LINE
  8
0
  6
CONTINUOUS
 62
256
 10
-118.765977000000010
 20
-172.204058000000000
 11
-118.765977000000010
 21
-173.204058000000000
  0
LINE
  8
0
  6
CONTINUOUS
 62
256
 10
-118.765977000000010
 20
-61.204058000000003
 11
-118.765977000000010
 21
-61.607751000000000
  0
LINE
  8
0
  6
CONTINUOUS
 62
256
 10
-118.765977000000010
 20
-74.519327000000004
 11
-118.765977000000010
 21
-116.704058000000000
  0
LINE
  8
0
  6
CONTINUOUS
 62
256
 10
-115.765977000000010
 20
-77.702792000000002
 11
-110.765977000000010
 21
-77.702792000000002
  0
LINE
  8
0
  6
CONTINUOUS
 62
256
 10
-118.765977000000010
 20
-61.204058000000003
 11
-118.765977000000010
 21
-60.204058000000003
  0
ARC
  8
0
  6
CONTINUOUS
 62
256
 10
-115.765977000000010
 20
-152.705324999999990
 40
3.000000000000000
 50
180.000000000000000
 51
270.000000000000000
  0
ARC
  8
0
  6
CONTINUOUS
 62
256
 10
-115.765977000000010
 20
-171.800366000000000
 40
3.000000000000000
 50
90.000000000000000
 51
180.000000000000000
  0
ARC
  8
0
  6
CONTINUOUS
 62
256
 10
-115.765977000000010
 20
-158.888790000000000
 40
3.000000000000000
 50
180.000000000000000
 51
270.000000000000000
  0
ARC
  8
0
  6
CONTINUOUS
 62
256
 10
-115.765977000000010
 20
-80.702792000000002
 40
3.000000000000000
 50
90.000000000000000
 51
180.000000000000000
  0
ARC
  8
0
  6
CONTINUOUS
 62
256
 10
-115.765977000000010
 20
-74.519327000000004
 40
3.000000000000000
 50
90.000000000000000
 51
180.000000000000000
  0
ARC
  8
0
  6
CONTINUOUS
 62
256
 10
-115.765977000000010
 20
-61.607751000000000
 40
3.000000000000000
 50
180.000000000000000
 51
270.000000000000000
  0
ARC
  8
0
  6
CONTINUOUS
 62
256
 10
-121.765977000000010
 20
-60.204058000000003
 40
3.000000000000000
 50
0.000000000000000
 51
90.000000000000000
  0
INSERT
  8
0
  2
ZU_SYM_1
 10
-65.265977000000007
 20
-40.204058000000003
  0
INSERT
  8
0
  2
ZU_SYM_2
 10
39.734023000000001
 20
-40.204058000000003
  0
INSERT
  8
0
  2
ZU_SYM_3
 10
39.734023000000001
 20
-173.204058000000000
  0
INSERT
  8
0
  2
ZU_SYM_4
 10
-65.265977000000007
 20
-173.204058000000000
  0
LINE
  8
0
  6
CONTINUOUS
 62
256
 10
-70.265977000000007
 20
-180.204058000000000
 11
-70.265977000000007
 21
-180.704058000000000
  0
ARC
  8
0
  6
CONTINUOUS
 62
256
 10
-70.765977000000007
 20
-180.204058000000000
 40
0.500000000000000
 50
0.000000000000000
 51
90.000000000000000
  0
LINE
  8
0
  6
CONTINUOUS
 62
256
 10
-60.265976999999999
 20
-180.204058000000000
 11
-60.265976999999999
 21
-180.704058000000000
  0
ARC
  8
0
  6
CONTINUOUS
 62
256
 10
-59.765976999999999
 20
-180.204058000000000
 40
0.500000000000000
 50
90.000000000000000
 51
180.000000000000000
  0
LINE
  8
0
  6
CONTINUOUS
 62
256
 10
34.734023000000001
 20
-180.204058000000000
 11
34.734023000000001
 21
-180.704058000000000
  0
ARC
  8
0
  6
CONTINUOUS
 62
256
 10
34.234023000000001
 20
-180.204058000000000
 40
0.500000000000000
 50
0.000000000000000
 51
90.000000000000000
  0
ARC
  8
0
  6
CONTINUOUS
 62
256
 10
45.234023000000001
 20
-180.204058000000000
 40
0.500000000000000
 50
90.000000000000000
 51
180.000000000000000
  0
LINE
  8
0
  6
CONTINUOUS
 62
256
 10
44.734023000000001
 20
-180.204058000000000
 11
44.734023000000001
 21
-180.704058000000000
  0
LINE
  8
0
  6
CONTINUOUS
 62
256
 10
44.734023000000001
 20
-33.204058000000003
 11
44.734023000000001
 21
-32.704058000000003
  0
ARC
  8
0
  6
CONTINUOUS
 62
256
 10
45.234023000000001
 20
-33.204058000000003
 40
0.500000000000000
 50
180.000000000000000
 51
270.000000000000000
  0
LINE
  8
0
  6
CONTINUOUS
 62
256
 10
34.734023000000001
 20
-33.204058000000003
 11
34.734023000000001
 21
-32.704058000000003
  0
ARC
  8
0
  6
CONTINUOUS
 62
256
 10
34.234023000000001
 20
-33.204058000000003
 40
0.500000000000000
 50
270.000000000000000
 51
0.000000000000000
  0
LINE
  8
0
  6
CONTINUOUS
 62
256
 10
-70.265977000000007
 20
-33.204058000000003
 11
-70.265977000000007
 21
-32.704058000000003
  0
LINE
  8
0
  6
CONTINUOUS
 62
256
 10
-60.265976999999999
 20
-33.204058000000003
 11
-60.265976999999999
 21
-32.704058000000003
  0
ARC
  8
0
  6
CONTINUOUS
 62
256
 10
-59.765976999999999
 20
-33.204058000000003
 40
0.500000000000000
 50
180.000000000000000
 51
270.000000000000000
  0
ARC
  8
0
  6
CONTINUOUS
 62
256
 10
-70.765977000000007
 20
-33.204058000000003
 40
0.500000000000000
 50
270.000000000000000
 51
0.000000000000000
  0
LINE
  8
0
  6
DASHDOT
 62
256
 10
-57.913187999999998
 20
-173.204058000000000
 11
-71.725910999999996
 21
-173.204058000000000
  0
LINE
  8
0
  6
DASHDOT
 62
256
 10
-58.889876000000001
 20
-40.204058000000003
 11
-72.992572999999993
 21
-40.204058000000003
  0
LINE
  8
0
  6
DASHDOT
 62
256
 10
-65.265977000000007
 20
-166.105219000000010
 11
-65.265977000000007
 21
-181.945443000000010
  0
LINE
  8
0
  6
DASHDOT
 62
256
 10
39.734023000000001
 20
-165.861047000000010
 11
39.734023000000001
 21
-182.488297999999990
  0
LINE
  8
0
  6
DASHDOT
 62
256
 10
-68.900932999999995
 20
-45.704058000000003
 11
-93.802010999999993
 21
-45.704058000000003
  0
LINE
  8
0
  6
DASHDOT
 62
256
 10
-68.412588999999997
 20
-167.704058000000000
 11
-93.802010999999993
 21
-167.704058000000000
  0
LINE
  8
0
  6
DASHDOT
 62
256
 10
54.234023000000001
 20
-157.070850000000010
 11
54.234023000000001
 21
-181.945443000000010
  0
LINE
  8
0
  6
DASHDOT
 62
256
 10
-79.765977000000007
 20
-156.338334000000000
 11
-79.765977000000007
 21
-181.945443000000010
  0
LINE
  8
0
  6
CONTINUOUS
 62
256
 10
-92.765977000000007
 20
-171.704058000000000
 11
-92.765977000000007
 21
-41.704058000000003
  0
LINE
  8
0
  6
CONTINUOUS
 62
256
 10
58.234023000000001
 20
-180.704058000000000
 11
-83.765977000000007
 21
-180.704058000000000
  0
LINE
  8
0
  6
CONTINUOUS
 62
256
 10
67.234022999999993
 20
-41.704058000000003
 11
67.234022999999993
 21
-171.704058000000000
  0
ARC
  8
0
  6
CONTINUOUS
 62
256
 10
-83.765977000000007
 20
-41.704058000000003
 40
9.000000000000000
 50
90.000000000000000
 51
180.000000000000000
  0
ARC
  8
0
  6
CONTINUOUS
 62
256
 10
-83.765977000000007
 20
-171.704058000000000
 40
9.000000000000000
 50
180.000000000000000
 51
270.000000000000000
  0
ARC
  8
0
  6
CONTINUOUS
 62
256
 10
58.234023000000001
 20
-171.704058000000000
 40
9.000000000000000
 50
270.000000000000000
 51
0.000000000000000
  0
ARC
  8
0
  6
CONTINUOUS
 62
256
 10
58.234023000000001
 20
-41.704058000000003
 40
9.000000000000007
 50
0.000000000000000
 51
90.000000000000000
  0
ARC
  8
0
  6
CONTINUOUS
 62
256
 10
-79.765977000000007
 20
-167.704058000000000
 40
12.999999999999998
 50
31.420365999999952
 51
76.164776000000032
  0
ARC
  8
0
  6
CONTINUOUS
 62
256
 10
-65.265977000000007
 20
-40.204058000000003
 40
9.499999999999996
 50
276.348585000000010
 51
333.152786999999990
  0
ARC
  8
0
  6
CONTINUOUS
 62
256
 10
-63.552031999999997
 20
-55.609005000000003
 40
5.999999999999997
 50
96.348585000000028
 51
148.579634000000030
  0
ARC
  8
0
  6
CONTINUOUS
 62
256
 10
-79.765977000000007
 20
-45.704058000000003
 40
13.000000000000002
 50
283.835223999999980
 51
328.579634000000000
  0
ARC
  8
0
  6
CONTINUOUS
 62
256
 10
54.234023000000001
 20
-45.704058000000003
 40
12.999999999999996
 50
211.420365999999970
 51
256.164776000000020
  0
ARC
  8
0
  6
CONTINUOUS
 62
256
 10
38.020077000000001
 20
-55.609005000000003
 40
6.000000000000001
 50
31.420365999999976
 51
83.651414999999986
  0
ARC
  8
0
  6
CONTINUOUS
 62
256
 10
39.734023000000001
 20
-40.204058000000003
 40
9.500000000000000
 50
206.847212999999950
 51
263.651414999999990
  0
ARC
  8
0
  6
CONTINUOUS
 62
256
 10
38.020077000000001
 20
-157.799112000000010
 40
6.000000000000004
 50
276.348585000000010
 51
328.579633999999880
  0
ARC
  8
0
  6
CONTINUOUS
 62
256
 10
54.234023000000001
 20
-167.704058000000000
 40
13.000000000000002
 50
103.835223999999980
 51
148.579634000000060
  0
ARC
  8
0
  6
CONTINUOUS
 62
256
 10
39.734023000000001
 20
-173.204058000000000
 40
9.499999999999996
 50
96.348584999999986
 51
153.152787000000050
  0
ARC
  8
0
  6
CONTINUOUS
 62
256
 10
-63.552031999999997
 20
-157.799112000000010
 40
6.000000000000008
 50
211.420366000000090
 51
263.651414999999990
  0
ARC
  8
0
  6
CONTINUOUS
 62
256
 10
-65.265977000000007
 20
-173.204058000000000
 40
9.500000000000000
 50
26.847212999999975
 51
83.651414999999972
  0
LINE
  8
0
  6
CONTINUOUS
 62
256
 10
45.234023000000001
 20
-179.704058000000000
 11
58.234023000000001
 21
-179.704058000000000
  0
LINE
  8
0
  6
CONTINUOUS
 62
256
 10
-59.765976999999999
 20
-179.704058000000000
 11
34.234023000000001
 21
-179.704058000000000
  0
LINE
  8
0
  6
CONTINUOUS
 62
256
 10
-70.765977000000007
 20
-33.704058000000003
 11
-83.765977000000007
 21
-33.704058000000003
  0
ARC
  8
0
  6
CONTINUOUS
 62
256
 10
48.734023000000001
 20
-145.371346999999990
 40
7.000000000000010
 50
283.835223999999980
 51
0.000000000000000
  0
ARC
  8
0
  6
CONTINUOUS
 62
256
 10
54.234023000000001
 20
-167.704058000000000
 40
16.000000000000000
 50
103.835224000000010
 51
148.579634000000030
  0
ARC
  8
0
  6
CONTINUOUS
 62
256
 10
38.020077000000001
 20
-157.799112000000010
 40
2.999999999999989
 50
276.348585000000010
 51
328.579633999999880
  0
ARC
  8
0
  6
CONTINUOUS
 62
256
 10
39.734023000000001
 20
-173.204058000000000
 40
12.500000000000012
 50
96.348584999999986
 51
153.152786999999930
  0
ARC
  8
0
  6
CONTINUOUS
 62
256
 10
25.904706000000001
 20
-166.204058000000000
 40
3.000000000000000
 50
270.000000000000000
 51
333.152787000000100
  0
LINE
  8
0
  6
CONTINUOUS
 62
256
 10
-51.436661000000001
 20
-169.204058000000000
 11
25.904706000000001
 21
-169.204058000000000
  0
ARC
  8
0
  6
CONTINUOUS
 62
256
 10
-51.436661000000001
 20
-166.204058000000000
 40
2.999999999999996
 50
206.847212999999870
 51
270.000000000000000
  0
ARC
  8
0
  6
CONTINUOUS
 62
256
 10
-65.265977000000007
 20
-173.204058000000000
 40
12.499999999999995
 50
26.847212999999954
 51
83.651415000000014
  0
ARC
  8
0
  6
CONTINUOUS
 62
256
 10
-63.552031999999997
 20
-157.799112000000010
 40
3.000000000000004
 50
211.420366000000090
 51
263.651414999999990
  0
ARC
  8
0
  6
CONTINUOUS
 62
256
 10
-79.765977000000007
 20
-167.704058000000000
 40
15.999999999999991
 50
31.420366000000001
 51
76.164776000000032
  0
ARC
  8
0
  6
CONTINUOUS
 62
256
 10
-74.265977000000007
 20
-68.036770000000004
 40
9.999999999999998
 50
103.835224000000000
 51
180.000000000000000
  0
LINE
  8
0
  6
CONTINUOUS
 62
256
 10
-83.765977000000007
 20
-179.704058000000000
 11
-70.765977000000007
 21
-179.704058000000000
  0
ARC
  8
0
  6
CONTINUOUS
 62
256
 10
-83.765977000000007
 20
-171.704058000000000
 40
8.000000000000000
 50
180.000000000000000
 51
270.000000000000000
  0
ARC
  8
0
  6
CONTINUOUS
 62
256
 10
-74.265977000000007
 20
-145.371346999999990
 40
7.000000000000000
 50
180.000000000000000
 51
256.164776000000020
  0
ARC
  8
0
  6
CONTINUOUS
 62
256
 10
-74.265977000000007
 20
-145.371346999999990
 40
10.000000000000000
 50
180.000000000000000
 51
256.164776000000020
  0
LINE
  8
0
  6
CONTINUOUS
 62
256
 10
-91.765977000000007
 20
-41.704058000000003
 11
-91.765977000000007
 21
-171.704058000000000
  0
ARC
  8
0
  6
CONTINUOUS
 62
256
 10
-83.765977000000007
 20
-41.704058000000003
 40
8.000000000000000
 50
90.000000000000000
 51
180.000000000000000
  0
LINE
  8
0
  6
CONTINUOUS
 62
256
 10
58.234023000000001
 20
-33.704058000000003
 11
45.234023000000001
 21
-33.704058000000003
  0
ARC
  8
0
  6
CONTINUOUS
 62
256
 10
-51.436661000000001
 20
-47.204058000000003
 40
6.000000000000000
 50
90.000000000000000
 51
153.152786999999990
  0
ARC
  8
0
  6
CONTINUOUS
 62
256
 10
58.234023000000001
 20
-41.704058000000003
 40
8.000000000000007
 50
0.000000000000000
 51
90.000000000000000
  0
LINE
  8
0
  6
CONTINUOUS
 62
256
 10
-81.265977000000007
 20
-68.036770000000004
 11
-81.265977000000007
 21
-145.371346999999990
  0
ARC
  8
0
  6
CONTINUOUS
 62
256
 10
-74.265977000000007
 20
-68.036770000000004
 40
7.000000000000003
 50
103.835224000000000
 51
180.000000000000000
  0
LINE
  8
0
  6
CONTINUOUS
 62
256
 10
-84.265977000000007
 20
-68.036770000000004
 11
-84.265977000000007
 21
-145.371346999999990
  0
LINE
  8
0
  6
CONTINUOUS
 62
256
 10
-51.436661000000001
 20
-172.204058000000000
 11
25.904706000000001
 21
-172.204058000000000
  0
LINE
  8
0
  6
CONTINUOUS
 62
256
 10
66.234022999999993
 20
-171.704058000000000
 11
66.234022999999993
 21
-41.704058000000003
  0
ARC
  8
0
  6
CONTINUOUS
 62
256
 10
58.234023000000001
 20
-171.704058000000000
 40
8.000000000000000
 50
270.000000000000000
 51
0.000000000000000
  0
LINE
  8
0
  6
CONTINUOUS
 62
256
 10
58.734023000000001
 20
-145.371346999999990
 11
58.734023000000001
 21
-68.036770000000004
  0
ARC
  8
0
  6
CONTINUOUS
 62
256
 10
-51.436661000000001
 20
-166.204058000000000
 40
6.000000000000005
 50
206.847213000000100
 51
270.000000000000000
  0
ARC
  8
0
  6
CONTINUOUS
 62
256
 10
-79.765977000000007
 20
-45.704058000000003
 40
15.999999999999998
 50
283.835223999999980
 51
328.579634000000000
  0
ARC
  8
0
  6
CONTINUOUS
 62
256
 10
-63.552031999999997
 20
-55.609005000000003
 40
3.000000000000002
 50
96.348585000000014
 51
148.579634000000030
  0
ARC
  8
0
  6
CONTINUOUS
 62
256
 10
25.904706000000001
 20
-166.204058000000000
 40
6.000000000000000
 50
270.000000000000000
 51
333.152786999999880
  0
ARC
  8
0
  6
CONTINUOUS
 62
256
 10
-65.265977000000007
 20
-40.204058000000003
 40
12.499999999999998
 50
276.348585000000010
 51
333.152786999999990
  0
CIRCLE
  8
0
  6
CONTINUOUS
 62
256
 10
39.734023000000001
 20
-173.204058000000000
 40
5.500000000000000
  0
ARC
  8
0
  6
CONTINUOUS
 62
256
 10
-51.436661000000001
 20
-47.204058000000003
 40
3.000000000000000
 50
90.000000000000000
 51
153.152786999999990
  0
ARC
  8
0
  6
CONTINUOUS
 62
256
 10
48.734023000000001
 20
-145.371346999999990
 40
10.000000000000005
 50
283.835223999999980
 51
0.000000000000000
  0
ARC
  8
0
  6
CONTINUOUS
 62
256
 10
48.734023000000001
 20
-68.036770000000004
 40
10.000000000000000
 50
0.000000000000000
 51
76.164776000000018
  0
ARC
  8
0
  6
CONTINUOUS
 62
256
 10
38.020077000000001
 20
-55.609005000000003
 40
3.000000000000000
 50
31.420365999999976
 51
83.651415000000000
  0
ARC
  8
0
  6
CONTINUOUS
 62
256
 10
54.234023000000001
 20
-45.704058000000003
 40
15.999999999999996
 50
211.420365999999970
 51
256.164776000000020
  0
ARC
  8
0
  6
CONTINUOUS
 62
256
 10
48.734023000000001
 20
-68.036770000000004
 40
7.000000000000000
 50
0.000000000000000
 51
76.164775999999989
  0
LINE
  8
0
  6
CONTINUOUS
 62
256
 10
55.734023000000001
 20
-145.371346999999990
 11
55.734023000000001
 21
-68.036770000000004
  0
CIRCLE
  8
0
  6
CONTINUOUS
 62
256
 10
39.734023000000001
 20
-40.204058000000003
 40
5.500000000000000
  0
CIRCLE
  8
0
  6
CONTINUOUS
 62
256
 10
-65.265977000000007
 20
-173.204058000000000
 40
5.500000000000000
  0
CIRCLE
  8
0
  6
CONTINUOUS
 62
256
 10
-65.265977000000007
 20
-40.204058000000003
 40
5.500000000000000
  0
LINE
  8
0
  6
DASHDOT
 62
256
 10
67.734022999999993
 20
-167.704058000000000
 11
43.662416000000000
 21
-167.704058000000000
  0
LINE
  8
0
  6
DASHDOT
 62
256
 10
46.348309000000000
 20
-40.204058000000003
 11
32.674669999999999
 21
-40.204058000000003
  0
LINE
  8
0
  6
DASHDOT
 62
256
 10
39.734023000000001
 20
-31.704058000000000
 11
39.734023000000001
 21
-48.170082999999998
  0
LINE
  8
0
  6
DASHDOT
 62
256
 10
-65.265977000000007
 20
-31.704058000000000
 11
-65.265977000000007
 21
-47.925910999999999
  0
LINE
  8
0
  6
DASHDOT
 62
256
 10
-79.765977000000007
 20
-32.204058000000003
 11
-79.765977000000007
 21
-56.471935999999999
  0
LINE
  8
0
  6
DASHDOT
 62
256
 10
48.234023000000001
 20
-173.204058000000000
 11
32.186326000000001
 21
-173.204058000000000
  0
ARC
  8
0
  6
CONTINUOUS
 62
256
 10
-105.265977000000010
 20
-60.204058000000003
 40
3.000000000000000
 50
0.000000000000000
 51
90.000000000000000
  0
ARC
  8
0
  6
CONTINUOUS
 62
256
 10
-95.765977000000007
 20
-54.204058000000003
 40
3.000000000000000
 50
270.000000000000000
 51
0.000000000000000
  0
ARC
  8
0
  6
CONTINUOUS
 62
256
 10
-93.133474000000007
 20
-179.204058000000000
 40
2.999999999999993
 50
38.682186999999864
 51
90.000000000000000
  0
LINE
  8
0
  6
CONTINUOUS
 62
256
 10
-102.265977000000010
 20
-60.204058000000003
 11
-102.265977000000010
 21
-173.204058000000000
  0
LINE
  8
0
  6
DASHED
 62
256
 10
-102.265977000000010
 20
-136.164607999999990
 11
-102.265977000000010
 21
-116.704058000000000
  0
LINE
  8
0
  6
DASHED
 62
256
 10
-102.265977000000010
 20
-97.243509000000003
 11
-102.265977000000010
 21
-116.704058000000000
  0
LINE
  8
0
  6
CONTINUOUS
 62
256
 10
-93.133474000000007
 20
-176.204058000000000
 11
-125.765977000000010
 21
-176.204058000000000
  0
LINE
  8
0
  6
CONTINUOUS
 62
256
 10
-95.765977000000007
 20
-57.204058000000003
 11
-125.765977000000010
 21
-57.204058000000003
  0
LINE
  8
0
  6
CONTINUOUS
 62
256
 10
-125.765977000000010
 20
-116.704058000000000
 11
-125.765977000000010
 21
-57.204058000000003
  0
LINE
  8
0
  6
CONTINUOUS
 62
256
 10
-125.765977000000010
 20
-116.704058000000000
 11
-125.765977000000010
 21
-176.204058000000000
  0
LINE
  8
0
  6
DASHED
 62
256
 10
-102.265977000000010
 20
-97.243509000000003
 11
-102.265977000000010
 21
-116.704058000000000
  0
LINE
  8
0
  6
DASHED
 62
256
 10
-92.765977000000007
 20
-105.769695000000000
 11
-92.765977000000007
 21
-116.704058000000000
  0
LINE
  8
0
  6
DASHED
 62
256
 10
-92.765977000000007
 20
-127.638422000000010
 11
-92.765977000000007
 21
-116.704058000000000
  0
LINE
  8
0
  6
DASHED
 62
256
 10
-102.265977000000010
 20
-136.164607999999990
 11
-102.265977000000010
 21
-116.704058000000000
  0
ARC
  8
0
  6
CONTINUOUS
 62
256
 10
-105.265977000000010
 20
-173.204058000000000
 40
3.000000000000000
 50
270.000000000000000
 51
0.000000000000000
  0
LINE
  8
0
  6
CONTINUOUS
 62
256
 10
-118.765977000000010
 20
-96.704058000000003
 11
-125.765977000000010
 21
-96.704058000000003
  0
LINE
  8
0
  6
CONTINUOUS
 62
256
 10
-118.765977000000010
 20
-136.704058000000000
 11
-125.765977000000010
 21
-136.704058000000000
  0
ARC
  8
0
  6
CONTINUOUS
 62
256
 10
-121.765977000000010
 20
-173.204058000000000
 40
3.000000000000000
 50
270.000000000000000
 51
0.000000000000000
  0
LINE
  8
0
  6
CONTINUOUS
 62
256
 10
-118.765977000000010
 20
-172.204058000000000
 11
-118.765977000000010
 21
-173.204058000000000
  0
ARC
  8
0
  6
CONTINUOUS
 62
256
 10
6.234023000000000
 20
-93.704058000000003
 40
15.000000000000004
 50
105.466010000000000
 51
74.533990000000017
  0
LINE
  8
0
  6
CONTINUOUS
 62
256
 10
2.234023000000000
 20
-79.247225999999998
 11
2.234023000000000
 21
-75.404058000000006
  0
LINE
  8
0
  6
CONTINUOUS
 62
256
 10
2.234023000000000
 20
-75.404058000000006
 11
10.234023000000001
 21
-75.404058000000006
  0
LINE
  8
0
  6
CONTINUOUS
 62
256
 10
10.234023000000001
 20
-79.247225999999998
 11
10.234023000000001
 21
-75.404058000000006
  0
ARC
  8
0
  6
CONTINUOUS
 62
256
 10
25.904706000000001
 20
-47.204058000000003
 40
5.999999999999999
 50
26.847213000000004
 51
90.000000000000000
  0
ARC
  8
0
  6
CONTINUOUS
 62
256
 10
39.734023000000001
 20
-40.204058000000003
 40
12.500000000000002
 50
206.847213000000010
 51
263.651414999999990
  0
ARC
  8
0
  6
CONTINUOUS
 62
256
 10
25.904706000000001
 20
-47.204058000000003
 40
3.000000000000000
 50
26.847213000000004
 51
90.000000000000000
  0
LINE
  8
0
  6
CONTINUOUS
 62
256
 10
25.904706000000001
 20
-44.204058000000003
 11
-51.436661000000001
 21
-44.204058000000003
  0
LINE
  8
0
  6
CONTINUOUS
 62
256
 10
25.904706000000001
 20
-41.204058000000003
 11
-51.436661000000001
 21
-41.204058000000003
  0
LINE
  8
0
  6
CONTINUOUS
 62
256
 10
34.234023000000001
 20
-33.704058000000003
 11
-59.765976999999999
 21
-33.704058000000003
  0
LINE
  8
0
  6
CONTINUOUS
 62
256
 10
-83.765977000000007
 20
-32.704058000000003
 11
58.234023000000001
 21
-32.704058000000003
  0
LINE
  8
0
  6
DASHDOT
 62
256
 10
6.234023000000000
 20
-26.615853999999999
 11
6.234023000000000
 21
-155.128708999999990
  0
CIRCLE
  8
0
  6
CONTINUOUS
 62
256
 10
6.234023000000000
 20
-93.704058000000003
 40
42.500000000000000
  0
CIRCLE
  8
0
  6
CONTINUOUS
 62
256
 10
6.234023000000000
 20
-93.704058000000003
 40
47.000000000000000
  0
CIRCLE
  8
0
  6
CONTINUOUS
 62
256
 10
6.234023000000000
 20
-93.704058000000003
 40
22.000000000000000
  0
LINE
  8
0
  6
DASHDOT
 62
256
 10
70.978247999999994
 20
-93.704058000000003
 11
-50.520176999999997
 21
-93.704058000000003
  0
ARC
  8
0
  6
CONTINUOUS
 62
256
 10
143.303076000000000
 20
-110.703999000000000
 40
2.000000000000000
 50
90.000000000000000
 51
180.000000000000000
  0
ARC
  8
0
  6
CONTINUOUS
 62
256
 10
141.703076000000010
 20
-115.303999000000000
 40
0.400000000000006
 50
180.000000000000000
 51
270.000000000000000
  0
LINE
  8
0
  6
CONTINUOUS
 62
256
 10
141.303076000000000
 20
-115.303999000000000
 11
141.303076000000000
 21
-72.103999000000002
  0
LINE
  8
0
  6
CONTINUOUS
 62
256
 10
163.303076000000000
 20
-77.454058000000003
 11
161.303076000000000
 21
-77.454058000000003
  0
LINE
  8
0
  6
CONTINUOUS
 62
256
 10
163.303076000000000
 20
-77.454058000000003
 11
163.303076000000000
 21
-93.703998999999996
  0
LINE
  8
0
  6
CONTINUOUS
 62
256
 10
161.303076000000000
 20
-78.703998999999996
 11
143.303076000000000
 21
-78.703998999999996
  0
ARC
  8
0
  6
CONTINUOUS
 62
256
 10
156.903347000000000
 20
-71.303999000000005
 40
0.400000000000006
 50
270.000000000000000
 51
350.405932000000010
  0
LINE
  8
0
  6
CONTINUOUS
 62
256
 10
156.903347000000000
 20
-71.703998999999996
 11
141.703076000000010
 21
-71.703998999999996
  0
ARC
  8
0
  6
CONTINUOUS
 62
256
 10
141.703076000000010
 20
-72.103999000000002
 40
0.400000000000006
 50
90.000000000000000
 51
180.000000000000000
  0
ARC
  8
0
  6
CONTINUOUS
 62
256
 10
143.303076000000000
 20
-76.703998999999996
 40
2.000000000000000
 50
180.000000000000000
 51
270.000000000000000
  0
LINE
  8
0
  6
CONTINUOUS
 62
256
 10
170.803349000000000
 20
-71.204015999999996
 11
157.803349000000000
 21
-71.204031000000001
  0
ARC
  8
0
  6
CONTINUOUS
 62
256
 10
157.494955000000000
 20
-71.403998999999999
 40
0.200000000000003
 50
90.000000000000000
 51
170.405932000000040
  0
LINE
  8
0
  6
CONTINUOUS
 62
256
 10
161.303076000000000
 20
-77.454058000000003
 11
161.303076000000000
 21
-109.954058000000000
  0
LINE
  8
0
  6
CONTINUOUS
 62
256
 10
163.303076000000000
 20
-109.954058000000000
 11
161.303076000000000
 21
-109.954058000000000
  0
LINE
  8
0
  6
CONTINUOUS
 62
256
 10
170.803403000000000
 20
-116.204001000000010
 11
157.803403000000000
 21
-116.204016000000000
  0
LINE
  8
0
  6
CONTINUOUS
 62
256
 10
157.494955000000000
 20
-116.203999000000000
 11
187.903359999999990
 21
-116.203999000000000
  0
ARC
  8
0
  6
CONTINUOUS
 62
256
 10
157.494955000000000
 20
-116.003998999999990
 40
0.199999999999996
 50
189.594067999999960
 51
270.000000000000000
  0
ARC
  8
0
  6
CONTINUOUS
 62
256
 10
156.903347000000000
 20
-116.103999000000000
 40
0.399999999999991
 50
9.594067999999961
 51
90.000000000000000
  0
LINE
  8
0
  6
CONTINUOUS
 62
256
 10
161.303076000000000
 20
-108.703999000000000
 11
143.303076000000000
 21
-108.703999000000000
  0
LINE
  8
0
  6
CONTINUOUS
 62
256
 10
156.903347000000000
 20
-115.703999000000000
 11
141.703076000000010
 21
-115.703999000000000
  0
LINE
  8
0
  6
CONTINUOUS
 62
256
 10
187.303076000000000
 20
-108.703999000000000
 11
163.303076000000000
 21
-108.703999000000000
  0
LINE
  8
0
  6
CONTINUOUS
 62
256
 10
163.303076000000000
 20
-109.954058000000000
 11
163.303076000000000
 21
-93.703998999999996
  0
LINE
  8
0
  6
CONTINUOUS
 62
256
 10
188.303360000000000
 20
-118.204058000000000
 11
188.303360000000000
 21
-116.603999000000000
  0
ARC
  8
0
  6
CONTINUOUS
 62
256
 10
187.903359999999990
 20
-116.603999000000000
 40
0.400000000000006
 50
0.000000000000000
 51
90.000000000000000
  0
LINE
  8
0
  6
CONTINUOUS
 62
256
 10
187.303076000000000
 20
-109.003998999999990
 11
187.303076000000000
 21
-93.703998999999996
  0
LINE
  8
0
  6
CONTINUOUS
 62
256
 10
157.494955000000000
 20
-71.203998999999996
 11
187.903359999999990
 21
-71.203998999999996
  0
LINE
  8
0
  6
CONTINUOUS
 62
256
 10
187.303076000000000
 20
-78.703998999999996
 11
163.303076000000000
 21
-78.703998999999996
  0
LINE
  8
0
  6
CONTINUOUS
 62
256
 10
187.303076000000000
 20
-78.503998999999993
 11
187.303076000000000
 21
-93.703998999999996
  0
ARC
  8
0
  6
CONTINUOUS
 62
256
 10
187.903359999999990
 20
-70.803999000000005
 40
0.400000000000006
 50
270.000000000000000
 51
0.000000000000000
  0
LINE
  8
0
  6
CONTINUOUS
 62
256
 10
141.303076000000000
 20
-75.404058000000006
 11
255.303076000000000
 21
-75.404058000000006
  0
LINE
  8
0
  6
CONTINUOUS
 62
256
 10
187.303076000000000
 20
-78.503998999999993
 11
209.303076000000000
 21
-78.503998999999993
  0
ARC
  8
0
  6
CONTINUOUS
 62
256
 10
224.702807000000010
 20
-70.803999000000005
 40
0.399999999999989
 50
179.999927000000550
 51
270.000000000000000
  0
ARC
  8
0
  6
CONTINUOUS
 62
256
 10
224.702807000000010
 20
-70.804057999999998
 40
0.399999999999989
 50
179.999927000000550
 51
270.000000000000000
  0
LINE
  8
0
  6
CONTINUOUS
 62
256
 10
224.302807000000000
 20
-70.804057999999998
 11
224.302809000000000
 21
-68.704059000000001
  0
LINE
  8
0
  6
CONTINUOUS
 62
256
 10
209.303076000000000
 20
-78.403998999999999
 11
209.303076000000000
 21
-93.703998999999996
  0
LINE
  8
0
  6
CONTINUOUS
 62
256
 10
187.303076000000000
 20
-108.903999000000000
 11
209.303076000000000
 21
-108.903999000000000
  0
LINE
  8
0
  6
CONTINUOUS
 62
256
 10
209.303076000000000
 20
-109.003998999999990
 11
209.303076000000000
 21
-93.703998999999996
  0
LINE
  8
0
  6
CONTINUOUS
 62
256
 10
224.302807000000000
 20
-116.604000000000000
 11
224.302809999999990
 21
-119.104057999999990
  0
ARC
  8
0
  6
CONTINUOUS
 62
256
 10
224.702807000000010
 20
-116.603999000000000
 40
0.400000000000006
 50
90.000000000000000
 51
180.000072999999450
  0
LINE
  8
0
  6
CONTINUOUS
 62
256
 10
206.803360000000000
 20
-119.104057999999990
 11
224.302823999999990
 21
-119.104057999999990
  0
LINE
  8
0
  6
CONTINUOUS
 62
256
 10
188.303360000000000
 20
-118.204058000000000
 11
206.803360000000000
 21
-118.204058000000000
  0
LINE
  8
0
  6
CONTINUOUS
 62
256
 10
206.803360000000000
 20
-119.104057999999990
 11
206.803360000000000
 21
-118.204058000000000
  0
LINE
  8
0
  6
CONTINUOUS
 62
256
 10
224.702807000000010
 20
-116.203999000000000
 11
239.102805999999990
 21
-116.203999000000000
  0
LINE
  8
0
  6
CONTINUOUS
 62
256
 10
235.303076000000000
 20
-109.954058000000000
 11
233.303076000000000
 21
-109.954058000000000
  0
LINE
  8
0
  6
CONTINUOUS
 62
256
 10
253.303076000000000
 20
-108.703999000000000
 11
235.303076000000000
 21
-108.703999000000000
  0
LINE
  8
0
  6
CONTINUOUS
 62
256
 10
233.303076000000000
 20
-108.703999000000000
 11
209.303076000000000
 21
-108.703999000000000
  0
ARC
  8
0
  6
CONTINUOUS
 62
256
 10
239.694413999999990
 20
-116.103999000000000
 40
0.400000000000006
 50
90.000000000000000
 51
170.405932000000040
  0
ARC
  8
0
  6
CONTINUOUS
 62
256
 10
239.102805999999990
 20
-116.003998999999990
 40
0.200000000000003
 50
270.000000000000000
 51
350.405932000000010
  0
LINE
  8
0
  6
CONTINUOUS
 62
256
 10
239.694413999999990
 20
-115.703999000000000
 11
254.903076000000000
 21
-115.703999000000000
  0
ARC
  8
0
  6
CONTINUOUS
 62
256
 10
254.903076000000000
 20
-115.303999000000000
 40
0.400000000000006
 50
270.000000000000000
 51
0.000000000000000
  0
LINE
  8
0
  6
CONTINUOUS
 62
256
 10
255.303076000000000
 20
-115.303999000000000
 11
255.303076000000000
 21
-71.703998999999996
  0
ARC
  8
0
  6
CONTINUOUS
 62
256
 10
253.303076000000000
 20
-110.703999000000000
 40
2.000000000000000
 50
0.000000000000000
 51
90.000000000000000
  0
LINE
  8
0
  6
CONTINUOUS
 62
256
 10
235.303076000000000
 20
-77.454058000000003
 11
235.303076000000000
 21
-109.954058000000000
  0
LINE
  8
0
  6
CONTINUOUS
 62
256
 10
233.303076000000000
 20
-78.703998999999996
 11
209.303076000000000
 21
-78.703998999999996
  0
LINE
  8
0
  6
CONTINUOUS
 62
256
 10
253.303076000000000
 20
-78.703998999999996
 11
235.303076000000000
 21
-78.703998999999996
  0
LINE
  8
0
  6
CONTINUOUS
 62
256
 10
233.303076000000000
 20
-77.454058000000003
 11
233.303076000000000
 21
-93.703998999999996
  0
LINE
  8
0
  6
CONTINUOUS
 62
256
 10
233.303076000000000
 20
-109.954058000000000
 11
233.303076000000000
 21
-93.703998999999996
  0
LINE
  8
0
  6
DASHDOT
 62
256
 10
258.868613999999980
 20
-93.704058000000003
 11
137.400800000000000
 21
-93.704058000000003
  0
LINE
  8
0
  6
CONTINUOUS
 62
256
 10
235.303076000000000
 20
-77.454058000000003
 11
233.303076000000000
 21
-77.454058000000003
  0
ARC
  8
0
  6
CONTINUOUS
 62
256
 10
239.694413999999990
 20
-71.303999000000005
 40
0.399999999999991
 50
189.594067999999960
 51
270.000000000000000
  0
LINE
  8
0
  6
CONTINUOUS
 62
256
 10
239.694413999999990
 20
-71.703998999999996
 11
255.303076000000000
 21
-71.703998999999996
  0
LINE
  8
0
  6
CONTINUOUS
 62
256
 10
224.702807000000010
 20
-71.203998999999996
 11
239.102805999999990
 21
-71.203998999999996
  0
ARC
  8
0
  6
CONTINUOUS
 62
256
 10
239.102805999999990
 20
-71.403998999999999
 40
0.199999999999996
 50
9.594067999999961
 51
90.000000000000000
  0
LINE
  8
0
  6
DASHDOT
 62
256
 10
363.289241000000000
 20
-66.250703999999999
 11
363.289241000000000
 21
-120.526360000000000
  0
CIRCLE
  8
0
  6
CONTINUOUS
 62
256
 10
363.289241000000000
 20
-93.704058000000003
 40
22.000000000000000
  0
ARC
  8
0
  6
CONTINUOUS
 62
256
 10
363.289241000000000
 20
-93.704058000000003
 40
15.000000000000002
 50
105.466009999999980
 51
74.533990000000031
  0
LINE
  8
0
  6
DASHDOT
 62
256
 10
388.575091999999980
 20
-93.704058000000003
 11
337.507849000000020
 21
-93.704058000000003
  0
LINE
  8
0
  6
CONTINUOUS
 62
256
 10
367.289241000000000
 20
-75.404058000000006
 11
359.289241000000000
 21
-75.404058000000006
  0
LINE
  8
0
  6
CONTINUOUS
 62
256
 10
367.289241000000000
 20
-75.404058000000006
 11
367.289241000000000
 21
-79.247225999999998
  0
LINE
  8
0
  6
CONTINUOUS
 62
256
 10
359.289241000000000
 20
-75.404058000000006
 11
359.289241000000000
 21
-79.247225999999998
  0
CIRCLE
  8
0
  6
CONTINUOUS
 62
256
 10
-79.765977000000007
 20
-45.704058000000003
 40
4.188000000000002
  0
CIRCLE
  8
0
  6
CONTINUOUS
 62
256
 10
-79.765977000000007
 20
-45.704058000000003
 40
5.000000000000000
  0
CIRCLE
  8
0
  6
CONTINUOUS
 62
256
 10
-79.765977000000007
 20
-167.704058000000000
 40
4.188000000000002
  0
CIRCLE
  8
0
  6
CONTINUOUS
 62
256
 10
-79.765977000000007
 20
-167.704058000000000
 40
5.000000000000000
  0
CIRCLE
  8
0
  6
CONTINUOUS
 62
256
 10
54.234023000000001
 20
-167.704058000000000
 40
4.188000000000002
  0
CIRCLE
  8
0
  6
CONTINUOUS
 62
256
 10
54.234023000000001
 20
-167.704058000000000
 40
5.000000000000000
  0
TEXT
  8
0
  6
CONTINUOUS
 62
256
 10
616.649658203125000
 20
-249.920776367187500
 40
3.299999952316284
  1
1/1
 50
0.000002504478167
 41
0.850909097352304
  7
STANDARD1
  0
TEXT
  8
0
  6
CONTINUOUS
 62
256
 10
614.231689453125000
 20
-249.920776367187500
 40
3.299999952316284
  1
 
 50
0.000002504478167
 41
1.733333298293026
  7
STANDARD1
  0
TEXT
  8
0
  6
CONTINUOUS
 62
256
 10
601.181030273437500
 20
-249.920776367187500
 40
3.299999952316284
  1
SCALE
 50
0.000002504478167
 41
0.821052645401140
  7
STANDARD1
  0
TEXT
  8
0
  6
CONTINUOUS
 62
256
 10
597.929687500000000
 20
-249.920776367187500
 40
3.299999952316284
  1
 
 50
0.000002504478167
 41
1.733333298293026
  7
STANDARD1
  0
TEXT
  8
0
  6
CONTINUOUS
 62
256
 10
612.792907714843750
 20
-244.620773315429690
 40
3.299999952316284
  1
1/60
 50
0.000002504478167
 41
0.832000075658163
  7
STANDARD1
  0
TEXT
  8
0
  6
CONTINUOUS
 62
256
 10
609.001831054687500
 20
-244.620773315429690
 40
3.299999952316284
  1
ü`
 50
0.000002504478167
 41
1.176000019651471
  7
STANDARD1
  0
TEXT
  8
0
  6
CONTINUOUS
 62
256
 10
601.205688476562500
 20
-244.620773315429690
 40
3.299999952316284
  1
1/5
 50
0.000002504478167
 41
0.850909097352304
  7
STANDARD1
  0
TEXT
  8
0
  6
CONTINUOUS
 62
256
 10
597.929687500000000
 20
-244.620773315429690
 40
3.299999952316284
  1
 
 50
0.000002504478167
 41
1.733333298293026
  7
STANDARD1
  0
TEXT
  8
0
  6
CONTINUOUS
 62
256
 10
597.929687500000000
 20
-239.320770263671870
 40
3.299999952316284
  1
GM-SHYMB-RH
 50
0.000002504478167
 41
0.798139564113939
  7
STANDARD1
  0
TEXT
  8
0
  6
CONTINUOUS
 62
256
 10
603.755065917968750
 20
-234.020782470703120
 40
3.299999952316284
  1
0.4kW
 50
0.000002504478167
 41
0.821052645401140
  7
STANDARD1
  0
TEXT
  8
0
  6
CONTINUOUS
 62
256
 10
597.929687500000000
 20
-234.020782470703120
 40
3.299999952316284
  1
  
 50
0.000002504478167
 41
1.485714400175845
  7
STANDARD1
  0
TEXT
  8
0
  6
CONTINUOUS
 62
256
 10
603.749145507812500
 20
-228.720779418945310
 40
3.299999952316284
  1
SHY054
 50
0.000002504478167
 41
0.813913121261144
  7
STANDARD1
  0
TEXT
  8
0
  6
CONTINUOUS
 62
256
 10
597.929687500000000
 20
-228.720779418945310
 40
3.299999952316284
  1
  
 50
0.000002504478167
 41
1.485714400175845
  7
STANDARD1
  0
ARC
  8
0
  6
CONTINUOUS
 62
256
 10
-702.111613000000030
 20
-116.704058000000000
 40
289.396999999999990
 50
0.000000000000000
 51
7.897989000000000
  0
ARC
  8
0
  6
CONTINUOUS
 62
256
 10
-421.402834999999980
 20
-77.762540999999999
 40
5.999999999999990
 50
7.897989000000010
 51
45.000000000000192
  0
ARC
  8
0
  6
CONTINUOUS
 62
256
 10
-411.414998000000030
 20
-72.755471000000000
 40
6.600000000000019
 50
8.597081999999919
 51
44.999999999999829
  0
ARC
  8
0
  6
CONTINUOUS
 62
256
 10
-432.788799999999980
 20
-112.704058000000000
 40
1.500000000000004
 50
187.928142000000150
 51
270.000000000000000
  0
ARC
  8
0
  6
CONTINUOUS
 62
256
 10
-461.511613000000010
 20
-116.704058000000000
 40
33.500000000000007
 50
7.180755999999994
 51
52.819243999999983
  0
ARC
  8
0
  6
CONTINUOUS
 62
256
 10
-461.511613000000010
 20
-116.704058000000000
 40
42.999999999999979
 50
5.531071999999997
 51
54.468927999999977
  0
ARC
  8
0
  6
CONTINUOUS
 62
256
 10
-461.511613000000010
 20
-116.704058000000000
 40
36.999999999999979
 50
5.963570000000011
 51
54.036430000000010
  0
ARC
  8
0
  6
CONTINUOUS
 62
256
 10
-443.686105000000000
 20
-93.829373000000004
 40
1.500000000000025
 50
150.000000000000540
 51
232.071857999999280
  0
ARC
  8
0
  6
CONTINUOUS
 62
256
 10
-442.173002999999990
 20
-91.208603999999994
 40
1.499999999999994
 50
52.819243999999927
 51
150.000000000000540
  0
ARC
  8
0
  6
CONTINUOUS
 62
256
 10
-438.901688999999980
 20
-85.542522000000005
 40
1.499999999999975
 50
149.999999999999460
 51
234.036429999999170
  0
LINE
  8
0
  6
CONTINUOUS
 62
256
 10
-444.985142999999990
 20
-93.079373000000004
 11
-443.472040999999990
 21
-90.458603999999994
  0
LINE
  8
0
  6
CONTINUOUS
 62
256
 10
-440.200726999999970
 20
-84.792522000000005
 11
-438.693159999999980
 21
-82.181337999999997
  0
ARC
  8
0
  6
CONTINUOUS
 62
256
 10
-437.394121999999980
 20
-82.931337999999997
 40
1.499999999999989
 50
54.468928000000517
 51
149.999999999999460
  0
ARC
  8
0
  6
CONTINUOUS
 62
256
 10
-473.922018999999980
 20
-87.208603999999994
 40
1.499999999999989
 50
112.819243999999050
 51
210.000000000000510
  0
LINE
  8
0
  6
CONTINUOUS
 62
256
 10
-475.221056999999970
 20
-87.958603999999994
 11
-473.707956000000020
 21
-90.579373000000004
  0
ARC
  8
0
  6
CONTINUOUS
 62
256
 10
-477.193333000000000
 20
-81.542522000000005
 40
1.499999999999975
 50
210.000000000000510
 51
294.036429999999600
  0
LINE
  8
0
  6
CONTINUOUS
 62
256
 10
-479.999938999999980
 20
-79.681337999999997
 11
-478.492370999999990
 21
-82.292522000000005
  0
ARC
  8
0
  6
CONTINUOUS
 62
256
 10
-478.700900999999990
 20
-78.931337999999997
 40
1.500000000000002
 50
114.468927999999780
 51
210.000000000000510
  0
ARC
  8
0
  6
CONTINUOUS
 62
256
 10
-472.408918000000030
 20
-89.829373000000004
 40
1.499999999999975
 50
210.000000000000510
 51
292.071857999999110
  0
ARC
  8
0
  6
CONTINUOUS
 62
256
 10
-461.511613000000010
 20
-116.704058000000000
 40
33.500000000000000
 50
67.180756000000002
 51
112.819244000000000
  0
ARC
  8
0
  6
CONTINUOUS
 62
256
 10
-461.511613000000010
 20
-116.704058000000000
 40
43.000000000000007
 50
65.531071999999980
 51
114.468928000000030
  0
ARC
  8
0
  6
CONTINUOUS
 62
256
 10
-461.511613000000010
 20
-116.704058000000000
 40
37.000000000000000
 50
65.963570000000033
 51
114.036429999999970
  0
ARC
  8
0
  6
CONTINUOUS
 62
256
 10
-461.511613000000010
 20
-116.704058000000000
 40
27.499999999999989
 50
67.928142000000008
 51
112.071857999999980
  0
ARC
  8
0
  6
CONTINUOUS
 62
256
 10
-450.614307999999990
 20
-89.829373000000004
 40
1.499999999999998
 50
247.928142000000830
 51
329.999999999999490
  0
ARC
  8
0
  6
CONTINUOUS
 62
256
 10
-449.101206999999990
 20
-87.208603999999994
 40
1.499999999999975
 50
329.999999999999490
 51
67.180756000000954
  0
ARC
  8
0
  6
CONTINUOUS
 62
256
 10
-445.829891999999970
 20
-81.542522000000005
 40
1.499999999999999
 50
245.963570000000350
 51
329.999999999999490
  0
LINE
  8
0
  6
CONTINUOUS
 62
256
 10
-449.315270000000000
 20
-90.579373000000004
 11
-447.802167999999990
 21
-87.958603999999994
  0
LINE
  8
0
  6
CONTINUOUS
 62
256
 10
-444.530853999999980
 20
-82.292522000000005
 11
-443.023286999999980
 21
-79.681337999999997
  0
ARC
  8
0
  6
CONTINUOUS
 62
256
 10
-444.322324999999980
 20
-78.931337999999997
 40
1.499999999999975
 50
329.999999999999490
 51
65.531072000000222
  0
ARC
  8
0
  6
CONTINUOUS
 62
256
 10
-480.850221999999970
 20
-91.208603999999994
 40
1.499999999999975
 50
30.000000000000544
 51
127.180756000000090
  0
LINE
  8
0
  6
CONTINUOUS
 62
256
 10
-479.551183999999980
 20
-90.458603999999994
 11
-478.038082999999970
 21
-93.079373000000004
  0
ARC
  8
0
  6
CONTINUOUS
 62
256
 10
-484.121535999999990
 20
-85.542522000000005
 40
1.500000000000007
 50
305.963570000000860
 51
29.999999999999456
  0
LINE
  8
0
  6
CONTINUOUS
 62
256
 10
-484.330065999999990
 20
-82.181337999999997
 11
-482.822498000000000
 21
-84.792522000000005
  0
ARC
  8
0
  6
CONTINUOUS
 62
256
 10
-485.629103999999980
 20
-82.931337999999997
 40
1.500000000000025
 50
29.999999999999456
 51
125.531071999999480
  0
ARC
  8
0
  6
CONTINUOUS
 62
256
 10
-479.337121000000020
 20
-93.829373000000004
 40
1.500000000000018
 50
307.928142000000720
 51
29.999999999999456
  0
ARC
  8
0
  6
CONTINUOUS
 62
256
 10
-461.511613000000010
 20
-116.704058000000000
 40
33.500000000000007
 50
127.180756000000020
 51
172.819244000000000
  0
ARC
  8
0
  6
CONTINUOUS
 62
256
 10
-461.511613000000010
 20
-116.704058000000000
 40
43.000000000000014
 50
125.531072000000020
 51
174.468928000000010
  0
ARC
  8
0
  6
CONTINUOUS
 62
256
 10
-461.511613000000010
 20
-116.704058000000000
 40
37.000000000000000
 50
125.963569999999990
 51
174.036430000000000
  0
ARC
  8
0
  6
CONTINUOUS
 62
256
 10
-461.511613000000010
 20
-116.704058000000000
 40
27.500000000000004
 50
127.928141999999990
 51
172.071857999999990
  0
ARC
  8
0
  6
CONTINUOUS
 62
256
 10
-490.234425999999980
 20
-112.704058000000000
 40
1.500000000000000
 50
270.000000000000000
 51
352.071857999999850
  0
ARC
  8
0
  6
CONTINUOUS
 62
256
 10
-493.260628999999990
 20
-112.704058000000000
 40
1.500000000000028
 50
172.819243999999910
 51
270.000000000000000
  0
ARC
  8
0
  6
CONTINUOUS
 62
256
 10
-499.803256999999970
 20
-112.704058000000000
 40
1.500000000000000
 50
270.000000000000000
 51
354.036430000000220
  0
LINE
  8
0
  6
CONTINUOUS
 62
256
 10
-490.234425999999980
 20
-114.204058000000000
 11
-493.260628999999990
 21
-114.204058000000000
  0
LINE
  8
0
  6
CONTINUOUS
 62
256
 10
-499.803256999999970
 20
-114.204058000000000
 11
-502.818392000000020
 21
-114.204058000000000
  0
ARC
  8
0
  6
CONTINUOUS
 62
256
 10
-502.818392000000020
 20
-112.704058000000000
 40
1.499999999999979
 50
174.468927999999720
 51
270.000000000000000
  0
ARC
  8
0
  6
CONTINUOUS
 62
256
 10
-480.850221999999970
 20
-142.199513000000000
 40
1.499999999999994
 50
232.819243999999940
 51
329.999999999999490
  0
LINE
  8
0
  6
CONTINUOUS
 62
256
 10
-479.551183999999980
 20
-142.949513000000000
 11
-478.038082999999970
 21
-140.328744000000000
  0
ARC
  8
0
  6
CONTINUOUS
 62
256
 10
-484.121535999999990
 20
-147.865595000000010
 40
1.499999999999975
 50
329.999999999999490
 51
54.036429999999186
  0
ARC
  8
0
  6
CONTINUOUS
 62
256
 10
-479.337121000000020
 20
-139.578744000000000
 40
1.499999999999975
 50
329.999999999999490
 51
52.071857999999288
  0
ARC
  8
0
  6
CONTINUOUS
 62
256
 10
-461.511613000000010
 20
-116.704058000000000
 40
33.500000000000007
 50
187.180756000000000
 51
232.819244000000000
  0
ARC
  8
0
  6
CONTINUOUS
 62
256
 10
-461.511613000000010
 20
-116.704058000000000
 40
42.999999999999979
 50
185.531071999999990
 51
234.468927999999950
  0
ARC
  8
0
  6
CONTINUOUS
 62
256
 10
-461.511613000000010
 20
-116.704058000000000
 40
36.999999999999979
 50
185.963570000000000
 51
234.036429999999970
  0
ARC
  8
0
  6
CONTINUOUS
 62
256
 10
-461.511613000000010
 20
-116.704058000000000
 40
27.499999999999989
 50
187.928142000000010
 51
232.071858000000050
  0
ARC
  8
0
  6
CONTINUOUS
 62
256
 10
-490.234425999999980
 20
-120.704058000000000
 40
1.500000000000004
 50
7.928142000000149
 51
90.000000000000000
  0
ARC
  8
0
  6
CONTINUOUS
 62
256
 10
-493.260628999999990
 20
-120.704058000000000
 40
1.500000000000000
 50
90.000000000000000
 51
187.180756000000090
  0
ARC
  8
0
  6
CONTINUOUS
 62
256
 10
-499.803256999999970
 20
-120.704058000000000
 40
1.500000000000012
 50
5.963569999999792
 51
90.000000000000000
  0
LINE
  8
0
  6
CONTINUOUS
 62
256
 10
-490.234425999999980
 20
-119.204058000000000
 11
-493.260628999999990
 21
-119.204058000000000
  0
LINE
  8
0
  6
CONTINUOUS
 62
256
 10
-499.803256999999970
 20
-119.204058000000000
 11
-502.818392000000020
 21
-119.204058000000000
  0
ARC
  8
0
  6
CONTINUOUS
 62
256
 10
-502.818392000000020
 20
-120.704058000000000
 40
1.500000000000000
 50
90.000000000000000
 51
185.531072000000280
  0
ARC
  8
0
  6
CONTINUOUS
 62
256
 10
-473.922018999999980
 20
-146.199513000000000
 40
1.500000000000025
 50
150.000000000000540
 51
247.180756000001140
  0
LINE
  8
0
  6
CONTINUOUS
 62
256
 10
-475.221056999999970
 20
-145.449513000000000
 11
-473.707956000000020
 21
-142.828744000000000
  0
ARC
  8
0
  6
CONTINUOUS
 62
256
 10
-472.408918000000030
 20
-143.578744000000000
 40
1.499999999999998
 50
67.928142000000889
 51
149.999999999999460
  0
ARC
  8
0
  6
CONTINUOUS
 62
256
 10
-461.511613000000010
 20
-116.704058000000000
 40
33.500000000000007
 50
247.180756000000030
 51
292.819244000000030
  0
ARC
  8
0
  6
CONTINUOUS
 62
256
 10
-461.511613000000010
 20
-116.704058000000000
 40
27.499999999999989
 50
247.928142000000040
 51
292.071857999999960
  0
ARC
  8
0
  6
CONTINUOUS
 62
256
 10
-450.614307999999990
 20
-143.578744000000000
 40
1.499999999999975
 50
30.000000000000544
 51
112.071857999999120
  0
ARC
  8
0
  6
CONTINUOUS
 62
256
 10
-449.101206999999990
 20
-146.199513000000000
 40
1.499999999999976
 50
292.819243999999230
 51
30.000000000000544
  0
LINE
  8
0
  6
CONTINUOUS
 62
256
 10
-449.315270000000000
 20
-142.828744000000000
 11
-447.802167999999990
 21
-145.449513000000000
  0
ARC
  8
0
  6
CONTINUOUS
 62
256
 10
-461.511613000000010
 20
-116.704058000000000
 40
33.500000000000000
 50
307.180755999999920
 51
352.819244000000030
  0
ARC
  8
0
  6
CONTINUOUS
 62
256
 10
-461.511613000000010
 20
-116.704058000000000
 40
36.999999999999993
 50
305.963570000000000
 51
354.036429999999940
  0
ARC
  8
0
  6
CONTINUOUS
 62
256
 10
-438.901688999999980
 20
-147.865595000000010
 40
1.500000000000007
 50
125.963570000000810
 51
210.000000000000510
  0
ARC
  8
0
  6
CONTINUOUS
 62
256
 10
-442.173002999999990
 20
-142.199513000000000
 40
1.499999999999975
 50
210.000000000000510
 51
307.180756000000090
  0
ARC
  8
0
  6
CONTINUOUS
 62
256
 10
-461.511613000000010
 20
-116.704058000000000
 40
27.500000000000014
 50
307.928141999999980
 51
352.071858000000020
  0
ARC
  8
0
  6
CONTINUOUS
 62
256
 10
-432.788799999999980
 20
-120.704058000000000
 40
1.500000000000000
 50
90.000000000000000
 51
172.071857999999850
  0
LINE
  8
0
  6
CONTINUOUS
 62
256
 10
-444.985142999999990
 20
-140.328744000000000
 11
-443.472040999999990
 21
-142.949513000000000
  0
ARC
  8
0
  6
CONTINUOUS
 62
256
 10
-443.686105000000000
 20
-139.578744000000000
 40
1.500000000000018
 50
127.928142000000730
 51
210.000000000000510
  0
CIRCLE
  8
0
  6
CONTINUOUS
 62
256
 10
-461.511613000000010
 20
-116.704058000000000
 40
5.000000000000000
  0
ARC
  8
0
  6
CONTINUOUS
 62
256
 10
-453.464936000000020
 20
-122.641312000000000
 40
1.500000000000000
 50
143.578178000000040
 51
210.000000000000510
  0
ARC
  8
0
  6
CONTINUOUS
 62
256
 10
-452.346460999999980
 20
-120.704058000000000
 40
1.500000000000000
 50
90.000000000000000
 51
156.421821999999620
  0
ARC
  8
0
  6
CONTINUOUS
 62
256
 10
-446.976716000000010
 20
-133.879237999999990
 40
1.499999999999975
 50
210.000000000000510
 51
310.240347999999810
  0
ARC
  8
0
  6
CONTINUOUS
 62
256
 10
-449.142295999999990
 20
-120.704058000000000
 40
1.500000000000024
 50
342.079787000000580
 51
90.000000000000000
  0
ARC
  8
0
  6
CONTINUOUS
 62
256
 10
-442.426278000000020
 20
-120.704058000000000
 40
1.500000000000000
 50
90.000000000000000
 51
168.162996000000190
  0
ARC
  8
0
  6
CONTINUOUS
 62
256
 10
-448.504843999999990
 20
-131.232442999999990
 40
1.499999999999989
 50
131.837003999999810
 51
210.000000000000510
  0
ARC
  8
0
  6
CONTINUOUS
 62
256
 10
-439.370023000000000
 20
-120.704058000000000
 40
1.500000000000009
 50
349.759652000000300
 51
90.000000000000000
  0
ARC
  8
0
  6
CONTINUOUS
 62
256
 10
-451.862852999999970
 20
-125.416201000000000
 40
1.499999999999975
 50
210.000000000000510
 51
317.920212999999820
  0
LINE
  8
0
  6
CONTINUOUS
 62
256
 10
-449.803881999999990
 20
-131.982442999999990
 11
-448.275754000000010
 21
-134.629237999999990
  0
ARC
  8
0
  6
CONTINUOUS
 62
256
 10
-461.511613000000010
 20
-116.704058000000000
 40
14.500000000000021
 50
317.920213000000050
 51
342.079787000000010
  0
LINE
  8
0
  6
CONTINUOUS
 62
256
 10
-449.142295999999990
 20
-119.204058000000000
 11
-452.346460999999980
 21
-119.204058000000000
  0
LINE
  8
0
  6
CONTINUOUS
 62
256
 10
-439.370023000000000
 20
-119.204058000000000
 11
-442.426278000000020
 21
-119.204058000000000
  0
LINE
  8
0
  6
CONTINUOUS
 62
256
 10
-454.763974000000020
 20
-123.391312000000000
 11
-453.161891000000030
 21
-126.166201000000000
  0
ARC
  8
0
  6
CONTINUOUS
 62
256
 10
-461.511613000000010
 20
-116.704058000000000
 40
24.000000000000004
 50
310.240347999999980
 51
349.759652000000020
  0
ARC
  8
0
  6
CONTINUOUS
 62
256
 10
-461.511613000000010
 20
-116.704058000000000
 40
8.499999999999989
 50
323.578177999999920
 51
336.421821999999910
  0
ARC
  8
0
  6
CONTINUOUS
 62
256
 10
-464.232170000000000
 20
-129.416201000000000
 40
1.500000000000025
 50
150.000000000000540
 51
257.920213000000730
  0
LINE
  8
0
  6
CONTINUOUS
 62
256
 10
-465.531207999999990
 20
-128.666201000000000
 11
-463.929125000000000
 21
-125.891312000000000
  0
ARC
  8
0
  6
CONTINUOUS
 62
256
 10
-462.630087000000000
 20
-126.641312000000000
 40
1.500000000000001
 50
83.578178000000747
 51
150.000000000000540
  0
ARC
  8
0
  6
CONTINUOUS
 62
256
 10
-461.511613000000010
 20
-116.704058000000000
 40
8.500000000000007
 50
263.578177999999980
 51
276.421822000000020
  0
ARC
  8
0
  6
CONTINUOUS
 62
256
 10
-460.393139000000020
 20
-126.641312000000000
 40
1.500000000000025
 50
29.999999999999456
 51
96.421821999999253
  0
LINE
  8
0
  6
CONTINUOUS
 62
256
 10
-459.094101000000020
 20
-125.891312000000000
 11
-457.492017999999970
 21
-128.666201000000000
  0
ARC
  8
0
  6
CONTINUOUS
 62
256
 10
-458.791056000000030
 20
-129.416201000000000
 40
1.499999999999989
 50
282.079786999999270
 51
29.999999999999456
  0
ARC
  8
0
  6
CONTINUOUS
 62
256
 10
-461.511613000000010
 20
-116.704058000000000
 40
14.499999999999986
 50
257.920212999999990
 51
282.079786999999950
  0
ARC
  8
0
  6
CONTINUOUS
 62
256
 10
-469.118306000000020
 20
-137.879237999999990
 40
1.499999999999975
 50
149.999999999999460
 51
250.240347999999300
  0
LINE
  8
0
  6
CONTINUOUS
 62
256
 10
-470.417344000000010
 20
-137.129237999999990
 11
-468.889216999999970
 21
-134.482442999999990
  0
ARC
  8
0
  6
CONTINUOUS
 62
256
 10
-467.590178999999980
 20
-135.232442999999990
 40
1.500000000000007
 50
71.837003999999709
 51
149.999999999999460
  0
ARC
  8
0
  6
CONTINUOUS
 62
256
 10
-461.511613000000010
 20
-116.704058000000000
 40
17.999999999999996
 50
251.837003999999980
 51
288.162995999999960
  0
ARC
  8
0
  6
CONTINUOUS
 62
256
 10
-455.433046999999990
 20
-135.232442999999990
 40
1.500000000000025
 50
29.999999999999456
 51
108.162996000000290
  0
LINE
  8
0
  6
CONTINUOUS
 62
256
 10
-454.134008999999990
 20
-134.482442999999990
 11
-452.605881000000010
 21
-137.129237999999990
  0
ARC
  8
0
  6
CONTINUOUS
 62
256
 10
-453.904920000000000
 20
-137.879237999999990
 40
1.500000000000012
 50
289.759652000000640
 51
30.000000000000544
  0
ARC
  8
0
  6
CONTINUOUS
 62
256
 10
-461.511613000000010
 20
-116.704058000000000
 40
23.999999999999993
 50
250.240348000000010
 51
289.759652000000020
  0
ARC
  8
0
  6
CONTINUOUS
 62
256
 10
-464.232170000000000
 20
-103.991916000000000
 40
1.499999999999989
 50
102.079786999999230
 51
210.000000000000510
  0
LINE
  8
0
  6
CONTINUOUS
 62
256
 10
-465.531207999999990
 20
-104.741916000000000
 11
-463.929125000000000
 21
-107.516805000000010
  0
ARC
  8
0
  6
CONTINUOUS
 62
256
 10
-462.630087000000000
 20
-106.766805000000010
 40
1.499999999999975
 50
210.000000000000510
 51
276.421821999999220
  0
ARC
  8
0
  6
CONTINUOUS
 62
256
 10
-461.511613000000010
 20
-116.704058000000000
 40
8.500000000000007
 50
83.578177999999994
 51
96.421822000000020
  0
ARC
  8
0
  6
CONTINUOUS
 62
256
 10
-460.393139000000020
 20
-106.766805000000010
 40
1.500000000000001
 50
263.578178000000780
 51
329.999999999999490
  0
LINE
  8
0
  6
CONTINUOUS
 62
256
 10
-459.094101000000020
 20
-107.516805000000010
 11
-457.492017999999970
 21
-104.741916000000000
  0
ARC
  8
0
  6
CONTINUOUS
 62
256
 10
-458.791056000000030
 20
-103.991916000000000
 40
1.499999999999975
 50
329.999999999999490
 51
77.920213000000771
  0
ARC
  8
0
  6
CONTINUOUS
 62
256
 10
-461.511613000000010
 20
-116.704058000000000
 40
14.500000000000002
 50
77.920213000000032
 51
102.079786999999980
  0
ARC
  8
0
  6
CONTINUOUS
 62
256
 10
-469.118306000000020
 20
-95.528879000000003
 40
1.500000000000012
 50
109.759652000000680
 51
210.000000000000510
  0
LINE
  8
0
  6
CONTINUOUS
 62
256
 10
-470.417344000000010
 20
-96.278879000000003
 11
-468.889216999999970
 21
-98.925674000000001
  0
ARC
  8
0
  6
CONTINUOUS
 62
256
 10
-467.590178999999980
 20
-98.175674000000001
 40
1.499999999999975
 50
210.000000000000510
 51
288.162996000000310
  0
ARC
  8
0
  6
CONTINUOUS
 62
256
 10
-461.511613000000010
 20
-116.704058000000000
 40
17.999999999999996
 50
71.837004000000007
 51
108.162996000000010
  0
ARC
  8
0
  6
CONTINUOUS
 62
256
 10
-455.433046999999990
 20
-98.175674000000001
 40
1.500000000000007
 50
251.837003999999720
 51
329.999999999999490
  0
LINE
  8
0
  6
CONTINUOUS
 62
256
 10
-454.134008999999990
 20
-98.925674000000001
 11
-452.605881000000010
 21
-96.278879000000003
  0
ARC
  8
0
  6
CONTINUOUS
 62
256
 10
-453.904920000000000
 20
-95.528879000000003
 40
1.499999999999975
 50
329.999999999999490
 51
70.240347999999329
  0
ARC
  8
0
  6
CONTINUOUS
 62
256
 10
-461.511613000000010
 20
-116.704058000000000
 40
23.999999999999993
 50
70.240348000000012
 51
109.759651999999990
  0
ARC
  8
0
  6
CONTINUOUS
 62
256
 10
-471.160372999999990
 20
-107.991916000000000
 40
1.499999999999975
 50
30.000000000000544
 51
137.920212999999820
  0
LINE
  8
0
  6
CONTINUOUS
 62
256
 10
-469.861335000000000
 20
-107.241916000000000
 11
-468.259252000000000
 21
-110.016805000000010
  0
ARC
  8
0
  6
CONTINUOUS
 62
256
 10
-469.558290000000000
 20
-110.766805000000010
 40
1.500000000000000
 50
323.578178000000040
 51
30.000000000000544
  0
ARC
  8
0
  6
CONTINUOUS
 62
256
 10
-461.511613000000010
 20
-116.704058000000000
 40
8.499999999999989
 50
143.578177999999950
 51
156.421821999999930
  0
ARC
  8
0
  6
CONTINUOUS
 62
256
 10
-470.676763999999990
 20
-112.704058000000000
 40
1.500000000000000
 50
270.000000000000000
 51
336.421821999999620
  0
LINE
  8
0
  6
CONTINUOUS
 62
256
 10
-470.676763999999990
 20
-114.204058000000000
 11
-473.880929999999980
 21
-114.204058000000000
  0
ARC
  8
0
  6
CONTINUOUS
 62
256
 10
-473.880929999999980
 20
-112.704058000000000
 40
1.500000000000024
 50
162.079787000000550
 51
270.000000000000000
  0
ARC
  8
0
  6
CONTINUOUS
 62
256
 10
-461.511613000000010
 20
-116.704058000000000
 40
14.500000000000012
 50
137.920213000000070
 51
162.079787000000070
  0
ARC
  8
0
  6
CONTINUOUS
 62
256
 10
-476.046509000000010
 20
-99.528879000000003
 40
1.500000000000025
 50
29.999999999999456
 51
130.240347999999780
  0
LINE
  8
0
  6
CONTINUOUS
 62
256
 10
-474.747471000000020
 20
-98.778879000000003
 11
-473.219343999999980
 21
-101.425674000000000
  0
ARC
  8
0
  6
CONTINUOUS
 62
256
 10
-474.518381999999970
 20
-102.175674000000000
 40
1.499999999999989
 50
311.837003999999810
 51
29.999999999999456
  0
ARC
  8
0
  6
CONTINUOUS
 62
256
 10
-461.511613000000010
 20
-116.704058000000000
 40
17.999999999999989
 50
131.837003999999920
 51
168.162995999999990
  0
ARC
  8
0
  6
CONTINUOUS
 62
256
 10
-480.596948000000000
 20
-112.704058000000000
 40
1.500000000000000
 50
270.000000000000000
 51
348.162996000000190
  0
LINE
  8
0
  6
CONTINUOUS
 62
256
 10
-480.596948000000000
 20
-114.204058000000000
 11
-483.653203000000020
 21
-114.204058000000000
  0
ARC
  8
0
  6
CONTINUOUS
 62
256
 10
-483.653203000000020
 20
-112.704058000000000
 40
1.500000000000009
 50
169.759652000000300
 51
270.000000000000000
  0
ARC
  8
0
  6
CONTINUOUS
 62
256
 10
-461.511613000000010
 20
-116.704058000000000
 40
24.000000000000004
 50
130.240347999999980
 51
169.759651999999960
  0
ARC
  8
0
  6
CONTINUOUS
 62
256
 10
-471.160372999999990
 20
-125.416201000000000
 40
1.499999999999994
 50
222.079787000000180
 51
329.999999999999490
  0
LINE
  8
0
  6
CONTINUOUS
 62
256
 10
-469.861335000000000
 20
-126.166201000000000
 11
-468.259252000000000
 21
-123.391312000000000
  0
ARC
  8
0
  6
CONTINUOUS
 62
256
 10
-469.558290000000000
 20
-122.641312000000000
 40
1.499999999999975
 50
329.999999999999490
 51
36.421821999999963
  0
ARC
  8
0
  6
CONTINUOUS
 62
256
 10
-461.511613000000010
 20
-116.704058000000000
 40
8.499999999999991
 50
203.578178000000070
 51
216.421822000000050
  0
ARC
  8
0
  6
CONTINUOUS
 62
256
 10
-470.676763999999990
 20
-120.704058000000000
 40
1.499999999999984
 50
23.578178000000403
 51
90.000000000000000
  0
LINE
  8
0
  6
CONTINUOUS
 62
256
 10
-470.676763999999990
 20
-119.204058000000000
 11
-473.880929999999980
 21
-119.204058000000000
  0
ARC
  8
0
  6
CONTINUOUS
 62
256
 10
-473.880929999999980
 20
-120.704058000000000
 40
1.500000000000000
 50
90.000000000000000
 51
197.920212999999450
  0
ARC
  8
0
  6
CONTINUOUS
 62
256
 10
-461.511613000000010
 20
-116.704058000000000
 40
14.500000000000011
 50
197.920212999999930
 51
222.079786999999930
  0
ARC
  8
0
  6
CONTINUOUS
 62
256
 10
-476.046509000000010
 20
-133.879237999999990
 40
1.499999999999991
 50
229.759652000000220
 51
329.999999999999490
  0
LINE
  8
0
  6
CONTINUOUS
 62
256
 10
-474.747471000000020
 20
-134.629237999999990
 11
-473.219343999999980
 21
-131.982442999999990
  0
ARC
  8
0
  6
CONTINUOUS
 62
256
 10
-474.518381999999970
 20
-131.232442999999990
 40
1.499999999999975
 50
329.999999999999490
 51
48.162996000000220
  0
ARC
  8
0
  6
CONTINUOUS
 62
256
 10
-461.511613000000010
 20
-116.704058000000000
 40
17.999999999999975
 50
191.837004000000010
 51
228.162996000000080
  0
ARC
  8
0
  6
CONTINUOUS
 62
256
 10
-480.596948000000000
 20
-120.704058000000000
 40
1.499999999999997
 50
11.837003999999803
 51
90.000000000000000
  0
LINE
  8
0
  6
CONTINUOUS
 62
256
 10
-480.596948000000000
 20
-119.204058000000000
 11
-483.653203000000020
 21
-119.204058000000000
  0
ARC
  8
0
  6
CONTINUOUS
 62
256
 10
-483.653203000000020
 20
-120.704058000000000
 40
1.500000000000000
 50
90.000000000000000
 51
190.240347999999700
  0
ARC
  8
0
  6
CONTINUOUS
 62
256
 10
-461.511613000000010
 20
-116.704058000000000
 40
23.999999999999996
 50
190.240348000000040
 51
229.759652000000020
  0
ARC
  8
0
  6
CONTINUOUS
 62
256
 10
-449.142295999999990
 20
-112.704058000000000
 40
1.500000000000000
 50
270.000000000000000
 51
17.920212999999450
  0
LINE
  8
0
  6
CONTINUOUS
 62
256
 10
-449.142295999999990
 20
-114.204058000000000
 11
-452.346460999999980
 21
-114.204058000000000
  0
ARC
  8
0
  6
CONTINUOUS
 62
256
 10
-452.346460999999980
 20
-112.704058000000000
 40
1.499999999999984
 50
203.578178000000380
 51
270.000000000000000
  0
ARC
  8
0
  6
CONTINUOUS
 62
256
 10
-461.511613000000010
 20
-116.704058000000000
 40
8.499999999999991
 50
23.578178000000058
 51
36.421822000000063
  0
ARC
  8
0
  6
CONTINUOUS
 62
256
 10
-453.464936000000020
 20
-110.766805000000010
 40
1.499999999999975
 50
149.999999999999460
 51
216.421821999999960
  0
LINE
  8
0
  6
CONTINUOUS
 62
256
 10
-454.763974000000020
 20
-110.016805000000010
 11
-453.161891000000030
 21
-107.241916000000000
  0
ARC
  8
0
  6
CONTINUOUS
 62
256
 10
-451.862852999999970
 20
-107.991916000000000
 40
1.499999999999994
 50
42.079787000000181
 51
150.000000000000540
  0
ARC
  8
0
  6
CONTINUOUS
 62
256
 10
-461.511613000000010
 20
-116.704058000000000
 40
14.500000000000014
 50
17.920213000000000
 51
42.079786999999946
  0
ARC
  8
0
  6
CONTINUOUS
 62
256
 10
-439.370023000000000
 20
-112.704058000000000
 40
1.500000000000000
 50
270.000000000000000
 51
10.240347999999715
  0
LINE
  8
0
  6
CONTINUOUS
 62
256
 10
-439.370023000000000
 20
-114.204058000000000
 11
-442.426278000000020
 21
-114.204058000000000
  0
ARC
  8
0
  6
CONTINUOUS
 62
256
 10
-442.426278000000020
 20
-112.704058000000000
 40
1.499999999999997
 50
191.837003999999810
 51
270.000000000000000
  0
ARC
  8
0
  6
CONTINUOUS
 62
256
 10
-461.511613000000010
 20
-116.704058000000000
 40
17.999999999999975
 50
11.837004000000027
 51
48.162996000000071
  0
ARC
  8
0
  6
CONTINUOUS
 62
256
 10
-448.504843999999990
 20
-102.175674000000000
 40
1.499999999999975
 50
149.999999999999460
 51
228.162996000000190
  0
LINE
  8
0
  6
CONTINUOUS
 62
256
 10
-449.803881999999990
 20
-101.425674000000000
 11
-448.275754000000010
 21
-98.778879000000003
  0
ARC
  8
0
  6
CONTINUOUS
 62
256
 10
-446.976716000000010
 20
-99.528879000000003
 40
1.499999999999991
 50
49.759652000000230
 51
150.000000000000540
  0
ARC
  8
0
  6
CONTINUOUS
 62
256
 10
-461.511613000000010
 20
-116.704058000000000
 40
23.999999999999993
 50
10.240347999999988
 51
49.759652000000010
  0
ARC
  8
0
  6
CONTINUOUS
 62
256
 10
-429.762597000000030
 20
-112.704058000000000
 40
1.500000000000000
 50
270.000000000000000
 51
7.180756000000089
  0
LINE
  8
0
  6
CONTINUOUS
 62
256
 10
-429.762597000000030
 20
-114.204058000000000
 11
-432.788799999999980
 21
-114.204058000000000
  0
ARC
  8
0
  6
CONTINUOUS
 62
256
 10
-423.219968999999990
 20
-112.704058000000000
 40
1.500000000000012
 50
185.963569999999780
 51
270.000000000000000
  0
LINE
  8
0
  6
CONTINUOUS
 62
256
 10
-420.204834000000010
 20
-114.204058000000000
 11
-423.219968999999990
 21
-114.204058000000000
  0
LINE
  8
0
  6
CONTINUOUS
 62
256
 10
-484.330065999999990
 20
-151.226778999999990
 11
-482.822498000000000
 21
-148.615595000000010
  0
ARC
  8
0
  6
CONTINUOUS
 62
256
 10
-485.629103999999980
 20
-150.476778999999990
 40
1.499999999999989
 50
234.468928000000520
 51
329.999999999999490
  0
ARC
  8
0
  6
CONTINUOUS
 62
256
 10
-477.193333000000000
 20
-151.865595000000010
 40
1.499999999999986
 50
65.963570000000146
 51
149.999999999999460
  0
LINE
  8
0
  6
CONTINUOUS
 62
256
 10
-479.999938999999980
 20
-153.726778999999990
 11
-478.492370999999990
 21
-151.115595000000010
  0
ARC
  8
0
  6
CONTINUOUS
 62
256
 10
-478.700900999999990
 20
-154.476778999999990
 40
1.499999999999975
 50
149.999999999999460
 51
245.531072000000020
  0
ARC
  8
0
  6
CONTINUOUS
 62
256
 10
-461.511613000000010
 20
-116.704058000000000
 40
42.999999999999993
 50
245.531071999999970
 51
294.468927999999950
  0
ARC
  8
0
  6
CONTINUOUS
 62
256
 10
-461.511613000000010
 20
-116.704058000000000
 40
37.000000000000000
 50
245.963569999999950
 51
294.036429999999940
  0
ARC
  8
0
  6
CONTINUOUS
 62
256
 10
-445.829891999999970
 20
-151.865595000000010
 40
1.500000000000025
 50
29.999999999999456
 51
114.036429999999850
  0
LINE
  8
0
  6
CONTINUOUS
 62
256
 10
-444.530853999999980
 20
-151.115595000000010
 11
-443.023286999999980
 21
-153.726778999999990
  0
ARC
  8
0
  6
CONTINUOUS
 62
256
 10
-444.322324999999980
 20
-154.476778999999990
 40
1.499999999999989
 50
294.468928000000010
 51
29.999999999999456
  0
ARC
  8
0
  6
CONTINUOUS
 62
256
 10
-461.511613000000010
 20
-116.704058000000000
 40
43.000000000000021
 50
305.531071999999990
 51
354.468928000000010
  0
ARC
  8
0
  6
CONTINUOUS
 62
256
 10
-437.394121999999980
 20
-150.476778999999990
 40
1.499999999999975
 50
210.000000000000510
 51
305.531071999999480
  0
ARC
  8
0
  6
CONTINUOUS
 62
256
 10
-423.219968999999990
 20
-120.704058000000000
 40
1.500000000000000
 50
90.000000000000000
 51
174.036430000000220
  0
ARC
  8
0
  6
CONTINUOUS
 62
256
 10
-429.762597000000030
 20
-120.704058000000000
 40
1.500000000000028
 50
352.819243999999910
 51
90.000000000000000
  0
LINE
  8
0
  6
CONTINUOUS
 62
256
 10
-429.762597000000030
 20
-119.204058000000000
 11
-432.788799999999980
 21
-119.204058000000000
  0
LINE
  8
0
  6
CONTINUOUS
 62
256
 10
-440.200726999999970
 20
-148.615595000000010
 11
-438.693159999999980
 21
-151.226778999999990
  0
LINE
  8
0
  6
CONTINUOUS
 62
256
 10
-420.204834000000010
 20
-119.204058000000000
 11
-423.219968999999990
 21
-119.204058000000000
  0
ARC
  8
0
  6
CONTINUOUS
 62
256
 10
-461.511613000000010
 20
-116.704058000000000
 40
27.499999999999986
 50
7.928141999999994
 51
52.071858000000006
  0
ARC
  8
0
  6
CONTINUOUS
 62
256
 10
-461.511613000000010
 20
-116.704058000000000
 40
17.999999999999989
 50
311.837003999999920
 51
348.162995999999960
  0
ARC
  8
0
  6
CONTINUOUS
 62
256
 10
-420.204834000000010
 20
-112.704058000000000
 40
1.500000000000000
 50
270.000000000000000
 51
5.531072000000276
  0
ARC
  8
0
  6
CONTINUOUS
 62
256
 10
-420.204834000000010
 20
-120.704058000000000
 40
1.499999999999979
 50
354.468927999999720
 51
90.000000000000000
  0
ARC
  8
0
  6
CONTINUOUS
 62
256
 10
-702.111613000000030
 20
-116.704058000000000
 40
300.600000000000020
 50
0.000000000000000
 51
8.597081999999999
  0
ARC
  8
0
  6
CONTINUOUS
 62
256
 10
-220.911612999999990
 20
-116.704058000000000
 40
300.600000000000020
 50
180.000000000000000
 51
188.597082000000000
  0
ARC
  8
0
  6
CONTINUOUS
 62
256
 10
-411.414998000000030
 20
-160.652646000000000
 40
6.600000000000017
 50
315.000000000000170
 51
351.402917999999940
  0
ARC
  8
0
  6
CONTINUOUS
 62
256
 10
-702.111613000000030
 20
-116.704058000000000
 40
300.600000000000020
 50
351.402918000000000
 51
0.000000000000000
  0
ARC
  8
0
  6
CONTINUOUS
 62
256
 10
-511.608227000000000
 20
-160.652646000000000
 40
6.599999999999966
 50
188.597082000000110
 51
224.999999999999830
  0
ARC
  8
0
  6
CONTINUOUS
 62
256
 10
-220.911612999999990
 20
-116.704058000000000
 40
300.600000000000020
 50
171.402918000000000
 51
180.000000000000000
  0
ARC
  8
0
  6
CONTINUOUS
 62
256
 10
-511.608227000000000
 20
-72.755471000000000
 40
6.600000000000017
 50
135.000000000000170
 51
171.402918000000000
  0
LINE
  8
0
  6
CONTINUOUS
 62
256
 10
-406.748093999999980
 20
-165.319550999999990
 11
-413.814543000000010
 21
-172.386000000000000
  0
ARC
  8
0
  6
CONTINUOUS
 62
256
 10
-432.623583000000000
 20
-153.576958999999990
 40
26.600000000000009
 50
276.051984999999950
 51
315.000000000000060
  0
LINE
  8
0
  6
CONTINUOUS
 62
256
 10
-406.748093999999980
 20
-68.088566000000000
 11
-413.814543000000010
 21
-61.022117000000001
  0
ARC
  8
0
  6
CONTINUOUS
 62
256
 10
-432.623583000000000
 20
-79.831158000000002
 40
26.600000000000016
 50
44.999999999999957
 51
83.948015000000026
  0
LINE
  8
0
  6
CONTINUOUS
 62
256
 10
-516.275131999999990
 20
-68.088566000000000
 11
-509.208683000000010
 21
-61.022117000000001
  0
ARC
  8
0
  6
CONTINUOUS
 62
256
 10
-461.511613000000010
 20
-352.304058000000000
 40
300.600000000000020
 50
83.948014999999998
 51
96.051985000000002
  0
ARC
  8
0
  6
CONTINUOUS
 62
256
 10
-490.399643000000030
 20
-79.831158000000002
 40
26.599999999999994
 50
96.051984999999974
 51
135.000000000000060
  0
ARC
  8
0
  6
CONTINUOUS
 62
256
 10
-461.511613000000010
 20
118.895942000000010
 40
300.600000000000020
 50
263.948015000000000
 51
276.051985000000000
  0
LINE
  8
0
  6
CONTINUOUS
 62
256
 10
-516.275131999999990
 20
-165.319550999999990
 11
-509.208683000000010
 21
-172.386000000000000
  0
ARC
  8
0
  6
CONTINUOUS
 62
256
 10
-490.399643000000030
 20
-153.576958999999990
 40
26.600000000000016
 50
224.999999999999940
 51
263.948015000000050
  0
ARC
  8
0
  6
CONTINUOUS
 62
256
 10
-432.623583000000000
 20
-79.831158000000002
 40
15.397000000000016
 50
44.999999999999929
 51
83.948015000000069
  0
LINE
  8
0
  6
CONTINUOUS
 62
256
 10
-417.160194999999990
 20
-73.519900000000007
 11
-421.736260000000020
 21
-68.943833999999995
  0
ARC
  8
0
  6
CONTINUOUS
 62
256
 10
-461.511613000000010
 20
-352.304058000000000
 40
289.396999999999990
 50
83.948014999999998
 51
90.000000000000000
  0
ARC
  8
0
  6
CONTINUOUS
 62
256
 10
-702.111613000000030
 20
-116.704058000000000
 40
289.396999999999990
 50
352.102011000000000
 51
360.000000000000000
  0
ARC
  8
0
  6
CONTINUOUS
 62
256
 10
-421.402834999999980
 20
-155.645576000000010
 40
5.999999999999989
 50
314.999999999999770
 51
352.102010999999950
  0
LINE
  8
0
  6
CONTINUOUS
 62
256
 10
-417.160194999999990
 20
-159.888217000000000
 11
-421.736260000000020
 21
-164.464282999999990
  0
ARC
  8
0
  6
CONTINUOUS
 62
256
 10
-432.623583000000000
 20
-153.576958999999990
 40
15.397000000000000
 50
276.051984999999890
 51
314.999999999999940
  0
ARC
  8
0
  6
CONTINUOUS
 62
256
 10
-461.511613000000010
 20
118.895942000000010
 40
289.396999999999990
 50
270.000000000000000
 51
276.051985000000000
  0
ARC
  8
0
  6
CONTINUOUS
 62
256
 10
-220.911612999999990
 20
-116.704058000000000
 40
289.396999999999990
 50
180.000000000000000
 51
187.897989000000000
  0
ARC
  8
0
  6
CONTINUOUS
 62
256
 10
-501.620389999999990
 20
-155.645576000000010
 40
5.999999999999990
 50
187.897989000000000
 51
225.000000000000170
  0
LINE
  8
0
  6
CONTINUOUS
 62
256
 10
-505.863030999999980
 20
-159.888217000000000
 11
-501.286966000000010
 21
-164.464282999999990
  0
ARC
  8
0
  6
CONTINUOUS
 62
256
 10
-490.399643000000030
 20
-153.576958999999990
 40
15.397000000000016
 50
224.999999999999910
 51
263.948015000000110
  0
ARC
  8
0
  6
CONTINUOUS
 62
256
 10
-461.511613000000010
 20
118.895942000000010
 40
289.397000000000050
 50
263.948015000000000
 51
270.000000000000000
  0
ARC
  8
0
  6
CONTINUOUS
 62
256
 10
-220.911612999999990
 20
-116.704058000000000
 40
289.396999999999990
 50
172.102011000000030
 51
180.000000000000000
  0
ARC
  8
0
  6
CONTINUOUS
 62
256
 10
-501.620389999999990
 20
-77.762540999999999
 40
5.999999999999989
 50
134.999999999999830
 51
172.102011000000000
  0
LINE
  8
0
  6
CONTINUOUS
 62
256
 10
-505.863030999999980
 20
-73.519900000000007
 11
-501.286966000000010
 21
-68.943833999999995
  0
ARC
  8
0
  6
CONTINUOUS
 62
256
 10
-490.399643000000030
 20
-79.831158000000002
 40
15.397000000000000
 50
96.051984999999931
 51
135.000000000000090
  0
ARC
  8
0
  6
CONTINUOUS
 62
256
 10
-461.511613000000010
 20
-352.304058000000000
 40
289.396999999999990
 50
90.000000000000000
 51
96.051985000000002
  0
LINE
  8
0
  6
CONTINUOUS
 62
256
 10
-431.519114000000000
 20
-180.204058000000000
 11
-425.511613000000010
 21
-180.204058000000000
  0
LINE
  8
0
  6
CONTINUOUS
 62
256
 10
-491.504112000000020
 20
-180.204058000000000
 11
-497.511613000000010
 21
-180.204058000000000
  0
ARC
  8
0
  6
CONTINUOUS
 62
256
 10
-430.511613000000010
 20
-207.570722999999990
 40
5.000000000000002
 50
276.032049000000030
 51
0.000000000000000
  0
LINE
  8
0
  6
CONTINUOUS
 62
256
 10
-425.511613000000010
 20
-179.208577999999990
 11
-425.511613000000010
 21
-207.570722999999990
  0
LINE
  8
0
  6
CONTINUOUS
 62
256
 10
-497.511613000000010
 20
-179.208577999999990
 11
-497.511613000000010
 21
-207.570722999999990
  0
ARC
  8
0
  6
CONTINUOUS
 62
256
 10
-492.511613000000010
 20
-207.570722999999990
 40
5.000000000000000
 50
180.000000000000000
 51
263.967950999999970
  0
LINE
  8
0
  6
CONTINUOUS
 62
256
 10
-464.011613000000010
 20
-214.704058000000000
 11
-459.011613000000010
 21
-214.704058000000000
  0
LINE
  8
0
  6
CONTINUOUS
 62
256
 10
-459.011613000000010
 20
-214.204057000000010
 11
-459.011613000000010
 21
-214.704058000000000
  0
LINE
  8
0
  6
CONTINUOUS
 62
256
 10
-464.011613000000010
 20
-214.193642000000010
 11
-464.011613000000010
 21
-214.704058000000000
  0
ARC
  8
0
  6
CONTINUOUS
 62
256
 10
-461.511613000000010
 20
85.795941999999997
 40
300.000000000000000
 50
263.967951000000030
 51
276.032048999999970
  0
LINE
  8
0
  6
DASHDOT
 62
256
 10
-527.516895999999970
 20
-116.704058000000000
 11
-396.682385000000010
 21
-116.704058000000000
  0
LINE
  8
0
  6
DASHDOT
 62
256
 10
-461.511613000000010
 20
-24.557855000000000
 11
-461.511613000000010
 21
-224.917877000000000
  0
LINE
  8
0
  6
CONTINUOUS
 62
256
 10
-510.511613000000010
 20
-51.204058000000003
 11
-514.511613000000010
 21
-51.204058000000003
  0
LINE
  8
0
  6
CONTINUOUS
 62
256
 10
-500.511613000000010
 20
-34.039371000000003
 11
-510.511613000000010
 21
-34.039371000000003
  0
LINE
  8
0
  6
CONTINUOUS
 62
256
 10
-514.511613000000010
 20
-66.325046999999998
 11
-514.511613000000010
 21
-51.204058000000003
  0
LINE
  8
0
  6
CONTINUOUS
 62
256
 10
-510.511613000000010
 20
-62.325046999999998
 11
-510.511613000000010
 21
-34.039371000000003
  0
LINE
  8
0
  6
CONTINUOUS
 62
256
 10
-424.511613000000010
 20
-32.695331000000003
 11
-500.511613000000010
 21
-34.039371000000003
  0
LINE
  8
0
  6
CONTINUOUS
 62
256
 10
-408.511613000000010
 20
-51.204058000000003
 11
-412.511613000000010
 21
-51.204058000000003
  0
LINE
  8
0
  6
CONTINUOUS
 62
256
 10
-412.511613000000010
 20
-32.913519000000001
 11
-424.511613000000010
 21
-32.704058000000003
  0
LINE
  8
0
  6
CONTINUOUS
 62
256
 10
-424.511613000000010
 20
-32.695331000000003
 11
-424.511613000000010
 21
-54.498255000000000
  0
LINE
  8
0
  6
CONTINUOUS
 62
256
 10
-412.511613000000010
 20
-62.325046999999998
 11
-412.511613000000010
 21
-32.913519000000001
  0
LINE
  8
0
  6
CONTINUOUS
 62
256
 10
-408.511613000000010
 20
-51.204058000000003
 11
-408.511613000000010
 21
-66.325046999999998
  0
LINE
  8
0
  6
CONTINUOUS
 62
256
 10
-424.511613000000010
 20
-180.704058000000000
 11
-412.511613000000010
 21
-180.494598000000000
  0
LINE
  8
0
  6
CONTINUOUS
 62
256
 10
-412.511613000000010
 20
-180.494598000000000
 11
-412.511613000000010
 21
-171.083069999999990
  0
LINE
  8
0
  6
CONTINUOUS
 62
256
 10
-510.511613000000010
 20
-179.368745999999990
 11
-510.511613000000010
 21
-171.083069999999990
  0
LINE
  8
0
  6
CONTINUOUS
 62
256
 10
-497.511613000000010
 20
-179.421799999999990
 11
-500.511613000000010
 21
-179.368745999999990
  0
LINE
  8
0
  6
CONTINUOUS
 62
256
 10
-500.511613000000010
 20
-179.368745999999990
 11
-510.511613000000010
 21
-179.368745999999990
  0
LINE
  8
0
  6
CONTINUOUS
 62
256
 10
-424.511613000000010
 20
-178.909862000000000
 11
-424.511613000000010
 21
-180.712785999999990
  0
LINE
  8
0
  6
CONTINUOUS
 62
256
 10
-424.511613000000010
 20
-180.712785999999990
 11
-425.511613000000010
 21
-180.695100999999990
  0
LINE
  8
0
  6
CONTINUOUS
 62
256
 10
-222.765976999999990
 20
79.232221999999993
 11
-125.765977000000010
 21
79.232221999999993
  0
LINE
  8
0
  6
CONTINUOUS
 62
256
 10
-222.765976999999990
 20
150.661296999999990
 11
-125.765977000000010
 21
150.661296999999990
  0
LINE
  8
0
  6
CONTINUOUS
 62
256
 10
-222.765976999999990
 20
146.697551000000000
 11
-125.765977000000010
 21
146.697551000000000
  0
LINE
  8
0
  6
CONTINUOUS
 62
256
 10
-125.765977000000010
 20
55.446759999999998
 11
-125.765977000000010
 21
114.946760000000000
  0
LINE
  8
0
  6
CONTINUOUS
 62
256
 10
-125.765977000000010
 20
56.446759999999998
 11
-222.765976999999990
 21
56.446759999999998
  0
LINE
  8
0
  6
DASHDOT
 62
256
 10
73.920017999999999
 20
114.946760000000000
 11
-335.695190000000030
 21
114.946760000000000
  0
LINE
  8
0
  6
CONTINUOUS
 62
256
 10
-233.765976999999990
 20
168.686874999999990
 11
-235.765976999999990
 21
167.034233000000000
  0
LINE
  8
0
  6
CONTINUOUS
 62
256
 10
-231.765976999999990
 20
169.862660000000010
 11
-233.765976999999990
 21
168.686874999999990
  0
LINE
  8
0
  6
CONTINUOUS
 62
256
 10
-233.765976999999990
 20
168.686874999999990
 11
-231.765976999999990
 21
167.034233000000000
  0
LINE
  8
0
  6
CONTINUOUS
 62
256
 10
-235.765976999999990
 20
169.862660000000010
 11
-233.765976999999990
 21
168.686874999999990
  0
POLYLINE
  8
0
  6
CONTINUOUS
 62
256
 66
1
 70
1
  0
VERTEX
  8
0
  6
CONTINUOUS
 62
256
 10
-229.065977000000000
 20
166.870285000000000
  0
VERTEX
  8
0
  6
CONTINUOUS
 62
256
 10
-229.156286182104820
 20
167.573241510558180
  0
VERTEX
  8
0
  6
CONTINUOUS
 62
256
 10
-229.423743197196960
 20
168.249183796638140
  0
VERTEX
  8
0
  6
CONTINUOUS
 62
256
 10
-229.858069822178040
 20
168.872135775258670
  0
VERTEX
  8
0
  6
CONTINUOUS
 62
256
 10
-230.442575128423210
 20
169.418157751236830
  0
VERTEX
  8
0
  6
CONTINUOUS
 62
256
 10
-231.154796904807880
 20
169.866266406248490
  0
VERTEX
  8
0
  6
CONTINUOUS
 62
256
 10
-231.967364867884070
 20
170.199241175983730
  0
VERTEX
  8
0
  6
CONTINUOUS
 62
256
 10
-232.849052486524190
 20
170.404286026776080
  0
VERTEX
  8
0
  6
CONTINUOUS
 62
256
 10
-233.765976999999990
 20
170.473521199999990
  0
VERTEX
  8
0
  6
CONTINUOUS
 62
256
 10
-234.682901513475800
 20
170.404286026776080
  0
VERTEX
  8
0
  6
CONTINUOUS
 62
256
 10
-235.564589132115910
 20
170.199241175983730
  0
VERTEX
  8
0
  6
CONTINUOUS
 62
256
 10
-236.377157095192100
 20
169.866266406248490
  0
VERTEX
  8
0
  6
CONTINUOUS
 62
256
 10
-237.089378871576770
 20
169.418157751236830
  0
VERTEX
  8
0
  6
CONTINUOUS
 62
256
 10
-237.673884177821950
 20
168.872135775258670
  0
VERTEX
  8
0
  6
CONTINUOUS
 62
256
 10
-238.108210802803030
 20
168.249183796638140
  0
VERTEX
  8
0
  6
CONTINUOUS
 62
256
 10
-238.375667817895160
 20
167.573241510558180
  0
VERTEX
  8
0
  6
CONTINUOUS
 62
256
 10
-238.465976999999980
 20
166.870285000000000
  0
VERTEX
  8
0
  6
CONTINUOUS
 62
256
 10
-238.375667817895160
 20
166.167328489441810
  0
VERTEX
  8
0
  6
CONTINUOUS
 62
256
 10
-238.108210802803030
 20
165.491386203361860
  0
VERTEX
  8
0
  6
CONTINUOUS
 62
256
 10
-237.673884177821950
 20
164.868434224741320
  0
VERTEX
  8
0
  6
CONTINUOUS
 62
256
 10
-237.089378871576770
 20
164.322412248763160
  0
VERTEX
  8
0
  6
CONTINUOUS
 62
256
 10
-236.377157095192100
 20
163.874303593751510
  0
VERTEX
  8
0
  6
CONTINUOUS
 62
256
 10
-235.564589132115910
 20
163.541328824016260
  0
VERTEX
  8
0
  6
CONTINUOUS
 62
256
 10
-234.682901513475800
 20
163.336283973223940
  0
VERTEX
  8
0
  6
CONTINUOUS
 62
256
 10
-233.765976999999990
 20
163.267048800000000
  0
VERTEX
  8
0
  6
CONTINUOUS
 62
256
 10
-232.849052486524190
 20
163.336283973223940
  0
VERTEX
  8
0
  6
CONTINUOUS
 62
256
 10
-231.967364867884070
 20
163.541328824016260
  0
VERTEX
  8
0
  6
CONTINUOUS
 62
256
 10
-231.154796904807880
 20
163.874303593751510
  0
VERTEX
  8
0
  6
CONTINUOUS
 62
256
 10
-230.442575128423240
 20
164.322412248763160
  0
VERTEX
  8
0
  6
CONTINUOUS
 62
256
 10
-229.858069822178040
 20
164.868434224741320
  0
VERTEX
  8
0
  6
CONTINUOUS
 62
256
 10
-229.423743197196960
 20
165.491386203361860
  0
VERTEX
  8
0
  6
CONTINUOUS
 62
256
 10
-229.156286182104820
 20
166.167328489441810
  0
SEQEND
  8
0
  6
CONTINUOUS
 62
256
  0
LINE
  8
0
  6
CONTINUOUS
 62
256
 10
-222.765976999999990
 20
59.946759999999998
 11
-125.765977000000010
 21
59.946759999999998
  0
LINE
  8
0
  6
CONTINUOUS
 62
256
 10
-222.765976999999990
 20
58.946759999999998
 11
-125.765977000000010
 21
58.946759999999998
  0
LINE
  8
0
  6
CONTINUOUS
 62
256
 10
-222.765976999999990
 20
57.946759999999998
 11
-125.765977000000010
 21
57.946759999999998
  0
LINE
  8
0
  6
CONTINUOUS
 62
256
 10
-222.765976999999990
 20
57.446759999999998
 11
-125.765977000000010
 21
57.446759999999998
  0
ARC
  8
0
  6
CONTINUOUS
 62
256
 10
-323.165977000000000
 20
162.389964999999990
 40
2.599999999999996
 50
125.000000000000210
 51
180.000000000000000
  0
LINE
  8
0
  6
CONTINUOUS
 62
256
 10
-314.931530000000010
 20
171.329800000000010
 11
-324.657276000000020
 21
164.519759999999990
  0
ARC
  8
0
  6
CONTINUOUS
 62
256
 10
-303.460001999999970
 20
154.946760000000010
 40
20.000000000000000
 50
90.000000000000000
 51
125.000000000000060
  0
LINE
  8
0
  6
CONTINUOUS
 62
256
 10
-325.765977000000020
 20
114.946760000000000
 11
-325.765977000000020
 21
162.389964999999990
  0
LINE
  8
0
  6
CONTINUOUS
 62
256
 10
-222.765976999999990
 20
174.946760000000010
 11
-303.460001999999970
 21
174.946760000000010
  0
LINE
  8
0
  6
CONTINUOUS
 62
256
 10
-125.765977000000010
 20
174.446760000000010
 11
-125.765977000000010
 21
114.946760000000000
  0
LINE
  8
0
  6
CONTINUOUS
 62
256
 10
-125.765977000000010
 20
173.446760000000010
 11
-222.765976999999990
 21
173.446760000000010
  0
LINE
  8
0
  6
CONTINUOUS
 62
256
 10
-222.765976999999990
 20
115.050332999999990
 11
-222.765976999999990
 21
174.946760000000010
  0
LINE
  8
0
  6
CONTINUOUS
 62
256
 10
-222.765976999999990
 20
152.265944999999990
 11
-125.765977000000010
 21
152.265944999999990
  0
LINE
  8
0
  6
CONTINUOUS
 62
256
 10
-222.765976999999990
 20
160.312546000000000
 11
-125.765977000000010
 21
160.312546000000000
  0
LINE
  8
0
  6
CONTINUOUS
 62
256
 10
-222.765976999999990
 20
165.262294000000000
 11
-125.765977000000010
 21
165.262294000000000
  0
LINE
  8
0
  6
CONTINUOUS
 62
256
 10
-222.765976999999990
 20
169.946760000000010
 11
-125.765977000000010
 21
169.946760000000010
  0
LINE
  8
0
  6
CONTINUOUS
 62
256
 10
-222.765976999999990
 20
170.946760000000010
 11
-125.765977000000010
 21
170.946760000000010
  0
LINE
  8
0
  6
CONTINUOUS
 62
256
 10
-222.765976999999990
 20
172.446760000000010
 11
-125.765977000000010
 21
172.446760000000010
  0
LINE
  8
0
  6
CONTINUOUS
 62
256
 10
-222.765976999999990
 20
171.946760000000010
 11
-125.765977000000010
 21
171.946760000000010
  0
LINE
  8
0
  6
CONTINUOUS
 62
256
 10
-222.765976999999990
 20
134.946760000000010
 11
-125.765977000000010
 21
134.946760000000010
  0
LINE
  8
0
  6
CONTINUOUS
 62
256
 10
-222.765976999999990
 20
141.138692999999990
 11
-125.765977000000010
 21
141.138692999999990
  0
LINE
  8
0
  6
CONTINUOUS
 62
256
 10
-222.765976999999990
 20
88.754825999999994
 11
-125.765977000000010
 21
88.754825999999994
  0
LINE
  8
0
  6
CONTINUOUS
 62
256
 10
-222.765976999999990
 20
94.946759999999998
 11
-125.765977000000010
 21
94.946759999999998
  0
LINE
  8
0
  6
CONTINUOUS
 62
256
 10
-222.765976999999990
 20
139.776813000000000
 11
-125.765977000000010
 21
139.776813000000000
  0
LINE
  8
0
  6
CONTINUOUS
 62
256
 10
-222.765976999999990
 20
84.664325000000005
 11
-125.765977000000010
 21
84.664325000000005
  0
LINE
  8
0
  6
CONTINUOUS
 62
256
 10
-222.765976999999990
 20
90.116705999999994
 11
-125.765977000000010
 21
90.116705999999994
  0
LINE
  8
0
  6
CONTINUOUS
 62
256
 10
-222.765976999999990
 20
145.229194000000010
 11
-125.765977000000010
 21
145.229194000000010
  0
LINE
  8
0
  6
CONTINUOUS
 62
256
 10
-222.765976999999990
 20
83.195967999999993
 11
-125.765977000000010
 21
83.195967999999993
  0
LINE
  8
0
  6
CONTINUOUS
 62
256
 10
-222.765976999999990
 20
77.627574999999993
 11
-125.765977000000010
 21
77.627574999999993
  0
LINE
  8
0
  6
CONTINUOUS
 62
256
 10
-222.765976999999990
 20
69.580973000000000
 11
-125.765977000000010
 21
69.580973000000000
  0
LINE
  8
0
  6
CONTINUOUS
 62
256
 10
-222.765976999999990
 20
64.631225000000001
 11
-125.765977000000010
 21
64.631225000000001
  0
LINE
  8
0
  6
CONTINUOUS
 62
256
 10
-222.765976999999990
 20
115.050332999999990
 11
-222.765976999999990
 21
54.946759999999998
  0
ARC
  8
0
  6
CONTINUOUS
 62
256
 10
-323.165977000000000
 20
67.503555000000006
 40
2.600000000000023
 50
180.000000000000000
 51
234.999999999999940
  0
LINE
  8
0
  6
CONTINUOUS
 62
256
 10
-314.931530000000010
 20
58.563718999999999
 11
-324.657276000000020
 21
65.373759000000007
  0
ARC
  8
0
  6
CONTINUOUS
 62
256
 10
-303.460001999999970
 20
74.946759999999998
 40
20.000000000000007
 50
234.999999999999940
 51
270.000000000000000
  0
LINE
  8
0
  6
CONTINUOUS
 62
256
 10
-325.765977000000020
 20
114.946760000000000
 11
-325.765977000000020
 21
67.503555000000006
  0
LINE
  8
0
  6
CONTINUOUS
 62
256
 10
-222.765976999999990
 20
54.946759999999998
 11
-303.460001999999970
 21
54.946759999999998
  0
LINE
  8
0
  6
CONTINUOUS
 62
256
 10
-233.765976999999990
 20
61.206643999999997
 11
-235.765976999999990
 21
62.859285999999997
  0
LINE
  8
0
  6
CONTINUOUS
 62
256
 10
-231.765976999999990
 20
60.030859000000000
 11
-233.765976999999990
 21
61.206643999999997
  0
LINE
  8
0
  6
CONTINUOUS
 62
256
 10
-233.765976999999990
 20
61.206643999999997
 11
-231.765976999999990
 21
62.859285999999997
  0
LINE
  8
0
  6
CONTINUOUS
 62
256
 10
-235.765976999999990
 20
60.030859000000000
 11
-233.765976999999990
 21
61.206643999999997
  0
POLYLINE
  8
0
  6
CONTINUOUS
 62
256
 66
1
 70
1
  0
VERTEX
  8
0
  6
CONTINUOUS
 62
256
 10
-229.065977000000000
 20
63.023235000000000
  0
VERTEX
  8
0
  6
CONTINUOUS
 62
256
 10
-229.156286182104820
 20
63.726191510558166
  0
VERTEX
  8
0
  6
CONTINUOUS
 62
256
 10
-229.423743197196960
 20
64.402133796638140
  0
VERTEX
  8
0
  6
CONTINUOUS
 62
256
 10
-229.858069822178040
 20
65.025085775258660
  0
VERTEX
  8
0
  6
CONTINUOUS
 62
256
 10
-230.442575128423210
 20
65.571107751236838
  0
VERTEX
  8
0
  6
CONTINUOUS
 62
256
 10
-231.154796904807880
 20
66.019216406248489
  0
VERTEX
  8
0
  6
CONTINUOUS
 62
256
 10
-231.967364867884070
 20
66.352191175983748
  0
VERTEX
  8
0
  6
CONTINUOUS
 62
256
 10
-232.849052486524190
 20
66.557236026776067
  0
VERTEX
  8
0
  6
CONTINUOUS
 62
256
 10
-233.765976999999990
 20
66.626471199999997
  0
VERTEX
  8
0
  6
CONTINUOUS
 62
256
 10
-234.682901513475800
 20
66.557236026776067
  0
VERTEX
  8
0
  6
CONTINUOUS
 62
256
 10
-235.564589132115910
 20
66.352191175983748
  0
VERTEX
  8
0
  6
CONTINUOUS
 62
256
 10
-236.377157095192100
 20
66.019216406248489
  0
VERTEX
  8
0
  6
CONTINUOUS
 62
256
 10
-237.089378871576770
 20
65.571107751236838
  0
VERTEX
  8
0
  6
CONTINUOUS
 62
256
 10
-237.673884177821950
 20
65.025085775258660
  0
VERTEX
  8
0
  6
CONTINUOUS
 62
256
 10
-238.108210802803030
 20
64.402133796638140
  0
VERTEX
  8
0
  6
CONTINUOUS
 62
256
 10
-238.375667817895160
 20
63.726191510558174
  0
VERTEX
  8
0
  6
CONTINUOUS
 62
256
 10
-238.465976999999980
 20
63.023235000000000
  0
VERTEX
  8
0
  6
CONTINUOUS
 62
256
 10
-238.375667817895160
 20
62.320278489441833
  0
VERTEX
  8
0
  6
CONTINUOUS
 62
256
 10
-238.108210802803030
 20
61.644336203361860
  0
VERTEX
  8
0
  6
CONTINUOUS
 62
256
 10
-237.673884177821950
 20
61.021384224741340
  0
VERTEX
  8
0
  6
CONTINUOUS
 62
256
 10
-237.089378871576770
 20
60.475362248763155
  0
VERTEX
  8
0
  6
CONTINUOUS
 62
256
 10
-236.377157095192100
 20
60.027253593751510
  0
VERTEX
  8
0
  6
CONTINUOUS
 62
256
 10
-235.564589132115910
 20
59.694278824016259
  0
VERTEX
  8
0
  6
CONTINUOUS
 62
256
 10
-234.682901513475800
 20
59.489233973223932
  0
VERTEX
  8
0
  6
CONTINUOUS
 62
256
 10
-233.765976999999990
 20
59.419998800000002
  0
VERTEX
  8
0
  6
CONTINUOUS
 62
256
 10
-232.849052486524190
 20
59.489233973223932
  0
VERTEX
  8
0
  6
CONTINUOUS
 62
256
 10
-231.967364867884070
 20
59.694278824016259
  0
VERTEX
  8
0
  6
CONTINUOUS
 62
256
 10
-231.154796904807880
 20
60.027253593751503
  0
VERTEX
  8
0
  6
CONTINUOUS
 62
256
 10
-230.442575128423240
 20
60.475362248763155
  0
VERTEX
  8
0
  6
CONTINUOUS
 62
256
 10
-229.858069822178040
 20
61.021384224741333
  0
VERTEX
  8
0
  6
CONTINUOUS
 62
256
 10
-229.423743197196960
 20
61.644336203361860
  0
VERTEX
  8
0
  6
CONTINUOUS
 62
256
 10
-229.156286182104820
 20
62.320278489441826
  0
SEQEND
  8
0
  6
CONTINUOUS
 62
256
  0
ARC
  8
0
  6
CONTINUOUS
 62
256
 10
-115.765977000000010
 20
170.043067000000010
 40
3.000000000000000
 50
180.000000000000000
 51
270.000000000000000
  0
LINE
  8
0
  6
CONTINUOUS
 62
256
 10
-105.265977000000010
 20
174.446760000000010
 11
-125.765977000000010
 21
174.446760000000010
  0
ARC
  8
0
  6
CONTINUOUS
 62
256
 10
-105.265977000000010
 20
171.446760000000010
 40
3.000000000000000
 50
0.000000000000000
 51
90.000000000000000
  0
LINE
  8
0
  6
CONTINUOUS
 62
256
 10
-118.765977000000010
 20
94.946759999999998
 11
-125.765977000000010
 21
94.946759999999998
  0
ARC
  8
0
  6
CONTINUOUS
 62
256
 10
-105.265977000000010
 20
58.446759999999998
 40
3.000000000000000
 50
270.000000000000000
 51
0.000000000000000
  0
LINE
  8
0
  6
CONTINUOUS
 62
256
 10
-105.265977000000010
 20
55.446759999999998
 11
-125.765977000000010
 21
55.446759999999998
  0
LINE
  8
0
  6
DASHED
 62
256
 10
-102.265977000000010
 20
134.407309000000000
 11
-102.265977000000010
 21
114.946760000000000
  0
LINE
  8
0
  6
DASHED
 62
256
 10
-102.265977000000010
 20
134.407309000000000
 11
-102.265977000000010
 21
114.946760000000000
  0
LINE
  8
0
  6
CONTINUOUS
 62
256
 10
-102.265977000000010
 20
171.446760000000010
 11
-102.265977000000010
 21
58.446759999999998
  0
LINE
  8
0
  6
CONTINUOUS
 62
256
 10
-99.265977000000007
 20
79.946759999999998
 11
-95.765977000000007
 21
79.946759999999998
  0
ARC
  8
0
  6
CONTINUOUS
 62
256
 10
-99.265977000000007
 20
76.946759999999998
 40
3.000000000000000
 50
90.000000000000000
 51
180.000000000000000
  0
LINE
  8
0
  6
CONTINUOUS
 62
256
 10
-93.640125999999995
 20
152.946760000000010
 11
-99.265977000000007
 21
152.946760000000010
  0
ARC
  8
0
  6
CONTINUOUS
 62
256
 10
-99.265977000000007
 20
155.946760000000010
 40
3.000000000000000
 50
180.000000000000000
 51
270.000000000000000
  0
ARC
  8
0
  6
CONTINUOUS
 62
256
 10
-95.765977000000007
 20
76.946759999999998
 40
2.999999999999995
 50
19.471220999999893
 51
90.000000000000000
  0
ARC
  8
0
  6
CONTINUOUS
 62
256
 10
-93.640125999999995
 20
154.946760000000010
 40
2.000000000000000
 50
270.000000000000000
 51
0.000000000000000
  0
LINE
  8
0
  6
CONTINUOUS
 62
256
 10
3.443483000000000
 20
77.946759999999998
 11
67.452211000000005
 21
77.946759999999998
  0
LINE
  8
0
  6
CONTINUOUS
 62
256
 10
-92.975437999999997
 20
77.946759999999998
 11
3.443483000000000
 21
77.946759999999998
  0
LINE
  8
0
  6
CONTINUOUS
 62
256
 10
49.306635000000000
 20
163.946760000000010
 11
-91.640125999999995
 21
163.946760000000010
  0
LINE
  8
0
  6
CONTINUOUS
 62
256
 10
49.306635000000000
 20
65.946759999999998
 11
-92.765977000000007
 21
65.946759999999998
  0
LINE
  8
0
  6
CONTINUOUS
 62
256
 10
67.452211000000005
 20
77.946759999999998
 11
66.108170999999999
 21
153.946760000000010
  0
LINE
  8
0
  6
CONTINUOUS
 62
256
 10
66.108170999999999
 20
153.946760000000010
 11
66.108170999999999
 21
163.946760000000010
  0
LINE
  8
0
  6
CONTINUOUS
 62
256
 10
66.108170999999999
 20
163.946760000000010
 11
49.306635000000000
 21
163.946760000000010
  0
LINE
  8
0
  6
CONTINUOUS
 62
256
 10
67.443483000000001
 20
77.946759999999998
 11
67.234022999999993
 21
65.946759999999998
  0
LINE
  8
0
  6
CONTINUOUS
 62
256
 10
29.234023000000001
 20
167.946760000000010
 11
-36.265976999999999
 21
167.946760000000010
  0
LINE
  8
0
  6
CONTINUOUS
 62
256
 10
-36.265976999999999
 20
163.946760000000010
 11
-36.265976999999999
 21
167.946760000000010
  0
LINE
  8
0
  6
CONTINUOUS
 62
256
 10
-91.640125999999995
 20
153.946760000000010
 11
-91.640125999999995
 21
163.946760000000010
  0
LINE
  8
0
  6
CONTINUOUS
 62
256
 10
-92.984166000000002
 20
77.946759999999998
 11
-91.640125999999995
 21
153.946760000000010
  0
LINE
  8
0
  6
CONTINUOUS
 62
256
 10
48.734023000000001
 20
163.946760000000010
 11
48.734023000000001
 21
167.946760000000010
  0
LINE
  8
0
  6
CONTINUOUS
 62
256
 10
29.234023000000001
 20
167.946760000000010
 11
48.734023000000001
 21
167.946760000000010
  0
LINE
  8
0
  6
CONTINUOUS
 62
256
 10
48.734023000000001
 20
61.946759999999998
 11
29.234023000000001
 21
61.946759999999998
  0
LINE
  8
0
  6
CONTINUOUS
 62
256
 10
-36.265976999999999
 20
61.946759999999998
 11
29.234023000000001
 21
61.946759999999998
  0
LINE
  8
0
  6
CONTINUOUS
 62
256
 10
48.734023000000001
 20
61.946759999999998
 11
48.734023000000001
 21
65.946759999999998
  0
LINE
  8
0
  6
CONTINUOUS
 62
256
 10
67.234022999999993
 20
65.946759999999998
 11
49.306635000000000
 21
65.946759999999998
  0
LINE
  8
0
  6
CONTINUOUS
 62
256
 10
-36.265976999999999
 20
61.946759999999998
 11
-36.265976999999999
 21
65.946759999999998
  0
LINE
  8
0
  6
CONTINUOUS
 62
256
 10
-92.765977000000007
 20
65.946759999999998
 11
-92.975437999999997
 21
77.946759999999998
  0
ARC
  8
0
  6
CONTINUOUS
 62
256
 10
-121.765977000000010
 20
171.446760000000010
 40
3.000000000000000
 50
0.000000000000000
 51
90.000000000000000
  0
ARC
  8
0
  6
CONTINUOUS
 62
256
 10
-115.765977000000010
 20
157.131491000000010
 40
3.000000000000000
 50
90.000000000000000
 51
180.000000000000000
  0
ARC
  8
0
  6
CONTINUOUS
 62
256
 10
-115.765977000000010
 20
150.948026000000000
 40
3.000000000000000
 50
90.000000000000000
 51
180.000000000000000
  0
LINE
  8
0
  6
CONTINUOUS
 62
256
 10
-118.765977000000010
 20
170.446760000000010
 11
-118.765977000000010
 21
171.446760000000010
  0
LINE
  8
0
  6
CONTINUOUS
 62
256
 10
-115.765977000000010
 20
153.948026000000000
 11
-110.765977000000010
 21
153.948026000000000
  0
LINE
  8
0
  6
CONTINUOUS
 62
256
 10
-118.765977000000010
 20
157.131491000000010
 11
-118.765977000000010
 21
114.946760000000000
  0
LINE
  8
0
  6
CONTINUOUS
 62
256
 10
-118.765977000000010
 20
170.446760000000010
 11
-118.765977000000010
 21
170.043067000000010
  0
LINE
  8
0
  6
CONTINUOUS
 62
256
 10
-115.765977000000010
 20
167.043067000000010
 11
-110.765977000000010
 21
167.043067000000010
  0
LINE
  8
0
  6
CONTINUOUS
 62
256
 10
-115.765977000000010
 20
160.131491000000010
 11
-110.765977000000010
 21
160.131491000000010
  0
ARC
  8
0
  6
CONTINUOUS
 62
256
 10
-100.765977000000010
 20
155.495546999999990
 40
5.000000000000000
 50
180.000000000000000
 51
252.542396999999970
  0
ARC
  8
0
  6
CONTINUOUS
 62
256
 10
-100.765977000000010
 20
162.043067000000010
 40
5.000000000000000
 50
180.000000000000000
 51
252.542396999999970
  0
ARC
  8
0
  6
CONTINUOUS
 62
256
 10
-110.765977000000010
 20
155.131491000000010
 40
5.000000000000000
 50
0.000000000000000
 51
90.000000000000000
  0
ARC
  8
0
  6
CONTINUOUS
 62
256
 10
-110.765977000000010
 20
162.043067000000010
 40
5.000000000000000
 50
0.000000000000000
 51
90.000000000000000
  0
ARC
  8
0
  6
CONTINUOUS
 62
256
 10
-121.765977000000010
 20
58.446759999999998
 40
3.000000000000000
 50
270.000000000000000
 51
0.000000000000000
  0
ARC
  8
0
  6
CONTINUOUS
 62
256
 10
-115.765977000000010
 20
72.762028000000001
 40
3.000000000000000
 50
180.000000000000000
 51
270.000000000000000
  0
ARC
  8
0
  6
CONTINUOUS
 62
256
 10
-115.765977000000010
 20
59.850451999999997
 40
3.000000000000000
 50
90.000000000000000
 51
180.000000000000000
  0
ARC
  8
0
  6
CONTINUOUS
 62
256
 10
-115.765977000000010
 20
78.945492999999999
 40
3.000000000000000
 50
180.000000000000000
 51
270.000000000000000
  0
LINE
  8
0
  6
CONTINUOUS
 62
256
 10
-118.765977000000010
 20
59.446759999999998
 11
-118.765977000000010
 21
58.446759999999998
  0
LINE
  8
0
  6
CONTINUOUS
 62
256
 10
-118.765977000000010
 20
59.446759999999998
 11
-118.765977000000010
 21
59.850451999999997
  0
LINE
  8
0
  6
CONTINUOUS
 62
256
 10
-118.765977000000010
 20
59.446759999999998
 11
-118.765977000000010
 21
59.850451999999997
  0
LINE
  8
0
  6
CONTINUOUS
 62
256
 10
-115.765977000000010
 20
75.945492999999999
 11
-110.765977000000010
 21
75.945492999999999
  0
LINE
  8
0
  6
CONTINUOUS
 62
256
 10
-118.765977000000010
 20
72.762028000000001
 11
-118.765977000000010
 21
114.946760000000000
  0
LINE
  8
0
  6
CONTINUOUS
 62
256
 10
-115.765977000000010
 20
62.850451999999997
 11
-110.765977000000010
 21
62.850451999999997
  0
LINE
  8
0
  6
CONTINUOUS
 62
256
 10
-115.765977000000010
 20
69.762028000000001
 11
-110.765977000000010
 21
69.762028000000001
  0
ARC
  8
0
  6
CONTINUOUS
 62
256
 10
-100.765977000000010
 20
67.850452000000004
 40
5.000000000000007
 50
107.457603000000080
 51
180.000000000000000
  0
ARC
  8
0
  6
CONTINUOUS
 62
256
 10
-100.765977000000010
 20
74.397971999999996
 40
5.000000000000007
 50
107.457603000000080
 51
180.000000000000000
  0
ARC
  8
0
  6
CONTINUOUS
 62
256
 10
-110.765977000000010
 20
67.850452000000004
 40
5.000000000000000
 50
270.000000000000000
 51
0.000000000000000
  0
ARC
  8
0
  6
CONTINUOUS
 62
256
 10
-110.765977000000010
 20
74.762028000000001
 40
5.000000000000000
 50
270.000000000000000
 51
0.000000000000000
  0
LINE
  8
0
  6
CONTINUOUS
 62
256
 10
28.234023000000001
 20
61.946759999999998
 11
28.234023000000001
 21
58.946759999999998
  0
ARC
  8
0
  6
CONTINUOUS
 62
256
 10
27.234023000000001
 20
58.946759999999998
 40
1.000000000000000
 50
270.000000000000000
 51
0.000000000000000
  0
LINE
  8
0
  6
CONTINUOUS
 62
256
 10
27.234023000000001
 20
57.946759999999998
 11
6.234023000000000
 21
57.946759999999998
  0
LINE
  8
0
  6
CONTINUOUS
 62
256
 10
-15.765976999999999
 20
61.946759999999998
 11
-15.765976999999999
 21
58.946759999999998
  0
ARC
  8
0
  6
CONTINUOUS
 62
256
 10
-14.765976999999999
 20
58.946759999999998
 40
1.000000000000000
 50
180.000000000000000
 51
270.000000000000000
  0
LINE
  8
0
  6
CONTINUOUS
 62
256
 10
-14.765976999999999
 20
57.946759999999998
 11
6.234023000000000
 21
57.946759999999998
  0
LINE
  8
0
  6
CONTINUOUS
 62
256
 10
28.234023000000001
 20
167.946760000000010
 11
28.234023000000001
 21
170.946760000000010
  0
ARC
  8
0
  6
CONTINUOUS
 62
256
 10
27.234023000000001
 20
170.946760000000010
 40
1.000000000000000
 50
0.000000000000000
 51
90.000000000000000
  0
LINE
  8
0
  6
CONTINUOUS
 62
256
 10
27.234023000000001
 20
171.946760000000010
 11
6.234023000000000
 21
171.946760000000010
  0
LINE
  8
0
  6
CONTINUOUS
 62
256
 10
-15.765976999999999
 20
167.946760000000010
 11
-15.765976999999999
 21
170.946760000000010
  0
ARC
  8
0
  6
CONTINUOUS
 62
256
 10
-14.765976999999999
 20
170.946760000000010
 40
1.000000000000000
 50
90.000000000000000
 51
180.000000000000000
  0
LINE
  8
0
  6
CONTINUOUS
 62
256
 10
-14.765976999999999
 20
171.946760000000010
 11
6.234023000000000
 21
171.946760000000010
  0
LINE
  8
0
  6
DASHDOT
 62
256
 10
6.234023000000000
 20
180.381899000000000
 11
6.234023000000000
 21
42.004891000000001
  0
ARC
  8
0
  6
CONTINUOUS
 62
256
 10
253.303076000000000
 20
-76.704117999999994
 40
2.000000000000000
 50
270.000000000000000
 51
0.000000000000000
  0
LINE
  8
0
  6
CONTINUOUS
 62
256
 10
206.803360000000000
 20
-68.304057999999998
 11
206.803360000000000
 21
-69.204058000000003
  0
LINE
  8
0
  6
CONTINUOUS
 62
256
 10
188.303360000000000
 20
-69.204058000000003
 11
206.803360000000000
 21
-69.204058000000003
  0
LINE
  8
0
  6
CONTINUOUS
 62
256
 10
206.803360000000000
 20
-68.304057999999998
 11
224.302823999999990
 21
-68.304057999999998
  0
ARC
  8
0
  6
CONTINUOUS
 62
256
 10
224.702807000000010
 20
-70.804118000000003
 40
0.399999999999989
 50
179.999927000000550
 51
270.000000000000000
  0
LINE
  8
0
  6
CONTINUOUS
 62
256
 10
224.302807000000000
 20
-70.804117000000005
 11
224.302809999999990
 21
-68.304057999999998
  0
ARC
  8
0
  6
CONTINUOUS
 62
256
 10
187.903359999999990
 20
-70.804118000000003
 40
0.400000000000006
 50
270.000000000000000
 51
0.000000000000000
  0
LINE
  8
0
  6
CONTINUOUS
 62
256
 10
188.303360000000000
 20
-69.204058000000003
 11
188.303360000000000
 21
-70.804118000000003
  0
ARC
  8
0
  6
CONTINUOUS
 62
256
 10
745.984898000000040
 20
-116.704058000000000
 40
300.600000000000020
 50
171.898496999999990
 51
180.000000000000000
  0
ARC
  8
0
  6
CONTINUOUS
 62
256
 10
264.784898000000000
 20
-116.704058000000000
 40
300.600000000000020
 50
8.563508000000001
 51
8.597081999999999
  0
ENDSEC
  0
EOF
