  0
SECTION
  2
HEADER
  9
$TEXTSIZE
 40
2.5
  9
$ACADVER
  1
AC1009
  9
$DIMASZ
 40
1.931851648807023
  9
$DIMEXE
 40
2.000000000000000
  9
$DIMEXO
 40
1.000000000000000
  9
$DIMLFAC
 40
1.000000000000000
  9
$DIMSCALE
 40
1.000000000000000
  9
$DIMTAD
 70
1
  9
$DIMTFAC
 40
0.625000000000000
  9
$DIMTXT
 40
2.799999952316284
  9
$LUPREC
 70
3
  9
$REGENMODE
 70
1
  9
$TEXTSTYLE
  7
STANDARD1
  0
ENDSEC
  0
SECTION
  2
TABLES
  0
TABLE
  2
LTYPE
 70
4
  0
LTYPE
  2
CONTINUOUS
 70
64
  3
Solid line
 72
65
 73
0
 40
0.0
  0
LTYPE
  2
DASHED
 70
64
  3
-- -- -- -- -- -- -- -- -- -- -- -- -- -- --
 72
65
 73
2
 40
0.75
 49
0.5
 49
-0.25
  0
LTYPE
  2
DASHDOT
 70
64
  3
__ . __ . __ . __ . __ . __ . __ . __ . __ . __
 72
65
 73
4
 40
1.0
 49
0.5
 49
-0.25
 49
0.0
 49
-0.25
  0
LTYPE
  2
DIVIDE
 70
64
  3
__ . . __ . . __ . . __ . . __ . . __ . . __
 72
65
 73
6
 40
1.25
 49
0.5
 49
-0.25
 49
0.0
 49
-0.25
 49
0.0
 49
-0.25
  0
ENDTAB
  0
TABLE
  2
LAYER
 70
3
  0
LAYER
  2
0
 70
64
 62
53
  6
CONTINUOUS
  0
LAYER
  2
1
 70
64
 62
102
  6
CONTINUOUS
  0
LAYER
  2
2
 70
64
 62
102
  6
CONTINUOUS
  0
ENDTAB
  0
TABLE
  2
STYLE
 70
4
  0
STYLE
  2
STANDARD1
 70
64
 40
0.0
 41
1.0
 50
0.0
 71
0
 42
3.200000047683716
  3
MONOTXT
  4
BIGFONT
  0
STYLE
  2
STANDARD2
 70
68
 40
0.0
 41
1.0
 50
0.0
 71
0
 42
3.200000047683716
  3
MONOTXT
  4
BIGFONT
  0
STYLE
  2
STANDARD3
 70
64
 40
0.0
 41
1.0
 50
0.0
 71
0
 42
3.200000047683716
  3
MONOTXT
  4

  0
STYLE
  2
STANDARD4
 70
68
 40
0.0
 41
1.0
 50
0.0
 71
0
 42
3.200000047683716
  3
MONOTXT
  4

  0
ENDTAB
  0
TABLE
  2
VIEW
 70
0
  0
ENDTAB
  0
ENDSEC
  0
SECTION
  2
BLOCKS
  0
BLOCK
  8
0
  2
ZU_SYM_1
 70
64
 10
0.000000000000000
 20
0.000000000000000
  0
CIRCLE
  8
0
  6
CONTINUOUS
 62
256
 10
0.000000000000000
 20
0.000000000000000
 40
5.000000000000000
  0
POINT
  8
0
  6
CONTINUOUS
 62
256
 10
0.000000000000000
 20
0.000000000000000
  0
LINE
  8
0
  6
CONTINUOUS
 62
256
 10
-2.499998000000000
 20
-1.443372000000000
 11
-2.499999000000000
 21
1.443378000000000
  0
LINE
  8
0
  6
CONTINUOUS
 62
256
 10
2.499998000000000
 20
1.443372000000000
 11
2.499999000000000
 21
-1.443374000000000
  0
LINE
  8
0
  6
CONTINUOUS
 62
256
 10
0.000005000000000
 20
2.886749000000000
 11
2.499999000000000
 21
1.443372000000000
  0
LINE
  8
0
  6
CONTINUOUS
 62
256
 10
-0.000006000000000
 20
-2.886747000000000
 11
-2.499998000000000
 21
-1.443372000000000
  0
LINE
  8
0
  6
CONTINUOUS
 62
256
 10
0.000005000000000
 20
2.886748000000000
 11
-2.500000000000000
 21
1.443377000000000
  0
LINE
  8
0
  6
CONTINUOUS
 62
256
 10
2.499999000000000
 20
-1.443374000000000
 11
-0.000005000000000
 21
-2.886748000000000
  0
ENDBLK
  8
0
  0
BLOCK
  8
0
  2
ZU_SYM_2
 70
64
 10
0.000000000000000
 20
0.000000000000000
  0
CIRCLE
  8
0
  6
CONTINUOUS
 62
256
 10
0.000000000000000
 20
0.000000000000000
 40
5.000000000000000
  0
POINT
  8
0
  6
CONTINUOUS
 62
256
 10
0.000000000000000
 20
0.000000000000000
  0
LINE
  8
0
  6
CONTINUOUS
 62
256
 10
-2.499998000000000
 20
-1.443372000000000
 11
-2.499999000000000
 21
1.443378000000000
  0
LINE
  8
0
  6
CONTINUOUS
 62
256
 10
2.499998000000000
 20
1.443372000000000
 11
2.499999000000000
 21
-1.443374000000000
  0
LINE
  8
0
  6
CONTINUOUS
 62
256
 10
0.000005000000000
 20
2.886749000000000
 11
2.499999000000000
 21
1.443372000000000
  0
LINE
  8
0
  6
CONTINUOUS
 62
256
 10
-0.000006000000000
 20
-2.886747000000000
 11
-2.499998000000000
 21
-1.443372000000000
  0
LINE
  8
0
  6
CONTINUOUS
 62
256
 10
0.000005000000000
 20
2.886748000000000
 11
-2.500000000000000
 21
1.443377000000000
  0
LINE
  8
0
  6
CONTINUOUS
 62
256
 10
2.499999000000000
 20
-1.443374000000000
 11
-0.000005000000000
 21
-2.886748000000000
  0
ENDBLK
  8
0
  0
BLOCK
  8
0
  2
ZU_SYM_3
 70
64
 10
0.000000000000000
 20
0.000000000000000
  0
CIRCLE
  8
0
  6
CONTINUOUS
 62
256
 10
0.000000000000000
 20
0.000000000000000
 40
5.000000000000000
  0
POINT
  8
0
  6
CONTINUOUS
 62
256
 10
0.000000000000000
 20
0.000000000000000
  0
LINE
  8
0
  6
CONTINUOUS
 62
256
 10
-2.499998000000000
 20
-1.443372000000000
 11
-2.499999000000000
 21
1.443378000000000
  0
LINE
  8
0
  6
CONTINUOUS
 62
256
 10
2.499998000000000
 20
1.443372000000000
 11
2.499999000000000
 21
-1.443374000000000
  0
LINE
  8
0
  6
CONTINUOUS
 62
256
 10
0.000005000000000
 20
2.886749000000000
 11
2.499999000000000
 21
1.443372000000000
  0
LINE
  8
0
  6
CONTINUOUS
 62
256
 10
-0.000006000000000
 20
-2.886747000000000
 11
-2.499998000000000
 21
-1.443372000000000
  0
LINE
  8
0
  6
CONTINUOUS
 62
256
 10
0.000005000000000
 20
2.886748000000000
 11
-2.500000000000000
 21
1.443377000000000
  0
LINE
  8
0
  6
CONTINUOUS
 62
256
 10
2.499999000000000
 20
-1.443374000000000
 11
-0.000005000000000
 21
-2.886748000000000
  0
ENDBLK
  8
0
  0
BLOCK
  8
0
  2
ZU_SYM_4
 70
64
 10
0.000000000000000
 20
0.000000000000000
  0
CIRCLE
  8
0
  6
CONTINUOUS
 62
256
 10
0.000000000000000
 20
0.000000000000000
 40
5.000000000000000
  0
POINT
  8
0
  6
CONTINUOUS
 62
256
 10
0.000000000000000
 20
0.000000000000000
  0
LINE
  8
0
  6
CONTINUOUS
 62
256
 10
-2.499998000000000
 20
-1.443372000000000
 11
-2.499999000000000
 21
1.443378000000000
  0
LINE
  8
0
  6
CONTINUOUS
 62
256
 10
2.499998000000000
 20
1.443372000000000
 11
2.499999000000000
 21
-1.443374000000000
  0
LINE
  8
0
  6
CONTINUOUS
 62
256
 10
0.000005000000000
 20
2.886749000000000
 11
2.499999000000000
 21
1.443372000000000
  0
LINE
  8
0
  6
CONTINUOUS
 62
256
 10
-0.000006000000000
 20
-2.886747000000000
 11
-2.499998000000000
 21
-1.443372000000000
  0
LINE
  8
0
  6
CONTINUOUS
 62
256
 10
0.000005000000000
 20
2.886748000000000
 11
-2.500000000000000
 21
1.443377000000000
  0
LINE
  8
0
  6
CONTINUOUS
 62
256
 10
2.499999000000000
 20
-1.443374000000000
 11
-0.000005000000000
 21
-2.886748000000000
  0
ENDBLK
  8
0
  0
ENDSEC
  0
SECTION
  2
ENTITIES
  0
TEXT
  8
0
  6
CONTINUOUS
 62
256
 10
-70.375488281250000
 20
-13.156250000000000
 40
2.799999952316284
  1
ü@
 50
0.000002504478167
 41
0.996000017370497
  7
STANDARD1
  0
TEXT
  8
0
  6
CONTINUOUS
 62
256
 10
1.624511957168579
 20
-253.406250000000000
 40
2.799999952316284
  1
ü@
 50
0.000002504478167
 41
0.996000017370497
  7
STANDARD1
  0
LINE
  8
0
  6
DASHDOT
 62
256
 10
39.018833000000001
 20
-17.090948000000001
 11
13.428915999999999
 21
-17.090948000000001
  0
LINE
  8
0
  6
DASHDOT
 62
256
 10
25.877697000000001
 20
-3.288193000000000
 11
25.877697000000001
 21
-30.111532000000000
  0
CIRCLE
  8
0
  6
CONTINUOUS
 62
256
 10
25.877697000000001
 20
-17.090948000000001
 40
6.000000000000000
  0
CIRCLE
  8
0
  6
CONTINUOUS
 62
256
 10
25.877697000000001
 20
-17.090948000000001
 40
5.053000000000001
  0
LINE
  8
0
  6
DASHDOT
 62
256
 10
406.869194999999990
 20
-163.090948000000000
 11
528.169559000000050
 21
-163.090948000000000
  0
LINE
  8
0
  6
DASHDOT
 62
256
 10
406.869194999999990
 20
-17.090948000000001
 11
528.169559000000050
 21
-17.090948000000001
  0
ARC
  8
0
  6
CONTINUOUS
 62
256
 10
467.412795000000020
 20
112.409208000000010
 40
300.000000000000000
 50
263.967951000000030
 51
276.032048999999970
  0
LINE
  8
0
  6
CONTINUOUS
 62
256
 10
464.912795000000020
 20
-187.580375000000000
 11
464.912795000000020
 21
-188.090791999999990
  0
LINE
  8
0
  6
CONTINUOUS
 62
256
 10
469.912795000000020
 20
-187.590790000000000
 11
469.912795000000020
 21
-188.090791999999990
  0
LINE
  8
0
  6
CONTINUOUS
 62
256
 10
464.912795000000020
 20
-188.090791999999990
 11
469.912795000000020
 21
-188.090791999999990
  0
ARC
  8
0
  6
CONTINUOUS
 62
256
 10
436.412795000000020
 20
-180.957457000000010
 40
5.000000000000000
 50
180.000000000000000
 51
263.967950999999970
  0
LINE
  8
0
  6
CONTINUOUS
 62
256
 10
431.412795000000020
 20
-177.907356999999990
 11
431.412795000000020
 21
-180.957457000000010
  0
LINE
  8
0
  6
CONTINUOUS
 62
256
 10
503.412795000000020
 20
-176.650592999999990
 11
503.412795000000020
 21
-180.957457000000010
  0
ARC
  8
0
  6
CONTINUOUS
 62
256
 10
498.412795000000020
 20
-180.957457000000010
 40
5.000000000000002
 50
276.032049000000030
 51
0.000000000000000
  0
LINE
  8
0
  6
CONTINUOUS
 62
256
 10
-273.622537000000020
 20
-140.406326000000010
 11
-176.622536999999990
 21
-140.406326000000010
  0
LINE
  8
0
  6
CONTINUOUS
 62
256
 10
-283.622537000000020
 20
-155.090791999999990
 11
-283.622537000000020
 21
-154.710013000000000
  0
LINE
  8
0
  6
CONTINUOUS
 62
256
 10
-273.622537000000020
 20
-30.590792000000000
 11
-176.622536999999990
 21
-30.590792000000000
  0
LINE
  8
0
  6
CONTINUOUS
 62
256
 10
-365.788090000000010
 20
-151.473833000000010
 11
-375.513834999999970
 21
-144.663792000000000
  0
ARC
  8
0
  6
CONTINUOUS
 62
256
 10
-374.022537000000000
 20
-142.533997000000000
 40
2.600000000000023
 50
180.000000000000000
 51
234.999999999999770
  0
LINE
  8
0
  6
DASHDOT
 62
256
 10
-139.459458000000010
 20
-90.090791999999993
 11
-386.551748999999970
 21
-90.090791999999993
  0
LINE
  8
0
  6
CONTINUOUS
 62
256
 10
-283.622537000000020
 20
-155.090791999999990
 11
-354.316560999999980
 21
-155.090791999999990
  0
POLYLINE
  8
0
  6
CONTINUOUS
 62
256
 66
1
 70
1
  0
VERTEX
  8
0
  6
CONTINUOUS
 62
256
 10
-279.922537000000030
 20
-142.014317000000010
  0
VERTEX
  8
0
  6
CONTINUOUS
 62
256
 10
-280.012846182104850
 20
-141.311360489441820
  0
VERTEX
  8
0
  6
CONTINUOUS
 62
256
 10
-280.280303197196990
 20
-140.635418203361870
  0
VERTEX
  8
0
  6
CONTINUOUS
 62
256
 10
-280.714629822178100
 20
-140.012466224741330
  0
VERTEX
  8
0
  6
CONTINUOUS
 62
256
 10
-281.299135128423250
 20
-139.466444248763170
  0
VERTEX
  8
0
  6
CONTINUOUS
 62
256
 10
-282.011356904807880
 20
-139.018335593751520
  0
VERTEX
  8
0
  6
CONTINUOUS
 62
256
 10
-282.823924867884100
 20
-138.685360824016270
  0
VERTEX
  8
0
  6
CONTINUOUS
 62
256
 10
-283.705612486524220
 20
-138.480315973223920
  0
VERTEX
  8
0
  6
CONTINUOUS
 62
256
 10
-284.622537000000020
 20
-138.411080800000010
  0
VERTEX
  8
0
  6
CONTINUOUS
 62
256
 10
-285.539461513475830
 20
-138.480315973223920
  0
VERTEX
  8
0
  6
CONTINUOUS
 62
256
 10
-286.421149132115940
 20
-138.685360824016270
  0
VERTEX
  8
0
  6
CONTINUOUS
 62
256
 10
-287.233717095192160
 20
-139.018335593751520
  0
VERTEX
  8
0
  6
CONTINUOUS
 62
256
 10
-287.945938871576800
 20
-139.466444248763170
  0
VERTEX
  8
0
  6
CONTINUOUS
 62
256
 10
-288.530444177821950
 20
-140.012466224741330
  0
VERTEX
  8
0
  6
CONTINUOUS
 62
256
 10
-288.964770802803060
 20
-140.635418203361870
  0
VERTEX
  8
0
  6
CONTINUOUS
 62
256
 10
-289.232227817895190
 20
-141.311360489441820
  0
VERTEX
  8
0
  6
CONTINUOUS
 62
256
 10
-289.322537000000010
 20
-142.014317000000010
  0
VERTEX
  8
0
  6
CONTINUOUS
 62
256
 10
-289.232227817895190
 20
-142.717273510558190
  0
VERTEX
  8
0
  6
CONTINUOUS
 62
256
 10
-288.964770802803060
 20
-143.393215796638150
  0
VERTEX
  8
0
  6
CONTINUOUS
 62
256
 10
-288.530444177821950
 20
-144.016167775258680
  0
VERTEX
  8
0
  6
CONTINUOUS
 62
256
 10
-287.945938871576800
 20
-144.562189751236840
  0
VERTEX
  8
0
  6
CONTINUOUS
 62
256
 10
-287.233717095192160
 20
-145.010298406248490
  0
VERTEX
  8
0
  6
CONTINUOUS
 62
256
 10
-286.421149132115940
 20
-145.343273175983740
  0
VERTEX
  8
0
  6
CONTINUOUS
 62
256
 10
-285.539461513475830
 20
-145.548318026776060
  0
VERTEX
  8
0
  6
CONTINUOUS
 62
256
 10
-284.622537000000020
 20
-145.617553200000000
  0
VERTEX
  8
0
  6
CONTINUOUS
 62
256
 10
-283.705612486524220
 20
-145.548318026776060
  0
VERTEX
  8
0
  6
CONTINUOUS
 62
256
 10
-282.823924867884100
 20
-145.343273175983740
  0
VERTEX
  8
0
  6
CONTINUOUS
 62
256
 10
-282.011356904807880
 20
-145.010298406248490
  0
VERTEX
  8
0
  6
CONTINUOUS
 62
256
 10
-281.299135128423250
 20
-144.562189751236840
  0
VERTEX
  8
0
  6
CONTINUOUS
 62
256
 10
-280.714629822178100
 20
-144.016167775258680
  0
VERTEX
  8
0
  6
CONTINUOUS
 62
256
 10
-280.280303197196990
 20
-143.393215796638150
  0
VERTEX
  8
0
  6
CONTINUOUS
 62
256
 10
-280.012846182104850
 20
-142.717273510558190
  0
SEQEND
  8
0
  6
CONTINUOUS
 62
256
  0
LINE
  8
0
  6
CONTINUOUS
 62
256
 10
-286.622537000000020
 20
-145.006693000000010
 11
-284.622537000000020
 21
-143.830907000000000
  0
LINE
  8
0
  6
CONTINUOUS
 62
256
 10
-284.622537000000020
 20
-143.830907000000000
 11
-282.622537000000020
 21
-142.178265000000010
  0
ARC
  8
0
  6
CONTINUOUS
 62
256
 10
-354.316560999999980
 20
-135.090791999999990
 40
19.999999999999996
 50
234.999999999999940
 51
270.000000000000000
  0
LINE
  8
0
  6
CONTINUOUS
 62
256
 10
-191.422537000000010
 20
-149.590791999999990
 11
-176.622536999999990
 21
-149.590791999999990
  0
LINE
  8
0
  6
CONTINUOUS
 62
256
 10
-282.622537000000020
 20
-145.006693000000010
 11
-284.622537000000020
 21
-143.830907000000000
  0
LINE
  8
0
  6
CONTINUOUS
 62
256
 10
-284.622537000000020
 20
-143.830907000000000
 11
-286.622537000000020
 21
-142.178265000000010
  0
POLYLINE
  8
0
  6
CONTINUOUS
 62
256
 66
1
 70
1
  0
VERTEX
  8
0
  6
CONTINUOUS
 62
256
 10
-279.922537000000030
 20
-38.167267000000002
  0
VERTEX
  8
0
  6
CONTINUOUS
 62
256
 10
-280.012846182104850
 20
-37.464310489441836
  0
VERTEX
  8
0
  6
CONTINUOUS
 62
256
 10
-280.280303197196990
 20
-36.788368203361863
  0
VERTEX
  8
0
  6
CONTINUOUS
 62
256
 10
-280.714629822178100
 20
-36.165416224741342
  0
VERTEX
  8
0
  6
CONTINUOUS
 62
256
 10
-281.299135128423250
 20
-35.619394248763165
  0
VERTEX
  8
0
  6
CONTINUOUS
 62
256
 10
-282.011356904807880
 20
-35.171285593751513
  0
VERTEX
  8
0
  6
CONTINUOUS
 62
256
 10
-282.823924867884100
 20
-34.838310824016268
  0
VERTEX
  8
0
  6
CONTINUOUS
 62
256
 10
-283.705612486524220
 20
-34.633265973223942
  0
VERTEX
  8
0
  6
CONTINUOUS
 62
256
 10
-284.622537000000020
 20
-34.564030800000012
  0
VERTEX
  8
0
  6
CONTINUOUS
 62
256
 10
-285.539461513475830
 20
-34.633265973223942
  0
VERTEX
  8
0
  6
CONTINUOUS
 62
256
 10
-286.421149132115940
 20
-34.838310824016268
  0
VERTEX
  8
0
  6
CONTINUOUS
 62
256
 10
-287.233717095192160
 20
-35.171285593751513
  0
VERTEX
  8
0
  6
CONTINUOUS
 62
256
 10
-287.945938871576800
 20
-35.619394248763165
  0
VERTEX
  8
0
  6
CONTINUOUS
 62
256
 10
-288.530444177821950
 20
-36.165416224741342
  0
VERTEX
  8
0
  6
CONTINUOUS
 62
256
 10
-288.964770802803060
 20
-36.788368203361863
  0
VERTEX
  8
0
  6
CONTINUOUS
 62
256
 10
-289.232227817895190
 20
-37.464310489441836
  0
VERTEX
  8
0
  6
CONTINUOUS
 62
256
 10
-289.322537000000010
 20
-38.167267000000002
  0
VERTEX
  8
0
  6
CONTINUOUS
 62
256
 10
-289.232227817895190
 20
-38.870223510558169
  0
VERTEX
  8
0
  6
CONTINUOUS
 62
256
 10
-288.964770802803060
 20
-39.546165796638142
  0
VERTEX
  8
0
  6
CONTINUOUS
 62
256
 10
-288.530444177821950
 20
-40.169117775258663
  0
VERTEX
  8
0
  6
CONTINUOUS
 62
256
 10
-287.945938871576800
 20
-40.715139751236840
  0
VERTEX
  8
0
  6
CONTINUOUS
 62
256
 10
-287.233717095192160
 20
-41.163248406248492
  0
VERTEX
  8
0
  6
CONTINUOUS
 62
256
 10
-286.421149132115940
 20
-41.496223175983737
  0
VERTEX
  8
0
  6
CONTINUOUS
 62
256
 10
-285.539461513475830
 20
-41.701268026776063
  0
VERTEX
  8
0
  6
CONTINUOUS
 62
256
 10
-284.622537000000020
 20
-41.770503199999993
  0
VERTEX
  8
0
  6
CONTINUOUS
 62
256
 10
-283.705612486524220
 20
-41.701268026776063
  0
VERTEX
  8
0
  6
CONTINUOUS
 62
256
 10
-282.823924867884100
 20
-41.496223175983737
  0
VERTEX
  8
0
  6
CONTINUOUS
 62
256
 10
-282.011356904807880
 20
-41.163248406248492
  0
VERTEX
  8
0
  6
CONTINUOUS
 62
256
 10
-281.299135128423250
 20
-40.715139751236840
  0
VERTEX
  8
0
  6
CONTINUOUS
 62
256
 10
-280.714629822178100
 20
-40.169117775258663
  0
VERTEX
  8
0
  6
CONTINUOUS
 62
256
 10
-280.280303197196990
 20
-39.546165796638142
  0
VERTEX
  8
0
  6
CONTINUOUS
 62
256
 10
-280.012846182104850
 20
-38.870223510558169
  0
SEQEND
  8
0
  6
CONTINUOUS
 62
256
  0
LINE
  8
0
  6
CONTINUOUS
 62
256
 10
-286.622537000000020
 20
-35.174891000000002
 11
-284.622537000000020
 21
-36.350676999999997
  0
LINE
  8
0
  6
CONTINUOUS
 62
256
 10
-284.622537000000020
 20
-36.350676999999997
 11
-282.622537000000020
 21
-38.003318000000000
  0
LINE
  8
0
  6
CONTINUOUS
 62
256
 10
-282.622537000000020
 20
-35.174891000000002
 11
-284.622537000000020
 21
-36.350676999999997
  0
LINE
  8
0
  6
CONTINUOUS
 62
256
 10
-284.622537000000020
 20
-36.350676999999997
 11
-286.622537000000020
 21
-38.003318000000000
  0
LINE
  8
0
  6
CONTINUOUS
 62
256
 10
-273.622537000000020
 20
-147.090791999999990
 11
-176.622536999999990
 21
-147.090791999999990
  0
LINE
  8
0
  6
CONTINUOUS
 62
256
 10
-273.622537000000020
 20
-146.090791999999990
 11
-176.622536999999990
 21
-146.090791999999990
  0
LINE
  8
0
  6
CONTINUOUS
 62
256
 10
-273.622537000000020
 20
-145.090791999999990
 11
-176.622536999999990
 21
-145.090791999999990
  0
LINE
  8
0
  6
CONTINUOUS
 62
256
 10
-273.622537000000020
 20
-135.456579000000000
 11
-176.622536999999990
 21
-135.456579000000000
  0
LINE
  8
0
  6
CONTINUOUS
 62
256
 10
-273.622537000000020
 20
-127.409977000000000
 11
-176.622536999999990
 21
-127.409977000000000
  0
LINE
  8
0
  6
CONTINUOUS
 62
256
 10
-273.622537000000020
 20
-125.805329000000000
 11
-176.622536999999990
 21
-125.805329000000000
  0
LINE
  8
0
  6
CONTINUOUS
 62
256
 10
-273.622537000000020
 20
-121.841584000000000
 11
-176.622536999999990
 21
-121.841584000000000
  0
LINE
  8
0
  6
CONTINUOUS
 62
256
 10
-273.622537000000020
 20
-120.373226000000000
 11
-176.622536999999990
 21
-120.373226000000000
  0
LINE
  8
0
  6
CONTINUOUS
 62
256
 10
-273.622537000000020
 20
-116.282726000000000
 11
-176.622536999999990
 21
-116.282726000000000
  0
LINE
  8
0
  6
CONTINUOUS
 62
256
 10
-273.622537000000020
 20
-114.920845000000000
 11
-176.622536999999990
 21
-114.920845000000000
  0
LINE
  8
0
  6
CONTINUOUS
 62
256
 10
-273.622537000000020
 20
-110.730292000000010
 11
-176.622536999999990
 21
-110.730292000000010
  0
LINE
  8
0
  6
CONTINUOUS
 62
256
 10
-273.622537000000020
 20
-109.464054000000000
 11
-176.622536999999990
 21
-109.464054000000000
  0
LINE
  8
0
  6
CONTINUOUS
 62
256
 10
-273.622537000000020
 20
-105.090791999999990
 11
-176.622536999999990
 21
-105.090791999999990
  0
LINE
  8
0
  6
CONTINUOUS
 62
256
 10
-273.622537000000020
 20
-52.771607000000003
 11
-176.622536999999990
 21
-52.771607000000003
  0
LINE
  8
0
  6
CONTINUOUS
 62
256
 10
-273.622537000000020
 20
-54.376255000000000
 11
-176.622536999999990
 21
-54.376255000000000
  0
LINE
  8
0
  6
CONTINUOUS
 62
256
 10
-273.622537000000020
 20
-58.340000000000003
 11
-176.622536999999990
 21
-58.340000000000003
  0
LINE
  8
0
  6
CONTINUOUS
 62
256
 10
-273.622537000000020
 20
-59.808357999999998
 11
-176.622536999999990
 21
-59.808357999999998
  0
LINE
  8
0
  6
CONTINUOUS
 62
256
 10
-273.622537000000020
 20
-63.898857999999997
 11
-176.622536999999990
 21
-63.898857999999997
  0
LINE
  8
0
  6
CONTINUOUS
 62
256
 10
-273.622537000000020
 20
-65.260738000000003
 11
-176.622536999999990
 21
-65.260738000000003
  0
LINE
  8
0
  6
CONTINUOUS
 62
256
 10
-273.622537000000020
 20
-69.451291999999995
 11
-176.622536999999990
 21
-69.451291999999995
  0
LINE
  8
0
  6
CONTINUOUS
 62
256
 10
-273.622537000000020
 20
-70.717529999999996
 11
-176.622536999999990
 21
-70.717529999999996
  0
LINE
  8
0
  6
CONTINUOUS
 62
256
 10
-273.622537000000020
 20
-75.090791999999993
 11
-176.622536999999990
 21
-75.090791999999993
  0
LINE
  8
0
  6
CONTINUOUS
 62
256
 10
-273.622537000000020
 20
-44.725005000000003
 11
-176.622536999999990
 21
-44.725005000000003
  0
LINE
  8
0
  6
CONTINUOUS
 62
256
 10
-273.622537000000020
 20
-39.775258000000001
 11
-176.622536999999990
 21
-39.775258000000001
  0
LINE
  8
0
  6
CONTINUOUS
 62
256
 10
-273.622537000000020
 20
-90.090791999999993
 11
-273.622537000000020
 21
-25.090792000000000
  0
LINE
  8
0
  6
CONTINUOUS
 62
256
 10
-273.622537000000020
 20
-35.090792000000000
 11
-176.622536999999990
 21
-35.090792000000000
  0
LINE
  8
0
  6
CONTINUOUS
 62
256
 10
-273.622537000000020
 20
-34.090792000000000
 11
-176.622536999999990
 21
-34.090792000000000
  0
LINE
  8
0
  6
CONTINUOUS
 62
256
 10
-273.622537000000020
 20
-33.090792000000000
 11
-176.622536999999990
 21
-33.090792000000000
  0
LINE
  8
0
  6
CONTINUOUS
 62
256
 10
-206.622536999999990
 20
-30.590792000000000
 11
-176.622536999999990
 21
-30.590792000000000
  0
LINE
  8
0
  6
CONTINUOUS
 62
256
 10
-176.622536999999990
 20
-30.590792000000000
 11
-176.622536999999990
 21
-90.090791999999993
  0
LINE
  8
0
  6
CONTINUOUS
 62
256
 10
-273.622537000000020
 20
-25.090792000000000
 11
-354.316560999999980
 21
-25.090792000000000
  0
LINE
  8
0
  6
CONTINUOUS
 62
256
 10
-376.622537000000020
 20
-90.090791999999993
 11
-376.622537000000020
 21
-37.647587000000001
  0
ARC
  8
0
  6
CONTINUOUS
 62
256
 10
-354.316560999999980
 20
-45.090792000000000
 40
20.000000000000000
 50
90.000000000000000
 51
125.000000000000040
  0
LINE
  8
0
  6
CONTINUOUS
 62
256
 10
-365.788090000000010
 20
-28.707750999999998
 11
-375.513834999999970
 21
-35.517792000000000
  0
ARC
  8
0
  6
CONTINUOUS
 62
256
 10
-374.022537000000000
 20
-37.647587000000001
 40
2.600000000000001
 50
125.000000000000110
 51
180.000000000000000
  0
ARC
  8
0
  6
CONTINUOUS
 62
256
 10
-276.622537000000020
 20
-148.710013000000000
 40
3.000000000000000
 50
270.000000000000000
 51
0.000000000000000
  0
ARC
  8
0
  6
CONTINUOUS
 62
256
 10
-280.622537000000020
 20
-154.710013000000000
 40
3.000000000000000
 50
90.000000000000000
 51
180.000000000000000
  0
LINE
  8
0
  6
CONTINUOUS
 62
256
 10
-273.622537000000020
 20
-90.090791999999993
 11
-273.622537000000020
 21
-148.710013000000000
  0
LINE
  8
0
  6
CONTINUOUS
 62
256
 10
-176.622536999999990
 20
-149.590791999999990
 11
-176.622536999999990
 21
-90.090791999999993
  0
LINE
  8
0
  6
CONTINUOUS
 62
256
 10
-376.622537000000020
 20
-90.090791999999993
 11
-376.622537000000020
 21
-142.533997000000000
  0
LINE
  8
0
  6
CONTINUOUS
 62
256
 10
-280.622537000000020
 20
-151.710013000000000
 11
-276.622537000000020
 21
-151.710013000000000
  0
LINE
  8
0
  6
CONTINUOUS
 62
256
 10
-200.922537000000010
 20
-187.590791999999990
 11
-200.922537000000010
 21
-188.090791999999990
  0
LINE
  8
0
  6
CONTINUOUS
 62
256
 10
-271.922536999999980
 20
-187.590791999999990
 11
-271.922536999999980
 21
-188.090791999999990
  0
LINE
  8
0
  6
CONTINUOUS
 62
256
 10
-274.422536999999980
 20
-187.590791999999990
 11
-274.422536999999980
 21
-188.090791999999990
  0
LINE
  8
0
  6
CONTINUOUS
 62
256
 10
-266.422536999999980
 20
-187.590791999999990
 11
-266.422536999999980
 21
-188.090791999999990
  0
LINE
  8
0
  6
CONTINUOUS
 62
256
 10
-206.422537000000010
 20
-187.590791999999990
 11
-206.422537000000010
 21
-188.090791999999990
  0
LINE
  8
0
  6
CONTINUOUS
 62
256
 10
-198.422537000000010
 20
-187.590791999999990
 11
-198.422537000000010
 21
-188.090791999999990
  0
LINE
  8
0
  6
CONTINUOUS
 62
256
 10
-274.422536999999980
 20
-188.090791999999990
 11
-266.422536999999980
 21
-188.090791999999990
  0
LINE
  8
0
  6
CONTINUOUS
 62
256
 10
-206.422537000000010
 20
-188.090791999999990
 11
-198.422537000000010
 21
-188.090791999999990
  0
ARC
  8
0
  6
CONTINUOUS
 62
256
 10
-192.422537000000010
 20
-186.590791999999990
 40
1.000000000000000
 50
270.000000000000000
 51
0.000000000000000
  0
LINE
  8
0
  6
CONTINUOUS
 62
256
 10
-191.422537000000010
 20
-153.590791999999990
 11
-191.422537000000010
 21
-186.590791999999990
  0
LINE
  8
0
  6
CONTINUOUS
 62
256
 10
-281.422536999999980
 20
-153.590791999999990
 11
-191.422537000000010
 21
-153.590791999999990
  0
ARC
  8
0
  6
CONTINUOUS
 62
256
 10
-280.422536999999980
 20
-186.590791999999990
 40
1.000000000000000
 50
180.000000000000000
 51
270.000000000000000
  0
LINE
  8
0
  6
CONTINUOUS
 62
256
 10
-281.422536999999980
 20
-153.590791999999990
 11
-281.422536999999980
 21
-186.590791999999990
  0
LINE
  8
0
  6
CONTINUOUS
 62
256
 10
-280.422536999999980
 20
-187.590791999999990
 11
-192.422537000000010
 21
-187.590791999999990
  0
LINE
  8
0
  6
CONTINUOUS
 62
256
 10
-191.422537000000010
 20
-148.590791999999990
 11
-273.622537000000020
 21
-148.590791999999990
  0
LINE
  8
0
  6
CONTINUOUS
 62
256
 10
-191.422537000000010
 20
-153.590791999999990
 11
-191.422537000000010
 21
-148.590791999999990
  0
LINE
  8
0
  6
CONTINUOUS
 62
256
 10
-191.422537000000010
 20
-153.590791999999990
 11
-281.422536999999980
 21
-153.590791999999990
  0
LINE
  8
0
  6
CONTINUOUS
 62
256
 10
-281.422536999999980
 20
-153.590791999999990
 11
-281.422536999999980
 21
-151.818646000000000
  0
ARC
  8
0
  6
CONTINUOUS
 62
256
 10
401.412795000000020
 20
-51.090947999999997
 40
1.000000000000000
 50
90.000000000000000
 51
180.000000000000000
  0
LINE
  8
0
  6
CONTINUOUS
 62
256
 10
400.412795000000020
 20
-51.090947999999997
 11
400.412795000000020
 21
-74.090947999999997
  0
LINE
  8
0
  6
CONTINUOUS
 62
256
 10
401.412795000000020
 20
-50.090947999999997
 11
404.412795000000020
 21
-50.090947999999997
  0
ARC
  8
0
  6
CONTINUOUS
 62
256
 10
401.412795000000020
 20
-97.090947999999997
 40
1.000000000000000
 50
180.000000000000000
 51
270.000000000000000
  0
LINE
  8
0
  6
CONTINUOUS
 62
256
 10
400.412795000000020
 20
-97.090947999999997
 11
400.412795000000020
 21
-74.090947999999997
  0
LINE
  8
0
  6
CONTINUOUS
 62
256
 10
401.412795000000020
 20
-98.090947999999997
 11
404.412795000000020
 21
-98.090947999999997
  0
ARC
  8
0
  6
CONTINUOUS
 62
256
 10
533.412794999999960
 20
-97.090947999999997
 40
1.000000000000000
 50
270.000000000000000
 51
0.000000000000000
  0
LINE
  8
0
  6
CONTINUOUS
 62
256
 10
534.412794999999960
 20
-97.090947999999997
 11
534.412794999999960
 21
-74.090947999999997
  0
LINE
  8
0
  6
CONTINUOUS
 62
256
 10
533.412794999999960
 20
-98.090947999999997
 11
530.412794999999960
 21
-98.090947999999997
  0
ARC
  8
0
  6
CONTINUOUS
 62
256
 10
533.412794999999960
 20
-51.090947999999997
 40
1.000000000000000
 50
0.000000000000000
 51
90.000000000000000
  0
LINE
  8
0
  6
CONTINUOUS
 62
256
 10
534.412794999999960
 20
-51.090947999999997
 11
534.412794999999960
 21
-74.090947999999997
  0
LINE
  8
0
  6
CONTINUOUS
 62
256
 10
533.412794999999960
 20
-50.090947999999997
 11
530.412794999999960
 21
-50.090947999999997
  0
LINE
  8
0
  6
CONTINUOUS
 62
256
 10
409.912244999999980
 20
-177.652805000000000
 11
421.412795000000020
 21
-177.853547999999990
  0
LINE
  8
0
  6
CONTINUOUS
 62
256
 10
421.412795000000020
 20
-89.862119000000007
 11
421.412795000000020
 21
-177.853547999999990
  0
LINE
  8
0
  6
CONTINUOUS
 62
256
 10
515.912794999999960
 20
-176.204044000000010
 11
525.412794999999960
 21
-176.204044000000010
  0
LINE
  8
0
  6
CONTINUOUS
 62
256
 10
525.412794999999960
 20
-89.862119000000007
 11
525.412794999999960
 21
-176.204044000000010
  0
LINE
  8
0
  6
CONTINUOUS
 62
256
 10
515.912794999999960
 20
-3.520507000000000
 11
525.412794999999960
 21
-3.520507000000000
  0
LINE
  8
0
  6
CONTINUOUS
 62
256
 10
530.412794999999960
 20
-26.590948000000001
 11
530.412794999999960
 21
-121.590948000000000
  0
LINE
  8
0
  6
CONTINUOUS
 62
256
 10
525.412794999999960
 20
-3.520507000000000
 11
525.412794999999960
 21
-89.862119000000007
  0
LINE
  8
0
  6
CONTINUOUS
 62
256
 10
421.412795000000020
 20
-1.871003000000000
 11
515.912794999999960
 21
-3.520507000000000
  0
LINE
  8
0
  6
CONTINUOUS
 62
256
 10
421.412795000000020
 20
-1.871003000000000
 11
421.412795000000020
 21
-89.862119000000007
  0
LINE
  8
0
  6
CONTINUOUS
 62
256
 10
409.412398000000000
 20
-2.080471000000000
 11
421.412795000000020
 21
-1.871003000000000
  0
LINE
  8
0
  6
CONTINUOUS
 62
256
 10
409.412398000000000
 20
-177.144156000000010
 11
409.912244999999980
 21
-177.652805000000000
  0
LINE
  8
0
  6
CONTINUOUS
 62
256
 10
409.412398000000000
 20
-89.862119000000007
 11
409.412398000000000
 21
-177.144156000000010
  0
LINE
  8
0
  6
CONTINUOUS
 62
256
 10
404.412398000000000
 20
-73.862274999999997
 11
404.412398000000000
 21
-121.590948000000000
  0
LINE
  8
0
  6
CONTINUOUS
 62
256
 10
404.412398000000000
 20
-73.862274999999997
 11
404.412398000000000
 21
-26.590948000000001
  0
LINE
  8
0
  6
CONTINUOUS
 62
256
 10
409.412398000000000
 20
-89.862119000000007
 11
409.412398000000000
 21
-2.080471000000000
  0
LINE
  8
0
  6
DASHDOT
 62
256
 10
456.171568999999980
 20
-90.090791999999993
 11
478.410761999999980
 21
-90.090791999999993
  0
LINE
  8
0
  6
DASHED
 62
256
 10
447.412795000000020
 20
-31.090792000000000
 11
447.412795000000020
 21
-32.615792999999996
  0
LINE
  8
0
  6
DASHED
 62
256
 10
467.412795000000020
 20
-30.590792000000000
 11
447.912795000000020
 21
-30.590792000000000
  0
LINE
  8
0
  6
DASHED
 62
256
 10
408.412795000000020
 20
-70.090791999999993
 11
409.937795999999990
 21
-70.090791999999993
  0
LINE
  8
0
  6
DASHED
 62
256
 10
407.912795000000020
 20
-90.090791999999993
 11
407.912795000000020
 21
-70.590791999999993
  0
LINE
  8
0
  6
DASHED
 62
256
 10
408.412795000000020
 20
-110.090791999999990
 11
409.937795999999990
 21
-110.090791999999990
  0
LINE
  8
0
  6
DASHED
 62
256
 10
407.912795000000020
 20
-90.090791999999993
 11
407.912795000000020
 21
-109.590791999999990
  0
LINE
  8
0
  6
DASHED
 62
256
 10
447.412795000000020
 20
-149.090791999999990
 11
447.412795000000020
 21
-147.565790999999990
  0
LINE
  8
0
  6
DASHED
 62
256
 10
467.412795000000020
 20
-149.590791999999990
 11
447.912795000000020
 21
-149.590791999999990
  0
LINE
  8
0
  6
DASHED
 62
256
 10
447.412795000000020
 20
-149.090791999999990
 11
447.412795000000020
 21
-147.565790999999990
  0
LINE
  8
0
  6
DASHED
 62
256
 10
467.412795000000020
 20
-149.590791999999990
 11
447.912795000000020
 21
-149.590791999999990
  0
LINE
  8
0
  6
DASHED
 62
256
 10
487.412795000000020
 20
-149.090791999999990
 11
487.412795000000020
 21
-147.565790999999990
  0
LINE
  8
0
  6
DASHED
 62
256
 10
467.412795000000020
 20
-149.590791999999990
 11
486.912795000000020
 21
-149.590791999999990
  0
LINE
  8
0
  6
DASHED
 62
256
 10
526.412794999999960
 20
-110.090791999999990
 11
524.887793999999990
 21
-110.090791999999990
  0
LINE
  8
0
  6
DASHED
 62
256
 10
526.912794999999960
 20
-90.090791999999993
 11
526.912794999999960
 21
-109.590791999999990
  0
LINE
  8
0
  6
DASHED
 62
256
 10
526.912794999999960
 20
-90.090791999999993
 11
526.912794999999960
 21
-70.590791999999993
  0
LINE
  8
0
  6
DASHED
 62
256
 10
526.412794999999960
 20
-70.090791999999993
 11
524.887793999999990
 21
-70.090791999999993
  0
LINE
  8
0
  6
DASHED
 62
256
 10
487.412795000000020
 20
-31.090792000000000
 11
487.412795000000020
 21
-32.615792999999996
  0
LINE
  8
0
  6
DASHED
 62
256
 10
467.412795000000020
 20
-30.590792000000000
 11
486.912795000000020
 21
-30.590792000000000
  0
LINE
  8
0
  6
DASHDOT
 62
256
 10
467.412795000000020
 20
2.779945000000000
 11
467.412795000000020
 21
-193.349156999999990
  0
ARC
  8
0
  6
DASHED
 62
256
 10
524.887793999999990
 20
-69.590791999999993
 40
0.500000000000028
 50
182.934025000000020
 51
270.000000000000000
  0
ARC
  8
0
  6
DASHED
 62
256
 10
487.912795000000020
 20
-32.615792999999996
 40
0.500000000000000
 50
180.000000000000000
 51
267.065974999999810
  0
ARC
  8
0
  6
DASHED
 62
256
 10
446.912795000000020
 20
-32.615792999999996
 40
0.499999999999999
 50
272.934025000000190
 51
0.000000000000000
  0
ARC
  8
0
  6
DASHED
 62
256
 10
447.912795000000020
 20
-31.090792000000000
 40
0.500000000000000
 50
90.000000000000000
 51
180.000000000000000
  0
ARC
  8
0
  6
DASHED
 62
256
 10
467.412795000000020
 20
-432.590792000000020
 40
400.000000000000000
 50
92.934025000000005
 51
94.114345000000000
  0
ARC
  8
0
  6
DASHED
 62
256
 10
440.866340999999980
 20
-63.544336999999999
 40
30.000000000000004
 50
94.114344999999972
 51
175.885655000000010
  0
ARC
  8
0
  6
DASHED
 62
256
 10
809.912794999999960
 20
-90.090791999999993
 40
400.000000000000060
 50
175.885655000000010
 51
177.065975000000010
  0
ARC
  8
0
  6
DASHED
 62
256
 10
409.937795999999990
 20
-69.590791999999993
 40
0.500000000000000
 50
270.000000000000000
 51
357.065974999999980
  0
ARC
  8
0
  6
DASHED
 62
256
 10
408.412795000000020
 20
-70.590791999999993
 40
0.500000000000000
 50
90.000000000000000
 51
180.000000000000000
  0
ARC
  8
0
  6
DASHED
 62
256
 10
409.937795999999990
 20
-69.590791999999993
 40
0.500000000000000
 50
270.000000000000000
 51
357.065974999999980
  0
ARC
  8
0
  6
DASHED
 62
256
 10
408.412795000000020
 20
-70.590791999999993
 40
0.500000000000000
 50
90.000000000000000
 51
180.000000000000000
  0
ARC
  8
0
  6
DASHED
 62
256
 10
409.937795999999990
 20
-110.590791999999990
 40
0.500000000000028
 50
2.934025000000031
 51
90.000000000000000
  0
ARC
  8
0
  6
DASHED
 62
256
 10
409.937795999999990
 20
-110.590791999999990
 40
0.500000000000028
 50
2.934025000000031
 51
90.000000000000000
  0
ARC
  8
0
  6
DASHED
 62
256
 10
408.412795000000020
 20
-109.590791999999990
 40
0.500000000000000
 50
180.000000000000000
 51
270.000000000000000
  0
ARC
  8
0
  6
DASHED
 62
256
 10
809.912794999999960
 20
-90.090791999999993
 40
400.000000000000000
 50
182.934024999999990
 51
184.114344999999960
  0
ARC
  8
0
  6
DASHED
 62
256
 10
440.866340999999980
 20
-116.637247000000000
 40
30.000000000000018
 50
184.114344999999960
 51
265.885655000000040
  0
ARC
  8
0
  6
DASHED
 62
256
 10
467.412795000000020
 20
252.409208000000010
 40
399.999999999999940
 50
265.885654999999990
 51
267.065974999999980
  0
ARC
  8
0
  6
DASHED
 62
256
 10
446.912795000000020
 20
-147.565790999999990
 40
0.500000000000000
 50
0.000000000000000
 51
87.065974999999796
  0
ARC
  8
0
  6
DASHED
 62
256
 10
447.912795000000020
 20
-149.090791999999990
 40
0.500000000000000
 50
180.000000000000000
 51
270.000000000000000
  0
ARC
  8
0
  6
DASHED
 62
256
 10
446.912795000000020
 20
-147.565790999999990
 40
0.500000000000000
 50
0.000000000000000
 51
87.065974999999796
  0
ARC
  8
0
  6
DASHED
 62
256
 10
447.912795000000020
 20
-149.090791999999990
 40
0.500000000000000
 50
180.000000000000000
 51
270.000000000000000
  0
ARC
  8
0
  6
DASHED
 62
256
 10
487.912795000000020
 20
-147.565790999999990
 40
0.499999999999999
 50
92.934025000000204
 51
180.000000000000000
  0
ARC
  8
0
  6
DASHED
 62
256
 10
486.912795000000020
 20
-149.090791999999990
 40
0.500000000000000
 50
270.000000000000000
 51
0.000000000000000
  0
ARC
  8
0
  6
DASHED
 62
256
 10
467.412795000000020
 20
252.409208000000010
 40
400.000000000000000
 50
272.934025000000020
 51
274.114345000000010
  0
ARC
  8
0
  6
DASHED
 62
256
 10
493.959250000000000
 20
-116.637247000000000
 40
29.999999999999989
 50
274.114344999999960
 51
355.885654999999990
  0
ARC
  8
0
  6
DASHED
 62
256
 10
124.912795000000000
 20
-90.090791999999993
 40
400.000000000000000
 50
2.934025000000001
 51
4.114345000000000
  0
ARC
  8
0
  6
DASHED
 62
256
 10
524.887793999999990
 20
-110.590791999999990
 40
0.500000000000000
 50
90.000000000000000
 51
177.065974999999950
  0
ARC
  8
0
  6
DASHED
 62
256
 10
124.912795000000000
 20
-90.090791999999993
 40
399.999999999999940
 50
355.885654999999990
 51
357.065974999999980
  0
ARC
  8
0
  6
DASHED
 62
256
 10
526.412794999999960
 20
-109.590791999999990
 40
0.500000000000000
 50
270.000000000000000
 51
0.000000000000000
  0
ARC
  8
0
  6
DASHED
 62
256
 10
526.412794999999960
 20
-70.590791999999993
 40
0.500000000000000
 50
0.000000000000000
 51
90.000000000000000
  0
ARC
  8
0
  6
DASHED
 62
256
 10
493.959250000000000
 20
-63.544336999999999
 40
30.000000000000018
 50
4.114344999999991
 51
85.885655000000028
  0
ARC
  8
0
  6
DASHED
 62
256
 10
467.412795000000020
 20
-432.590792000000020
 40
400.000000000000060
 50
85.885655000000000
 51
87.065974999999995
  0
ARC
  8
0
  6
DASHED
 62
256
 10
486.912795000000020
 20
-31.090792000000000
 40
0.500000000000000
 50
0.000000000000000
 51
90.000000000000000
  0
LINE
  8
0
  6
CONTINUOUS
 62
256
 10
421.412795000000020
 20
-177.853235000000010
 11
515.912794999999960
 21
-176.203731000000000
  0
LINE
  8
0
  6
DASHDOT
 62
256
 10
536.891604000000030
 20
-74.090947999999997
 11
396.043380000000010
 21
-74.090947999999997
  0
LINE
  8
0
  6
CONTINUOUS
 62
256
 10
530.412794999999960
 20
-26.590948000000001
 11
525.412794999999960
 21
-26.590948000000001
  0
LINE
  8
0
  6
CONTINUOUS
 62
256
 10
530.412794999999960
 20
-121.590948000000000
 11
525.412794999999960
 21
-121.590948000000000
  0
LINE
  8
0
  6
CONTINUOUS
 62
256
 10
404.412398000000000
 20
-121.590948000000000
 11
409.412795000000020
 21
-121.590948000000000
  0
LINE
  8
0
  6
CONTINUOUS
 62
256
 10
404.412398000000000
 20
-26.590948000000001
 11
409.412795000000020
 21
-26.590948000000001
  0
LINE
  8
0
  6
CONTINUOUS
 62
256
 10
28.877697000000001
 20
-3.090948000000000
 11
-136.122302999999990
 21
-3.090948000000000
  0
LINE
  8
0
  6
CONTINUOUS
 62
256
 10
-147.122302999999990
 20
-14.090947999999999
 11
-147.122302999999990
 21
-166.090948000000000
  0
LINE
  8
0
  6
CONTINUOUS
 62
256
 10
-136.122302999999990
 20
-177.090948000000000
 11
28.877697000000001
 21
-177.090948000000000
  0
LINE
  8
0
  6
CONTINUOUS
 62
256
 10
39.877696999999998
 20
-166.090948000000000
 11
39.877696999999998
 21
-14.090947999999999
  0
ARC
  8
0
  6
CONTINUOUS
 62
256
 10
21.877697000000001
 20
-138.413023000000010
 40
7.500000000000013
 50
279.206895999999920
 51
0.000000000000000
  0
LINE
  8
0
  6
CONTINUOUS
 62
256
 10
29.377697000000001
 20
-138.413023000000010
 11
29.377697000000001
 21
-41.768873999999997
  0
ARC
  8
0
  6
CONTINUOUS
 62
256
 10
21.877697000000001
 20
-41.768873999999997
 40
7.500000000000000
 50
0.000000000000000
 51
80.793104000000014
  0
ARC
  8
0
  6
CONTINUOUS
 62
256
 10
25.877697000000001
 20
-17.090948000000001
 40
17.500000000000000
 50
211.512300000000010
 51
260.793104000000030
  0
ARC
  8
0
  6
CONTINUOUS
 62
256
 10
7.974609000000000
 20
-28.067261999999999
 40
3.500000000000000
 50
31.512300000000021
 51
86.955283000000009
  0
ARC
  8
0
  6
CONTINUOUS
 62
256
 10
8.877570000000000
 20
-11.091259000000001
 40
13.500000000000002
 50
200.666196000000010
 51
266.955283000000010
  0
ARC
  8
0
  6
CONTINUOUS
 62
256
 10
-7.028521000000000
 20
-17.090948000000001
 40
3.500000000000000
 50
20.666195999999992
 51
90.000000000000000
  0
LINE
  8
0
  6
CONTINUOUS
 62
256
 10
-7.028521000000000
 20
-13.590947999999999
 11
-99.216339000000005
 21
-13.590947999999999
  0
ARC
  8
0
  6
CONTINUOUS
 62
256
 10
-99.216339000000005
 20
-17.090948000000001
 40
3.500000000000000
 50
90.000000000000000
 51
159.333803999999960
  0
ARC
  8
0
  6
CONTINUOUS
 62
256
 10
-115.122429999999990
 20
-11.091259000000001
 40
13.500000000000002
 50
269.624890999999990
 51
339.333803999999990
  0
ARC
  8
0
  6
CONTINUOUS
 62
256
 10
-115.233727000000000
 20
-28.090895000000000
 40
3.500000000000001
 50
89.624891000000119
 51
148.412034999999950
  0
ARC
  8
0
  6
CONTINUOUS
 62
256
 10
-133.122302999999990
 20
-17.090948000000001
 40
17.500000000000004
 50
279.206895999999920
 51
328.412035000000000
  0
ARC
  8
0
  6
CONTINUOUS
 62
256
 10
-129.122302999999990
 20
-41.768873999999997
 40
7.500000000000000
 50
99.206896000000029
 51
180.000000000000000
  0
LINE
  8
0
  6
CONTINUOUS
 62
256
 10
-136.622302999999990
 20
-41.768873999999997
 11
-136.622302999999990
 21
-138.413023000000010
  0
ARC
  8
0
  6
CONTINUOUS
 62
256
 10
-129.122302999999990
 20
-138.413023000000010
 40
7.500000000000000
 50
180.000000000000000
 51
260.793103999999970
  0
ARC
  8
0
  6
CONTINUOUS
 62
256
 10
-133.122302999999990
 20
-163.090948000000000
 40
17.500000000000007
 50
31.585980000000038
 51
80.793104000000028
  0
ARC
  8
0
  6
CONTINUOUS
 62
256
 10
-115.233346000000000
 20
-152.091621000000000
 40
3.500000000000003
 50
211.585979999999890
 51
270.373825000000070
  0
ARC
  8
0
  6
CONTINUOUS
 62
256
 10
-115.122429999999990
 20
-169.091259000000010
 40
13.499999999999993
 50
20.668436999999983
 51
90.373824999999997
  0
ARC
  8
0
  6
CONTINUOUS
 62
256
 10
-99.216573999999994
 20
-163.090948000000000
 40
3.500000000000000
 50
200.668437000000040
 51
270.000000000000000
  0
LINE
  8
0
  6
CONTINUOUS
 62
256
 10
-99.216573999999994
 20
-166.590948000000000
 11
-7.028287000000000
 21
-166.590948000000000
  0
ARC
  8
0
  6
CONTINUOUS
 62
256
 10
-7.028287000000000
 20
-163.090948000000000
 40
3.500000000000000
 50
270.000000000000000
 51
339.331562999999960
  0
ARC
  8
0
  6
CONTINUOUS
 62
256
 10
8.877570000000000
 20
-169.091259000000010
 40
13.500000000000007
 50
93.046047000000002
 51
159.331563000000050
  0
ARC
  8
0
  6
CONTINUOUS
 62
256
 10
7.974215000000000
 20
-152.115277999999990
 40
3.500000000000009
 50
273.046046999999930
 51
328.489758000000050
  0
ARC
  8
0
  6
CONTINUOUS
 62
256
 10
25.877697000000001
 20
-163.090948000000000
 40
17.499999999999996
 50
99.206896000000000
 51
148.489758000000020
  0
ARC
  8
0
  6
CONTINUOUS
 62
256
 10
-136.122302999999990
 20
-14.090947999999999
 40
12.000000000000000
 50
90.000000000000000
 51
180.000000000000000
  0
ARC
  8
0
  6
CONTINUOUS
 62
256
 10
-136.122302999999990
 20
-14.090947999999999
 40
11.000000000000000
 50
90.000000000000000
 51
180.000000000000000
  0
ARC
  8
0
  6
CONTINUOUS
 62
256
 10
28.877697000000001
 20
-14.090947999999999
 40
10.999999999999996
 50
0.000000000000000
 51
90.000000000000000
  0
ARC
  8
0
  6
CONTINUOUS
 62
256
 10
28.877697000000001
 20
-14.090947999999999
 40
11.999999999999996
 50
0.000000000000000
 51
90.000000000000000
  0
ARC
  8
0
  6
CONTINUOUS
 62
256
 10
-136.122302999999990
 20
-166.090948000000000
 40
12.000000000000000
 50
180.000000000000000
 51
270.000000000000000
  0
ARC
  8
0
  6
CONTINUOUS
 62
256
 10
28.877697000000001
 20
-166.090948000000000
 40
12.000000000000000
 50
270.000000000000000
 51
0.000000000000000
  0
ARC
  8
0
  6
CONTINUOUS
 62
256
 10
28.877697000000001
 20
-166.090948000000000
 40
11.000000000000000
 50
270.000000000000000
 51
0.000000000000000
  0
ARC
  8
0
  6
CONTINUOUS
 62
256
 10
-136.122302999999990
 20
-166.090948000000000
 40
11.000000000000000
 50
180.000000000000000
 51
270.000000000000000
  0
LINE
  8
0
  6
CONTINUOUS
 62
256
 10
-138.622302999999990
 20
-138.413023000000010
 11
-138.622302999999990
 21
-41.768873999999997
  0
ARC
  8
0
  6
CONTINUOUS
 62
256
 10
-129.122302999999990
 20
-41.768873999999997
 40
9.499999999999996
 50
99.206896000000043
 51
180.000000000000000
  0
ARC
  8
0
  6
CONTINUOUS
 62
256
 10
-133.122302999999990
 20
-17.090948000000001
 40
15.499999999999998
 50
279.206895999999920
 51
328.412035000000000
  0
ARC
  8
0
  6
CONTINUOUS
 62
256
 10
-115.233727000000000
 20
-28.090895000000000
 40
5.500000000000001
 50
89.624891000000005
 51
148.412035000000000
  0
ARC
  8
0
  6
CONTINUOUS
 62
256
 10
-115.122429999999990
 20
-11.091259000000001
 40
11.499999999999998
 50
269.624890999999930
 51
339.333803999999990
  0
ARC
  8
0
  6
CONTINUOUS
 62
256
 10
-99.216339000000005
 20
-17.090948000000001
 40
5.500000000000000
 50
90.000000000000000
 51
159.333803999999990
  0
LINE
  8
0
  6
CONTINUOUS
 62
256
 10
-99.216339000000005
 20
-11.590947999999999
 11
-7.028521000000000
 21
-11.590947999999999
  0
ARC
  8
0
  6
CONTINUOUS
 62
256
 10
-7.028521000000000
 20
-17.090948000000001
 40
5.500000000000000
 50
20.666195999999992
 51
90.000000000000000
  0
ARC
  8
0
  6
CONTINUOUS
 62
256
 10
8.877570000000000
 20
-11.091259000000001
 40
11.500000000000000
 50
200.666195999999990
 51
266.955283000000010
  0
ARC
  8
0
  6
CONTINUOUS
 62
256
 10
7.974609000000000
 20
-28.067261999999999
 40
5.500000000000001
 50
31.512300000000018
 51
86.955282999999980
  0
ARC
  8
0
  6
CONTINUOUS
 62
256
 10
25.877697000000001
 20
-17.090948000000001
 40
15.500000000000002
 50
211.512300000000010
 51
260.793104000000030
  0
ARC
  8
0
  6
CONTINUOUS
 62
256
 10
21.877697000000001
 20
-41.768873999999997
 40
9.500000000000000
 50
0.000000000000000
 51
80.793103999999985
  0
LINE
  8
0
  6
CONTINUOUS
 62
256
 10
31.377697000000001
 20
-41.768873999999997
 11
31.377697000000001
 21
-138.413023000000010
  0
ARC
  8
0
  6
CONTINUOUS
 62
256
 10
21.877697000000001
 20
-138.413023000000010
 40
9.500000000000009
 50
279.206895999999970
 51
0.000000000000000
  0
ARC
  8
0
  6
CONTINUOUS
 62
256
 10
25.877697000000001
 20
-163.090948000000000
 40
15.499999999999998
 50
99.206896000000000
 51
148.489758000000020
  0
ARC
  8
0
  6
CONTINUOUS
 62
256
 10
7.974215000000000
 20
-152.115277999999990
 40
5.500000000000014
 50
273.046046999999990
 51
328.489758000000110
  0
ARC
  8
0
  6
CONTINUOUS
 62
256
 10
8.877570000000000
 20
-169.091259000000010
 40
11.500000000000002
 50
93.046047000000002
 51
159.331562999999930
  0
ARC
  8
0
  6
CONTINUOUS
 62
256
 10
-7.028287000000000
 20
-163.090948000000000
 40
5.500000000000000
 50
270.000000000000000
 51
339.331562999999850
  0
LINE
  8
0
  6
CONTINUOUS
 62
256
 10
-7.028287000000000
 20
-168.590948000000000
 11
-99.216573999999994
 21
-168.590948000000000
  0
ARC
  8
0
  6
CONTINUOUS
 62
256
 10
-99.216573999999994
 20
-163.090948000000000
 40
5.500000000000012
 50
200.668437000000100
 51
270.000000000000000
  0
ARC
  8
0
  6
CONTINUOUS
 62
256
 10
-115.122429999999990
 20
-169.091259000000010
 40
11.500000000000005
 50
20.668437000000058
 51
90.373824999999982
  0
ARC
  8
0
  6
CONTINUOUS
 62
256
 10
-115.233346000000000
 20
-152.091621000000000
 40
5.500000000000008
 50
211.585980000000010
 51
270.373825000000070
  0
ARC
  8
0
  6
CONTINUOUS
 62
256
 10
-129.122302999999990
 20
-138.413023000000010
 40
9.500000000000000
 50
180.000000000000000
 51
260.793103999999970
  0
INSERT
  8
0
  2
ZU_SYM_1
 10
-115.122429999999990
 20
-169.091259000000010
  0
INSERT
  8
0
  2
ZU_SYM_2
 10
8.877570000000000
 20
-169.091259000000010
  0
INSERT
  8
0
  2
ZU_SYM_3
 10
8.877570000000000
 20
-11.091259000000001
  0
INSERT
  8
0
  2
ZU_SYM_4
 10
-115.122429999999990
 20
-11.091259000000001
  0
LINE
  8
0
  6
DASHED
 62
256
 10
-148.122302999999990
 20
-125.536987000000000
 11
-148.122302999999990
 21
-139.317279000000010
  0
ARC
  8
0
  6
CONTINUOUS
 62
256
 10
-161.622536999999990
 20
-47.906061000000001
 40
3.000000000000000
 50
0.000000000000000
 51
90.000000000000000
  0
ARC
  8
0
  6
CONTINUOUS
 62
256
 10
-161.622536999999990
 20
-40.994484000000000
 40
3.000000000000000
 50
0.000000000000000
 51
90.000000000000000
  0
ARC
  8
0
  6
CONTINUOUS
 62
256
 10
-161.622536999999990
 20
-132.275522999999990
 40
3.000000000000000
 50
270.000000000000000
 51
0.000000000000000
  0
ARC
  8
0
  6
CONTINUOUS
 62
256
 10
-161.622536999999990
 20
-139.187098999999990
 40
3.000000000000000
 50
270.000000000000000
 51
0.000000000000000
  0
ARC
  8
0
  6
CONTINUOUS
 62
256
 10
-161.622536999999990
 20
-146.829793000000000
 40
2.999999999999992
 50
269.018827000000040
 51
0.000000000000000
  0
ARC
  8
0
  6
CONTINUOUS
 62
256
 10
-161.622536999999990
 20
-33.351790999999999
 40
3.000000000000000
 50
0.000000000000000
 51
90.981172999999970
  0
LINE
  8
0
  6
CONTINUOUS
 62
256
 10
-158.622536999999990
 20
-146.829793000000000
 11
-158.622536999999990
 21
-33.351790999999999
  0
ARC
  8
0
  6
CONTINUOUS
 62
256
 10
-166.622536999999990
 20
-126.092059000000010
 40
3.000000000000000
 50
180.000000000000000
 51
270.000000000000000
  0
ARC
  8
0
  6
CONTINUOUS
 62
256
 10
-166.622536999999990
 20
-145.187098999999990
 40
3.000000000000000
 50
90.000000000000000
 51
180.000000000000000
  0
ARC
  8
0
  6
CONTINUOUS
 62
256
 10
-166.622536999999990
 20
-132.275522999999990
 40
3.000000000000000
 50
180.000000000000000
 51
270.000000000000000
  0
ARC
  8
0
  6
CONTINUOUS
 62
256
 10
-172.622536999999990
 20
-146.590791999999990
 40
3.000000000000000
 50
270.000000000000000
 51
0.000000000000000
  0
ARC
  8
0
  6
CONTINUOUS
 62
256
 10
-172.622536999999990
 20
-33.590792000000000
 40
3.000000000000000
 50
0.000000000000000
 51
90.000000000000000
  0
ARC
  8
0
  6
CONTINUOUS
 62
256
 10
-166.622536999999990
 20
-54.089525000000002
 40
3.000000000000000
 50
90.000000000000000
 51
180.000000000000000
  0
ARC
  8
0
  6
CONTINUOUS
 62
256
 10
-166.622536999999990
 20
-47.906061000000001
 40
3.000000000000000
 50
90.000000000000000
 51
180.000000000000000
  0
ARC
  8
0
  6
CONTINUOUS
 62
256
 10
-166.622536999999990
 20
-34.994484000000000
 40
3.000000000000000
 50
180.000000000000000
 51
270.000000000000000
  0
LINE
  8
0
  6
CONTINUOUS
 62
256
 10
-169.622536999999990
 20
-132.275522999999990
 11
-169.622536999999990
 21
-90.090791999999993
  0
LINE
  8
0
  6
CONTINUOUS
 62
256
 10
-166.622536999999990
 20
-129.092059000000010
 11
-161.622536999999990
 21
-129.092059000000010
  0
LINE
  8
0
  6
CONTINUOUS
 62
256
 10
-169.622536999999990
 20
-145.590791999999990
 11
-169.622536999999990
 21
-145.187098999999990
  0
LINE
  8
0
  6
CONTINUOUS
 62
256
 10
-169.622536999999990
 20
-145.590791999999990
 11
-169.622536999999990
 21
-145.187098999999990
  0
LINE
  8
0
  6
CONTINUOUS
 62
256
 10
-169.622536999999990
 20
-145.590791999999990
 11
-169.622536999999990
 21
-146.590791999999990
  0
LINE
  8
0
  6
CONTINUOUS
 62
256
 10
-169.622536999999990
 20
-34.590792000000000
 11
-169.622536999999990
 21
-34.994484000000000
  0
LINE
  8
0
  6
CONTINUOUS
 62
256
 10
-169.622536999999990
 20
-47.906061000000001
 11
-169.622536999999990
 21
-90.090791999999993
  0
LINE
  8
0
  6
CONTINUOUS
 62
256
 10
-166.622536999999990
 20
-51.089525000000002
 11
-161.622536999999990
 21
-51.089525000000002
  0
LINE
  8
0
  6
CONTINUOUS
 62
256
 10
-169.622536999999990
 20
-34.590792000000000
 11
-169.622536999999990
 21
-33.590792000000000
  0
LINE
  8
0
  6
CONTINUOUS
 62
256
 10
-166.622536999999990
 20
-37.994484000000000
 11
-161.622536999999990
 21
-37.994484000000000
  0
LINE
  8
0
  6
CONTINUOUS
 62
256
 10
-166.622536999999990
 20
-44.906061000000001
 11
-161.622536999999990
 21
-44.906061000000001
  0
LINE
  8
0
  6
CONTINUOUS
 62
256
 10
-166.622536999999990
 20
-135.275522999999990
 11
-161.622536999999990
 21
-135.275522999999990
  0
LINE
  8
0
  6
CONTINUOUS
 62
256
 10
-166.622536999999990
 20
-142.187098999999990
 11
-161.622536999999990
 21
-142.187098999999990
  0
LINE
  8
0
  6
CONTINUOUS
 62
256
 10
-176.622536999999990
 20
-70.090791999999993
 11
-169.622536999999990
 21
-70.090791999999993
  0
LINE
  8
0
  6
CONTINUOUS
 62
256
 10
-176.622536999999990
 20
-110.090791999999990
 11
-169.622536999999990
 21
-110.090791999999990
  0
CIRCLE
  8
0
  6
CONTINUOUS
 62
256
 10
-115.122429999999990
 20
-169.091259000000010
 40
5.500000000000000
  0
CIRCLE
  8
0
  6
CONTINUOUS
 62
256
 10
-115.122429999999990
 20
-11.091259000000001
 40
5.500000000000000
  0
CIRCLE
  8
0
  6
CONTINUOUS
 62
256
 10
8.877570000000000
 20
-11.091259000000001
 40
5.500000000000000
  0
CIRCLE
  8
0
  6
CONTINUOUS
 62
256
 10
8.877570000000000
 20
-169.091259000000010
 40
5.500000000000000
  0
LINE
  8
0
  6
DASHDOT
 62
256
 10
-120.518635000000000
 20
-163.090948000000000
 11
-147.122302999999990
 21
-163.090948000000000
  0
LINE
  8
0
  6
DASHDOT
 62
256
 10
-107.830585000000000
 20
-169.091259000000010
 11
-122.955939000000000
 21
-169.091259000000010
  0
LINE
  8
0
  6
DASHDOT
 62
256
 10
-108.268103999999990
 20
-11.091259000000001
 11
-122.487471000000000
 21
-11.091259000000001
  0
LINE
  8
0
  6
DASHDOT
 62
256
 10
-121.174914000000000
 20
-17.090948000000001
 11
-147.122302999999990
 21
-17.090948000000001
  0
LINE
  8
0
  6
DASHDOT
 62
256
 10
25.877697000000001
 20
-150.818073000000000
 11
25.877697000000001
 21
-175.214778999999990
  0
LINE
  8
0
  6
DASHDOT
 62
256
 10
8.877570000000000
 20
-160.881009000000010
 11
8.877570000000000
 21
-175.756654000000000
  0
LINE
  8
0
  6
DASHDOT
 62
256
 10
-115.122429999999990
 20
-161.537287999999990
 11
-115.122429999999990
 21
-175.975414000000000
  0
LINE
  8
0
  6
DASHDOT
 62
256
 10
-133.122302999999990
 20
-151.255592000000010
 11
-133.122302999999990
 21
-175.860983000000000
  0
LINE
  8
0
  6
DASHDOT
 62
256
 10
-115.122429999999990
 20
-4.249219000000000
 11
-115.122429999999990
 21
-19.124863999999999
  0
LINE
  8
0
  6
DASHDOT
 62
256
 10
8.877570000000000
 20
-3.135603000000000
 11
8.877570000000000
 21
-19.343623000000001
  0
LINE
  8
0
  6
DASHDOT
 62
256
 10
17.465387000000000
 20
-11.091259000000001
 11
0.674119000000000
 21
-11.091259000000001
  0
LINE
  8
0
  6
DASHDOT
 62
256
 10
16.424802000000000
 20
-169.091259000000010
 11
0.674119000000000
 21
-169.091259000000010
  0
LINE
  8
0
  6
DASHDOT
 62
256
 10
-133.122302999999990
 20
-5.090948000000000
 11
-133.122302999999990
 21
-30.062837999999999
  0
LINE
  8
0
  6
DASHDOT
 62
256
 10
37.877696999999998
 20
-163.090948000000000
 11
14.018447000000000
 21
-163.090948000000000
  0
LINE
  8
0
  6
CONTINUOUS
 62
256
 10
-136.122302999999990
 20
-178.090948000000000
 11
28.877697000000001
 21
-178.090948000000000
  0
LINE
  8
0
  6
CONTINUOUS
 62
256
 10
40.877696999999998
 20
-166.090948000000000
 11
40.877696999999998
 21
-14.090947999999999
  0
LINE
  8
0
  6
CONTINUOUS
 62
256
 10
28.877697000000001
 20
-2.090948000000000
 11
-136.122302999999990
 21
-2.090948000000000
  0
LINE
  8
0
  6
CONTINUOUS
 62
256
 10
-148.122302999999990
 20
-14.090947999999999
 11
-148.122302999999990
 21
-166.090948000000000
  0
LINE
  8
0
  6
CONTINUOUS
 62
256
 10
-176.622536999999990
 20
-90.090791999999993
 11
-176.622536999999990
 21
-149.590791999999990
  0
LINE
  8
0
  6
CONTINUOUS
 62
256
 10
-176.622536999999990
 20
-90.090791999999993
 11
-176.622536999999990
 21
-30.590792000000000
  0
LINE
  8
0
  6
CONTINUOUS
 62
256
 10
-176.622536999999990
 20
-30.608246999999999
 11
-151.069945999999990
 21
-30.153497000000002
  0
LINE
  8
0
  6
CONTINUOUS
 62
256
 10
-176.622536999999990
 20
-149.573337000000010
 11
-151.069945999999990
 21
-150.028087000000000
  0
ARC
  8
0
  6
CONTINUOUS
 62
256
 10
-151.122302999999990
 20
-153.027629999999990
 40
3.000000000000000
 50
0.000000000000000
 51
88.999999999999858
  0
ARC
  8
0
  6
CONTINUOUS
 62
256
 10
-151.122302999999990
 20
-27.153953999999999
 40
3.000000000000000
 50
271.000000000000110
 51
0.000000000000000
  0
ARC
  8
0
  6
CONTINUOUS
 62
256
 10
-31.122302999999999
 20
-74.090947999999997
 40
17.500000000000000
 50
106.601550000000020
 51
73.398449999999997
  0
LINE
  8
0
  6
CONTINUOUS
 62
256
 10
-36.122303000000002
 20
-57.320439000000000
 11
-36.122303000000002
 21
-53.290948000000000
  0
LINE
  8
0
  6
CONTINUOUS
 62
256
 10
-36.122303000000002
 20
-53.290948000000000
 11
-26.122302999999999
 21
-53.290948000000000
  0
LINE
  8
0
  6
CONTINUOUS
 62
256
 10
-26.122302999999999
 20
-57.320439000000000
 11
-26.122302999999999
 21
-53.290948000000000
  0
LINE
  8
0
  6
DASHDOT
 62
256
 10
-31.122302999999999
 20
0.869616000000000
 11
-31.122302999999999
 21
-150.711788000000010
  0
POINT
  8
0
  6
CONTINUOUS
 62
256
 10
-31.122302999999999
 20
-74.090947999999997
  0
CIRCLE
  8
0
  6
CONTINUOUS
 62
256
 10
-31.122302999999999
 20
-74.090947999999997
 40
47.500000000000000
  0
CIRCLE
  8
0
  6
CONTINUOUS
 62
256
 10
-31.122302999999999
 20
-74.090947999999997
 40
24.000000000000000
  0
LINE
  8
0
  6
DASHDOT
 62
256
 10
45.388390999999999
 20
-74.090947999999997
 11
-103.481613999999990
 21
-74.090947999999997
  0
ARC
  8
0
  6
CONTINUOUS
 62
256
 10
-133.122302999999990
 20
-163.090948000000000
 40
15.500000000000004
 50
31.585980000000028
 51
80.793103999999943
  0
ARC
  8
0
  6
CONTINUOUS
 62
256
 10
244.613041000000010
 20
-94.090947999999997
 40
2.500000000000000
 50
0.000000000000000
 51
90.000000000000000
  0
ARC
  8
0
  6
CONTINUOUS
 62
256
 10
115.612905000000000
 20
-94.090947999999997
 40
2.500000000000000
 50
90.000000000000000
 51
180.000000000000000
  0
ARC
  8
0
  6
CONTINUOUS
 62
256
 10
246.713041000000000
 20
-97.690948000000006
 40
0.400000000000006
 50
270.000000000000000
 51
0.000000000000000
  0
ARC
  8
0
  6
CONTINUOUS
 62
256
 10
246.713041000000000
 20
-50.490948000000003
 40
0.400000000000006
 50
0.000000000000000
 51
90.000000000000000
  0
ARC
  8
0
  6
CONTINUOUS
 62
256
 10
229.013012000000000
 20
-98.490948000000003
 40
0.400000000000006
 50
90.000000000000000
 51
179.999929999999470
  0
ARC
  8
0
  6
CONTINUOUS
 62
256
 10
113.512905000000000
 20
-97.690948000000006
 40
0.400000000000006
 50
180.000000000000000
 51
270.000000000000000
  0
ARC
  8
0
  6
CONTINUOUS
 62
256
 10
113.512905000000000
 20
-50.490948000000003
 40
0.399999999999999
 50
90.000000000000000
 51
180.000000000000000
  0
ARC
  8
0
  6
CONTINUOUS
 62
256
 10
244.613041000000010
 20
-54.090947999999997
 40
2.500000000000000
 50
270.000000000000000
 51
0.000000000000000
  0
ARC
  8
0
  6
CONTINUOUS
 62
256
 10
115.612905000000000
 20
-54.090947999999997
 40
2.500000000000000
 50
180.000000000000000
 51
270.000000000000000
  0
LINE
  8
0
  6
CONTINUOUS
 62
256
 10
113.112905000000000
 20
-53.290948000000000
 11
247.113041000000010
 21
-53.290948000000000
  0
LINE
  8
0
  6
CONTINUOUS
 62
256
 10
115.612905000000000
 20
-56.590947999999997
 11
136.362905000000010
 21
-56.590947999999997
  0
LINE
  8
0
  6
CONTINUOUS
 62
256
 10
136.362905000000010
 20
-55.590947999999997
 11
139.112905000000010
 21
-55.590947999999997
  0
LINE
  8
0
  6
CONTINUOUS
 62
256
 10
136.362905000000010
 20
-74.090947999999997
 11
136.362905000000010
 21
-55.590947999999997
  0
LINE
  8
0
  6
CONTINUOUS
 62
256
 10
139.112905000000010
 20
-74.090947999999997
 11
139.112905000000010
 21
-55.590947999999997
  0
LINE
  8
0
  6
CONTINUOUS
 62
256
 10
139.112905000000010
 20
-56.590947999999997
 11
165.112905000000010
 21
-56.590947999999997
  0
LINE
  8
0
  6
CONTINUOUS
 62
256
 10
165.112905000000010
 20
-74.090947999999997
 11
165.112905000000010
 21
-56.290948000000000
  0
LINE
  8
0
  6
CONTINUOUS
 62
256
 10
165.112905000000010
 20
-56.290948000000000
 11
195.113041000000010
 21
-56.290948000000000
  0
LINE
  8
0
  6
CONTINUOUS
 62
256
 10
195.113041000000010
 20
-74.090947999999997
 11
195.113041000000010
 21
-56.290948000000000
  0
LINE
  8
0
  6
CONTINUOUS
 62
256
 10
195.113041000000010
 20
-56.590947999999997
 11
221.113041000000010
 21
-56.590947999999997
  0
LINE
  8
0
  6
CONTINUOUS
 62
256
 10
221.113041000000010
 20
-55.590947999999997
 11
223.863041000000010
 21
-55.590947999999997
  0
LINE
  8
0
  6
CONTINUOUS
 62
256
 10
221.113041000000010
 20
-74.090947999999997
 11
221.113041000000010
 21
-55.590947999999997
  0
LINE
  8
0
  6
CONTINUOUS
 62
256
 10
223.863041000000010
 20
-74.090947999999997
 11
223.863041000000010
 21
-55.590947999999997
  0
LINE
  8
0
  6
CONTINUOUS
 62
256
 10
223.863041000000010
 20
-56.590947999999997
 11
244.613041000000010
 21
-56.590947999999997
  0
LINE
  8
0
  6
CONTINUOUS
 62
256
 10
115.612905000000000
 20
-91.590947999999997
 11
136.362905000000010
 21
-91.590947999999997
  0
LINE
  8
0
  6
CONTINUOUS
 62
256
 10
136.362905000000010
 20
-93.590947999999997
 11
139.112905000000010
 21
-93.590947999999997
  0
LINE
  8
0
  6
CONTINUOUS
 62
256
 10
136.362905000000010
 20
-74.090947999999997
 11
136.362905000000010
 21
-93.590947999999997
  0
LINE
  8
0
  6
CONTINUOUS
 62
256
 10
139.112905000000010
 20
-74.090947999999997
 11
139.112905000000010
 21
-93.590947999999997
  0
LINE
  8
0
  6
CONTINUOUS
 62
256
 10
139.112905000000010
 20
-91.590947999999997
 11
165.112905000000010
 21
-91.590947999999997
  0
LINE
  8
0
  6
CONTINUOUS
 62
256
 10
165.112905000000010
 20
-74.090947999999997
 11
165.112905000000010
 21
-91.590947999999997
  0
LINE
  8
0
  6
CONTINUOUS
 62
256
 10
165.112905000000010
 20
-91.890947999999995
 11
195.113041000000010
 21
-91.890947999999995
  0
LINE
  8
0
  6
CONTINUOUS
 62
256
 10
195.113041000000010
 20
-74.090947999999997
 11
195.113041000000010
 21
-91.890947999999995
  0
LINE
  8
0
  6
CONTINUOUS
 62
256
 10
195.113041000000010
 20
-91.590947999999997
 11
221.113041000000010
 21
-91.590947999999997
  0
LINE
  8
0
  6
CONTINUOUS
 62
256
 10
221.113041000000010
 20
-93.590947999999997
 11
223.863041000000010
 21
-93.590947999999997
  0
LINE
  8
0
  6
CONTINUOUS
 62
256
 10
221.113041000000010
 20
-74.090947999999997
 11
221.113041000000010
 21
-93.590947999999997
  0
LINE
  8
0
  6
CONTINUOUS
 62
256
 10
223.863041000000010
 20
-74.090947999999997
 11
223.863041000000010
 21
-93.590947999999997
  0
LINE
  8
0
  6
CONTINUOUS
 62
256
 10
223.863041000000010
 20
-91.590947999999997
 11
244.613041000000010
 21
-91.590947999999997
  0
LINE
  8
0
  6
CONTINUOUS
 62
256
 10
131.612934999999990
 20
-99.090947999999997
 11
145.612934000000000
 21
-99.090947999999997
  0
LINE
  8
0
  6
CONTINUOUS
 62
256
 10
145.612934000000000
 20
-99.090947999999997
 11
145.612935999999990
 21
-101.090948000000000
  0
LINE
  8
0
  6
CONTINUOUS
 62
256
 10
145.612934000000000
 20
-99.090947999999997
 11
145.612935999999990
 21
-101.090948000000000
  0
LINE
  8
0
  6
CONTINUOUS
 62
256
 10
191.613041000000010
 20
-101.090948000000000
 11
191.613041000000010
 21
-99.090947999999997
  0
LINE
  8
0
  6
CONTINUOUS
 62
256
 10
145.612935999999990
 20
-101.090948000000000
 11
191.613041000000010
 21
-101.090948000000000
  0
LINE
  8
0
  6
CONTINUOUS
 62
256
 10
228.613011000000000
 20
-99.090947999999997
 11
191.613041000000010
 21
-99.090947999999997
  0
LINE
  8
0
  6
CONTINUOUS
 62
256
 10
132.112934999999990
 20
-49.090947999999997
 11
145.612934000000000
 21
-49.090947999999997
  0
LINE
  8
0
  6
CONTINUOUS
 62
256
 10
131.612934999999990
 20
-49.090963000000002
 11
131.612934000000000
 21
-50.090947999999997
  0
LINE
  8
0
  6
CONTINUOUS
 62
256
 10
145.612934000000000
 20
-49.090947999999997
 11
145.612935999999990
 21
-47.090947999999997
  0
LINE
  8
0
  6
CONTINUOUS
 62
256
 10
131.612934999999990
 20
-49.090947999999997
 11
145.612934000000000
 21
-49.090947999999997
  0
LINE
  8
0
  6
CONTINUOUS
 62
256
 10
191.613041000000010
 20
-47.090947999999997
 11
191.613041000000010
 21
-49.090947999999997
  0
LINE
  8
0
  6
CONTINUOUS
 62
256
 10
145.612869999999990
 20
-47.090947999999997
 11
191.613041000000010
 21
-47.090947999999997
  0
LINE
  8
0
  6
CONTINUOUS
 62
256
 10
228.113011000000000
 20
-49.090947999999997
 11
214.113041000000010
 21
-49.090947999999997
  0
LINE
  8
0
  6
CONTINUOUS
 62
256
 10
228.613011000000000
 20
-49.090947999999997
 11
191.613041000000010
 21
-49.090947999999997
  0
LINE
  8
0
  6
CONTINUOUS
 62
256
 10
228.613011000000000
 20
-49.090963000000002
 11
228.613012000000000
 21
-50.090947999999997
  0
LINE
  8
0
  6
CONTINUOUS
 62
256
 10
247.113041000000010
 20
-74.090947999999997
 11
247.113041000000010
 21
-97.690948000000006
  0
LINE
  8
0
  6
CONTINUOUS
 62
256
 10
113.112905000000000
 20
-74.090947999999997
 11
113.112905000000000
 21
-97.690948000000006
  0
LINE
  8
0
  6
DASHDOT
 62
256
 10
110.109414000000000
 20
-74.090947999999997
 11
250.265977999999990
 21
-74.090947999999997
  0
LINE
  8
0
  6
CONTINUOUS
 62
256
 10
228.613011000000000
 20
-49.090946000000002
 11
228.613012000000000
 21
-50.090947999999997
  0
LINE
  8
0
  6
CONTINUOUS
 62
256
 10
246.713041000000000
 20
-98.090947999999997
 11
229.013012000000000
 21
-98.090947999999997
  0
LINE
  8
0
  6
CONTINUOUS
 62
256
 10
246.713041000000000
 20
-50.090947999999997
 11
228.613012000000000
 21
-50.090947999999997
  0
LINE
  8
0
  6
CONTINUOUS
 62
256
 10
228.613011000000000
 20
-99.090947999999997
 11
214.613010000000000
 21
-99.090947999999997
  0
LINE
  8
0
  6
CONTINUOUS
 62
256
 10
247.113041000000010
 20
-50.490948000000003
 11
247.113041000000010
 21
-74.090947999999997
  0
LINE
  8
0
  6
CONTINUOUS
 62
256
 10
131.612934999999990
 20
-49.090946000000002
 11
131.612934000000000
 21
-50.090947999999997
  0
LINE
  8
0
  6
CONTINUOUS
 62
256
 10
113.512905000000000
 20
-50.090947999999997
 11
131.612934000000000
 21
-50.090947999999997
  0
LINE
  8
0
  6
CONTINUOUS
 62
256
 10
113.512905000000000
 20
-98.090947999999997
 11
131.612934000000000
 21
-98.090947999999997
  0
LINE
  8
0
  6
CONTINUOUS
 62
256
 10
131.612934999999990
 20
-49.090947999999997
 11
145.612934000000000
 21
-49.090947999999997
  0
LINE
  8
0
  6
CONTINUOUS
 62
256
 10
145.612934000000000
 20
-49.090947999999997
 11
145.612935999999990
 21
-47.090947999999997
  0
LINE
  8
0
  6
CONTINUOUS
 62
256
 10
113.112905000000000
 20
-50.490948000000003
 11
113.112905000000000
 21
-74.090947999999997
  0
LINE
  8
0
  6
CONTINUOUS
 62
256
 10
131.612934999999990
 20
-99.090947999999997
 11
131.612934000000000
 21
-98.090947999999997
  0
LINE
  8
0
  6
CONTINUOUS
 62
256
 10
132.112934999999990
 20
-99.090947999999997
 11
145.612934000000000
 21
-99.090947999999997
  0
LINE
  8
0
  6
CONTINUOUS
 62
256
 10
228.613011000000000
 20
-99.090930999999998
 11
228.613012000000000
 21
-98.490948000000003
  0
LINE
  8
0
  6
CONTINUOUS
 62
256
 10
228.613011000000000
 20
-49.090946000000002
 11
216.113069000000000
 21
-49.090930999999998
  0
LINE
  8
0
  6
CONTINUOUS
 62
256
 10
131.612934999999990
 20
-99.090947999999997
 11
145.612934000000000
 21
-99.090947999999997
  0
LINE
  8
0
  6
CONTINUOUS
 62
256
 10
145.612869999999990
 20
-47.090947999999997
 11
145.612873000000010
 21
-49.090947999999997
  0
LINE
  8
0
  6
CONTINUOUS
 62
256
 10
131.612934999999990
 20
-49.090946000000002
 11
145.612873000000010
 21
-49.090930000000000
  0
LINE
  8
0
  6
DASHDOT
 62
256
 10
322.428619000000030
 20
-105.829628000000000
 11
322.428619000000030
 21
-43.733396999999997
  0
LINE
  8
0
  6
CONTINUOUS
 62
256
 10
327.428619000000030
 20
-57.320439000000000
 11
327.428619000000030
 21
-53.290948000000000
  0
LINE
  8
0
  6
CONTINUOUS
 62
256
 10
317.428619000000030
 20
-57.320439000000000
 11
317.428619000000030
 21
-53.290948000000000
  0
LINE
  8
0
  6
CONTINUOUS
 62
256
 10
327.428619000000030
 20
-53.290948000000000
 11
317.428619000000030
 21
-53.290948000000000
  0
LINE
  8
0
  6
DASHDOT
 62
256
 10
353.866481000000020
 20
-74.090947999999997
 11
292.220221999999980
 21
-74.090947999999997
  0
ARC
  8
0
  6
CONTINUOUS
 62
256
 10
322.428619000000030
 20
-74.090947999999997
 40
17.500000000000004
 50
106.601550000000100
 51
73.398449999999912
  0
CIRCLE
  8
0
  6
CONTINUOUS
 62
256
 10
322.428619000000030
 20
-74.090947999999997
 40
24.000000000000000
  0
CIRCLE
  8
0
  6
CONTINUOUS
 62
256
 10
-133.122302999999990
 20
-17.090948000000001
 40
5.052999999999997
  0
CIRCLE
  8
0
  6
CONTINUOUS
 62
256
 10
-133.122302999999990
 20
-17.090948000000001
 40
6.000000000000000
  0
CIRCLE
  8
0
  6
CONTINUOUS
 62
256
 10
-133.122302999999990
 20
-163.090948000000000
 40
5.052999999999997
  0
CIRCLE
  8
0
  6
CONTINUOUS
 62
256
 10
-133.122302999999990
 20
-163.090948000000000
 40
6.000000000000000
  0
CIRCLE
  8
0
  6
CONTINUOUS
 62
256
 10
25.877697000000001
 20
-163.090948000000000
 40
5.053000000000001
  0
CIRCLE
  8
0
  6
CONTINUOUS
 62
256
 10
25.877697000000001
 20
-163.090948000000000
 40
6.000000000000000
  0
TEXT
  8
0
  6
CONTINUOUS
 62
256
 10
578.622802734375000
 20
-226.374313354492190
 40
3.299999952316284
  1
1/1
 50
0.000002504478167
 41
0.850909097352304
  7
STANDARD1
  0
TEXT
  8
0
  6
CONTINUOUS
 62
256
 10
576.204833984375000
 20
-226.374313354492190
 40
3.299999952316284
  1
 
 50
0.000002504478167
 41
1.733333298293026
  7
STANDARD1
  0
TEXT
  8
0
  6
CONTINUOUS
 62
256
 10
563.154174804687500
 20
-226.374313354492190
 40
3.299999952316284
  1
SCALE
 50
0.000002504478167
 41
0.821052645401140
  7
STANDARD1
  0
TEXT
  8
0
  6
CONTINUOUS
 62
256
 10
559.902832031250000
 20
-226.374313354492190
 40
3.299999952316284
  1
 
 50
0.000002504478167
 41
1.733333298293026
  7
STANDARD1
  0
TEXT
  8
0
  6
CONTINUOUS
 62
256
 10
574.757019042968750
 20
-221.074310302734370
 40
3.299999952316284
  1
1/240
 50
0.000002504478167
 41
0.821052645401140
  7
STANDARD1
  0
TEXT
  8
0
  6
CONTINUOUS
 62
256
 10
570.974975585937500
 20
-221.074310302734370
 40
3.299999952316284
  1
ü`
 50
0.000002504478167
 41
1.176000019651471
  7
STANDARD1
  0
TEXT
  8
0
  6
CONTINUOUS
 62
256
 10
559.902832031250000
 20
-221.074310302734370
 40
3.299999952316284
  1
1/80
 50
0.000002504478167
 41
0.832000075658163
  7
STANDARD1
  0
TEXT
  8
0
  6
CONTINUOUS
 62
256
 10
559.902832031250000
 20
-215.774307250976560
 40
3.299999952316284
  1
GM-SHYMB-RH
 50
0.000002504478167
 41
0.798139564113939
  7
STANDARD1
  0
TEXT
  8
0
  6
CONTINUOUS
 62
256
 10
565.728210449218750
 20
-210.474319458007810
 40
3.299999952316284
  1
0.4kW
 50
0.000002504478167
 41
0.821052645401140
  7
STANDARD1
  0
TEXT
  8
0
  6
CONTINUOUS
 62
256
 10
559.902832031250000
 20
-210.474319458007810
 40
3.299999952316284
  1
  
 50
0.000002504478167
 41
1.485714400175845
  7
STANDARD1
  0
TEXT
  8
0
  6
CONTINUOUS
 62
256
 10
565.722290039062500
 20
-205.174316406250000
 40
3.299999952316284
  1
SHY055
 50
0.000002504478167
 41
0.813913121261144
  7
STANDARD1
  0
TEXT
  8
0
  6
CONTINUOUS
 62
256
 10
559.902832031250000
 20
-205.174316406250000
 40
3.299999952316284
  1
  
 50
0.000002504478167
 41
1.485714400175845
  7
STANDARD1
  0
ARC
  8
0
  6
CONTINUOUS
 62
256
 10
-749.825865000000020
 20
-90.090791999999993
 40
289.396999999999990
 50
0.000000000000000
 51
7.897989000000000
  0
ARC
  8
0
  6
CONTINUOUS
 62
256
 10
-469.117087000000030
 20
-51.149273999999998
 40
5.999999999999990
 50
7.897989000000010
 51
45.000000000000149
  0
ARC
  8
0
  6
CONTINUOUS
 62
256
 10
-459.129250000000010
 20
-46.142204000000000
 40
6.600000000000021
 50
8.597081999999979
 51
44.999999999999829
  0
ARC
  8
0
  6
CONTINUOUS
 62
256
 10
-480.503052000000030
 20
-86.090791999999993
 40
1.500000000000004
 50
187.928142000000150
 51
270.000000000000000
  0
ARC
  8
0
  6
CONTINUOUS
 62
256
 10
-509.225865000000000
 20
-90.090791999999993
 40
33.500000000000007
 50
7.180755999999994
 51
52.819243999999983
  0
ARC
  8
0
  6
CONTINUOUS
 62
256
 10
-509.225865000000000
 20
-90.090791999999993
 40
42.999999999999979
 50
5.531071999999997
 51
54.468927999999984
  0
ARC
  8
0
  6
CONTINUOUS
 62
256
 10
-509.225865000000000
 20
-90.090791999999993
 40
36.999999999999979
 50
5.963570000000011
 51
54.036430000000010
  0
ARC
  8
0
  6
CONTINUOUS
 62
256
 10
-491.400356999999990
 20
-67.216105999999996
 40
1.500000000000025
 50
150.000000000000540
 51
232.071857999999280
  0
ARC
  8
0
  6
CONTINUOUS
 62
256
 10
-489.887254999999980
 20
-64.595337999999998
 40
1.500000000000000
 50
52.819244000000090
 51
150.000000000000540
  0
ARC
  8
0
  6
CONTINUOUS
 62
256
 10
-486.615941000000020
 20
-58.929254999999998
 40
1.500000000000025
 50
150.000000000000540
 51
234.036429999999370
  0
LINE
  8
0
  6
CONTINUOUS
 62
256
 10
-492.699394999999980
 20
-66.466105999999996
 11
-491.186292999999980
 21
-63.845337999999998
  0
LINE
  8
0
  6
CONTINUOUS
 62
256
 10
-487.914979000000020
 20
-58.179254999999998
 11
-486.407412000000020
 21
-55.568072000000001
  0
ARC
  8
0
  6
CONTINUOUS
 62
256
 10
-485.108374000000030
 20
-56.318072000000001
 40
1.499999999999989
 50
54.468928000000517
 51
150.000000000000540
  0
ARC
  8
0
  6
CONTINUOUS
 62
256
 10
-521.636270999999970
 20
-60.595337999999998
 40
1.499999999999989
 50
112.819243999999050
 51
209.999999999999460
  0
LINE
  8
0
  6
CONTINUOUS
 62
256
 10
-522.935308999999960
 20
-61.345337999999998
 11
-521.422207999999960
 21
-63.966106000000003
  0
ARC
  8
0
  6
CONTINUOUS
 62
256
 10
-524.907585000000040
 20
-54.929254999999998
 40
1.500000000000025
 50
209.999999999999460
 51
294.036430000001640
  0
LINE
  8
0
  6
CONTINUOUS
 62
256
 10
-527.714191000000030
 20
-53.068072000000001
 11
-526.206623000000040
 21
-55.679254999999998
  0
ARC
  8
0
  6
CONTINUOUS
 62
256
 10
-526.415153000000030
 20
-52.318072000000001
 40
1.499999999999995
 50
114.468927999999890
 51
209.999999999999460
  0
ARC
  8
0
  6
CONTINUOUS
 62
256
 10
-520.123169999999960
 20
-63.216106000000003
 40
1.500000000000025
 50
209.999999999999460
 51
292.071857999999220
  0
ARC
  8
0
  6
CONTINUOUS
 62
256
 10
-509.225865000000000
 20
-90.090791999999993
 40
33.500000000000000
 50
67.180756000000002
 51
112.819244000000000
  0
ARC
  8
0
  6
CONTINUOUS
 62
256
 10
-509.225865000000000
 20
-90.090791999999993
 40
43.000000000000007
 50
65.531071999999980
 51
114.468928000000030
  0
ARC
  8
0
  6
CONTINUOUS
 62
256
 10
-509.225865000000000
 20
-90.090791999999993
 40
36.999999999999993
 50
65.963570000000033
 51
114.036430000000070
  0
ARC
  8
0
  6
CONTINUOUS
 62
256
 10
-509.225865000000000
 20
-90.090791999999993
 40
27.499999999999989
 50
67.928142000000008
 51
112.071858000000090
  0
ARC
  8
0
  6
CONTINUOUS
 62
256
 10
-498.328559999999980
 20
-63.216106000000003
 40
1.499999999999991
 50
247.928142000000750
 51
329.999999999999490
  0
ARC
  8
0
  6
CONTINUOUS
 62
256
 10
-496.815458999999980
 20
-60.595337999999998
 40
1.499999999999975
 50
329.999999999999490
 51
67.180756000000954
  0
ARC
  8
0
  6
CONTINUOUS
 62
256
 10
-493.544144000000020
 20
-54.929254999999998
 40
1.499999999999999
 50
245.963570000000350
 51
329.999999999999490
  0
LINE
  8
0
  6
CONTINUOUS
 62
256
 10
-497.029521999999990
 20
-63.966106000000003
 11
-495.516420999999980
 21
-61.345337999999998
  0
LINE
  8
0
  6
CONTINUOUS
 62
256
 10
-492.245106000000020
 20
-55.679254999999998
 11
-490.737539000000030
 21
-53.068072000000001
  0
ARC
  8
0
  6
CONTINUOUS
 62
256
 10
-492.036577000000020
 20
-52.318072000000001
 40
1.499999999999975
 50
329.999999999999490
 51
65.531072000000108
  0
ARC
  8
0
  6
CONTINUOUS
 62
256
 10
-528.564474000000020
 20
-64.595337999999998
 40
1.500000000000025
 50
29.999999999999456
 51
127.180755999999920
  0
LINE
  8
0
  6
CONTINUOUS
 62
256
 10
-527.265436000000020
 20
-63.845337999999998
 11
-525.752335000000020
 21
-66.466105999999996
  0
ARC
  8
0
  6
CONTINUOUS
 62
256
 10
-531.835787999999980
 20
-58.929254999999998
 40
1.500000000000013
 50
305.963570000000630
 51
29.999999999999456
  0
LINE
  8
0
  6
CONTINUOUS
 62
256
 10
-532.044317999999980
 20
-55.568072000000001
 11
-530.536749999999980
 21
-58.179254999999998
  0
ARC
  8
0
  6
CONTINUOUS
 62
256
 10
-533.343355999999970
 20
-56.318072000000001
 40
1.500000000000025
 50
29.999999999999456
 51
125.531072000001260
  0
ARC
  8
0
  6
CONTINUOUS
 62
256
 10
-527.051373000000010
 20
-67.216105999999996
 40
1.500000000000018
 50
307.928142000000720
 51
29.999999999999456
  0
ARC
  8
0
  6
CONTINUOUS
 62
256
 10
-509.225865000000000
 20
-90.090791999999993
 40
33.499999999999972
 50
127.180755999999930
 51
172.819244000000000
  0
ARC
  8
0
  6
CONTINUOUS
 62
256
 10
-509.225865000000000
 20
-90.090791999999993
 40
42.999999999999979
 50
125.531071999999970
 51
174.468928000000010
  0
ARC
  8
0
  6
CONTINUOUS
 62
256
 10
-509.225865000000000
 20
-90.090791999999993
 40
37.000000000000000
 50
125.963569999999990
 51
174.036430000000000
  0
ARC
  8
0
  6
CONTINUOUS
 62
256
 10
-509.225865000000000
 20
-90.090791999999993
 40
27.500000000000036
 50
127.928142000000070
 51
172.071857999999990
  0
ARC
  8
0
  6
CONTINUOUS
 62
256
 10
-537.948677999999970
 20
-86.090791999999993
 40
1.500000000000000
 50
270.000000000000000
 51
352.071857999999850
  0
ARC
  8
0
  6
CONTINUOUS
 62
256
 10
-540.974880999999980
 20
-86.090791999999993
 40
1.499999999999972
 50
172.819243999999660
 51
270.000000000000000
  0
ARC
  8
0
  6
CONTINUOUS
 62
256
 10
-547.517509000000020
 20
-86.090791999999993
 40
1.500000000000000
 50
270.000000000000000
 51
354.036430000000000
  0
LINE
  8
0
  6
CONTINUOUS
 62
256
 10
-537.948677999999970
 20
-87.590791999999993
 11
-540.974880999999980
 21
-87.590791999999993
  0
LINE
  8
0
  6
CONTINUOUS
 62
256
 10
-547.517509000000020
 20
-87.590791999999993
 11
-550.532644000000000
 21
-87.590791999999993
  0
ARC
  8
0
  6
CONTINUOUS
 62
256
 10
-550.532644000000000
 20
-86.090791999999993
 40
1.500000000000035
 50
174.468927999999950
 51
270.000000000000000
  0
ARC
  8
0
  6
CONTINUOUS
 62
256
 10
-528.564474000000020
 20
-115.586246000000000
 40
1.499999999999994
 50
232.819243999999940
 51
330.000000000000570
  0
LINE
  8
0
  6
CONTINUOUS
 62
256
 10
-527.265436000000020
 20
-116.336246000000000
 11
-525.752335000000020
 21
-113.715478000000000
  0
ARC
  8
0
  6
CONTINUOUS
 62
256
 10
-531.835787999999980
 20
-121.252328000000010
 40
1.500000000000025
 50
330.000000000000570
 51
54.036429999999186
  0
ARC
  8
0
  6
CONTINUOUS
 62
256
 10
-527.051373000000010
 20
-112.965478000000000
 40
1.500000000000025
 50
330.000000000000570
 51
52.071857999999288
  0
ARC
  8
0
  6
CONTINUOUS
 62
256
 10
-509.225865000000000
 20
-90.090791999999993
 40
33.499999999999950
 50
187.180756000000000
 51
232.819243999999880
  0
ARC
  8
0
  6
CONTINUOUS
 62
256
 10
-509.225865000000000
 20
-90.090791999999993
 40
42.999999999999979
 50
185.531071999999990
 51
234.468928000000060
  0
ARC
  8
0
  6
CONTINUOUS
 62
256
 10
-509.225865000000000
 20
-90.090791999999993
 40
37.000000000000036
 50
185.963570000000000
 51
234.036429999999970
  0
ARC
  8
0
  6
CONTINUOUS
 62
256
 10
-509.225865000000000
 20
-90.090791999999993
 40
27.499999999999989
 50
187.928142000000010
 51
232.071857999999930
  0
ARC
  8
0
  6
CONTINUOUS
 62
256
 10
-537.948677999999970
 20
-94.090791999999993
 40
1.500000000000004
 50
7.928142000000149
 51
90.000000000000000
  0
ARC
  8
0
  6
CONTINUOUS
 62
256
 10
-540.974880999999980
 20
-94.090791999999993
 40
1.500000000000000
 50
90.000000000000000
 51
187.180756000000340
  0
ARC
  8
0
  6
CONTINUOUS
 62
256
 10
-547.517509000000020
 20
-94.090791999999993
 40
1.499999999999955
 50
5.963570000000017
 51
90.000000000000000
  0
LINE
  8
0
  6
CONTINUOUS
 62
256
 10
-537.948677999999970
 20
-92.590791999999993
 11
-540.974880999999980
 21
-92.590791999999993
  0
LINE
  8
0
  6
CONTINUOUS
 62
256
 10
-547.517509000000020
 20
-92.590791999999993
 11
-550.532644000000000
 21
-92.590791999999993
  0
ARC
  8
0
  6
CONTINUOUS
 62
256
 10
-550.532644000000000
 20
-94.090791999999993
 40
1.500000000000000
 50
90.000000000000000
 51
185.531072000000050
  0
ARC
  8
0
  6
CONTINUOUS
 62
256
 10
-521.636270999999970
 20
-119.586246000000000
 40
1.500000000000025
 50
150.000000000000540
 51
247.180756000000940
  0
LINE
  8
0
  6
CONTINUOUS
 62
256
 10
-522.935308999999960
 20
-118.836246000000000
 11
-521.422207999999960
 21
-116.215478000000000
  0
ARC
  8
0
  6
CONTINUOUS
 62
256
 10
-520.123169999999960
 20
-116.965478000000000
 40
1.499999999999998
 50
67.928142000000889
 51
150.000000000000540
  0
ARC
  8
0
  6
CONTINUOUS
 62
256
 10
-509.225865000000000
 20
-90.090791999999993
 40
33.500000000000007
 50
247.180756000000030
 51
292.819243999999970
  0
ARC
  8
0
  6
CONTINUOUS
 62
256
 10
-509.225865000000000
 20
-90.090791999999993
 40
27.499999999999982
 50
247.928142000000120
 51
292.071857999999960
  0
ARC
  8
0
  6
CONTINUOUS
 62
256
 10
-498.328559999999980
 20
-116.965478000000000
 40
1.499999999999975
 50
30.000000000000544
 51
112.071857999999120
  0
ARC
  8
0
  6
CONTINUOUS
 62
256
 10
-496.815458999999980
 20
-119.586246000000000
 40
1.499999999999989
 50
292.819243999999060
 51
30.000000000000544
  0
LINE
  8
0
  6
CONTINUOUS
 62
256
 10
-497.029521999999990
 20
-116.215478000000000
 11
-495.516420999999980
 21
-118.836246000000000
  0
ARC
  8
0
  6
CONTINUOUS
 62
256
 10
-509.225865000000000
 20
-90.090791999999993
 40
33.499999999999986
 50
307.180755999999920
 51
352.819244000000030
  0
ARC
  8
0
  6
CONTINUOUS
 62
256
 10
-509.225865000000000
 20
-90.090791999999993
 40
36.999999999999993
 50
305.963570000000000
 51
354.036429999999940
  0
ARC
  8
0
  6
CONTINUOUS
 62
256
 10
-486.615941000000020
 20
-121.252328000000010
 40
1.500000000000007
 50
125.963570000000810
 51
210.000000000000510
  0
ARC
  8
0
  6
CONTINUOUS
 62
256
 10
-489.887254999999980
 20
-115.586246000000000
 40
1.499999999999975
 50
210.000000000000510
 51
307.180756000000090
  0
ARC
  8
0
  6
CONTINUOUS
 62
256
 10
-509.225865000000000
 20
-90.090791999999993
 40
27.500000000000004
 50
307.928141999999980
 51
352.071858000000020
  0
ARC
  8
0
  6
CONTINUOUS
 62
256
 10
-480.503052000000030
 20
-94.090791999999993
 40
1.500000000000000
 50
90.000000000000000
 51
172.071857999999850
  0
LINE
  8
0
  6
CONTINUOUS
 62
256
 10
-492.699394999999980
 20
-113.715478000000000
 11
-491.186292999999980
 21
-116.336246000000000
  0
ARC
  8
0
  6
CONTINUOUS
 62
256
 10
-491.400356999999990
 20
-112.965478000000000
 40
1.500000000000018
 50
127.928142000000730
 51
210.000000000000510
  0
CIRCLE
  8
0
  6
CONTINUOUS
 62
256
 10
-509.225865000000000
 20
-90.090791999999993
 40
5.000000000000000
  0
ARC
  8
0
  6
CONTINUOUS
 62
256
 10
-501.179188000000010
 20
-96.028046000000003
 40
1.500000000000000
 50
143.578178000000040
 51
210.000000000000510
  0
ARC
  8
0
  6
CONTINUOUS
 62
256
 10
-500.060713000000020
 20
-94.090791999999993
 40
1.500000000000000
 50
90.000000000000000
 51
156.421821999999620
  0
ARC
  8
0
  6
CONTINUOUS
 62
256
 10
-494.690968000000000
 20
-107.265970999999990
 40
1.499999999999975
 50
210.000000000000510
 51
310.240347999999810
  0
ARC
  8
0
  6
CONTINUOUS
 62
256
 10
-496.856547999999980
 20
-94.090791999999993
 40
1.500000000000024
 50
342.079787000000580
 51
90.000000000000000
  0
ARC
  8
0
  6
CONTINUOUS
 62
256
 10
-490.140530000000010
 20
-94.090791999999993
 40
1.500000000000000
 50
90.000000000000000
 51
168.162996000000190
  0
ARC
  8
0
  6
CONTINUOUS
 62
256
 10
-496.219095999999980
 20
-104.619176999999990
 40
1.499999999999989
 50
131.837003999999810
 51
210.000000000000510
  0
ARC
  8
0
  6
CONTINUOUS
 62
256
 10
-487.084274999999990
 20
-94.090791999999993
 40
1.500000000000009
 50
349.759652000000300
 51
90.000000000000000
  0
ARC
  8
0
  6
CONTINUOUS
 62
256
 10
-499.577105000000020
 20
-98.802935000000005
 40
1.499999999999975
 50
210.000000000000510
 51
317.920212999999820
  0
LINE
  8
0
  6
CONTINUOUS
 62
256
 10
-497.518133999999980
 20
-105.369176999999990
 11
-495.990005999999990
 21
-108.015970999999990
  0
ARC
  8
0
  6
CONTINUOUS
 62
256
 10
-509.225865000000000
 20
-90.090791999999993
 40
14.500000000000021
 50
317.920213000000050
 51
342.079787000000010
  0
LINE
  8
0
  6
CONTINUOUS
 62
256
 10
-496.856547999999980
 20
-92.590791999999993
 11
-500.060713000000020
 21
-92.590791999999993
  0
LINE
  8
0
  6
CONTINUOUS
 62
256
 10
-487.084274999999990
 20
-92.590791999999993
 11
-490.140530000000010
 21
-92.590791999999993
  0
LINE
  8
0
  6
CONTINUOUS
 62
256
 10
-502.478226000000010
 20
-96.778046000000003
 11
-500.876143000000010
 21
-99.552935000000005
  0
ARC
  8
0
  6
CONTINUOUS
 62
256
 10
-509.225865000000000
 20
-90.090791999999993
 40
24.000000000000004
 50
310.240347999999980
 51
349.759652000000020
  0
ARC
  8
0
  6
CONTINUOUS
 62
256
 10
-509.225865000000000
 20
-90.090791999999993
 40
8.499999999999989
 50
323.578177999999920
 51
336.421821999999910
  0
ARC
  8
0
  6
CONTINUOUS
 62
256
 10
-511.946421999999980
 20
-102.802935000000010
 40
1.500000000000025
 50
150.000000000000540
 51
257.920212999998800
  0
LINE
  8
0
  6
CONTINUOUS
 62
256
 10
-513.245459999999980
 20
-102.052935000000010
 11
-511.643376999999990
 21
-99.278046000000003
  0
ARC
  8
0
  6
CONTINUOUS
 62
256
 10
-510.344338999999990
 20
-100.028046000000000
 40
1.500000000000001
 50
83.578178000000747
 51
150.000000000000540
  0
ARC
  8
0
  6
CONTINUOUS
 62
256
 10
-509.225865000000000
 20
-90.090791999999993
 40
8.500000000000007
 50
263.578177999999980
 51
276.421822000000020
  0
ARC
  8
0
  6
CONTINUOUS
 62
256
 10
-508.107391000000010
 20
-100.028046000000000
 40
1.500000000000025
 50
29.999999999999456
 51
96.421821999999253
  0
LINE
  8
0
  6
CONTINUOUS
 62
256
 10
-506.808353000000010
 20
-99.278046000000003
 11
-505.206270000000020
 21
-102.052935000000010
  0
ARC
  8
0
  6
CONTINUOUS
 62
256
 10
-506.505308000000010
 20
-102.802935000000010
 40
1.500000000000002
 50
282.079786999999160
 51
29.999999999999456
  0
ARC
  8
0
  6
CONTINUOUS
 62
256
 10
-509.225865000000000
 20
-90.090791999999993
 40
14.500000000000002
 50
257.920213000000050
 51
282.079786999999950
  0
ARC
  8
0
  6
CONTINUOUS
 62
256
 10
-516.832557999999950
 20
-111.265970999999990
 40
1.500000000000025
 50
150.000000000000540
 51
250.240347999999300
  0
LINE
  8
0
  6
CONTINUOUS
 62
256
 10
-518.131595999999940
 20
-110.515970999999990
 11
-516.603469000000020
 21
-107.869176999999990
  0
ARC
  8
0
  6
CONTINUOUS
 62
256
 10
-515.304431000000020
 20
-108.619176999999990
 40
1.500000000000007
 50
71.837003999999709
 51
150.000000000000540
  0
ARC
  8
0
  6
CONTINUOUS
 62
256
 10
-509.225865000000000
 20
-90.090791999999993
 40
17.999999999999996
 50
251.837003999999980
 51
288.162995999999960
  0
ARC
  8
0
  6
CONTINUOUS
 62
256
 10
-503.147298999999980
 20
-108.619176999999990
 40
1.500000000000025
 50
29.999999999999456
 51
108.162996000000290
  0
LINE
  8
0
  6
CONTINUOUS
 62
256
 10
-501.848260999999980
 20
-107.869176999999990
 11
-500.320133000000000
 21
-110.515970999999990
  0
ARC
  8
0
  6
CONTINUOUS
 62
256
 10
-501.619171999999990
 20
-111.265970999999990
 40
1.500000000000012
 50
289.759652000000640
 51
30.000000000000544
  0
ARC
  8
0
  6
CONTINUOUS
 62
256
 10
-509.225865000000000
 20
-90.090791999999993
 40
23.999999999999993
 50
250.240348000000010
 51
289.759652000000020
  0
ARC
  8
0
  6
CONTINUOUS
 62
256
 10
-511.946421999999980
 20
-77.378648999999996
 40
1.500000000000000
 50
102.079787000001360
 51
209.999999999999460
  0
LINE
  8
0
  6
CONTINUOUS
 62
256
 10
-513.245459999999980
 20
-78.128648999999996
 11
-511.643376999999990
 21
-80.903537999999998
  0
ARC
  8
0
  6
CONTINUOUS
 62
256
 10
-510.344338999999990
 20
-80.153537999999998
 40
1.499999999999975
 50
210.000000000000510
 51
276.421821999999220
  0
ARC
  8
0
  6
CONTINUOUS
 62
256
 10
-509.225865000000000
 20
-90.090791999999993
 40
8.500000000000007
 50
83.578177999999994
 51
96.421822000000020
  0
ARC
  8
0
  6
CONTINUOUS
 62
256
 10
-508.107391000000010
 20
-80.153537999999998
 40
1.500000000000001
 50
263.578178000000780
 51
329.999999999999490
  0
LINE
  8
0
  6
CONTINUOUS
 62
256
 10
-506.808353000000010
 20
-80.903537999999998
 11
-505.206270000000020
 21
-78.128648999999996
  0
ARC
  8
0
  6
CONTINUOUS
 62
256
 10
-506.505308000000010
 20
-77.378648999999996
 40
1.499999999999975
 50
329.999999999999490
 51
77.920213000000771
  0
ARC
  8
0
  6
CONTINUOUS
 62
256
 10
-509.225865000000000
 20
-90.090791999999993
 40
14.500000000000002
 50
77.920213000000032
 51
102.079786999999980
  0
ARC
  8
0
  6
CONTINUOUS
 62
256
 10
-516.832557999999950
 20
-68.915612999999993
 40
1.500000000000012
 50
109.759652000000680
 51
209.999999999999460
  0
LINE
  8
0
  6
CONTINUOUS
 62
256
 10
-518.131595999999940
 20
-69.665612999999993
 11
-516.603469000000020
 21
-72.312406999999993
  0
ARC
  8
0
  6
CONTINUOUS
 62
256
 10
-515.304431000000020
 20
-71.562406999999993
 40
1.500000000000025
 50
209.999999999999460
 51
288.162996000000310
  0
ARC
  8
0
  6
CONTINUOUS
 62
256
 10
-509.225865000000000
 20
-90.090791999999993
 40
17.999999999999996
 50
71.837004000000007
 51
108.162996000000010
  0
ARC
  8
0
  6
CONTINUOUS
 62
256
 10
-503.147298999999980
 20
-71.562406999999993
 40
1.500000000000007
 50
251.837003999999720
 51
329.999999999999490
  0
LINE
  8
0
  6
CONTINUOUS
 62
256
 10
-501.848260999999980
 20
-72.312406999999993
 11
-500.320133000000000
 21
-69.665612999999993
  0
ARC
  8
0
  6
CONTINUOUS
 62
256
 10
-501.619171999999990
 20
-68.915612999999993
 40
1.499999999999975
 50
329.999999999999490
 51
70.240347999999329
  0
ARC
  8
0
  6
CONTINUOUS
 62
256
 10
-509.225865000000000
 20
-90.090791999999993
 40
23.999999999999993
 50
70.240348000000012
 51
109.759651999999990
  0
ARC
  8
0
  6
CONTINUOUS
 62
256
 10
-518.874625000000040
 20
-81.378648999999996
 40
1.500000000000025
 50
29.999999999999456
 51
137.920212999999820
  0
LINE
  8
0
  6
CONTINUOUS
 62
256
 10
-517.575587000000040
 20
-80.628648999999996
 11
-515.973504000000050
 21
-83.403537999999998
  0
ARC
  8
0
  6
CONTINUOUS
 62
256
 10
-517.272542000000040
 20
-84.153537999999998
 40
1.499999999999955
 50
323.578177999998730
 51
29.999999999999456
  0
ARC
  8
0
  6
CONTINUOUS
 62
256
 10
-509.225865000000000
 20
-90.090791999999993
 40
8.499999999999989
 50
143.578177999999950
 51
156.421821999999930
  0
ARC
  8
0
  6
CONTINUOUS
 62
256
 10
-518.391016000000040
 20
-86.090791999999993
 40
1.500000000000000
 50
270.000000000000000
 51
336.421822000000470
  0
LINE
  8
0
  6
CONTINUOUS
 62
256
 10
-518.391016000000040
 20
-87.590791999999993
 11
-521.595182000000020
 21
-87.590791999999993
  0
ARC
  8
0
  6
CONTINUOUS
 62
256
 10
-521.595182000000020
 20
-86.090791999999993
 40
1.500000000000024
 50
162.079787000000550
 51
270.000000000000000
  0
ARC
  8
0
  6
CONTINUOUS
 62
256
 10
-509.225865000000000
 20
-90.090791999999993
 40
14.499999999999970
 50
137.920212999999930
 51
162.079786999999980
  0
ARC
  8
0
  6
CONTINUOUS
 62
256
 10
-523.760761000000000
 20
-72.915612999999993
 40
1.500000000000025
 50
29.999999999999456
 51
130.240348000001430
  0
LINE
  8
0
  6
CONTINUOUS
 62
256
 10
-522.461723000000010
 20
-72.165612999999993
 11
-520.933595999999970
 21
-74.812406999999993
  0
ARC
  8
0
  6
CONTINUOUS
 62
256
 10
-522.232633999999960
 20
-75.562406999999993
 40
1.500000000000027
 50
311.837004000001400
 51
29.999999999999456
  0
ARC
  8
0
  6
CONTINUOUS
 62
256
 10
-509.225865000000000
 20
-90.090791999999993
 40
17.999999999999989
 50
131.837003999999920
 51
168.162995999999990
  0
ARC
  8
0
  6
CONTINUOUS
 62
256
 10
-528.311199999999990
 20
-86.090791999999993
 40
1.500000000000000
 50
270.000000000000000
 51
348.162996000000650
  0
LINE
  8
0
  6
CONTINUOUS
 62
256
 10
-528.311199999999990
 20
-87.590791999999993
 11
-531.367454999999950
 21
-87.590791999999993
  0
ARC
  8
0
  6
CONTINUOUS
 62
256
 10
-531.367454999999950
 20
-86.090791999999993
 40
1.499999999999953
 50
169.759651999999900
 51
270.000000000000000
  0
ARC
  8
0
  6
CONTINUOUS
 62
256
 10
-509.225865000000000
 20
-90.090791999999993
 40
24.000000000000039
 50
130.240348000000100
 51
169.759651999999990
  0
ARC
  8
0
  6
CONTINUOUS
 62
256
 10
-518.874625000000040
 20
-98.802935000000005
 40
1.499999999999994
 50
222.079787000000180
 51
330.000000000000570
  0
LINE
  8
0
  6
CONTINUOUS
 62
256
 10
-517.575587000000040
 20
-99.552935000000005
 11
-515.973504000000050
 21
-96.778046000000003
  0
ARC
  8
0
  6
CONTINUOUS
 62
256
 10
-517.272542000000040
 20
-96.028046000000003
 40
1.500000000000025
 50
330.000000000000570
 51
36.421822000001256
  0
ARC
  8
0
  6
CONTINUOUS
 62
256
 10
-509.225865000000000
 20
-90.090791999999993
 40
8.499999999999991
 50
203.578178000000070
 51
216.421822000000050
  0
ARC
  8
0
  6
CONTINUOUS
 62
256
 10
-518.391016000000040
 20
-94.090791999999993
 40
1.500000000000036
 50
23.578177999999536
 51
90.000000000000000
  0
LINE
  8
0
  6
CONTINUOUS
 62
256
 10
-518.391016000000040
 20
-92.590791999999993
 11
-521.595182000000020
 21
-92.590791999999993
  0
ARC
  8
0
  6
CONTINUOUS
 62
256
 10
-521.595182000000020
 20
-94.090791999999993
 40
1.500000000000000
 50
90.000000000000000
 51
197.920212999999450
  0
ARC
  8
0
  6
CONTINUOUS
 62
256
 10
-509.225865000000000
 20
-90.090791999999993
 40
14.499999999999956
 50
197.920213000000020
 51
222.079787000000070
  0
ARC
  8
0
  6
CONTINUOUS
 62
256
 10
-523.760761000000000
 20
-107.265970999999990
 40
1.500000000000027
 50
229.759651999998570
 51
330.000000000000570
  0
LINE
  8
0
  6
CONTINUOUS
 62
256
 10
-522.461723000000010
 20
-108.015970999999990
 11
-520.933595999999970
 21
-105.369176999999990
  0
ARC
  8
0
  6
CONTINUOUS
 62
256
 10
-522.232633999999960
 20
-104.619176999999990
 40
1.500000000000025
 50
330.000000000000570
 51
48.162995999998600
  0
ARC
  8
0
  6
CONTINUOUS
 62
256
 10
-509.225865000000000
 20
-90.090791999999993
 40
17.999999999999975
 50
191.837004000000010
 51
228.162996000000020
  0
ARC
  8
0
  6
CONTINUOUS
 62
256
 10
-528.311199999999990
 20
-94.090791999999993
 40
1.500000000000053
 50
11.837003999999359
 51
90.000000000000000
  0
LINE
  8
0
  6
CONTINUOUS
 62
256
 10
-528.311199999999990
 20
-92.590791999999993
 11
-531.367454999999950
 21
-92.590791999999993
  0
ARC
  8
0
  6
CONTINUOUS
 62
256
 10
-531.367454999999950
 20
-94.090791999999993
 40
1.500000000000000
 50
90.000000000000000
 51
190.240348000000100
  0
ARC
  8
0
  6
CONTINUOUS
 62
256
 10
-509.225865000000000
 20
-90.090791999999993
 40
24.000000000000050
 50
190.240348000000010
 51
229.759652000000100
  0
ARC
  8
0
  6
CONTINUOUS
 62
256
 10
-496.856547999999980
 20
-86.090791999999993
 40
1.500000000000000
 50
270.000000000000000
 51
17.920212999999450
  0
LINE
  8
0
  6
CONTINUOUS
 62
256
 10
-496.856547999999980
 20
-87.590791999999993
 11
-500.060713000000020
 21
-87.590791999999993
  0
ARC
  8
0
  6
CONTINUOUS
 62
256
 10
-500.060713000000020
 20
-86.090791999999993
 40
1.499999999999984
 50
203.578178000000380
 51
270.000000000000000
  0
ARC
  8
0
  6
CONTINUOUS
 62
256
 10
-509.225865000000000
 20
-90.090791999999993
 40
8.499999999999991
 50
23.578178000000058
 51
36.421822000000063
  0
ARC
  8
0
  6
CONTINUOUS
 62
256
 10
-501.179188000000010
 20
-84.153537999999998
 40
1.499999999999975
 50
149.999999999999460
 51
216.421821999999960
  0
LINE
  8
0
  6
CONTINUOUS
 62
256
 10
-502.478226000000010
 20
-83.403537999999998
 11
-500.876143000000010
 21
-80.628648999999996
  0
ARC
  8
0
  6
CONTINUOUS
 62
256
 10
-499.577105000000020
 20
-81.378648999999996
 40
1.499999999999994
 50
42.079787000000181
 51
149.999999999999460
  0
ARC
  8
0
  6
CONTINUOUS
 62
256
 10
-509.225865000000000
 20
-90.090791999999993
 40
14.500000000000014
 50
17.920213000000000
 51
42.079786999999946
  0
ARC
  8
0
  6
CONTINUOUS
 62
256
 10
-487.084274999999990
 20
-86.090791999999993
 40
1.500000000000000
 50
270.000000000000000
 51
10.240347999999715
  0
LINE
  8
0
  6
CONTINUOUS
 62
256
 10
-487.084274999999990
 20
-87.590791999999993
 11
-490.140530000000010
 21
-87.590791999999993
  0
ARC
  8
0
  6
CONTINUOUS
 62
256
 10
-490.140530000000010
 20
-86.090791999999993
 40
1.499999999999997
 50
191.837003999999810
 51
270.000000000000000
  0
ARC
  8
0
  6
CONTINUOUS
 62
256
 10
-509.225865000000000
 20
-90.090791999999993
 40
17.999999999999975
 50
11.837004000000027
 51
48.162996000000071
  0
ARC
  8
0
  6
CONTINUOUS
 62
256
 10
-496.219095999999980
 20
-75.562406999999993
 40
1.499999999999975
 50
149.999999999999460
 51
228.162996000000190
  0
LINE
  8
0
  6
CONTINUOUS
 62
256
 10
-497.518133999999980
 20
-74.812406999999993
 11
-495.990005999999990
 21
-72.165612999999993
  0
ARC
  8
0
  6
CONTINUOUS
 62
256
 10
-494.690968000000000
 20
-72.915612999999993
 40
1.499999999999991
 50
49.759652000000230
 51
150.000000000000540
  0
ARC
  8
0
  6
CONTINUOUS
 62
256
 10
-509.225865000000000
 20
-90.090791999999993
 40
23.999999999999993
 50
10.240347999999988
 51
49.759652000000010
  0
ARC
  8
0
  6
CONTINUOUS
 62
256
 10
-477.476849000000020
 20
-86.090791999999993
 40
1.500000000000000
 50
270.000000000000000
 51
7.180756000000089
  0
LINE
  8
0
  6
CONTINUOUS
 62
256
 10
-477.476849000000020
 20
-87.590791999999993
 11
-480.503052000000030
 21
-87.590791999999993
  0
ARC
  8
0
  6
CONTINUOUS
 62
256
 10
-470.934220999999980
 20
-86.090791999999993
 40
1.500000000000012
 50
185.963569999999780
 51
270.000000000000000
  0
LINE
  8
0
  6
CONTINUOUS
 62
256
 10
-467.919085999999990
 20
-87.590791999999993
 11
-470.934220999999980
 21
-87.590791999999993
  0
LINE
  8
0
  6
CONTINUOUS
 62
256
 10
-532.044317999999980
 20
-124.613512000000000
 11
-530.536749999999980
 21
-122.002328000000010
  0
ARC
  8
0
  6
CONTINUOUS
 62
256
 10
-533.343355999999970
 20
-123.863512000000000
 40
1.500000000000022
 50
234.468927999998730
 51
330.000000000000570
  0
ARC
  8
0
  6
CONTINUOUS
 62
256
 10
-524.907585000000040
 20
-125.252328000000010
 40
1.500000000000022
 50
65.963569999998384
 51
150.000000000000540
  0
LINE
  8
0
  6
CONTINUOUS
 62
256
 10
-527.714191000000030
 20
-127.113512000000000
 11
-526.206623000000040
 21
-124.502328000000010
  0
ARC
  8
0
  6
CONTINUOUS
 62
256
 10
-526.415153000000030
 20
-127.863512000000000
 40
1.500000000000025
 50
150.000000000000540
 51
245.531072000000220
  0
ARC
  8
0
  6
CONTINUOUS
 62
256
 10
-509.225865000000000
 20
-90.090791999999993
 40
42.999999999999993
 50
245.531071999999970
 51
294.468927999999950
  0
ARC
  8
0
  6
CONTINUOUS
 62
256
 10
-509.225865000000000
 20
-90.090791999999993
 40
37.000000000000014
 50
245.963569999999950
 51
294.036429999999940
  0
ARC
  8
0
  6
CONTINUOUS
 62
256
 10
-493.544144000000020
 20
-125.252328000000010
 40
1.499999999999975
 50
30.000000000000544
 51
114.036429999999640
  0
LINE
  8
0
  6
CONTINUOUS
 62
256
 10
-492.245106000000020
 20
-124.502328000000010
 11
-490.737539000000030
 21
-127.113512000000000
  0
ARC
  8
0
  6
CONTINUOUS
 62
256
 10
-492.036577000000020
 20
-127.863512000000000
 40
1.500000000000002
 50
294.468927999999780
 51
30.000000000000544
  0
ARC
  8
0
  6
CONTINUOUS
 62
256
 10
-509.225865000000000
 20
-90.090791999999993
 40
43.000000000000021
 50
305.531071999999990
 51
354.468928000000010
  0
ARC
  8
0
  6
CONTINUOUS
 62
256
 10
-485.108374000000030
 20
-123.863512000000000
 40
1.499999999999975
 50
210.000000000000510
 51
305.531071999999480
  0
ARC
  8
0
  6
CONTINUOUS
 62
256
 10
-470.934220999999980
 20
-94.090791999999993
 40
1.500000000000000
 50
90.000000000000000
 51
174.036430000000220
  0
ARC
  8
0
  6
CONTINUOUS
 62
256
 10
-477.476849000000020
 20
-94.090791999999993
 40
1.500000000000028
 50
352.819243999999910
 51
90.000000000000000
  0
LINE
  8
0
  6
CONTINUOUS
 62
256
 10
-477.476849000000020
 20
-92.590791999999993
 11
-480.503052000000030
 21
-92.590791999999993
  0
LINE
  8
0
  6
CONTINUOUS
 62
256
 10
-487.914979000000020
 20
-122.002328000000010
 11
-486.407412000000020
 21
-124.613512000000000
  0
LINE
  8
0
  6
CONTINUOUS
 62
256
 10
-467.919085999999990
 20
-92.590791999999993
 11
-470.934220999999980
 21
-92.590791999999993
  0
ARC
  8
0
  6
CONTINUOUS
 62
256
 10
-509.225865000000000
 20
-90.090791999999993
 40
27.499999999999986
 50
7.928141999999994
 51
52.071858000000006
  0
ARC
  8
0
  6
CONTINUOUS
 62
256
 10
-509.225865000000000
 20
-90.090791999999993
 40
17.999999999999989
 50
311.837003999999920
 51
348.162995999999960
  0
ARC
  8
0
  6
CONTINUOUS
 62
256
 10
-467.919085999999990
 20
-86.090791999999993
 40
1.500000000000000
 50
270.000000000000000
 51
5.531072000000276
  0
ARC
  8
0
  6
CONTINUOUS
 62
256
 10
-467.919085999999990
 20
-94.090791999999993
 40
1.499999999999979
 50
354.468927999999720
 51
90.000000000000000
  0
ARC
  8
0
  6
CONTINUOUS
 62
256
 10
-749.825865000000020
 20
-90.090791999999993
 40
300.600000000000020
 50
0.000000000000000
 51
8.597082000000000
  0
ARC
  8
0
  6
CONTINUOUS
 62
256
 10
-268.625864999999980
 20
-90.090791999999993
 40
300.600000000000020
 50
180.000000000000000
 51
188.597082000000000
  0
ARC
  8
0
  6
CONTINUOUS
 62
256
 10
-459.129250000000010
 20
-134.039379000000000
 40
6.600000000000017
 50
315.000000000000170
 51
351.402917999999940
  0
ARC
  8
0
  6
CONTINUOUS
 62
256
 10
-749.825865000000020
 20
-90.090791999999993
 40
300.600000000000020
 50
351.402918000000000
 51
0.000000000000000
  0
ARC
  8
0
  6
CONTINUOUS
 62
256
 10
-559.322479000000040
 20
-134.039379000000000
 40
6.600000000000022
 50
188.597082000000030
 51
225.000000000000170
  0
ARC
  8
0
  6
CONTINUOUS
 62
256
 10
-268.625864999999980
 20
-90.090791999999993
 40
300.600000000000020
 50
171.402918000000000
 51
180.000000000000000
  0
ARC
  8
0
  6
CONTINUOUS
 62
256
 10
-559.322479000000040
 20
-46.142204000000000
 40
6.599999999999977
 50
134.999999999999830
 51
171.402918000000030
  0
LINE
  8
0
  6
CONTINUOUS
 62
256
 10
-454.462346000000030
 20
-138.706284000000010
 11
-461.528795000000000
 21
-145.772732999999990
  0
ARC
  8
0
  6
CONTINUOUS
 62
256
 10
-480.337834999999980
 20
-126.963693000000010
 40
26.600000000000009
 50
276.051984999999950
 51
315.000000000000060
  0
LINE
  8
0
  6
CONTINUOUS
 62
256
 10
-454.462346000000030
 20
-41.475299999999997
 11
-461.528795000000000
 21
-34.408850999999999
  0
ARC
  8
0
  6
CONTINUOUS
 62
256
 10
-480.337834999999980
 20
-53.217891000000002
 40
26.600000000000023
 50
44.999999999999964
 51
83.948015000000026
  0
LINE
  8
0
  6
CONTINUOUS
 62
256
 10
-563.989383999999970
 20
-41.475299999999997
 11
-556.922935000000050
 21
-34.408850999999999
  0
ARC
  8
0
  6
CONTINUOUS
 62
256
 10
-509.225865000000000
 20
-325.690791999999990
 40
300.600000000000020
 50
83.948014999999998
 51
96.051985000000002
  0
ARC
  8
0
  6
CONTINUOUS
 62
256
 10
-538.113894999999960
 20
-53.217891000000002
 40
26.599999999999998
 50
96.051984999999959
 51
134.999999999999940
  0
ARC
  8
0
  6
CONTINUOUS
 62
256
 10
-509.225865000000000
 20
145.509208000000000
 40
300.600000000000020
 50
263.948014999999940
 51
276.051985000000000
  0
LINE
  8
0
  6
CONTINUOUS
 62
256
 10
-563.989383999999970
 20
-138.706284000000010
 11
-556.922935000000050
 21
-145.772732999999990
  0
ARC
  8
0
  6
CONTINUOUS
 62
256
 10
-538.113894999999960
 20
-126.963693000000010
 40
26.599999999999977
 50
225.000000000000030
 51
263.948015000000050
  0
ARC
  8
0
  6
CONTINUOUS
 62
256
 10
-480.337834999999980
 20
-53.217891000000002
 40
15.397000000000016
 50
44.999999999999929
 51
83.948015000000069
  0
LINE
  8
0
  6
CONTINUOUS
 62
256
 10
-464.874446999999980
 20
-46.906632999999999
 11
-469.450512000000000
 21
-42.330568000000000
  0
ARC
  8
0
  6
CONTINUOUS
 62
256
 10
-509.225865000000000
 20
-325.690791999999990
 40
289.396999999999990
 50
83.948014999999998
 51
90.000000000000000
  0
ARC
  8
0
  6
CONTINUOUS
 62
256
 10
-749.825865000000020
 20
-90.090791999999993
 40
289.396999999999990
 50
352.102011000000000
 51
360.000000000000000
  0
ARC
  8
0
  6
CONTINUOUS
 62
256
 10
-469.117087000000030
 20
-129.032310000000000
 40
5.999999999999989
 50
314.999999999999770
 51
352.102010999999950
  0
LINE
  8
0
  6
CONTINUOUS
 62
256
 10
-464.874446999999980
 20
-133.274950999999990
 11
-469.450512000000000
 21
-137.851015999999990
  0
ARC
  8
0
  6
CONTINUOUS
 62
256
 10
-480.337834999999980
 20
-126.963693000000010
 40
15.397000000000000
 50
276.051984999999890
 51
314.999999999999940
  0
ARC
  8
0
  6
CONTINUOUS
 62
256
 10
-509.225865000000000
 20
145.509208000000000
 40
289.396999999999990
 50
270.000000000000000
 51
276.051985000000000
  0
ARC
  8
0
  6
CONTINUOUS
 62
256
 10
-268.625864999999980
 20
-90.090791999999993
 40
289.396999999999930
 50
180.000000000000000
 51
187.897989000000000
  0
ARC
  8
0
  6
CONTINUOUS
 62
256
 10
-549.334642000000030
 20
-129.032310000000000
 40
5.999999999999990
 50
187.897989000000000
 51
224.999999999999800
  0
LINE
  8
0
  6
CONTINUOUS
 62
256
 10
-553.577282999999970
 20
-133.274950999999990
 11
-549.001217999999990
 21
-137.851015999999990
  0
ARC
  8
0
  6
CONTINUOUS
 62
256
 10
-538.113894999999960
 20
-126.963693000000010
 40
15.397000000000016
 50
224.999999999999910
 51
263.948015000000110
  0
ARC
  8
0
  6
CONTINUOUS
 62
256
 10
-509.225865000000000
 20
145.509208000000000
 40
289.396999999999990
 50
263.948015000000000
 51
270.000000000000000
  0
ARC
  8
0
  6
CONTINUOUS
 62
256
 10
-268.625864999999980
 20
-90.090791999999993
 40
289.396999999999990
 50
172.102011000000030
 51
180.000000000000000
  0
ARC
  8
0
  6
CONTINUOUS
 62
256
 10
-549.334642000000030
 20
-51.149273999999998
 40
6.000000000000024
 50
135.000000000000260
 51
172.102011000000000
  0
LINE
  8
0
  6
CONTINUOUS
 62
256
 10
-553.577282999999970
 20
-46.906632999999999
 11
-549.001217999999990
 21
-42.330568000000000
  0
ARC
  8
0
  6
CONTINUOUS
 62
256
 10
-538.113894999999960
 20
-53.217891000000002
 40
15.396999999999993
 50
96.051984999999931
 51
135.000000000000060
  0
ARC
  8
0
  6
CONTINUOUS
 62
256
 10
-509.225865000000000
 20
-325.690791999999990
 40
289.396999999999990
 50
90.000000000000000
 51
96.051984999999988
  0
LINE
  8
0
  6
CONTINUOUS
 62
256
 10
-479.233365999999990
 20
-153.590791999999990
 11
-473.225865000000000
 21
-153.590791999999990
  0
LINE
  8
0
  6
CONTINUOUS
 62
256
 10
-539.218363999999950
 20
-153.590791999999990
 11
-545.225865000000000
 21
-153.590791999999990
  0
ARC
  8
0
  6
CONTINUOUS
 62
256
 10
-478.225865000000000
 20
-180.957457000000010
 40
5.000000000000002
 50
276.032049000000030
 51
0.000000000000000
  0
LINE
  8
0
  6
CONTINUOUS
 62
256
 10
-473.225865000000000
 20
-152.397095000000010
 11
-473.225865000000000
 21
-180.957457000000010
  0
LINE
  8
0
  6
CONTINUOUS
 62
256
 10
-545.225865000000000
 20
-152.397095000000010
 11
-545.225865000000000
 21
-180.957457000000010
  0
ARC
  8
0
  6
CONTINUOUS
 62
256
 10
-540.225865000000000
 20
-180.957457000000010
 40
5.000000000000000
 50
180.000000000000000
 51
263.967951000000650
  0
LINE
  8
0
  6
CONTINUOUS
 62
256
 10
-511.725865000000000
 20
-188.090791999999990
 11
-506.725865000000000
 21
-188.090791999999990
  0
LINE
  8
0
  6
CONTINUOUS
 62
256
 10
-506.725865000000000
 20
-187.590790000000000
 11
-506.725865000000000
 21
-188.090791999999990
  0
LINE
  8
0
  6
CONTINUOUS
 62
256
 10
-511.725865000000000
 20
-187.580375000000000
 11
-511.725865000000000
 21
-188.090791999999990
  0
ARC
  8
0
  6
CONTINUOUS
 62
256
 10
-509.225865000000000
 20
112.409208000000010
 40
300.000000000000000
 50
263.967950999999970
 51
276.032048999999970
  0
LINE
  8
0
  6
DASHDOT
 62
256
 10
-580.616551999999960
 20
-90.090791999999993
 11
-437.305507999999970
 21
-90.090791999999993
  0
LINE
  8
0
  6
DASHDOT
 62
256
 10
-509.225865000000000
 20
0.990210000000000
 11
-509.225865000000000
 21
-195.733706000000010
  0
LINE
  8
0
  6
CONTINUOUS
 62
256
 10
-463.225865000000000
 20
-2.099676000000000
 11
-557.725865000000000
 21
-3.749180000000000
  0
LINE
  8
0
  6
CONTINUOUS
 62
256
 10
-557.725865000000000
 20
-3.749180000000000
 11
-567.225865000000000
 21
-3.749180000000000
  0
LINE
  8
0
  6
CONTINUOUS
 62
256
 10
-567.225865000000000
 20
-3.749180000000000
 11
-567.225865000000000
 21
-55.472876999999997
  0
LINE
  8
0
  6
CONTINUOUS
 62
256
 10
-572.225865000000000
 20
-26.590948000000001
 11
-567.225865000000000
 21
-26.590948000000001
  0
LINE
  8
0
  6
CONTINUOUS
 62
256
 10
-572.225865000000000
 20
-26.590948000000001
 11
-572.225865000000000
 21
-121.590948000000000
  0
LINE
  8
0
  6
CONTINUOUS
 62
256
 10
-575.225865000000000
 20
-50.090947999999997
 11
-572.225865000000000
 21
-50.090947999999997
  0
LINE
  8
0
  6
CONTINUOUS
 62
256
 10
-576.225865000000000
 20
-51.090947999999997
 11
-576.225865000000000
 21
-74.090947999999997
  0
ARC
  8
0
  6
CONTINUOUS
 62
256
 10
-575.225865000000000
 20
-51.090947999999997
 40
1.000000000000000
 50
90.000000000000000
 51
180.000000000000000
  0
LINE
  8
0
  6
CONTINUOUS
 62
256
 10
-576.225865000000000
 20
-97.090947999999997
 11
-576.225865000000000
 21
-74.090947999999997
  0
LINE
  8
0
  6
CONTINUOUS
 62
256
 10
-572.225865000000000
 20
-121.590948000000000
 11
-567.570842999999970
 21
-121.590948000000000
  0
LINE
  8
0
  6
CONTINUOUS
 62
256
 10
-557.725865000000000
 20
-176.432717000000000
 11
-567.225865000000000
 21
-176.432717000000000
  0
LINE
  8
0
  6
CONTINUOUS
 62
256
 10
-545.225865000000000
 20
-176.650905999999990
 11
-557.725865000000000
 21
-176.432717000000000
  0
LINE
  8
0
  6
CONTINUOUS
 62
256
 10
-567.225865000000000
 20
-124.708706000000010
 11
-567.225865000000000
 21
-176.432717000000000
  0
LINE
  8
0
  6
CONTINUOUS
 62
256
 10
-451.225466999999980
 20
-177.372829000000000
 11
-451.725315000000020
 21
-177.881477999999990
  0
LINE
  8
0
  6
CONTINUOUS
 62
256
 10
-451.725315000000020
 20
-177.881477999999990
 11
-463.225865000000000
 21
-178.082221000000000
  0
LINE
  8
0
  6
CONTINUOUS
 62
256
 10
-463.225865000000000
 20
-178.082221000000000
 11
-473.225865000000000
 21
-177.907670000000000
  0
LINE
  8
0
  6
CONTINUOUS
 62
256
 10
-463.225865000000000
 20
-147.328870999999990
 11
-463.225865000000000
 21
-178.082221000000000
  0
LINE
  8
0
  6
CONTINUOUS
 62
256
 10
-451.225466999999980
 20
-124.705276000000000
 11
-451.225466999999980
 21
-177.372829000000000
  0
LINE
  8
0
  6
CONTINUOUS
 62
256
 10
-446.225466999999980
 20
-74.090947999999997
 11
-446.225466999999980
 21
-121.590948000000000
  0
LINE
  8
0
  6
CONTINUOUS
 62
256
 10
-450.880885999999980
 20
-121.590948000000000
 11
-446.225466999999980
 21
-121.590948000000000
  0
LINE
  8
0
  6
CONTINUOUS
 62
256
 10
-443.225865000000000
 20
-98.090947999999997
 11
-446.225865000000000
 21
-98.090947999999997
  0
ARC
  8
0
  6
CONTINUOUS
 62
256
 10
-443.225865000000000
 20
-97.090947999999997
 40
1.000000000000000
 50
270.000000000000000
 51
0.000000000000000
  0
LINE
  8
0
  6
CONTINUOUS
 62
256
 10
-442.225865000000000
 20
-97.090947999999997
 11
-442.225865000000000
 21
-74.090947999999997
  0
LINE
  8
0
  6
CONTINUOUS
 62
256
 10
-443.225865000000000
 20
-50.090947999999997
 11
-446.225865000000000
 21
-50.090947999999997
  0
LINE
  8
0
  6
CONTINUOUS
 62
256
 10
-442.225865000000000
 20
-51.090947999999997
 11
-442.225865000000000
 21
-74.090947999999997
  0
ARC
  8
0
  6
CONTINUOUS
 62
256
 10
-443.225865000000000
 20
-51.090947999999997
 40
1.000000000000000
 50
0.000000000000000
 51
90.000000000000000
  0
LINE
  8
0
  6
CONTINUOUS
 62
256
 10
-446.225466999999980
 20
-74.090947999999997
 11
-446.225466999999980
 21
-26.590948000000001
  0
LINE
  8
0
  6
CONTINUOUS
 62
256
 10
-451.225466999999980
 20
-2.309144000000000
 11
-463.225865000000000
 21
-2.099676000000000
  0
LINE
  8
0
  6
CONTINUOUS
 62
256
 10
-451.225466999999980
 20
-55.476308000000003
 11
-451.225466999999980
 21
-2.309144000000000
  0
LINE
  8
0
  6
CONTINUOUS
 62
256
 10
-463.225865000000000
 20
-2.099676000000000
 11
-463.225865000000000
 21
-32.852713000000001
  0
LINE
  8
0
  6
CONTINUOUS
 62
256
 10
-451.225466999999980
 20
-26.590948000000001
 11
-446.225466999999980
 21
-26.590948000000001
  0
LINE
  8
0
  6
CONTINUOUS
 62
256
 10
-575.225865000000000
 20
-98.090947999999997
 11
-572.225865000000000
 21
-98.090947999999997
  0
ARC
  8
0
  6
CONTINUOUS
 62
256
 10
-575.225865000000000
 20
-97.090947999999997
 40
1.000000000000000
 50
180.000000000000000
 51
270.000000000000000
  0
LINE
  8
0
  6
CONTINUOUS
 62
256
 10
-273.622537000000020
 20
92.027818999999994
 11
-176.622536999999990
 21
92.027818999999994
  0
LINE
  8
0
  6
CONTINUOUS
 62
256
 10
-273.622537000000020
 20
163.456893000000010
 11
-176.622536999999990
 21
163.456893000000010
  0
LINE
  8
0
  6
CONTINUOUS
 62
256
 10
-273.622537000000020
 20
159.493147999999990
 11
-176.622536999999990
 21
159.493147999999990
  0
LINE
  8
0
  6
CONTINUOUS
 62
256
 10
-176.622536999999990
 20
68.259810999999999
 11
-176.622536999999990
 21
127.742356000000000
  0
LINE
  8
0
  6
CONTINUOUS
 62
256
 10
-176.622536999999990
 20
69.242356000000001
 11
-273.622537000000020
 21
69.242356000000001
  0
LINE
  8
0
  6
DASHDOT
 62
256
 10
44.317397000000000
 20
127.742356000000000
 11
-386.551748999999970
 21
127.742356000000000
  0
LINE
  8
0
  6
CONTINUOUS
 62
256
 10
-284.622537000000020
 20
181.482471000000000
 11
-286.622537000000020
 21
179.829829999999990
  0
LINE
  8
0
  6
CONTINUOUS
 62
256
 10
-282.622537000000020
 20
182.658256999999990
 11
-284.622537000000020
 21
181.482471000000000
  0
LINE
  8
0
  6
CONTINUOUS
 62
256
 10
-284.622537000000020
 20
181.482471000000000
 11
-282.622537000000020
 21
179.829829999999990
  0
LINE
  8
0
  6
CONTINUOUS
 62
256
 10
-286.622537000000020
 20
182.658256999999990
 11
-284.622537000000020
 21
181.482471000000000
  0
POLYLINE
  8
0
  6
CONTINUOUS
 62
256
 66
1
 70
1
  0
VERTEX
  8
0
  6
CONTINUOUS
 62
256
 10
-279.922537000000030
 20
179.665881000000010
  0
VERTEX
  8
0
  6
CONTINUOUS
 62
256
 10
-280.012846182104850
 20
180.368837510558190
  0
VERTEX
  8
0
  6
CONTINUOUS
 62
256
 10
-280.280303197196990
 20
181.044779796638150
  0
VERTEX
  8
0
  6
CONTINUOUS
 62
256
 10
-280.714629822178100
 20
181.667731775258690
  0
VERTEX
  8
0
  6
CONTINUOUS
 62
256
 10
-281.299135128423250
 20
182.213753751236850
  0
VERTEX
  8
0
  6
CONTINUOUS
 62
256
 10
-282.011356904807880
 20
182.661862406248500
  0
VERTEX
  8
0
  6
CONTINUOUS
 62
256
 10
-282.823924867884100
 20
182.994837175983750
  0
VERTEX
  8
0
  6
CONTINUOUS
 62
256
 10
-283.705612486524220
 20
183.199882026776090
  0
VERTEX
  8
0
  6
CONTINUOUS
 62
256
 10
-284.622537000000020
 20
183.269117200000010
  0
VERTEX
  8
0
  6
CONTINUOUS
 62
256
 10
-285.539461513475830
 20
183.199882026776090
  0
VERTEX
  8
0
  6
CONTINUOUS
 62
256
 10
-286.421149132115940
 20
182.994837175983750
  0
VERTEX
  8
0
  6
CONTINUOUS
 62
256
 10
-287.233717095192160
 20
182.661862406248500
  0
VERTEX
  8
0
  6
CONTINUOUS
 62
256
 10
-287.945938871576800
 20
182.213753751236850
  0
VERTEX
  8
0
  6
CONTINUOUS
 62
256
 10
-288.530444177821950
 20
181.667731775258690
  0
VERTEX
  8
0
  6
CONTINUOUS
 62
256
 10
-288.964770802803060
 20
181.044779796638150
  0
VERTEX
  8
0
  6
CONTINUOUS
 62
256
 10
-289.232227817895190
 20
180.368837510558190
  0
VERTEX
  8
0
  6
CONTINUOUS
 62
256
 10
-289.322537000000010
 20
179.665881000000010
  0
VERTEX
  8
0
  6
CONTINUOUS
 62
256
 10
-289.232227817895190
 20
178.962924489441830
  0
VERTEX
  8
0
  6
CONTINUOUS
 62
256
 10
-288.964770802803060
 20
178.286982203361870
  0
VERTEX
  8
0
  6
CONTINUOUS
 62
256
 10
-288.530444177821950
 20
177.664030224741340
  0
VERTEX
  8
0
  6
CONTINUOUS
 62
256
 10
-287.945938871576800
 20
177.118008248763180
  0
VERTEX
  8
0
  6
CONTINUOUS
 62
256
 10
-287.233717095192160
 20
176.669899593751520
  0
VERTEX
  8
0
  6
CONTINUOUS
 62
256
 10
-286.421149132115940
 20
176.336924824016280
  0
VERTEX
  8
0
  6
CONTINUOUS
 62
256
 10
-285.539461513475830
 20
176.131879973223960
  0
VERTEX
  8
0
  6
CONTINUOUS
 62
256
 10
-284.622537000000020
 20
176.062644800000020
  0
VERTEX
  8
0
  6
CONTINUOUS
 62
256
 10
-283.705612486524220
 20
176.131879973223960
  0
VERTEX
  8
0
  6
CONTINUOUS
 62
256
 10
-282.823924867884100
 20
176.336924824016280
  0
VERTEX
  8
0
  6
CONTINUOUS
 62
256
 10
-282.011356904807880
 20
176.669899593751520
  0
VERTEX
  8
0
  6
CONTINUOUS
 62
256
 10
-281.299135128423250
 20
177.118008248763180
  0
VERTEX
  8
0
  6
CONTINUOUS
 62
256
 10
-280.714629822178100
 20
177.664030224741340
  0
VERTEX
  8
0
  6
CONTINUOUS
 62
256
 10
-280.280303197196990
 20
178.286982203361870
  0
VERTEX
  8
0
  6
CONTINUOUS
 62
256
 10
-280.012846182104850
 20
178.962924489441830
  0
SEQEND
  8
0
  6
CONTINUOUS
 62
256
  0
LINE
  8
0
  6
CONTINUOUS
 62
256
 10
-273.622537000000020
 20
72.742356000000001
 11
-176.622536999999990
 21
72.742356000000001
  0
LINE
  8
0
  6
CONTINUOUS
 62
256
 10
-273.622537000000020
 20
71.742356000000001
 11
-176.622536999999990
 21
71.742356000000001
  0
LINE
  8
0
  6
CONTINUOUS
 62
256
 10
-273.622537000000020
 20
70.742356000000001
 11
-176.622536999999990
 21
70.742356000000001
  0
LINE
  8
0
  6
CONTINUOUS
 62
256
 10
-273.622537000000020
 20
70.242356000000001
 11
-176.622536999999990
 21
70.242356000000001
  0
ARC
  8
0
  6
CONTINUOUS
 62
256
 10
-374.022537000000000
 20
175.185561000000010
 40
2.599999999999996
 50
125.000000000000210
 51
180.000000000000000
  0
LINE
  8
0
  6
CONTINUOUS
 62
256
 10
-365.788090000000010
 20
184.125396999999990
 11
-375.513834999999970
 21
177.315357000000010
  0
ARC
  8
0
  6
CONTINUOUS
 62
256
 10
-354.316560999999980
 20
167.742356000000000
 40
20.000000000000000
 50
90.000000000000000
 51
125.000000000000060
  0
LINE
  8
0
  6
CONTINUOUS
 62
256
 10
-376.622537000000020
 20
127.742356000000000
 11
-376.622537000000020
 21
175.185561000000010
  0
LINE
  8
0
  6
CONTINUOUS
 62
256
 10
-273.622537000000020
 20
187.742356000000000
 11
-354.316560999999980
 21
187.742356000000000
  0
LINE
  8
0
  6
CONTINUOUS
 62
256
 10
-176.622536999999990
 20
187.224900999999990
 11
-176.622536999999990
 21
127.742356000000000
  0
LINE
  8
0
  6
CONTINUOUS
 62
256
 10
-176.622536999999990
 20
186.242356000000000
 11
-273.622537000000020
 21
186.242356000000000
  0
LINE
  8
0
  6
CONTINUOUS
 62
256
 10
-273.622537000000020
 20
127.742356000000000
 11
-273.622537000000020
 21
187.742356000000000
  0
LINE
  8
0
  6
CONTINUOUS
 62
256
 10
-273.622537000000020
 20
165.061541000000010
 11
-176.622536999999990
 21
165.061541000000010
  0
LINE
  8
0
  6
CONTINUOUS
 62
256
 10
-273.622537000000020
 20
173.108143000000010
 11
-176.622536999999990
 21
173.108143000000010
  0
LINE
  8
0
  6
CONTINUOUS
 62
256
 10
-273.622537000000020
 20
178.057889999999990
 11
-176.622536999999990
 21
178.057889999999990
  0
LINE
  8
0
  6
CONTINUOUS
 62
256
 10
-273.622537000000020
 20
182.742356000000000
 11
-176.622536999999990
 21
182.742356000000000
  0
LINE
  8
0
  6
CONTINUOUS
 62
256
 10
-273.622537000000020
 20
183.742356000000000
 11
-176.622536999999990
 21
183.742356000000000
  0
LINE
  8
0
  6
CONTINUOUS
 62
256
 10
-273.622537000000020
 20
185.242356000000000
 11
-176.622536999999990
 21
185.242356000000000
  0
LINE
  8
0
  6
CONTINUOUS
 62
256
 10
-273.622537000000020
 20
184.742356000000000
 11
-176.622536999999990
 21
184.742356000000000
  0
LINE
  8
0
  6
CONTINUOUS
 62
256
 10
-273.622537000000020
 20
147.742356000000000
 11
-176.622536999999990
 21
147.742356000000000
  0
LINE
  8
0
  6
CONTINUOUS
 62
256
 10
-273.622537000000020
 20
153.934290000000000
 11
-176.622536999999990
 21
153.934290000000000
  0
LINE
  8
0
  6
CONTINUOUS
 62
256
 10
-273.622537000000020
 20
101.550422000000000
 11
-176.622536999999990
 21
101.550422000000000
  0
LINE
  8
0
  6
CONTINUOUS
 62
256
 10
-273.622537000000020
 20
107.742356000000000
 11
-176.622536999999990
 21
107.742356000000000
  0
LINE
  8
0
  6
CONTINUOUS
 62
256
 10
-273.622537000000020
 20
152.572409999999990
 11
-176.622536999999990
 21
152.572409999999990
  0
LINE
  8
0
  6
CONTINUOUS
 62
256
 10
-273.622537000000020
 20
97.459922000000006
 11
-176.622536999999990
 21
97.459922000000006
  0
LINE
  8
0
  6
CONTINUOUS
 62
256
 10
-273.622537000000020
 20
102.912302999999990
 11
-176.622536999999990
 21
102.912302999999990
  0
LINE
  8
0
  6
CONTINUOUS
 62
256
 10
-273.622537000000020
 20
158.024790000000000
 11
-176.622536999999990
 21
158.024790000000000
  0
LINE
  8
0
  6
CONTINUOUS
 62
256
 10
-273.622537000000020
 20
95.991563999999997
 11
-176.622536999999990
 21
95.991563999999997
  0
LINE
  8
0
  6
CONTINUOUS
 62
256
 10
-273.622537000000020
 20
90.423170999999996
 11
-176.622536999999990
 21
90.423170999999996
  0
LINE
  8
0
  6
CONTINUOUS
 62
256
 10
-273.622537000000020
 20
82.376569000000003
 11
-176.622536999999990
 21
82.376569000000003
  0
LINE
  8
0
  6
CONTINUOUS
 62
256
 10
-273.622537000000020
 20
77.426822000000001
 11
-176.622536999999990
 21
77.426822000000001
  0
LINE
  8
0
  6
CONTINUOUS
 62
256
 10
-273.622537000000020
 20
127.742356000000000
 11
-273.622537000000020
 21
67.742356000000001
  0
ARC
  8
0
  6
CONTINUOUS
 62
256
 10
-374.022537000000000
 20
80.299150999999995
 40
2.600000000000023
 50
180.000000000000000
 51
234.999999999999940
  0
LINE
  8
0
  6
CONTINUOUS
 62
256
 10
-365.788090000000010
 20
71.359314999999995
 11
-375.513834999999970
 21
78.169355999999993
  0
ARC
  8
0
  6
CONTINUOUS
 62
256
 10
-354.316560999999980
 20
87.742356000000001
 40
20.000000000000007
 50
234.999999999999940
 51
270.000000000000000
  0
LINE
  8
0
  6
CONTINUOUS
 62
256
 10
-376.622537000000020
 20
127.742356000000000
 11
-376.622537000000020
 21
80.299150999999995
  0
LINE
  8
0
  6
CONTINUOUS
 62
256
 10
-273.622537000000020
 20
67.742356000000001
 11
-354.316560999999980
 21
67.742356000000001
  0
LINE
  8
0
  6
CONTINUOUS
 62
256
 10
-284.622537000000020
 20
74.002240999999998
 11
-286.622537000000020
 21
75.654882999999998
  0
LINE
  8
0
  6
CONTINUOUS
 62
256
 10
-282.622537000000020
 20
72.826455999999993
 11
-284.622537000000020
 21
74.002240999999998
  0
LINE
  8
0
  6
CONTINUOUS
 62
256
 10
-284.622537000000020
 20
74.002240999999998
 11
-282.622537000000020
 21
75.654882999999998
  0
LINE
  8
0
  6
CONTINUOUS
 62
256
 10
-286.622537000000020
 20
72.826455999999993
 11
-284.622537000000020
 21
74.002240999999998
  0
POLYLINE
  8
0
  6
CONTINUOUS
 62
256
 66
1
 70
1
  0
VERTEX
  8
0
  6
CONTINUOUS
 62
256
 10
-279.922537000000030
 20
75.818831000000003
  0
VERTEX
  8
0
  6
CONTINUOUS
 62
256
 10
-280.012846182104850
 20
76.521787510558170
  0
VERTEX
  8
0
  6
CONTINUOUS
 62
256
 10
-280.280303197196990
 20
77.197729796638143
  0
VERTEX
  8
0
  6
CONTINUOUS
 62
256
 10
-280.714629822178100
 20
77.820681775258663
  0
VERTEX
  8
0
  6
CONTINUOUS
 62
256
 10
-281.299135128423250
 20
78.366703751236855
  0
VERTEX
  8
0
  6
CONTINUOUS
 62
256
 10
-282.011356904807880
 20
78.814812406248492
  0
VERTEX
  8
0
  6
CONTINUOUS
 62
256
 10
-282.823924867884100
 20
79.147787175983751
  0
VERTEX
  8
0
  6
CONTINUOUS
 62
256
 10
-283.705612486524220
 20
79.352832026776071
  0
VERTEX
  8
0
  6
CONTINUOUS
 62
256
 10
-284.622537000000020
 20
79.422067200000001
  0
VERTEX
  8
0
  6
CONTINUOUS
 62
256
 10
-285.539461513475830
 20
79.352832026776071
  0
VERTEX
  8
0
  6
CONTINUOUS
 62
256
 10
-286.421149132115940
 20
79.147787175983751
  0
VERTEX
  8
0
  6
CONTINUOUS
 62
256
 10
-287.233717095192160
 20
78.814812406248492
  0
VERTEX
  8
0
  6
CONTINUOUS
 62
256
 10
-287.945938871576800
 20
78.366703751236855
  0
VERTEX
  8
0
  6
CONTINUOUS
 62
256
 10
-288.530444177821950
 20
77.820681775258663
  0
VERTEX
  8
0
  6
CONTINUOUS
 62
256
 10
-288.964770802803060
 20
77.197729796638143
  0
VERTEX
  8
0
  6
CONTINUOUS
 62
256
 10
-289.232227817895190
 20
76.521787510558170
  0
VERTEX
  8
0
  6
CONTINUOUS
 62
256
 10
-289.322537000000010
 20
75.818831000000003
  0
VERTEX
  8
0
  6
CONTINUOUS
 62
256
 10
-289.232227817895190
 20
75.115874489441836
  0
VERTEX
  8
0
  6
CONTINUOUS
 62
256
 10
-288.964770802803060
 20
74.439932203361863
  0
VERTEX
  8
0
  6
CONTINUOUS
 62
256
 10
-288.530444177821950
 20
73.816980224741343
  0
VERTEX
  8
0
  6
CONTINUOUS
 62
256
 10
-287.945938871576800
 20
73.270958248763165
  0
VERTEX
  8
0
  6
CONTINUOUS
 62
256
 10
-287.233717095192160
 20
72.822849593751513
  0
VERTEX
  8
0
  6
CONTINUOUS
 62
256
 10
-286.421149132115940
 20
72.489874824016255
  0
VERTEX
  8
0
  6
CONTINUOUS
 62
256
 10
-285.539461513475830
 20
72.284829973223935
  0
VERTEX
  8
0
  6
CONTINUOUS
 62
256
 10
-284.622537000000020
 20
72.215594800000005
  0
VERTEX
  8
0
  6
CONTINUOUS
 62
256
 10
-283.705612486524220
 20
72.284829973223935
  0
VERTEX
  8
0
  6
CONTINUOUS
 62
256
 10
-282.823924867884100
 20
72.489874824016255
  0
VERTEX
  8
0
  6
CONTINUOUS
 62
256
 10
-282.011356904807880
 20
72.822849593751513
  0
VERTEX
  8
0
  6
CONTINUOUS
 62
256
 10
-281.299135128423250
 20
73.270958248763151
  0
VERTEX
  8
0
  6
CONTINUOUS
 62
256
 10
-280.714629822178100
 20
73.816980224741343
  0
VERTEX
  8
0
  6
CONTINUOUS
 62
256
 10
-280.280303197196990
 20
74.439932203361863
  0
VERTEX
  8
0
  6
CONTINUOUS
 62
256
 10
-280.012846182104850
 20
75.115874489441836
  0
SEQEND
  8
0
  6
CONTINUOUS
 62
256
  0
LINE
  8
0
  6
CONTINUOUS
 62
256
 10
-78.622536999999994
 20
64.742356000000001
 11
-78.622536999999994
 21
69.742356000000001
  0
LINE
  8
0
  6
CONTINUOUS
 62
256
 10
16.377462999999999
 20
64.742356000000001
 11
16.377462999999999
 21
69.742356000000001
  0
LINE
  8
0
  6
CONTINUOUS
 62
256
 10
16.377462999999999
 20
64.742356000000001
 11
-78.622536999999994
 21
64.742356000000001
  0
LINE
  8
0
  6
CONTINUOUS
 62
256
 10
-30.893864000000001
 20
190.742753999999990
 11
-78.622536999999994
 21
190.742753999999990
  0
LINE
  8
0
  6
CONTINUOUS
 62
256
 10
-78.622536999999994
 20
190.742753999999990
 11
-78.622536999999994
 21
185.742356000000000
  0
LINE
  8
0
  6
CONTINUOUS
 62
256
 10
-30.893864000000001
 20
190.742753999999990
 11
16.377462999999999
 21
190.742753999999990
  0
LINE
  8
0
  6
CONTINUOUS
 62
256
 10
16.377462999999999
 20
190.742753999999990
 11
16.377462999999999
 21
185.742356000000000
  0
LINE
  8
0
  6
CONTINUOUS
 62
256
 10
-155.622536999999990
 20
83.742754000000005
 11
-150.332302000000000
 21
83.742754000000005
  0
LINE
  8
0
  6
CONTINUOUS
 62
256
 10
-176.622536999999990
 20
68.259810999999999
 11
-161.673908000000010
 21
68.003794999999997
  0
LINE
  8
0
  6
CONTINUOUS
 62
256
 10
-176.622536999999990
 20
187.224900999999990
 11
-161.673908000000010
 21
187.480917000000010
  0
ARC
  8
0
  6
CONTINUOUS
 62
256
 10
-148.726442999999990
 20
173.742356000000000
 40
2.000000000000000
 50
270.000000000000000
 51
358.999999999999830
  0
ARC
  8
0
  6
CONTINUOUS
 62
256
 10
-150.332302000000000
 20
81.742754000000005
 40
1.999999999999998
 50
358.999999999999830
 51
90.000000000000000
  0
LINE
  8
0
  6
CONTINUOUS
 62
256
 10
-176.622536999999990
 20
107.742356000000000
 11
-169.622536999999990
 21
107.742356000000000
  0
LINE
  8
0
  6
CONTINUOUS
 62
256
 10
-176.622536999999990
 20
147.742356000000000
 11
-169.622536999999990
 21
147.742356000000000
  0
LINE
  8
0
  6
CONTINUOUS
 62
256
 10
-166.622536999999990
 20
75.646049000000005
 11
-161.622536999999990
 21
75.646049000000005
  0
LINE
  8
0
  6
CONTINUOUS
 62
256
 10
-166.622536999999990
 20
82.557625000000002
 11
-161.622536999999990
 21
82.557625000000002
  0
LINE
  8
0
  6
CONTINUOUS
 62
256
 10
-166.622536999999990
 20
172.927087000000000
 11
-161.622536999999990
 21
172.927087000000000
  0
LINE
  8
0
  6
CONTINUOUS
 62
256
 10
-166.622536999999990
 20
179.838663999999990
 11
-161.622536999999990
 21
179.838663999999990
  0
LINE
  8
0
  6
CONTINUOUS
 62
256
 10
-169.622536999999990
 20
183.242356000000000
 11
-169.622536999999990
 21
184.242356000000000
  0
LINE
  8
0
  6
CONTINUOUS
 62
256
 10
-166.622536999999990
 20
166.743623000000010
 11
-161.622536999999990
 21
166.743623000000010
  0
LINE
  8
0
  6
CONTINUOUS
 62
256
 10
-169.622536999999990
 20
169.927087000000000
 11
-169.622536999999990
 21
127.742356000000000
  0
LINE
  8
0
  6
CONTINUOUS
 62
256
 10
-169.622536999999990
 20
183.242356000000000
 11
-169.622536999999990
 21
182.838663999999990
  0
LINE
  8
0
  6
CONTINUOUS
 62
256
 10
-169.622536999999990
 20
72.242356000000001
 11
-169.622536999999990
 21
71.242356000000001
  0
LINE
  8
0
  6
CONTINUOUS
 62
256
 10
-169.622536999999990
 20
72.242356000000001
 11
-169.622536999999990
 21
72.646049000000005
  0
LINE
  8
0
  6
CONTINUOUS
 62
256
 10
-169.622536999999990
 20
72.242356000000001
 11
-169.622536999999990
 21
72.646049000000005
  0
LINE
  8
0
  6
CONTINUOUS
 62
256
 10
-166.622536999999990
 20
88.741089000000002
 11
-161.622536999999990
 21
88.741089000000002
  0
LINE
  8
0
  6
CONTINUOUS
 62
256
 10
-169.622536999999990
 20
85.557625000000002
 11
-169.622536999999990
 21
127.742356000000000
  0
ARC
  8
0
  6
CONTINUOUS
 62
256
 10
-166.622536999999990
 20
182.838663999999990
 40
3.000000000000000
 50
180.000000000000000
 51
270.000000000000000
  0
ARC
  8
0
  6
CONTINUOUS
 62
256
 10
-166.622536999999990
 20
169.927087000000000
 40
3.000000000000000
 50
90.000000000000000
 51
180.000000000000000
  0
ARC
  8
0
  6
CONTINUOUS
 62
256
 10
-166.622536999999990
 20
163.743623000000010
 40
3.000000000000000
 50
90.000000000000000
 51
180.000000000000000
  0
ARC
  8
0
  6
CONTINUOUS
 62
256
 10
-172.622536999999990
 20
184.242356000000000
 40
3.000000000000000
 50
0.000000000000000
 51
90.000000000000000
  0
ARC
  8
0
  6
CONTINUOUS
 62
256
 10
-172.622536999999990
 20
71.242356000000001
 40
3.000000000000000
 50
270.000000000000000
 51
0.000000000000000
  0
ARC
  8
0
  6
CONTINUOUS
 62
256
 10
-166.622536999999990
 20
85.557625000000002
 40
3.000000000000000
 50
180.000000000000000
 51
270.000000000000000
  0
ARC
  8
0
  6
CONTINUOUS
 62
256
 10
-166.622536999999990
 20
72.646049000000005
 40
3.000000000000000
 50
90.000000000000000
 51
180.000000000000000
  0
ARC
  8
0
  6
CONTINUOUS
 62
256
 10
-166.622536999999990
 20
91.741089000000002
 40
3.000000000000000
 50
180.000000000000000
 51
270.000000000000000
  0
ARC
  8
0
  6
CONTINUOUS
 62
256
 10
-161.622536999999990
 20
184.481357000000000
 40
3.000000000000000
 50
0.000000000000000
 51
90.981172999999970
  0
ARC
  8
0
  6
CONTINUOUS
 62
256
 10
-161.622536999999990
 20
71.003354999999999
 40
3.000000000000006
 50
269.018827000000040
 51
0.000000000000000
  0
ARC
  8
0
  6
CONTINUOUS
 62
256
 10
-161.622536999999990
 20
78.646049000000005
 40
3.000000000000000
 50
270.000000000000000
 51
0.000000000000000
  0
ARC
  8
0
  6
CONTINUOUS
 62
256
 10
-161.622536999999990
 20
85.557625000000002
 40
3.000000000000000
 50
270.000000000000000
 51
0.000000000000000
  0
ARC
  8
0
  6
CONTINUOUS
 62
256
 10
-161.622536999999990
 20
176.838663999999990
 40
3.000000000000000
 50
0.000000000000000
 51
90.000000000000000
  0
ARC
  8
0
  6
CONTINUOUS
 62
256
 10
-161.622536999999990
 20
169.927087000000000
 40
3.000000000000000
 50
0.000000000000000
 51
90.000000000000000
  0
ARC
  8
0
  6
CONTINUOUS
 62
256
 10
-155.622536999999990
 20
80.742754000000005
 40
3.000000000000000
 50
90.000000000000000
 51
180.000000000000000
  0
LINE
  8
0
  6
CONTINUOUS
 62
256
 10
-148.726442999999990
 20
171.742356000000000
 11
-155.622536999999990
 21
171.742356000000000
  0
ARC
  8
0
  6
CONTINUOUS
 62
256
 10
-155.622536999999990
 20
174.742356000000000
 40
3.000000000000000
 50
180.000000000000000
 51
270.000000000000000
  0
LINE
  8
0
  6
CONTINUOUS
 62
256
 10
-158.622536999999990
 20
71.003354999999999
 11
-158.622536999999990
 21
184.481357000000000
  0
LINE
  8
0
  6
CONTINUOUS
 62
256
 10
-47.323433000000001
 20
185.742356000000000
 11
39.018492000000002
 21
185.742356000000000
  0
LINE
  8
0
  6
CONTINUOUS
 62
256
 10
-47.323433000000001
 20
81.742356000000001
 11
40.667996000000002
 21
81.742356000000001
  0
LINE
  8
0
  6
CONTINUOUS
 62
256
 10
-47.323433000000001
 20
69.741957999999997
 11
39.958604000000001
 21
69.741957999999997
  0
LINE
  8
0
  6
CONTINUOUS
 62
256
 10
-47.323433000000001
 20
69.741957999999997
 11
-148.122536999999990
 21
69.741957999999997
  0
LINE
  8
0
  6
CONTINUOUS
 62
256
 10
-148.332004000000010
 20
81.742356000000001
 11
-47.323433000000001
 21
81.742356000000001
  0
LINE
  8
0
  6
CONTINUOUS
 62
256
 10
-146.682501000000000
 20
185.742356000000000
 11
-47.323433000000001
 21
185.742356000000000
  0
LINE
  8
0
  6
CONTINUOUS
 62
256
 10
40.667996000000002
 20
81.742356000000001
 11
39.018492000000002
 21
176.242356000000000
  0
LINE
  8
0
  6
CONTINUOUS
 62
256
 10
39.018492000000002
 20
176.242356000000000
 11
39.018492000000002
 21
185.742356000000000
  0
LINE
  8
0
  6
CONTINUOUS
 62
256
 10
40.467252999999999
 20
70.241805999999997
 11
40.667996000000002
 21
81.742356000000001
  0
LINE
  8
0
  6
CONTINUOUS
 62
256
 10
-148.332004000000010
 20
81.742356000000001
 11
-146.682501000000000
 21
176.242356000000000
  0
LINE
  8
0
  6
CONTINUOUS
 62
256
 10
-146.682501000000000
 20
176.242356000000000
 11
-146.682501000000000
 21
185.742356000000000
  0
LINE
  8
0
  6
CONTINUOUS
 62
256
 10
-148.122536999999990
 20
69.741957999999997
 11
-148.332004000000010
 21
81.742356000000001
  0
LINE
  8
0
  6
CONTINUOUS
 62
256
 10
-31.122537000000001
 20
64.741957999999997
 11
-78.622536999999994
 21
64.741957999999997
  0
LINE
  8
0
  6
CONTINUOUS
 62
256
 10
39.958604000000001
 20
69.741957999999997
 11
40.467252999999999
 21
70.241805999999997
  0
LINE
  8
0
  6
CONTINUOUS
 62
256
 10
-7.351210000000000
 20
61.742356000000001
 11
-7.351210000000000
 21
64.742356000000001
  0
LINE
  8
0
  6
CONTINUOUS
 62
256
 10
-8.351210000000000
 20
60.742356000000001
 11
-31.351209999999998
 21
60.742356000000001
  0
ARC
  8
0
  6
CONTINUOUS
 62
256
 10
-8.351210000000000
 20
61.742356000000001
 40
1.000000000000000
 50
270.000000000000000
 51
0.000000000000000
  0
LINE
  8
0
  6
CONTINUOUS
 62
256
 10
-55.351210000000002
 20
61.742356000000001
 11
-55.351210000000002
 21
64.742356000000001
  0
LINE
  8
0
  6
CONTINUOUS
 62
256
 10
-54.351210000000002
 20
60.742356000000001
 11
-31.351209999999998
 21
60.742356000000001
  0
ARC
  8
0
  6
CONTINUOUS
 62
256
 10
-54.351210000000002
 20
61.742356000000001
 40
1.000000000000000
 50
180.000000000000000
 51
270.000000000000000
  0
LINE
  8
0
  6
CONTINUOUS
 62
256
 10
-55.351210000000002
 20
193.742356000000000
 11
-55.351210000000002
 21
190.742356000000000
  0
LINE
  8
0
  6
CONTINUOUS
 62
256
 10
-54.351210000000002
 20
194.742356000000000
 11
-31.351209999999998
 21
194.742356000000000
  0
ARC
  8
0
  6
CONTINUOUS
 62
256
 10
-54.351210000000002
 20
193.742356000000000
 40
1.000000000000000
 50
90.000000000000000
 51
180.000000000000000
  0
LINE
  8
0
  6
CONTINUOUS
 62
256
 10
-7.351210000000000
 20
193.742356000000000
 11
-7.351210000000000
 21
190.742356000000000
  0
LINE
  8
0
  6
CONTINUOUS
 62
256
 10
-8.351210000000000
 20
194.742356000000000
 11
-31.351209999999998
 21
194.742356000000000
  0
ARC
  8
0
  6
CONTINUOUS
 62
256
 10
-8.351210000000000
 20
193.742356000000000
 40
1.000000000000000
 50
0.000000000000000
 51
90.000000000000000
  0
LINE
  8
0
  6
DASHDOT
 62
256
 10
-31.122537000000001
 20
51.026612000000000
 11
-31.122537000000001
 21
208.407763999999990
  0
ENDSEC
  0
EOF
