  0
SECTION
  2
HEADER
  9
$TEXTSIZE
 40
2.5
  9
$ACADVER
  1
AC1009
  9
$DIMASZ
 40
3.863703297614046
  9
$DIMEXE
 40
2.000000000000000
  9
$DIMEXO
 40
1.000000000000000
  9
$DIMLFAC
 40
1.000000000000000
  9
$DIMSCALE
 40
1.000000000000000
  9
$DIMTAD
 70
1
  9
$DIMTFAC
 40
0.625000000000000
  9
$DIMTXT
 40
3.200000047683716
  9
$LUPREC
 70
3
  9
$REGENMODE
 70
1
  9
$TEXTSTYLE
  7
STANDARD1
  0
ENDSEC
  0
SECTION
  2
TABLES
  0
TABLE
  2
LTYPE
 70
4
  0
LTYPE
  2
CONTINUOUS
 70
64
  3
Solid line
 72
65
 73
0
 40
0.0
  0
LTYPE
  2
DASHED
 70
64
  3
-- -- -- -- -- -- -- -- -- -- -- -- -- -- --
 72
65
 73
2
 40
0.75
 49
0.5
 49
-0.25
  0
LTYPE
  2
DASHDOT
 70
64
  3
__ . __ . __ . __ . __ . __ . __ . __ . __ . __
 72
65
 73
4
 40
1.0
 49
0.5
 49
-0.25
 49
0.0
 49
-0.25
  0
LTYPE
  2
DIVIDE
 70
64
  3
__ . . __ . . __ . . __ . . __ . . __ . . __
 72
65
 73
6
 40
1.25
 49
0.5
 49
-0.25
 49
0.0
 49
-0.25
 49
0.0
 49
-0.25
  0
ENDTAB
  0
TABLE
  2
LAYER
 70
3
  0
LAYER
  2
0
 70
64
 62
53
  6
CONTINUOUS
  0
LAYER
  2
1
 70
64
 62
102
  6
CONTINUOUS
  0
LAYER
  2
2
 70
64
 62
102
  6
CONTINUOUS
  0
ENDTAB
  0
TABLE
  2
STYLE
 70
4
  0
STYLE
  2
STANDARD1
 70
64
 40
0.0
 41
1.0
 50
0.0
 71
0
 42
3.200000047683716
  3
MONOTXT
  4
BIGFONT
  0
STYLE
  2
STANDARD2
 70
68
 40
0.0
 41
1.0
 50
0.0
 71
0
 42
3.200000047683716
  3
MONOTXT
  4
BIGFONT
  0
STYLE
  2
STANDARD3
 70
64
 40
0.0
 41
1.0
 50
0.0
 71
0
 42
3.200000047683716
  3
MONOTXT
  4

  0
STYLE
  2
STANDARD4
 70
68
 40
0.0
 41
1.0
 50
0.0
 71
0
 42
3.200000047683716
  3
MONOTXT
  4

  0
ENDTAB
  0
TABLE
  2
VIEW
 70
0
  0
ENDTAB
  0
ENDSEC
  0
SECTION
  2
BLOCKS
  0
BLOCK
  8
0
  2
ZU_SYM_1
 70
64
 10
0.000000000000000
 20
0.000000000000000
  0
LINE
  8
0
  6
CONTINUOUS
 62
256
 10
1.999999000000000
 20
-1.154699000000000
 11
-0.000002000000000
 21
-2.309398000000000
  0
LINE
  8
0
  6
CONTINUOUS
 62
256
 10
-1.999999000000000
 20
1.154700000000000
 11
0.000002000000000
 21
2.309399000000000
  0
LINE
  8
0
  6
CONTINUOUS
 62
256
 10
-0.000002000000000
 20
-2.309397000000000
 11
-1.999997000000000
 21
-1.154696000000000
  0
LINE
  8
0
  6
CONTINUOUS
 62
256
 10
1.999998000000000
 20
1.154696000000000
 11
0.000002000000000
 21
2.309399000000000
  0
LINE
  8
0
  6
CONTINUOUS
 62
256
 10
1.999998000000000
 20
1.154695000000000
 11
1.999999000000000
 21
-1.154699000000000
  0
LINE
  8
0
  6
CONTINUOUS
 62
256
 10
-1.999998000000000
 20
-1.154696000000000
 11
-1.999999000000000
 21
1.154700000000000
  0
POINT
  8
0
  6
CONTINUOUS
 62
256
 10
0.000000000000000
 20
0.000000000000000
  0
CIRCLE
  8
0
  6
CONTINUOUS
 62
256
 10
0.000000000000000
 20
0.000000000000000
 40
4.249999000000000
  0
ENDBLK
  8
0
  0
BLOCK
  8
0
  2
ZU_SYM_2
 70
64
 10
0.000000000000000
 20
0.000000000000000
  0
LINE
  8
0
  6
CONTINUOUS
 62
256
 10
1.999999000000000
 20
-1.154699000000000
 11
-0.000002000000000
 21
-2.309398000000000
  0
LINE
  8
0
  6
CONTINUOUS
 62
256
 10
-1.999999000000000
 20
1.154700000000000
 11
0.000002000000000
 21
2.309399000000000
  0
LINE
  8
0
  6
CONTINUOUS
 62
256
 10
-0.000002000000000
 20
-2.309397000000000
 11
-1.999997000000000
 21
-1.154696000000000
  0
LINE
  8
0
  6
CONTINUOUS
 62
256
 10
1.999998000000000
 20
1.154696000000000
 11
0.000002000000000
 21
2.309399000000000
  0
LINE
  8
0
  6
CONTINUOUS
 62
256
 10
1.999998000000000
 20
1.154695000000000
 11
1.999999000000000
 21
-1.154699000000000
  0
LINE
  8
0
  6
CONTINUOUS
 62
256
 10
-1.999998000000000
 20
-1.154696000000000
 11
-1.999999000000000
 21
1.154700000000000
  0
POINT
  8
0
  6
CONTINUOUS
 62
256
 10
0.000000000000000
 20
0.000000000000000
  0
CIRCLE
  8
0
  6
CONTINUOUS
 62
256
 10
0.000000000000000
 20
0.000000000000000
 40
4.249999000000000
  0
ENDBLK
  8
0
  0
BLOCK
  8
0
  2
ZU_SYM_3
 70
64
 10
0.000000000000000
 20
0.000000000000000
  0
LINE
  8
0
  6
CONTINUOUS
 62
256
 10
1.999999000000000
 20
-1.154699000000000
 11
-0.000002000000000
 21
-2.309398000000000
  0
LINE
  8
0
  6
CONTINUOUS
 62
256
 10
-1.999999000000000
 20
1.154700000000000
 11
0.000002000000000
 21
2.309399000000000
  0
LINE
  8
0
  6
CONTINUOUS
 62
256
 10
-0.000002000000000
 20
-2.309397000000000
 11
-1.999997000000000
 21
-1.154696000000000
  0
LINE
  8
0
  6
CONTINUOUS
 62
256
 10
1.999998000000000
 20
1.154696000000000
 11
0.000002000000000
 21
2.309399000000000
  0
LINE
  8
0
  6
CONTINUOUS
 62
256
 10
1.999998000000000
 20
1.154695000000000
 11
1.999999000000000
 21
-1.154699000000000
  0
LINE
  8
0
  6
CONTINUOUS
 62
256
 10
-1.999998000000000
 20
-1.154696000000000
 11
-1.999999000000000
 21
1.154700000000000
  0
POINT
  8
0
  6
CONTINUOUS
 62
256
 10
0.000000000000000
 20
0.000000000000000
  0
CIRCLE
  8
0
  6
CONTINUOUS
 62
256
 10
0.000000000000000
 20
0.000000000000000
 40
4.249999000000000
  0
ENDBLK
  8
0
  0
BLOCK
  8
0
  2
ZU_SYM_4
 70
64
 10
0.000000000000000
 20
0.000000000000000
  0
LINE
  8
0
  6
CONTINUOUS
 62
256
 10
1.999999000000000
 20
-1.154699000000000
 11
-0.000002000000000
 21
-2.309398000000000
  0
LINE
  8
0
  6
CONTINUOUS
 62
256
 10
-1.999999000000000
 20
1.154700000000000
 11
0.000002000000000
 21
2.309399000000000
  0
LINE
  8
0
  6
CONTINUOUS
 62
256
 10
-0.000002000000000
 20
-2.309397000000000
 11
-1.999997000000000
 21
-1.154696000000000
  0
LINE
  8
0
  6
CONTINUOUS
 62
256
 10
1.999998000000000
 20
1.154696000000000
 11
0.000002000000000
 21
2.309399000000000
  0
LINE
  8
0
  6
CONTINUOUS
 62
256
 10
1.999998000000000
 20
1.154695000000000
 11
1.999999000000000
 21
-1.154699000000000
  0
LINE
  8
0
  6
CONTINUOUS
 62
256
 10
-1.999998000000000
 20
-1.154696000000000
 11
-1.999999000000000
 21
1.154700000000000
  0
POINT
  8
0
  6
CONTINUOUS
 62
256
 10
0.000000000000000
 20
0.000000000000000
  0
CIRCLE
  8
0
  6
CONTINUOUS
 62
256
 10
0.000000000000000
 20
0.000000000000000
 40
4.249999000000000
  0
ENDBLK
  8
0
  0
ENDSEC
  0
SECTION
  2
ENTITIES
  0
CIRCLE
  8
0
  6
CONTINUOUS
 62
256
 10
14.310777000000000
 20
-12.670370999999999
 40
7.000000000000002
  0
CIRCLE
  8
0
  6
CONTINUOUS
 62
256
 10
-103.689223000000000
 20
-12.670370999999999
 40
7.000000000000000
  0
CIRCLE
  8
0
  6
CONTINUOUS
 62
256
 10
-103.689223000000000
 20
-117.670371000000000
 40
7.000000000000000
  0
CIRCLE
  8
0
  6
CONTINUOUS
 62
256
 10
14.310777000000000
 20
-117.670371000000000
 40
7.000000000000002
  0
LINE
  8
0
  6
DASHED
 62
256
 10
358.961652000000020
 20
-17.170370999999999
 11
423.961652000000020
 21
-17.170370999999999
  0
LINE
  8
0
  6
DASHED
 62
256
 10
358.961652000000020
 20
-19.670370999999999
 11
358.961652000000020
 21
-5.670371000000000
  0
LINE
  8
0
  6
DASHED
 62
256
 10
347.961652000000020
 20
-19.670370999999999
 11
358.961652000000020
 21
-19.670370999999999
  0
LINE
  8
0
  6
DASHED
 62
256
 10
358.961652000000020
 20
-8.170370999999999
 11
423.961652000000020
 21
-8.170370999999999
  0
LINE
  8
0
  6
DASHED
 62
256
 10
347.961652000000020
 20
-5.670371000000000
 11
358.961652000000020
 21
-5.670371000000000
  0
LINE
  8
0
  6
DASHED
 62
256
 10
434.961652000000020
 20
-5.670371000000000
 11
423.961652000000020
 21
-5.670371000000000
  0
LINE
  8
0
  6
DASHED
 62
256
 10
423.961652000000020
 20
-19.670370999999999
 11
423.961652000000020
 21
-5.670371000000000
  0
LINE
  8
0
  6
DASHED
 62
256
 10
434.961652000000020
 20
-19.670370999999999
 11
423.961652000000020
 21
-19.670370999999999
  0
LINE
  8
0
  6
DASHED
 62
256
 10
358.961652000000020
 20
-124.670371000000000
 11
358.961652000000020
 21
-110.670371000000000
  0
LINE
  8
0
  6
DASHED
 62
256
 10
347.961652000000020
 20
-110.670371000000000
 11
358.961652000000020
 21
-110.670371000000000
  0
LINE
  8
0
  6
DASHED
 62
256
 10
358.961652000000020
 20
-113.170371000000000
 11
423.961652000000020
 21
-113.170371000000000
  0
LINE
  8
0
  6
DASHED
 62
256
 10
347.961652000000020
 20
-124.670371000000000
 11
358.961652000000020
 21
-124.670371000000000
  0
LINE
  8
0
  6
DASHED
 62
256
 10
358.961652000000020
 20
-122.170371000000000
 11
423.961652000000020
 21
-122.170371000000000
  0
LINE
  8
0
  6
DASHED
 62
256
 10
423.961652000000020
 20
-124.670371000000000
 11
423.961652000000020
 21
-110.670371000000000
  0
LINE
  8
0
  6
DASHED
 62
256
 10
434.961652000000020
 20
-110.670371000000000
 11
423.961652000000020
 21
-110.670371000000000
  0
LINE
  8
0
  6
DASHED
 62
256
 10
434.961652000000020
 20
-124.670371000000000
 11
423.961652000000020
 21
-124.670371000000000
  0
LINE
  8
0
  6
DASHDOT
 62
256
 10
-27.689222999999998
 20
78.491511000000003
 11
-27.689222999999998
 21
192.929168000000000
  0
LINE
  8
0
  6
CONTINUOUS
 62
256
 10
-45.689222999999998
 20
82.011167000000000
 11
-27.689222999999998
 21
82.011167000000000
  0
ARC
  8
0
  6
CONTINUOUS
 62
256
 10
-45.689222999999998
 20
83.011167000000000
 40
1.000000000000000
 50
180.000000000000000
 51
270.000000000000000
  0
LINE
  8
0
  6
CONTINUOUS
 62
256
 10
-46.689222999999998
 20
83.011167000000000
 11
-46.689222999999998
 21
86.011167000000000
  0
LINE
  8
0
  6
CONTINUOUS
 62
256
 10
-9.689223000000000
 20
82.011167000000000
 11
-27.689222999999998
 21
82.011167000000000
  0
LINE
  8
0
  6
CONTINUOUS
 62
256
 10
-8.689223000000000
 20
83.011167000000000
 11
-8.689223000000000
 21
86.011167000000000
  0
ARC
  8
0
  6
CONTINUOUS
 62
256
 10
-9.689223000000000
 20
83.011167000000000
 40
1.000000000000000
 50
270.000000000000000
 51
0.000000000000000
  0
LINE
  8
0
  6
CONTINUOUS
 62
256
 10
-45.689222999999998
 20
185.011167000000000
 11
-27.689222999999998
 21
185.011167000000000
  0
ARC
  8
0
  6
CONTINUOUS
 62
256
 10
-45.689222999999998
 20
184.011167000000000
 40
1.000000000000000
 50
90.000000000000000
 51
180.000000000000000
  0
LINE
  8
0
  6
CONTINUOUS
 62
256
 10
-46.689222999999998
 20
184.011167000000000
 11
-46.689222999999998
 21
181.011167000000000
  0
ARC
  8
0
  6
CONTINUOUS
 62
256
 10
-9.689223000000000
 20
184.011167000000000
 40
1.000000000000000
 50
0.000000000000000
 51
90.000000000000000
  0
LINE
  8
0
  6
CONTINUOUS
 62
256
 10
-8.689223000000000
 20
184.011167000000000
 11
-8.689223000000000
 21
181.011167000000000
  0
LINE
  8
0
  6
CONTINUOUS
 62
256
 10
-9.689223000000000
 20
185.011167000000000
 11
-27.689222999999998
 21
185.011167000000000
  0
LINE
  8
0
  6
CONTINUOUS
 62
256
 10
-138.689223000000000
 20
181.011167000000000
 11
-138.689223000000000
 21
184.045620000000010
  0
LINE
  8
0
  6
CONTINUOUS
 62
256
 10
-135.689223000000000
 20
178.011167000000000
 11
-130.689223000000000
 21
178.011167000000000
  0
LINE
  8
0
  6
CONTINUOUS
 62
256
 10
-136.689223000000000
 20
174.940818000000010
 11
-130.689223000000000
 21
174.940818000000010
  0
LINE
  8
0
  6
CONTINUOUS
 62
256
 10
-125.689223000000000
 20
170.403333000000000
 11
-125.689223000000000
 21
173.011167000000000
  0
LINE
  8
0
  6
CONTINUOUS
 62
256
 10
-128.689223000000000
 20
167.403333000000000
 11
-135.689223000000000
 21
167.403333000000000
  0
LINE
  8
0
  6
CONTINUOUS
 62
256
 10
-138.689223000000000
 20
153.511167000000000
 11
-143.689223000000000
 21
153.511167000000000
  0
LINE
  8
0
  6
CONTINUOUS
 62
256
 10
-138.689223000000000
 20
133.511167000000000
 11
-138.689223000000000
 21
172.940818000000010
  0
LINE
  8
0
  6
CONTINUOUS
 62
256
 10
-138.689223000000000
 20
113.511167000000000
 11
-143.689223000000000
 21
113.511167000000000
  0
LINE
  8
0
  6
CONTINUOUS
 62
256
 10
-125.689223000000000
 20
96.619000999999997
 11
-125.689223000000000
 21
94.011167000000000
  0
LINE
  8
0
  6
CONTINUOUS
 62
256
 10
-128.689223000000000
 20
99.619000999999997
 11
-135.689223000000000
 21
99.619000999999997
  0
LINE
  8
0
  6
CONTINUOUS
 62
256
 10
-138.689223000000000
 20
133.511167000000000
 11
-138.689223000000000
 21
94.081514999999996
  0
LINE
  8
0
  6
CONTINUOUS
 62
256
 10
-135.689223000000000
 20
89.011167000000000
 11
-130.689223000000000
 21
89.011167000000000
  0
LINE
  8
0
  6
CONTINUOUS
 62
256
 10
-136.689223000000000
 20
92.081514999999996
 11
-130.689223000000000
 21
92.081514999999996
  0
LINE
  8
0
  6
CONTINUOUS
 62
256
 10
-138.689223000000000
 20
86.011167000000000
 11
-138.689223000000000
 21
82.976713000000004
  0
ARC
  8
0
  6
CONTINUOUS
 62
256
 10
-141.689223000000000
 20
184.045620000000010
 40
3.000000000000000
 50
0.000000000000000
 51
80.279896999999892
  0
ARC
  8
0
  6
CONTINUOUS
 62
256
 10
-141.689223000000000
 20
82.976713000000004
 40
3.000000000000000
 50
279.720103000000110
 51
0.000000000000000
  0
ARC
  8
0
  6
CONTINUOUS
 62
256
 10
-135.689223000000000
 20
164.403333000000000
 40
3.000000000000000
 50
90.000000000000000
 51
180.000000000000000
  0
ARC
  8
0
  6
CONTINUOUS
 62
256
 10
-135.689223000000000
 20
181.011167000000000
 40
3.000000000000000
 50
180.000000000000000
 51
270.000000000000000
  0
ARC
  8
0
  6
CONTINUOUS
 62
256
 10
-136.689223000000000
 20
172.940818000000010
 40
2.000000000000000
 50
90.000000000000000
 51
180.000000000000000
  0
ARC
  8
0
  6
CONTINUOUS
 62
256
 10
-130.689223000000000
 20
169.940818000000010
 40
5.000000000000000
 50
0.000000000000000
 51
90.000000000000000
  0
ARC
  8
0
  6
CONTINUOUS
 62
256
 10
-130.689223000000000
 20
173.011167000000000
 40
5.000000000000000
 50
0.000000000000000
 51
90.000000000000000
  0
ARC
  8
0
  6
CONTINUOUS
 62
256
 10
-135.689223000000000
 20
102.619001000000000
 40
3.000000000000000
 50
180.000000000000000
 51
270.000000000000000
  0
ARC
  8
0
  6
CONTINUOUS
 62
256
 10
-130.689223000000000
 20
97.081514999999996
 40
5.000000000000000
 50
270.000000000000000
 51
0.000000000000000
  0
ARC
  8
0
  6
CONTINUOUS
 62
256
 10
-130.689223000000000
 20
94.011167000000000
 40
5.000000000000000
 50
270.000000000000000
 51
0.000000000000000
  0
ARC
  8
0
  6
CONTINUOUS
 62
256
 10
-135.689223000000000
 20
86.011167000000000
 40
3.000000000000000
 50
90.000000000000000
 51
180.000000000000000
  0
ARC
  8
0
  6
CONTINUOUS
 62
256
 10
-136.689223000000000
 20
94.081514999999996
 40
2.000000000000000
 50
180.000000000000000
 51
270.000000000000000
  0
LINE
  8
0
  6
CONTINUOUS
 62
256
 10
-125.689223000000000
 20
184.272536000000000
 11
-125.689223000000000
 21
133.511167000000000
  0
LINE
  8
0
  6
CONTINUOUS
 62
256
 10
-125.689223000000000
 20
82.749797999999998
 11
-125.689223000000000
 21
133.511167000000000
  0
ARC
  8
0
  6
CONTINUOUS
 62
256
 10
-128.689223000000000
 20
82.749797999999998
 40
2.999999999999997
 50
268.999999999999830
 51
0.000000000000000
  0
ARC
  8
0
  6
CONTINUOUS
 62
256
 10
-128.689223000000000
 20
184.272536000000000
 40
3.000000000000000
 50
0.000000000000000
 51
91.000000000000142
  0
ARC
  8
0
  6
CONTINUOUS
 62
256
 10
-128.689223000000000
 20
102.619001000000000
 40
3.000000000000000
 50
270.000000000000000
 51
0.000000000000000
  0
ARC
  8
0
  6
CONTINUOUS
 62
256
 10
-128.689223000000000
 20
164.403333000000000
 40
3.000000000000000
 50
0.000000000000000
 51
90.000000000000000
  0
LINE
  8
0
  6
CONTINUOUS
 62
256
 10
-125.689223000000000
 20
82.749797999999998
 11
-125.689223000000000
 21
89.011167000000000
  0
LINE
  8
0
  6
CONTINUOUS
 62
256
 10
-125.689223000000000
 20
184.272536000000000
 11
-125.689223000000000
 21
167.011167000000000
  0
ARC
  8
0
  6
CONTINUOUS
 62
256
 10
-128.689223000000000
 20
184.272536000000000
 40
3.000000000000000
 50
0.000000000000000
 51
91.000000000000142
  0
ARC
  8
0
  6
CONTINUOUS
 62
256
 10
-122.689223000000000
 20
100.011167000000000
 40
3.000000000000000
 50
90.000000000000000
 51
180.000000000000000
  0
LINE
  8
0
  6
CONTINUOUS
 62
256
 10
-117.680800000000000
 20
103.011167000000000
 11
-122.689223000000000
 21
103.011167000000000
  0
ARC
  8
0
  6
CONTINUOUS
 62
256
 10
-128.689223000000000
 20
82.749797999999998
 40
2.999999999999997
 50
268.999999999999830
 51
0.000000000000000
  0
ARC
  8
0
  6
CONTINUOUS
 62
256
 10
-122.689223000000000
 20
178.011167000000000
 40
3.000000000000000
 50
180.000000000000000
 51
270.000000000000000
  0
LINE
  8
0
  6
CONTINUOUS
 62
256
 10
-116.519733000000000
 20
175.011167000000000
 11
-122.689223000000000
 21
175.011167000000000
  0
LINE
  8
0
  6
CONTINUOUS
 62
256
 10
-115.671767000000000
 20
101.011167000000000
 11
-115.479761999999990
 21
90.011167000000000
  0
LINE
  8
0
  6
CONTINUOUS
 62
256
 10
25.310777000000002
 20
90.011167000000000
 11
-115.479761999999990
 21
90.011167000000000
  0
LINE
  8
0
  6
CONTINUOUS
 62
256
 10
25.502783000000001
 20
101.011167000000000
 11
25.310777000000002
 21
90.011167000000000
  0
LINE
  8
0
  6
CONTINUOUS
 62
256
 10
-65.189222999999998
 20
177.011167000000000
 11
-65.189222999999998
 21
181.011167000000000
  0
LINE
  8
0
  6
CONTINUOUS
 62
256
 10
9.810777000000000
 20
181.011167000000000
 11
-65.189222999999998
 21
181.011167000000000
  0
LINE
  8
0
  6
CONTINUOUS
 62
256
 10
9.810777000000000
 20
177.011167000000000
 11
9.810777000000000
 21
181.011167000000000
  0
LINE
  8
0
  6
CONTINUOUS
 62
256
 10
-65.189222999999998
 20
86.011167000000000
 11
-65.189222999999998
 21
90.011167000000000
  0
LINE
  8
0
  6
CONTINUOUS
 62
256
 10
9.810777000000000
 20
86.011167000000000
 11
9.810777000000000
 21
90.011167000000000
  0
LINE
  8
0
  6
CONTINUOUS
 62
256
 10
-100.814015000000000
 20
90.011167000000000
 11
-86.778857000000002
 21
90.011167000000000
  0
LINE
  8
0
  6
CONTINUOUS
 62
256
 10
9.810777000000000
 20
86.011167000000000
 11
-65.189222999999998
 21
86.011167000000000
  0
ARC
  8
0
  6
CONTINUOUS
 62
256
 10
-116.519733000000000
 20
177.011167000000000
 40
2.000000000000000
 50
270.000000000000000
 51
0.000000000000000
  0
ARC
  8
0
  6
CONTINUOUS
 62
256
 10
-117.680800000000000
 20
101.011167000000000
 40
2.000000000000000
 50
0.000000000000000
 51
90.000000000000000
  0
LINE
  8
0
  6
CONTINUOUS
 62
256
 10
-128.182717000000000
 20
187.229468000000000
 11
-143.689223000000000
 21
186.958800999999990
  0
LINE
  8
0
  6
CONTINUOUS
 62
256
 10
-128.182717000000000
 20
79.792865000000006
 11
-143.689223000000000
 21
80.063531999999995
  0
LINE
  8
0
  6
CONTINUOUS
 62
256
 10
-114.519733000000000
 20
167.511167000000000
 11
-114.519733000000000
 21
177.011167000000000
  0
LINE
  8
0
  6
CONTINUOUS
 62
256
 10
-114.519733000000000
 20
177.011167000000000
 11
-27.689222999999998
 21
177.011167000000000
  0
LINE
  8
0
  6
CONTINUOUS
 62
256
 10
-115.680494999999990
 20
101.011167000000000
 11
-114.519733000000000
 21
167.511167000000000
  0
LINE
  8
0
  6
CONTINUOUS
 62
256
 10
-115.680800000000000
 20
101.011167000000000
 11
25.502783000000001
 21
101.011167000000000
  0
LINE
  8
0
  6
CONTINUOUS
 62
256
 10
25.494056000000000
 20
101.011167000000000
 11
24.333293999999999
 21
167.511167000000000
  0
LINE
  8
0
  6
CONTINUOUS
 62
256
 10
24.333293999999999
 20
167.511167000000000
 11
24.333293999999999
 21
177.011167000000000
  0
LINE
  8
0
  6
CONTINUOUS
 62
256
 10
-27.689222999999998
 20
177.011167000000000
 11
24.333293999999999
 21
177.011167000000000
  0
ARC
  8
0
  6
CONTINUOUS
 62
256
 10
-283.194068000000020
 20
100.111166999999990
 40
20.599999999999991
 50
235.000000000000000
 51
270.000000000000000
  0
ARC
  8
0
  6
CONTINUOUS
 62
256
 10
-301.089223000000000
 20
90.667546000000002
 40
2.600000000000023
 50
180.000000000000000
 51
234.999999999999940
  0
LINE
  8
0
  6
CONTINUOUS
 62
256
 10
-303.689223000000030
 20
90.667546000000002
 11
-303.689223000000030
 21
133.511167000000000
  0
LINE
  8
0
  6
CONTINUOUS
 62
256
 10
-295.009742000000020
 20
83.236633999999995
 11
-302.580520999999980
 21
88.537751000000000
  0
LINE
  8
0
  6
CONTINUOUS
 62
256
 10
-227.689223000000000
 20
100.207566000000000
 11
-143.689223000000000
 21
100.207566000000000
  0
LINE
  8
0
  6
CONTINUOUS
 62
256
 10
-227.689223000000000
 20
101.796775000000000
 11
-143.689223000000000
 21
101.796775000000000
  0
LINE
  8
0
  6
CONTINUOUS
 62
256
 10
-227.689223000000000
 20
113.511167000000000
 11
-143.689223000000000
 21
113.511167000000000
  0
LINE
  8
0
  6
CONTINUOUS
 62
256
 10
-227.689223000000000
 20
110.672927000000000
 11
-143.689223000000000
 21
110.672927000000000
  0
LINE
  8
0
  6
CONTINUOUS
 62
256
 10
-227.689223000000000
 20
109.326525000000000
 11
-143.689223000000000
 21
109.326525000000000
  0
LINE
  8
0
  6
CONTINUOUS
 62
256
 10
-227.689223000000000
 20
106.233794000000000
 11
-143.689223000000000
 21
106.233794000000000
  0
LINE
  8
0
  6
CONTINUOUS
 62
256
 10
-227.689223000000000
 20
104.754771000000010
 11
-143.689223000000000
 21
104.754771000000010
  0
LINE
  8
0
  6
CONTINUOUS
 62
256
 10
-227.846823000000000
 20
93.470731000000001
 11
-143.689223000000000
 21
93.470731000000001
  0
LINE
  8
0
  6
CONTINUOUS
 62
256
 10
-227.689223000000000
 20
92.469252999999995
 11
-143.689223000000000
 21
92.469252999999995
  0
LINE
  8
0
  6
CONTINUOUS
 62
256
 10
-227.689223000000000
 20
89.006511000000003
 11
-143.689223000000000
 21
89.006511000000003
  0
LINE
  8
0
  6
CONTINUOUS
 62
256
 10
-227.689223000000000
 20
87.378084000000001
 11
-143.689223000000000
 21
87.378084000000001
  0
LINE
  8
0
  6
CONTINUOUS
 62
256
 10
-227.689223000000000
 20
82.511167000000000
 11
-143.689223000000000
 21
82.511167000000000
  0
LINE
  8
0
  6
CONTINUOUS
 62
256
 10
-227.689223000000000
 20
83.011167000000000
 11
-143.689223000000000
 21
83.011167000000000
  0
LINE
  8
0
  6
CONTINUOUS
 62
256
 10
-143.689223000000000
 20
81.011167000000000
 11
-227.689223000000000
 21
81.011167000000000
  0
ARC
  8
0
  6
CONTINUOUS
 62
256
 10
-283.194068000000020
 20
166.911167000000010
 40
20.599999999999994
 50
90.000000000000000
 51
125.000000000000010
  0
ARC
  8
0
  6
CONTINUOUS
 62
256
 10
-301.089223000000000
 20
176.354786999999990
 40
2.599999999999996
 50
125.000000000000210
 51
180.000000000000000
  0
LINE
  8
0
  6
CONTINUOUS
 62
256
 10
-303.689223000000030
 20
176.354786999999990
 11
-303.689223000000030
 21
133.511167000000000
  0
LINE
  8
0
  6
CONTINUOUS
 62
256
 10
-295.009742000000020
 20
183.785698999999990
 11
-302.580520999999980
 21
178.484581999999990
  0
LINE
  8
0
  6
CONTINUOUS
 62
256
 10
-227.689223000000000
 20
166.814766999999990
 11
-143.689223000000000
 21
166.814766999999990
  0
LINE
  8
0
  6
CONTINUOUS
 62
256
 10
-227.689223000000000
 20
165.225558000000010
 11
-143.689223000000000
 21
165.225558000000010
  0
LINE
  8
0
  6
CONTINUOUS
 62
256
 10
-227.689223000000000
 20
153.511167000000000
 11
-143.689223000000000
 21
153.511167000000000
  0
LINE
  8
0
  6
CONTINUOUS
 62
256
 10
-227.689223000000000
 20
156.349405999999990
 11
-143.689223000000000
 21
156.349405999999990
  0
LINE
  8
0
  6
CONTINUOUS
 62
256
 10
-227.689223000000000
 20
157.695808000000000
 11
-143.689223000000000
 21
157.695808000000000
  0
LINE
  8
0
  6
CONTINUOUS
 62
256
 10
-227.689223000000000
 20
160.788538999999990
 11
-143.689223000000000
 21
160.788538999999990
  0
LINE
  8
0
  6
CONTINUOUS
 62
256
 10
-227.689223000000000
 20
162.267562000000000
 11
-143.689223000000000
 21
162.267562000000000
  0
LINE
  8
0
  6
CONTINUOUS
 62
256
 10
-227.846823000000000
 20
173.551602000000000
 11
-143.689223000000000
 21
173.551602000000000
  0
LINE
  8
0
  6
CONTINUOUS
 62
256
 10
-227.689223000000000
 20
174.553079999999990
 11
-143.689223000000000
 21
174.553079999999990
  0
LINE
  8
0
  6
CONTINUOUS
 62
256
 10
-227.689223000000000
 20
178.015821999999990
 11
-143.689223000000000
 21
178.015821999999990
  0
LINE
  8
0
  6
CONTINUOUS
 62
256
 10
-227.689223000000000
 20
179.644249000000000
 11
-143.689223000000000
 21
179.644249000000000
  0
LINE
  8
0
  6
CONTINUOUS
 62
256
 10
-227.689223000000000
 20
184.511167000000000
 11
-143.689223000000000
 21
184.511167000000000
  0
LINE
  8
0
  6
CONTINUOUS
 62
256
 10
-227.689223000000000
 20
184.011167000000000
 11
-143.689223000000000
 21
184.011167000000000
  0
LINE
  8
0
  6
CONTINUOUS
 62
256
 10
-143.689223000000000
 20
186.011167000000000
 11
-227.689223000000000
 21
186.011167000000000
  0
LINE
  8
0
  6
DASHDOT
 62
256
 10
30.520211000000000
 20
133.511167000000000
 11
-309.937230000000000
 21
133.511167000000000
  0
POLYLINE
  8
0
  6
CONTINUOUS
 62
256
 66
1
 70
1
  0
VERTEX
  8
0
  6
CONTINUOUS
 62
256
 10
-233.989223000000010
 20
180.838496999999990
  0
VERTEX
  8
0
  6
CONTINUOUS
 62
256
 10
-234.079532182104830
 20
181.541453510558170
  0
VERTEX
  8
0
  6
CONTINUOUS
 62
256
 10
-234.346989197196960
 20
182.217395796638130
  0
VERTEX
  8
0
  6
CONTINUOUS
 62
256
 10
-234.781315822178040
 20
182.840347775258660
  0
VERTEX
  8
0
  6
CONTINUOUS
 62
256
 10
-235.365821128423220
 20
183.386369751236830
  0
VERTEX
  8
0
  6
CONTINUOUS
 62
256
 10
-236.078042904807890
 20
183.834478406248480
  0
VERTEX
  8
0
  6
CONTINUOUS
 62
256
 10
-236.890610867884080
 20
184.167453175983720
  0
VERTEX
  8
0
  6
CONTINUOUS
 62
256
 10
-237.772298486524190
 20
184.372498026776070
  0
VERTEX
  8
0
  6
CONTINUOUS
 62
256
 10
-238.689223000000000
 20
184.441733199999990
  0
VERTEX
  8
0
  6
CONTINUOUS
 62
256
 10
-239.606147513475800
 20
184.372498026776070
  0
VERTEX
  8
0
  6
CONTINUOUS
 62
256
 10
-240.487835132115920
 20
184.167453175983720
  0
VERTEX
  8
0
  6
CONTINUOUS
 62
256
 10
-241.300403095192110
 20
183.834478406248480
  0
VERTEX
  8
0
  6
CONTINUOUS
 62
256
 10
-242.012624871576780
 20
183.386369751236830
  0
VERTEX
  8
0
  6
CONTINUOUS
 62
256
 10
-242.597130177821950
 20
182.840347775258660
  0
VERTEX
  8
0
  6
CONTINUOUS
 62
256
 10
-243.031456802803040
 20
182.217395796638130
  0
VERTEX
  8
0
  6
CONTINUOUS
 62
256
 10
-243.298913817895170
 20
181.541453510558170
  0
VERTEX
  8
0
  6
CONTINUOUS
 62
256
 10
-243.389222999999990
 20
180.838496999999990
  0
VERTEX
  8
0
  6
CONTINUOUS
 62
256
 10
-243.298913817895170
 20
180.135540489441810
  0
VERTEX
  8
0
  6
CONTINUOUS
 62
256
 10
-243.031456802803040
 20
179.459598203361850
  0
VERTEX
  8
0
  6
CONTINUOUS
 62
256
 10
-242.597130177821950
 20
178.836646224741320
  0
VERTEX
  8
0
  6
CONTINUOUS
 62
256
 10
-242.012624871576780
 20
178.290624248763150
  0
VERTEX
  8
0
  6
CONTINUOUS
 62
256
 10
-241.300403095192110
 20
177.842515593751500
  0
VERTEX
  8
0
  6
CONTINUOUS
 62
256
 10
-240.487835132115920
 20
177.509540824016260
  0
VERTEX
  8
0
  6
CONTINUOUS
 62
256
 10
-239.606147513475800
 20
177.304495973223940
  0
VERTEX
  8
0
  6
CONTINUOUS
 62
256
 10
-238.689223000000000
 20
177.235260799999990
  0
VERTEX
  8
0
  6
CONTINUOUS
 62
256
 10
-237.772298486524190
 20
177.304495973223940
  0
VERTEX
  8
0
  6
CONTINUOUS
 62
256
 10
-236.890610867884080
 20
177.509540824016260
  0
VERTEX
  8
0
  6
CONTINUOUS
 62
256
 10
-236.078042904807890
 20
177.842515593751500
  0
VERTEX
  8
0
  6
CONTINUOUS
 62
256
 10
-235.365821128423250
 20
178.290624248763150
  0
VERTEX
  8
0
  6
CONTINUOUS
 62
256
 10
-234.781315822178040
 20
178.836646224741320
  0
VERTEX
  8
0
  6
CONTINUOUS
 62
256
 10
-234.346989197196960
 20
179.459598203361850
  0
VERTEX
  8
0
  6
CONTINUOUS
 62
256
 10
-234.079532182104830
 20
180.135540489441810
  0
SEQEND
  8
0
  6
CONTINUOUS
 62
256
  0
LINE
  8
0
  6
CONTINUOUS
 62
256
 10
-240.689223000000000
 20
183.830873000000000
 11
-238.689223000000000
 21
182.655088000000010
  0
LINE
  8
0
  6
CONTINUOUS
 62
256
 10
-238.689223000000000
 20
182.655088000000010
 11
-236.689223000000000
 21
181.002445999999990
  0
LINE
  8
0
  6
CONTINUOUS
 62
256
 10
-236.689223000000000
 20
183.830873000000000
 11
-238.689223000000000
 21
182.655088000000010
  0
LINE
  8
0
  6
CONTINUOUS
 62
256
 10
-238.689223000000000
 20
182.655088000000010
 11
-240.689223000000000
 21
181.002445999999990
  0
POLYLINE
  8
0
  6
CONTINUOUS
 62
256
 66
1
 70
1
  0
VERTEX
  8
0
  6
CONTINUOUS
 62
256
 10
-233.989223000000010
 20
86.183835999999999
  0
VERTEX
  8
0
  6
CONTINUOUS
 62
256
 10
-234.079532182104830
 20
86.886792510558166
  0
VERTEX
  8
0
  6
CONTINUOUS
 62
256
 10
-234.346989197196960
 20
87.562734796638139
  0
VERTEX
  8
0
  6
CONTINUOUS
 62
256
 10
-234.781315822178040
 20
88.185686775258660
  0
VERTEX
  8
0
  6
CONTINUOUS
 62
256
 10
-235.365821128423220
 20
88.731708751236852
  0
VERTEX
  8
0
  6
CONTINUOUS
 62
256
 10
-236.078042904807890
 20
89.179817406248489
  0
VERTEX
  8
0
  6
CONTINUOUS
 62
256
 10
-236.890610867884080
 20
89.512792175983748
  0
VERTEX
  8
0
  6
CONTINUOUS
 62
256
 10
-237.772298486524190
 20
89.717837026776067
  0
VERTEX
  8
0
  6
CONTINUOUS
 62
256
 10
-238.689223000000000
 20
89.787072199999997
  0
VERTEX
  8
0
  6
CONTINUOUS
 62
256
 10
-239.606147513475800
 20
89.717837026776067
  0
VERTEX
  8
0
  6
CONTINUOUS
 62
256
 10
-240.487835132115920
 20
89.512792175983748
  0
VERTEX
  8
0
  6
CONTINUOUS
 62
256
 10
-241.300403095192110
 20
89.179817406248489
  0
VERTEX
  8
0
  6
CONTINUOUS
 62
256
 10
-242.012624871576780
 20
88.731708751236852
  0
VERTEX
  8
0
  6
CONTINUOUS
 62
256
 10
-242.597130177821950
 20
88.185686775258660
  0
VERTEX
  8
0
  6
CONTINUOUS
 62
256
 10
-243.031456802803040
 20
87.562734796638139
  0
VERTEX
  8
0
  6
CONTINUOUS
 62
256
 10
-243.298913817895170
 20
86.886792510558166
  0
VERTEX
  8
0
  6
CONTINUOUS
 62
256
 10
-243.389222999999990
 20
86.183835999999999
  0
VERTEX
  8
0
  6
CONTINUOUS
 62
256
 10
-243.298913817895170
 20
85.480879489441833
  0
VERTEX
  8
0
  6
CONTINUOUS
 62
256
 10
-243.031456802803040
 20
84.804937203361860
  0
VERTEX
  8
0
  6
CONTINUOUS
 62
256
 10
-242.597130177821950
 20
84.181985224741339
  0
VERTEX
  8
0
  6
CONTINUOUS
 62
256
 10
-242.012624871576780
 20
83.635963248763161
  0
VERTEX
  8
0
  6
CONTINUOUS
 62
256
 10
-241.300403095192110
 20
83.187854593751510
  0
VERTEX
  8
0
  6
CONTINUOUS
 62
256
 10
-240.487835132115920
 20
82.854879824016251
  0
VERTEX
  8
0
  6
CONTINUOUS
 62
256
 10
-239.606147513475800
 20
82.649834973223932
  0
VERTEX
  8
0
  6
CONTINUOUS
 62
256
 10
-238.689223000000000
 20
82.580599800000002
  0
VERTEX
  8
0
  6
CONTINUOUS
 62
256
 10
-237.772298486524190
 20
82.649834973223932
  0
VERTEX
  8
0
  6
CONTINUOUS
 62
256
 10
-236.890610867884080
 20
82.854879824016251
  0
VERTEX
  8
0
  6
CONTINUOUS
 62
256
 10
-236.078042904807890
 20
83.187854593751510
  0
VERTEX
  8
0
  6
CONTINUOUS
 62
256
 10
-235.365821128423250
 20
83.635963248763147
  0
VERTEX
  8
0
  6
CONTINUOUS
 62
256
 10
-234.781315822178040
 20
84.181985224741339
  0
VERTEX
  8
0
  6
CONTINUOUS
 62
256
 10
-234.346989197196960
 20
84.804937203361860
  0
VERTEX
  8
0
  6
CONTINUOUS
 62
256
 10
-234.079532182104830
 20
85.480879489441833
  0
SEQEND
  8
0
  6
CONTINUOUS
 62
256
  0
LINE
  8
0
  6
CONTINUOUS
 62
256
 10
-240.689223000000000
 20
83.191460000000006
 11
-238.689223000000000
 21
84.367245999999994
  0
LINE
  8
0
  6
CONTINUOUS
 62
256
 10
-238.689223000000000
 20
84.367245999999994
 11
-236.689223000000000
 21
86.019886999999997
  0
LINE
  8
0
  6
CONTINUOUS
 62
256
 10
-236.689223000000000
 20
83.191460000000006
 11
-238.689223000000000
 21
84.367245999999994
  0
LINE
  8
0
  6
CONTINUOUS
 62
256
 10
-238.689223000000000
 20
84.367245999999994
 11
-240.689223000000000
 21
86.019886999999997
  0
LINE
  8
0
  6
CONTINUOUS
 62
256
 10
-227.689223000000000
 20
187.511167000000000
 11
-283.194068000000020
 21
187.511167000000000
  0
LINE
  8
0
  6
CONTINUOUS
 62
256
 10
-227.689223000000000
 20
187.511167000000000
 11
-227.689223000000000
 21
133.511167000000000
  0
LINE
  8
0
  6
CONTINUOUS
 62
256
 10
-227.689223000000000
 20
79.511167000000000
 11
-227.689223000000000
 21
133.511167000000000
  0
LINE
  8
0
  6
CONTINUOUS
 62
256
 10
-227.689223000000000
 20
79.511167000000000
 11
-283.194068000000020
 21
79.511167000000000
  0
LINE
  8
0
  6
CONTINUOUS
 62
256
 10
-143.689223000000000
 20
133.511167000000000
 11
-143.689223000000000
 21
80.063531999999995
  0
LINE
  8
0
  6
CONTINUOUS
 62
256
 10
-143.689223000000000
 20
133.511167000000000
 11
-143.689223000000000
 21
186.958800999999990
  0
LINE
  8
0
  6
CONTINUOUS
 62
256
 10
-367.258832999999980
 20
-118.356994000000000
 11
-367.258832999999980
 21
-128.478365000000000
  0
LINE
  8
0
  6
CONTINUOUS
 62
256
 10
-374.758832999999980
 20
-128.609277999999990
 11
-367.258832999999980
 21
-128.478365000000000
  0
LINE
  8
0
  6
CONTINUOUS
 62
256
 10
-454.258832999999980
 20
-127.518337000000000
 11
-454.258832999999980
 21
-118.356994000000000
  0
LINE
  8
0
  6
CONTINUOUS
 62
256
 10
-446.758832999999980
 20
-127.518337000000000
 11
-454.258832999999980
 21
-127.518337000000000
  0
LINE
  8
0
  6
CONTINUOUS
 62
256
 10
-454.258832999999980
 20
-16.983747999999999
 11
-454.258832999999980
 21
-2.839860000000000
  0
LINE
  8
0
  6
CONTINUOUS
 62
256
 10
-444.758832999999980
 20
-2.839860000000000
 11
-454.258832999999980
 21
-2.839860000000000
  0
LINE
  8
0
  6
CONTINUOUS
 62
256
 10
-363.258832999999980
 20
-17.170370999999999
 11
-367.258832999999980
 21
-17.170370999999999
  0
LINE
  8
0
  6
CONTINUOUS
 62
256
 10
-363.258832999999980
 20
-17.170370999999999
 11
-363.258832999999980
 21
-20.983747999999999
  0
LINE
  8
0
  6
CONTINUOUS
 62
256
 10
-377.758832999999980
 20
-1.679099000000000
 11
-367.258832999999980
 21
-1.862377000000000
  0
LINE
  8
0
  6
CONTINUOUS
 62
256
 10
-377.758832999999980
 20
-1.670371000000000
 11
-444.758832999999980
 21
-2.839860000000000
  0
LINE
  8
0
  6
CONTINUOUS
 62
256
 10
-377.758832999999980
 20
-10.680465999999999
 11
-377.758832999999980
 21
-5.161644000000000
  0
LINE
  8
0
  6
CONTINUOUS
 62
256
 10
-377.758832999999980
 20
-1.661644000000000
 11
-377.758832999999980
 21
-6.170371000000000
  0
LINE
  8
0
  6
CONTINUOUS
 62
256
 10
-367.258832999999980
 20
-1.862377000000000
 11
-367.258832999999980
 21
-16.983747999999999
  0
LINE
  8
0
  6
CONTINUOUS
 62
256
 10
-368.128676999999980
 20
-16.113904000000002
 11
-360.669981000000010
 21
-23.572599000000000
  0
ARC
  8
0
  6
CONTINUOUS
 62
256
 10
-410.758832999999980
 20
140.829629000000010
 40
300.000000000000000
 50
263.967951000000030
 51
276.032048999999970
  0
ARC
  8
0
  6
CONTINUOUS
 62
256
 10
-379.758832999999980
 20
-152.537036000000000
 40
5.000000000000002
 50
276.032049000000030
 51
0.000000000000000
  0
ARC
  8
0
  6
CONTINUOUS
 62
256
 10
-441.758832999999980
 20
-152.537036000000000
 40
5.000000000000000
 50
180.000000000000000
 51
263.967950999999970
  0
LINE
  8
0
  6
CONTINUOUS
 62
256
 10
-413.258832999999980
 20
-159.670370999999990
 11
-413.258832999999980
 21
-159.159954000000000
  0
LINE
  8
0
  6
CONTINUOUS
 62
256
 10
-413.258832999999980
 20
-159.670370999999990
 11
-408.258832999999980
 21
-159.670370999999990
  0
LINE
  8
0
  6
CONTINUOUS
 62
256
 10
-408.258832999999980
 20
-159.670370999999990
 11
-408.258832999999980
 21
-159.159954000000000
  0
LINE
  8
0
  6
CONTINUOUS
 62
256
 10
-446.758832999999980
 20
-123.670332000000000
 11
-446.758832999999980
 21
-152.537036000000000
  0
LINE
  8
0
  6
CONTINUOUS
 62
256
 10
-374.758832999999980
 20
-123.670332000000000
 11
-374.758832999999980
 21
-152.537036000000000
  0
ARC
  8
0
  6
CONTINUOUS
 62
256
 10
-410.758832999999980
 20
-309.270371000000010
 40
290.797000000000030
 50
84.247716999999994
 51
90.000000000000000
  0
LINE
  8
0
  6
CONTINUOUS
 62
256
 10
-375.060444000000020
 20
-23.045672000000000
 11
-369.173030999999980
 21
-28.933085999999999
  0
ARC
  8
0
  6
CONTINUOUS
 62
256
 10
-757.358833000000000
 20
-67.670371000000003
 40
390.797000000000030
 50
0.000000000000000
 51
5.417964000000000
  0
ARC
  8
0
  6
CONTINUOUS
 62
256
 10
-371.294351000000010
 20
-31.054406000000000
 40
2.999999999999997
 50
5.417963999999999
 51
44.999999999999766
  0
ARC
  8
0
  6
CONTINUOUS
 62
256
 10
-410.758832999999980
 20
-309.270371000000010
 40
290.797000000000030
 50
90.000000000000000
 51
95.752283000000006
  0
LINE
  8
0
  6
CONTINUOUS
 62
256
 10
-446.457222000000000
 20
-23.045672000000000
 11
-452.344634999999980
 21
-28.933085999999999
  0
ARC
  8
0
  6
CONTINUOUS
 62
256
 10
-64.158833000000001
 20
-67.670371000000003
 40
390.797000000000030
 50
174.582035999999990
 51
180.000000000000000
  0
ARC
  8
0
  6
CONTINUOUS
 62
256
 10
-450.223315000000010
 20
-31.054406000000000
 40
3.000000000000012
 50
135.000000000000260
 51
174.582036000000020
  0
ARC
  8
0
  6
CONTINUOUS
 62
256
 10
-410.758832999999980
 20
173.929629000000010
 40
290.797000000000030
 50
264.247717000000020
 51
270.000000000000000
  0
LINE
  8
0
  6
CONTINUOUS
 62
256
 10
-446.457222000000000
 20
-112.295070000000000
 11
-452.344634999999980
 21
-106.407656000000000
  0
ARC
  8
0
  6
CONTINUOUS
 62
256
 10
-64.158833000000001
 20
-67.670371000000003
 40
390.797000000000030
 50
180.000000000000000
 51
185.417963999999980
  0
ARC
  8
0
  6
CONTINUOUS
 62
256
 10
-450.223315000000010
 20
-104.286336000000010
 40
2.999999999999996
 50
185.417963999999930
 51
224.999999999999800
  0
ARC
  8
0
  6
CONTINUOUS
 62
256
 10
-410.758832999999980
 20
173.929629000000010
 40
290.797000000000030
 50
270.000000000000000
 51
275.752282999999980
  0
ARC
  8
0
  6
CONTINUOUS
 62
256
 10
-371.294351000000010
 20
-104.286336000000010
 40
3.000000000000014
 50
315.000000000000230
 51
354.582036000000070
  0
ARC
  8
0
  6
CONTINUOUS
 62
256
 10
-757.358833000000000
 20
-67.670371000000003
 40
390.797000000000030
 50
354.582036000000020
 51
0.000000000000000
  0
LINE
  8
0
  6
CONTINUOUS
 62
256
 10
-375.060444000000020
 20
-112.295070000000000
 11
-369.173030999999980
 21
-106.407656000000000
  0
ARC
  8
0
  6
CONTINUOUS
 62
256
 10
-410.758832999999980
 20
-309.270371000000010
 40
300.600000000000020
 50
84.247716999999994
 51
90.000000000000000
  0
ARC
  8
0
  6
CONTINUOUS
 62
256
 10
-757.358833000000000
 20
-67.670371000000003
 40
400.600000000000020
 50
0.000000000000000
 51
5.743682000000000
  0
ARC
  8
0
  6
CONTINUOUS
 62
256
 10
-365.336885999999990
 20
-28.239504000000000
 40
6.599999999999973
 50
5.743682000000032
 51
44.999999999999844
  0
ARC
  8
0
  6
CONTINUOUS
 62
256
 10
-410.758832999999980
 20
-309.270371000000010
 40
300.600000000000020
 50
90.000000000000000
 51
95.752283000000006
  0
LINE
  8
0
  6
CONTINUOUS
 62
256
 10
-453.388988999999980
 20
-16.113904000000002
 11
-460.847684000000020
 21
-23.572599000000000
  0
ARC
  8
0
  6
CONTINUOUS
 62
256
 10
-64.158833000000001
 20
-67.670371000000003
 40
400.600000000000080
 50
174.256317999999990
 51
180.000000000000000
  0
ARC
  8
0
  6
CONTINUOUS
 62
256
 10
-456.180780000000030
 20
-28.239504000000000
 40
6.600000000000019
 50
135.000000000000140
 51
174.256317999999960
  0
ARC
  8
0
  6
CONTINUOUS
 62
256
 10
-410.758832999999980
 20
173.929629000000010
 40
300.600000000000020
 50
264.247717000000020
 51
270.000000000000000
  0
LINE
  8
0
  6
CONTINUOUS
 62
256
 10
-453.388988999999980
 20
-119.226838000000000
 11
-460.847684000000020
 21
-111.768142999999990
  0
ARC
  8
0
  6
CONTINUOUS
 62
256
 10
-64.158833000000001
 20
-67.670371000000003
 40
400.600000000000020
 50
180.000000000000000
 51
185.743681999999980
  0
ARC
  8
0
  6
CONTINUOUS
 62
256
 10
-456.180780000000030
 20
-107.101238000000000
 40
6.599999999999973
 50
185.743682000000060
 51
224.999999999999830
  0
ARC
  8
0
  6
CONTINUOUS
 62
256
 10
-365.336885999999990
 20
-107.101238000000000
 40
6.600000000000017
 50
315.000000000000170
 51
354.256318000000020
  0
ARC
  8
0
  6
CONTINUOUS
 62
256
 10
-757.358833000000000
 20
-67.670371000000003
 40
400.600000000000020
 50
354.256318000000020
 51
0.000000000000000
  0
ARC
  8
0
  6
CONTINUOUS
 62
256
 10
-410.758832999999980
 20
173.929629000000010
 40
300.600000000000020
 50
270.000000000000000
 51
275.752282999999980
  0
LINE
  8
0
  6
DASHDOT
 62
256
 10
-472.482563000000030
 20
-67.670371000000003
 11
-347.264604000000020
 21
-67.670371000000003
  0
LINE
  8
0
  6
DASHDOT
 62
256
 10
-410.758832999999980
 20
1.124331000000000
 11
-410.758832999999980
 21
-165.047470000000000
  0
LINE
  8
0
  6
CONTINUOUS
 62
256
 10
-368.128676999999980
 20
-119.226838000000000
 11
-360.669981000000010
 21
-111.768142999999990
  0
LINE
  8
0
  6
CONTINUOUS
 62
256
 10
-446.758832999999980
 20
-125.170371000000000
 11
-440.746819000000020
 21
-125.170371000000000
  0
LINE
  8
0
  6
CONTINUOUS
 62
256
 10
-380.766333999999970
 20
-125.170371000000000
 11
-374.758832999999980
 21
-125.170371000000000
  0
ARC
  8
0
  6
CONTINUOUS
 62
256
 10
-382.695075999999970
 20
-104.660438000000000
 40
20.600000000000001
 50
275.752282999999860
 51
314.999999999999940
  0
ARC
  8
0
  6
CONTINUOUS
 62
256
 10
-438.822589999999990
 20
-104.660438000000000
 40
20.599999999999991
 50
225.000000000000000
 51
264.247716999999910
  0
ARC
  8
0
  6
CONTINUOUS
 62
256
 10
-438.822589999999990
 20
-30.680304000000000
 40
20.600000000000005
 50
95.752283000000077
 51
135.000000000000000
  0
ARC
  8
0
  6
CONTINUOUS
 62
256
 10
-382.695075999999970
 20
-30.680304000000000
 40
20.599999999999994
 50
45.000000000000014
 51
84.247716999999938
  0
ARC
  8
0
  6
CONTINUOUS
 62
256
 10
-382.695075999999970
 20
-104.660438000000000
 40
10.797000000000002
 50
275.752282999999980
 51
315.000000000000060
  0
ARC
  8
0
  6
CONTINUOUS
 62
256
 10
-382.695075999999970
 20
-30.680304000000000
 40
10.797000000000008
 50
44.999999999999964
 51
84.247716999999980
  0
ARC
  8
0
  6
CONTINUOUS
 62
256
 10
-438.822589999999990
 20
-30.680304000000000
 40
10.797000000000002
 50
95.752283000000034
 51
135.000000000000060
  0
ARC
  8
0
  6
CONTINUOUS
 62
256
 10
-438.822589999999990
 20
-104.660438000000000
 40
10.797000000000006
 50
224.999999999999940
 51
264.247716999999970
  0
ARC
  8
0
  6
CONTINUOUS
 62
256
 10
-393.102389000000020
 20
-71.170371000000003
 40
1.000000000000000
 50
90.000000000000000
 51
168.787729000000270
  0
LINE
  8
0
  6
CONTINUOUS
 62
256
 10
-390.052553999999990
 20
-70.170371000000003
 11
-393.102389000000020
 21
-70.170371000000003
  0
ARC
  8
0
  6
CONTINUOUS
 62
256
 10
-390.052553999999990
 20
-71.170371000000003
 40
0.999999999999978
 50
350.405932000000010
 51
90.000000000000000
  0
ARC
  8
0
  6
CONTINUOUS
 62
256
 10
-384.490981999999970
 20
-71.170371000000003
 40
1.000000000000000
 50
90.000000000000000
 51
172.410458000000010
  0
LINE
  8
0
  6
CONTINUOUS
 62
256
 10
-381.467196000000000
 20
-70.170371000000003
 11
-384.490981999999970
 21
-70.170371000000003
  0
ARC
  8
0
  6
CONTINUOUS
 62
256
 10
-381.467196000000000
 20
-71.170371000000003
 40
1.000000000000019
 50
353.186146000000240
 51
90.000000000000000
  0
ARC
  8
0
  6
CONTINUOUS
 62
256
 10
-375.934273000000020
 20
-71.170371000000003
 40
1.000000000000000
 50
90.000000000000000
 51
174.260829999999570
  0
LINE
  8
0
  6
CONTINUOUS
 62
256
 10
-372.920360000000020
 20
-70.170371000000003
 11
-375.934273000000020
 21
-70.170371000000003
  0
ARC
  8
0
  6
CONTINUOUS
 62
256
 10
-372.920360000000020
 20
-71.170371000000003
 40
1.000000000000027
 50
354.715267000000210
 51
90.000000000000000
  0
ARC
  8
0
  6
CONTINUOUS
 62
256
 10
-393.081926000000010
 20
-91.287672999999998
 40
0.999999999999984
 50
210.000000000000510
 51
306.813854000000730
  0
LINE
  8
0
  6
CONTINUOUS
 62
256
 10
-393.947950999999990
 20
-91.787672999999998
 11
-395.459843999999980
 21
-89.168997000000005
  0
ARC
  8
0
  6
CONTINUOUS
 62
256
 10
-394.593819000000000
 20
-88.668997000000005
 40
0.999999999999993
 50
127.589541999998830
 51
210.000000000000510
  0
ARC
  8
0
  6
CONTINUOUS
 62
256
 10
-388.808508000000020
 20
-98.689449999999994
 40
0.999999999999984
 50
210.000000000000510
 51
305.284733000000980
  0
LINE
  8
0
  6
CONTINUOUS
 62
256
 10
-389.674533000000000
 20
-99.189449999999994
 11
-391.181489000000000
 21
-96.579324999999997
  0
ARC
  8
0
  6
CONTINUOUS
 62
256
 10
-390.315464000000020
 20
-96.079324999999997
 40
0.999999999999998
 50
125.739170000000210
 51
210.000000000000510
  0
ARC
  8
0
  6
CONTINUOUS
 62
256
 10
-403.311864000000010
 20
-73.568899999999999
 40
0.999999999999985
 50
141.618271999999000
 51
210.000000000000510
  0
LINE
  8
0
  6
CONTINUOUS
 62
256
 10
-402.593769000000010
 20
-76.812675999999996
 11
-404.177888999999990
 21
-74.068899999999999
  0
ARC
  8
0
  6
CONTINUOUS
 62
256
 10
-398.899521999999990
 20
-81.211299999999994
 40
1.000000000000006
 50
131.212270999999760
 51
210.000000000000510
  0
LINE
  8
0
  6
CONTINUOUS
 62
256
 10
-398.240630000000010
 20
-84.352535000000003
 11
-399.765548000000020
 21
-81.711299999999994
  0
ARC
  8
0
  6
CONTINUOUS
 62
256
 10
-397.374603999999980
 20
-83.852535000000003
 40
0.999999999999984
 50
210.000000000000510
 51
309.594067999999310
  0
ARC
  8
0
  6
CONTINUOUS
 62
256
 10
-401.927072000000010
 20
-71.170371000000003
 40
1.000000000000000
 50
90.000000000000000
 51
158.381728000000550
  0
ARC
  8
0
  6
CONTINUOUS
 62
256
 10
-410.758832999999980
 20
-67.670371000000003
 40
8.500000000000005
 50
321.618272000000050
 51
338.381728000000010
  0
ARC
  8
0
  6
CONTINUOUS
 62
256
 10
-401.727743999999970
 20
-76.312675999999996
 40
0.999999999999984
 50
210.000000000000510
 51
316.260205000000270
  0
LINE
  8
0
  6
CONTINUOUS
 62
256
 10
-398.758832999999980
 20
-70.170371000000003
 11
-401.927072000000010
 21
-70.170371000000003
  0
ARC
  8
0
  6
CONTINUOUS
 62
256
 10
-398.758832999999980
 20
-71.170371000000003
 40
0.999999999999976
 50
343.739794999999330
 51
90.000000000000000
  0
ARC
  8
0
  6
CONTINUOUS
 62
256
 10
-410.758832999999980
 20
-67.670371000000003
 40
13.500000000000004
 50
316.260204999999980
 51
343.739794999999960
  0
ARC
  8
0
  6
CONTINUOUS
 62
256
 10
-410.758832999999980
 20
-67.670371000000003
 40
17.000000000000014
 50
311.212270999999990
 51
348.787729000000010
  0
ARC
  8
0
  6
CONTINUOUS
 62
256
 10
-410.758832999999980
 20
-67.670371000000003
 40
21.999999999999986
 50
309.594067999999940
 51
350.405932000000010
  0
ARC
  8
0
  6
CONTINUOUS
 62
256
 10
-410.758832999999980
 20
-67.670371000000003
 40
30.500000000000014
 50
306.813854000000050
 51
353.186146000000010
  0
ARC
  8
0
  6
CONTINUOUS
 62
256
 10
-410.758832999999980
 20
-67.670371000000003
 40
25.499999999999996
 50
307.589541999999990
 51
352.410458000000010
  0
ARC
  8
0
  6
CONTINUOUS
 62
256
 10
-410.758832999999980
 20
-67.670371000000003
 40
33.999999999999986
 50
305.739169999999940
 51
354.260830000000000
  0
ARC
  8
0
  6
CONTINUOUS
 62
256
 10
-410.758832999999980
 20
-67.670371000000003
 40
39.000000000000014
 50
305.284733000000020
 51
354.715266999999980
  0
ARC
  8
0
  6
CONTINUOUS
 62
256
 10
-399.144102999999970
 20
-94.787672999999998
 40
1.000000000000000
 50
293.186146000000120
 51
30.000000000000544
  0
LINE
  8
0
  6
CONTINUOUS
 62
256
 10
-398.278077999999990
 20
-94.287672999999998
 11
-399.789970999999980
 21
-91.668997000000005
  0
ARC
  8
0
  6
CONTINUOUS
 62
256
 10
-400.655996000000020
 20
-92.168997000000005
 40
0.999999999999984
 50
30.000000000000544
 51
112.410458000000460
  0
ARC
  8
0
  6
CONTINUOUS
 62
256
 10
-394.870685999999980
 20
-102.189449999999990
 40
1.000000000000004
 50
294.715267000000150
 51
30.000000000000544
  0
LINE
  8
0
  6
CONTINUOUS
 62
256
 10
-394.004660000000000
 20
-101.689449999999990
 11
-395.511616000000000
 21
-99.079324999999997
  0
ARC
  8
0
  6
CONTINUOUS
 62
256
 10
-396.377641999999980
 20
-99.579324999999997
 40
0.999999999999984
 50
30.000000000000544
 51
114.260829999998650
  0
ARC
  8
0
  6
CONTINUOUS
 62
256
 10
-409.374040999999980
 20
-77.068899999999999
 40
0.999999999999984
 50
30.000000000000544
 51
98.381727999998901
  0
LINE
  8
0
  6
CONTINUOUS
 62
256
 10
-406.923896000000010
 20
-79.312675999999996
 11
-408.508016000000000
 21
-76.568899999999999
  0
ARC
  8
0
  6
CONTINUOUS
 62
256
 10
-404.961700000000010
 20
-84.711299999999994
 40
0.999999999999984
 50
30.000000000000544
 51
108.787729000000750
  0
LINE
  8
0
  6
CONTINUOUS
 62
256
 10
-402.570757000000010
 20
-86.852535000000003
 11
-404.095675000000030
 21
-84.211299999999994
  0
ARC
  8
0
  6
CONTINUOUS
 62
256
 10
-403.436781999999990
 20
-87.352535000000003
 40
0.999999999999993
 50
290.405931999999840
 51
30.000000000000544
  0
ARC
  8
0
  6
CONTINUOUS
 62
256
 10
-412.143623999999990
 20
-77.068899999999999
 40
0.999999999999998
 50
81.618272000001099
 51
149.999999999999460
  0
ARC
  8
0
  6
CONTINUOUS
 62
256
 10
-410.758832999999980
 20
-67.670371000000003
 40
8.500000000000002
 50
261.618271999999930
 51
278.381728000000070
  0
ARC
  8
0
  6
CONTINUOUS
 62
256
 10
-407.789921999999990
 20
-79.812675999999996
 40
1.000000000000011
 50
283.739795000001270
 51
30.000000000000544
  0
LINE
  8
0
  6
CONTINUOUS
 62
256
 10
-414.593769000000010
 20
-79.312675999999996
 11
-413.009650000000020
 21
-76.568899999999999
  0
ARC
  8
0
  6
CONTINUOUS
 62
256
 10
-413.727743999999970
 20
-79.812675999999996
 40
0.999999999999984
 50
149.999999999999460
 51
256.260204999998730
  0
ARC
  8
0
  6
CONTINUOUS
 62
256
 10
-410.758832999999980
 20
-67.670371000000003
 40
13.499999999999989
 50
256.260205000000040
 51
283.739794999999960
  0
ARC
  8
0
  6
CONTINUOUS
 62
256
 10
-416.555966000000010
 20
-84.711299999999994
 40
1.000000000000010
 50
71.212270999999262
 51
149.999999999999460
  0
LINE
  8
0
  6
CONTINUOUS
 62
256
 10
-418.946909000000010
 20
-86.852535000000003
 11
-417.421990999999990
 21
-84.211299999999994
  0
ARC
  8
0
  6
CONTINUOUS
 62
256
 10
-410.758832999999980
 20
-67.670371000000003
 40
16.999999999999993
 50
251.212271000000040
 51
288.787728999999960
  0
ARC
  8
0
  6
CONTINUOUS
 62
256
 10
-418.080884000000030
 20
-87.352535000000003
 40
0.999999999999984
 50
149.999999999999460
 51
249.594068000000160
  0
ARC
  8
0
  6
CONTINUOUS
 62
256
 10
-420.861670000000000
 20
-92.168997000000005
 40
1.000000000000009
 50
67.589541999999554
 51
149.999999999999460
  0
ARC
  8
0
  6
CONTINUOUS
 62
256
 10
-425.140023999999980
 20
-99.579324999999997
 40
0.999999999999992
 50
65.739170000001337
 51
149.999999999999460
  0
ARC
  8
0
  6
CONTINUOUS
 62
256
 10
-410.758832999999980
 20
-67.670371000000003
 40
21.999999999999996
 50
249.594067999999990
 51
290.405932000000010
  0
LINE
  8
0
  6
CONTINUOUS
 62
256
 10
-423.239588000000030
 20
-94.287672999999998
 11
-421.727694999999980
 21
-91.668997000000005
  0
ARC
  8
0
  6
CONTINUOUS
 62
256
 10
-422.373562999999990
 20
-94.787672999999998
 40
0.999999999999984
 50
149.999999999999460
 51
246.813853999999880
  0
ARC
  8
0
  6
CONTINUOUS
 62
256
 10
-410.758832999999980
 20
-67.670371000000003
 40
30.499999999999996
 50
246.813853999999990
 51
293.186146000000010
  0
ARC
  8
0
  6
CONTINUOUS
 62
256
 10
-410.758832999999980
 20
-67.670371000000003
 40
25.500000000000007
 50
247.589541999999940
 51
292.410458000000010
  0
ARC
  8
0
  6
CONTINUOUS
 62
256
 10
-410.758832999999980
 20
-67.670371000000003
 40
34.000000000000000
 50
245.739170000000000
 51
294.260830000000000
  0
ARC
  8
0
  6
CONTINUOUS
 62
256
 10
-410.758832999999980
 20
-67.670371000000003
 40
39.000000000000000
 50
245.284732999999960
 51
294.715266999999980
  0
LINE
  8
0
  6
CONTINUOUS
 62
256
 10
-427.513006000000020
 20
-101.689449999999990
 11
-426.006050000000020
 21
-99.079324999999997
  0
ARC
  8
0
  6
CONTINUOUS
 62
256
 10
-426.646979999999990
 20
-102.189449999999990
 40
0.999999999999984
 50
149.999999999999460
 51
245.284732999999870
  0
CIRCLE
  8
0
  6
CONTINUOUS
 62
256
 10
-410.758832999999980
 20
-67.670371000000003
 40
5.000000000000000
  0
ARC
  8
0
  6
CONTINUOUS
 62
256
 10
-432.709158000000000
 20
-98.689449999999994
 40
1.000000000000016
 50
234.715266999999020
 51
329.999999999999490
  0
ARC
  8
0
  6
CONTINUOUS
 62
256
 10
-431.202202000000000
 20
-96.079324999999997
 40
0.999999999999984
 50
329.999999999999490
 51
54.260829999999778
  0
ARC
  8
0
  6
CONTINUOUS
 62
256
 10
-445.583393000000000
 20
-71.170371000000003
 40
0.999999999999978
 50
5.739170000000447
 51
90.000000000000000
  0
ARC
  8
0
  6
CONTINUOUS
 62
256
 10
-448.597305000000010
 20
-71.170371000000003
 40
1.000000000000000
 50
90.000000000000000
 51
185.284732999999760
  0
ARC
  8
0
  6
CONTINUOUS
 62
256
 10
-437.026683999999990
 20
-71.170371000000003
 40
0.999999999999990
 50
7.589541999999997
 51
90.000000000000000
  0
ARC
  8
0
  6
CONTINUOUS
 62
256
 10
-428.435740000000010
 20
-91.287672999999998
 40
1.000000000000011
 50
233.186145999999270
 51
329.999999999999490
  0
ARC
  8
0
  6
CONTINUOUS
 62
256
 10
-426.923847000000020
 20
-88.668997000000005
 40
0.999999999999984
 50
329.999999999999490
 51
52.410458000001171
  0
ARC
  8
0
  6
CONTINUOUS
 62
256
 10
-440.050470000000020
 20
-71.170371000000003
 40
1.000000000000000
 50
90.000000000000000
 51
186.813853999999760
  0
ARC
  8
0
  6
CONTINUOUS
 62
256
 10
-431.465111999999980
 20
-71.170371000000003
 40
1.000000000000000
 50
90.000000000000000
 51
189.594067999999960
  0
ARC
  8
0
  6
CONTINUOUS
 62
256
 10
-428.415277000000000
 20
-71.170371000000003
 40
1.000000000000016
 50
11.212270999999729
 51
90.000000000000000
  0
ARC
  8
0
  6
CONTINUOUS
 62
256
 10
-424.143061999999990
 20
-83.852535000000003
 40
0.999999999999988
 50
230.405932000000690
 51
329.999999999999490
  0
ARC
  8
0
  6
CONTINUOUS
 62
256
 10
-422.618143999999970
 20
-81.211299999999994
 40
0.999999999999984
 50
329.999999999999490
 51
48.787728999999715
  0
ARC
  8
0
  6
CONTINUOUS
 62
256
 10
-419.789921999999990
 20
-76.312675999999996
 40
1.000000000000005
 50
223.739794999999760
 51
329.999999999999490
  0
ARC
  8
0
  6
CONTINUOUS
 62
256
 10
-422.758832999999980
 20
-71.170371000000003
 40
1.000000000000000
 50
90.000000000000000
 51
196.260205000000670
  0
ARC
  8
0
  6
CONTINUOUS
 62
256
 10
-419.590594000000010
 20
-71.170371000000003
 40
1.000000000000013
 50
21.618271999999475
 51
90.000000000000000
  0
ARC
  8
0
  6
CONTINUOUS
 62
256
 10
-418.205802000000010
 20
-73.568899999999999
 40
0.999999999999984
 50
329.999999999999490
 51
38.381728000001026
  0
ARC
  8
0
  6
CONTINUOUS
 62
256
 10
-410.758832999999980
 20
-67.670371000000003
 40
38.999999999999986
 50
185.284732999999990
 51
234.715266999999980
  0
ARC
  8
0
  6
CONTINUOUS
 62
256
 10
-410.758832999999980
 20
-67.670371000000003
 40
30.499999999999986
 50
186.813853999999990
 51
233.186146000000040
  0
ARC
  8
0
  6
CONTINUOUS
 62
256
 10
-410.758832999999980
 20
-67.670371000000003
 40
34.000000000000028
 50
185.739169999999970
 51
234.260829999999970
  0
ARC
  8
0
  6
CONTINUOUS
 62
256
 10
-410.758832999999980
 20
-67.670371000000003
 40
25.500000000000011
 50
187.589541999999990
 51
232.410458000000030
  0
ARC
  8
0
  6
CONTINUOUS
 62
256
 10
-410.758832999999980
 20
-67.670371000000003
 40
21.999999999999975
 50
189.594067999999960
 51
230.405932000000060
  0
ARC
  8
0
  6
CONTINUOUS
 62
256
 10
-410.758832999999980
 20
-67.670371000000003
 40
16.999999999999989
 50
191.212270999999960
 51
228.787728999999960
  0
ARC
  8
0
  6
CONTINUOUS
 62
256
 10
-410.758832999999980
 20
-67.670371000000003
 40
13.499999999999989
 50
196.260205000000010
 51
223.739794999999990
  0
ARC
  8
0
  6
CONTINUOUS
 62
256
 10
-410.758832999999980
 20
-67.670371000000003
 40
8.500000000000016
 50
201.618271999999960
 51
218.381727999999950
  0
LINE
  8
0
  6
CONTINUOUS
 62
256
 10
-427.569714999999970
 20
-91.787672999999998
 11
-426.057821999999990
 21
-89.168997000000005
  0
LINE
  8
0
  6
CONTINUOUS
 62
256
 10
-448.597305000000010
 20
-70.170371000000003
 11
-445.583393000000000
 21
-70.170371000000003
  0
LINE
  8
0
  6
CONTINUOUS
 62
256
 10
-431.843133000000020
 20
-99.189449999999994
 11
-430.336177000000020
 21
-96.579324999999997
  0
LINE
  8
0
  6
CONTINUOUS
 62
256
 10
-423.277036000000010
 20
-84.352535000000003
 11
-421.752118000000000
 21
-81.711299999999994
  0
LINE
  8
0
  6
CONTINUOUS
 62
256
 10
-418.923896000000010
 20
-76.812675999999996
 11
-417.339777000000030
 21
-74.068899999999999
  0
LINE
  8
0
  6
CONTINUOUS
 62
256
 10
-422.758832999999980
 20
-70.170371000000003
 11
-419.590594000000010
 21
-70.170371000000003
  0
LINE
  8
0
  6
CONTINUOUS
 62
256
 10
-431.465111999999980
 20
-70.170371000000003
 11
-428.415277000000000
 21
-70.170371000000003
  0
LINE
  8
0
  6
CONTINUOUS
 62
256
 10
-440.050470000000020
 20
-70.170371000000003
 11
-437.026683999999990
 21
-70.170371000000003
  0
ARC
  8
0
  6
CONTINUOUS
 62
256
 10
-410.758832999999980
 20
-67.670371000000003
 40
38.999999999999993
 50
65.284733000000031
 51
114.715266999999980
  0
ARC
  8
0
  6
CONTINUOUS
 62
256
 10
-410.758832999999980
 20
-67.670371000000003
 40
34.000000000000000
 50
65.739169999999987
 51
114.260830000000010
  0
ARC
  8
0
  6
CONTINUOUS
 62
256
 10
-410.758832999999980
 20
-67.670371000000003
 40
25.500000000000007
 50
67.589541999999966
 51
112.410458000000050
  0
ARC
  8
0
  6
CONTINUOUS
 62
256
 10
-410.758832999999980
 20
-67.670371000000003
 40
30.500000000000004
 50
66.813853999999992
 51
113.186146000000010
  0
ARC
  8
0
  6
CONTINUOUS
 62
256
 10
-410.758832999999980
 20
-67.670371000000003
 40
21.999999999999996
 50
69.594067999999993
 51
110.405932000000020
  0
ARC
  8
0
  6
CONTINUOUS
 62
256
 10
-410.758832999999980
 20
-67.670371000000003
 40
16.999999999999993
 50
71.212271000000044
 51
108.787728999999960
  0
ARC
  8
0
  6
CONTINUOUS
 62
256
 10
-410.758832999999980
 20
-67.670371000000003
 40
13.499999999999996
 50
76.260205000000070
 51
103.739794999999940
  0
ARC
  8
0
  6
CONTINUOUS
 62
256
 10
-407.789921999999990
 20
-55.528066000000003
 40
0.999999999999984
 50
329.999999999999490
 51
76.260204999998635
  0
ARC
  8
0
  6
CONTINUOUS
 62
256
 10
-403.436781999999990
 20
-47.988207000000003
 40
0.999999999999984
 50
329.999999999999490
 51
69.594068000000291
  0
LINE
  8
0
  6
CONTINUOUS
 62
256
 10
-402.570757000000010
 20
-48.488207000000003
 11
-404.095675000000030
 21
-51.129441999999997
  0
ARC
  8
0
  6
CONTINUOUS
 62
256
 10
-404.961700000000010
 20
-50.629441999999997
 40
1.000000000000004
 50
251.212270999999130
 51
329.999999999999490
  0
LINE
  8
0
  6
CONTINUOUS
 62
256
 10
-406.923896000000010
 20
-56.028066000000003
 11
-408.508016000000000
 21
-58.771841999999999
  0
ARC
  8
0
  6
CONTINUOUS
 62
256
 10
-409.374040999999980
 20
-58.271841999999999
 40
0.999999999999998
 50
261.618272000001130
 51
329.999999999999490
  0
ARC
  8
0
  6
CONTINUOUS
 62
256
 10
-396.377641999999980
 20
-35.761417000000002
 40
0.999999999999992
 50
245.739170000001340
 51
329.999999999999490
  0
LINE
  8
0
  6
CONTINUOUS
 62
256
 10
-394.004660000000000
 20
-33.651293000000003
 11
-395.511616000000000
 21
-36.261417000000002
  0
ARC
  8
0
  6
CONTINUOUS
 62
256
 10
-394.870685999999980
 20
-33.151293000000003
 40
0.999999999999984
 50
329.999999999999490
 51
65.284732999999861
  0
ARC
  8
0
  6
CONTINUOUS
 62
256
 10
-400.655996000000020
 20
-43.171745000000001
 40
1.000000000000003
 50
247.589541999999370
 51
329.999999999999490
  0
LINE
  8
0
  6
CONTINUOUS
 62
256
 10
-398.278077999999990
 20
-41.053069000000001
 11
-399.789970999999980
 21
-43.671745000000001
  0
ARC
  8
0
  6
CONTINUOUS
 62
256
 10
-399.144102999999970
 20
-40.553069000000001
 40
0.999999999999984
 50
329.999999999999490
 51
66.813853999999878
  0
ARC
  8
0
  6
CONTINUOUS
 62
256
 10
-410.758832999999980
 20
-67.670371000000003
 40
38.999999999999986
 50
5.284733000000007
 51
54.715266999999990
  0
ARC
  8
0
  6
CONTINUOUS
 62
256
 10
-410.758832999999980
 20
-67.670371000000003
 40
34.000000000000028
 50
5.739170000000004
 51
54.260829999999970
  0
ARC
  8
0
  6
CONTINUOUS
 62
256
 10
-410.758832999999980
 20
-67.670371000000003
 40
25.500000000000011
 50
7.589541999999985
 51
52.410458000000027
  0
ARC
  8
0
  6
CONTINUOUS
 62
256
 10
-410.758832999999980
 20
-67.670371000000003
 40
30.499999999999986
 50
6.813854000000005
 51
53.186146000000036
  0
ARC
  8
0
  6
CONTINUOUS
 62
256
 10
-410.758832999999980
 20
-67.670371000000003
 40
21.999999999999979
 50
9.594068000000020
 51
50.405932000000057
  0
ARC
  8
0
  6
CONTINUOUS
 62
256
 10
-410.758832999999980
 20
-67.670371000000003
 40
16.999999999999993
 50
11.212271000000010
 51
48.787728999999985
  0
ARC
  8
0
  6
CONTINUOUS
 62
256
 10
-410.758832999999980
 20
-67.670371000000003
 40
13.499999999999988
 50
16.260205000000006
 51
43.739795000000001
  0
ARC
  8
0
  6
CONTINUOUS
 62
256
 10
-398.758832999999980
 20
-64.170371000000003
 40
1.000000000000000
 50
270.000000000000000
 51
16.260205000000280
  0
LINE
  8
0
  6
CONTINUOUS
 62
256
 10
-398.758832999999980
 20
-65.170371000000003
 11
-401.927072000000010
 21
-65.170371000000003
  0
ARC
  8
0
  6
CONTINUOUS
 62
256
 10
-401.727743999999970
 20
-59.028066000000003
 40
1.000000000000005
 50
43.739794999999773
 51
149.999999999999460
  0
ARC
  8
0
  6
CONTINUOUS
 62
256
 10
-410.758832999999980
 20
-67.670371000000003
 40
8.500000000000016
 50
21.618271999999980
 51
38.381727999999960
  0
ARC
  8
0
  6
CONTINUOUS
 62
256
 10
-401.927072000000010
 20
-64.170371000000003
 40
1.000000000000013
 50
201.618271999999450
 51
270.000000000000000
  0
ARC
  8
0
  6
CONTINUOUS
 62
256
 10
-397.374603999999980
 20
-51.488207000000003
 40
0.999999999999988
 50
50.405932000000682
 51
149.999999999999460
  0
LINE
  8
0
  6
CONTINUOUS
 62
256
 10
-398.240630000000010
 20
-50.988207000000003
 11
-399.765548000000020
 21
-53.629441999999997
  0
ARC
  8
0
  6
CONTINUOUS
 62
256
 10
-398.899521999999990
 20
-54.129441999999997
 40
0.999999999999984
 50
149.999999999999460
 51
228.787728999999960
  0
LINE
  8
0
  6
CONTINUOUS
 62
256
 10
-402.593769000000010
 20
-58.528066000000003
 11
-404.177888999999990
 21
-61.271841999999999
  0
ARC
  8
0
  6
CONTINUOUS
 62
256
 10
-403.311864000000010
 20
-61.771841999999999
 40
0.999999999999984
 50
149.999999999999460
 51
218.381728000000690
  0
ARC
  8
0
  6
CONTINUOUS
 62
256
 10
-390.315464000000020
 20
-39.261417000000002
 40
0.999999999999984
 50
149.999999999999460
 51
234.260830000000000
  0
LINE
  8
0
  6
CONTINUOUS
 62
256
 10
-389.674533000000000
 20
-36.151293000000003
 11
-391.181489000000000
 21
-38.761417000000002
  0
ARC
  8
0
  6
CONTINUOUS
 62
256
 10
-388.808508000000020
 20
-36.651293000000003
 40
1.000000000000011
 50
54.715266999998782
 51
149.999999999999460
  0
ARC
  8
0
  6
CONTINUOUS
 62
256
 10
-394.593819000000000
 20
-46.671745000000001
 40
0.999999999999984
 50
149.999999999999460
 51
232.410458000000890
  0
LINE
  8
0
  6
CONTINUOUS
 62
256
 10
-393.947950999999990
 20
-43.553069000000001
 11
-395.459843999999980
 21
-46.171745000000001
  0
ARC
  8
0
  6
CONTINUOUS
 62
256
 10
-393.081926000000010
 20
-44.053069000000001
 40
1.000000000000011
 50
53.186145999999269
 51
149.999999999999460
  0
ARC
  8
0
  6
CONTINUOUS
 62
256
 10
-372.920360000000020
 20
-64.170371000000003
 40
1.000000000000000
 50
270.000000000000000
 51
5.284732999999778
  0
LINE
  8
0
  6
CONTINUOUS
 62
256
 10
-372.920360000000020
 20
-65.170371000000003
 11
-375.934273000000020
 21
-65.170371000000003
  0
ARC
  8
0
  6
CONTINUOUS
 62
256
 10
-375.934273000000020
 20
-64.170371000000003
 40
0.999999999999978
 50
185.739170000000430
 51
270.000000000000000
  0
ARC
  8
0
  6
CONTINUOUS
 62
256
 10
-381.467196000000000
 20
-64.170371000000003
 40
1.000000000000000
 50
270.000000000000000
 51
6.813853999999752
  0
LINE
  8
0
  6
CONTINUOUS
 62
256
 10
-381.467196000000000
 20
-65.170371000000003
 11
-384.490981999999970
 21
-65.170371000000003
  0
ARC
  8
0
  6
CONTINUOUS
 62
256
 10
-384.490981999999970
 20
-64.170371000000003
 40
0.999999999999990
 50
187.589541999999990
 51
270.000000000000000
  0
ARC
  8
0
  6
CONTINUOUS
 62
256
 10
-390.052553999999990
 20
-64.170371000000003
 40
1.000000000000000
 50
270.000000000000000
 51
9.594067999999961
  0
LINE
  8
0
  6
CONTINUOUS
 62
256
 10
-390.052553999999990
 20
-65.170371000000003
 11
-393.102389000000020
 21
-65.170371000000003
  0
ARC
  8
0
  6
CONTINUOUS
 62
256
 10
-393.102389000000020
 20
-64.170371000000003
 40
1.000000000000016
 50
191.212270999999730
 51
270.000000000000000
  0
ARC
  8
0
  6
CONTINUOUS
 62
256
 10
-413.727743999999970
 20
-55.528066000000003
 40
1.000000000000004
 50
103.739795000001370
 51
210.000000000000510
  0
LINE
  8
0
  6
CONTINUOUS
 62
256
 10
-414.593769000000010
 20
-56.028066000000003
 11
-413.009650000000020
 21
-58.771841999999999
  0
ARC
  8
0
  6
CONTINUOUS
 62
256
 10
-410.758832999999980
 20
-67.670371000000003
 40
8.500000000000002
 50
81.618271999999948
 51
98.381728000000052
  0
ARC
  8
0
  6
CONTINUOUS
 62
256
 10
-412.143623999999990
 20
-58.271841999999999
 40
0.999999999999984
 50
210.000000000000510
 51
278.381727999998870
  0
LINE
  8
0
  6
CONTINUOUS
 62
256
 10
-440.050470000000020
 20
-65.170371000000003
 11
-437.026683999999990
 21
-65.170371000000003
  0
LINE
  8
0
  6
CONTINUOUS
 62
256
 10
-431.465111999999980
 20
-65.170371000000003
 11
-428.415277000000000
 21
-65.170371000000003
  0
LINE
  8
0
  6
CONTINUOUS
 62
256
 10
-422.758832999999980
 20
-65.170371000000003
 11
-419.590594000000010
 21
-65.170371000000003
  0
LINE
  8
0
  6
CONTINUOUS
 62
256
 10
-418.923896000000010
 20
-58.528066000000003
 11
-417.339777000000030
 21
-61.271841999999999
  0
LINE
  8
0
  6
CONTINUOUS
 62
256
 10
-423.277036000000010
 20
-50.988207000000003
 11
-421.752118000000000
 21
-53.629441999999997
  0
LINE
  8
0
  6
CONTINUOUS
 62
256
 10
-431.843133000000020
 20
-36.151293000000003
 11
-430.336177000000020
 21
-38.761417000000002
  0
LINE
  8
0
  6
CONTINUOUS
 62
256
 10
-427.569714999999970
 20
-43.553069000000001
 11
-426.057821999999990
 21
-46.171745000000001
  0
ARC
  8
0
  6
CONTINUOUS
 62
256
 10
-410.758832999999980
 20
-67.670371000000003
 40
8.500000000000005
 50
141.618272000000020
 51
158.381728000000040
  0
ARC
  8
0
  6
CONTINUOUS
 62
256
 10
-410.758832999999980
 20
-67.670371000000003
 40
13.500000000000000
 50
136.260205000000010
 51
163.739794999999960
  0
ARC
  8
0
  6
CONTINUOUS
 62
256
 10
-410.758832999999980
 20
-67.670371000000003
 40
17.000000000000014
 50
131.212271000000020
 51
168.787728999999980
  0
ARC
  8
0
  6
CONTINUOUS
 62
256
 10
-410.758832999999980
 20
-67.670371000000003
 40
21.999999999999986
 50
129.594067999999940
 51
170.405931999999980
  0
ARC
  8
0
  6
CONTINUOUS
 62
256
 10
-410.758832999999980
 20
-67.670371000000003
 40
25.499999999999996
 50
127.589541999999970
 51
172.410458000000010
  0
ARC
  8
0
  6
CONTINUOUS
 62
256
 10
-410.758832999999980
 20
-67.670371000000003
 40
34.000000000000007
 50
125.739170000000040
 51
174.260830000000000
  0
ARC
  8
0
  6
CONTINUOUS
 62
256
 10
-410.758832999999980
 20
-67.670371000000003
 40
30.499999999999989
 50
126.813853999999980
 51
173.186145999999980
  0
ARC
  8
0
  6
CONTINUOUS
 62
256
 10
-410.758832999999980
 20
-67.670371000000003
 40
39.000000000000000
 50
125.284733000000000
 51
174.715267000000010
  0
ARC
  8
0
  6
CONTINUOUS
 62
256
 10
-418.205802000000010
 20
-61.771841999999999
 40
0.999999999999981
 50
321.618271999999310
 51
30.000000000000544
  0
ARC
  8
0
  6
CONTINUOUS
 62
256
 10
-419.590594000000010
 20
-64.170371000000003
 40
1.000000000000000
 50
270.000000000000000
 51
338.381728000000520
  0
ARC
  8
0
  6
CONTINUOUS
 62
256
 10
-422.758832999999980
 20
-64.170371000000003
 40
0.999999999999974
 50
163.739794999999700
 51
270.000000000000000
  0
ARC
  8
0
  6
CONTINUOUS
 62
256
 10
-419.789921999999990
 20
-59.028066000000003
 40
0.999999999999984
 50
30.000000000000544
 51
136.260205000000240
  0
ARC
  8
0
  6
CONTINUOUS
 62
256
 10
-422.618143999999970
 20
-54.129441999999997
 40
1.000000000000000
 50
311.212271000000040
 51
30.000000000000544
  0
ARC
  8
0
  6
CONTINUOUS
 62
256
 10
-424.143061999999990
 20
-51.488207000000003
 40
0.999999999999984
 50
30.000000000000544
 51
129.594067999999310
  0
ARC
  8
0
  6
CONTINUOUS
 62
256
 10
-428.415277000000000
 20
-64.170371000000003
 40
1.000000000000000
 50
270.000000000000000
 51
348.787729000000300
  0
ARC
  8
0
  6
CONTINUOUS
 62
256
 10
-431.465111999999980
 20
-64.170371000000003
 40
0.999999999999978
 50
170.405932000000040
 51
270.000000000000000
  0
ARC
  8
0
  6
CONTINUOUS
 62
256
 10
-426.923847000000020
 20
-46.671745000000001
 40
0.999999999999987
 50
307.589541999999030
 51
30.000000000000544
  0
ARC
  8
0
  6
CONTINUOUS
 62
256
 10
-428.435740000000010
 20
-44.053069000000001
 40
0.999999999999984
 50
30.000000000000544
 51
126.813854000000730
  0
ARC
  8
0
  6
CONTINUOUS
 62
256
 10
-437.026683999999990
 20
-64.170371000000003
 40
1.000000000000000
 50
270.000000000000000
 51
352.410458000000010
  0
ARC
  8
0
  6
CONTINUOUS
 62
256
 10
-431.202202000000000
 20
-39.261417000000002
 40
1.000000000000004
 50
305.739170000000000
 51
30.000000000000544
  0
ARC
  8
0
  6
CONTINUOUS
 62
256
 10
-432.709158000000000
 20
-36.651293000000003
 40
0.999999999999984
 50
30.000000000000544
 51
125.284733000001220
  0
ARC
  8
0
  6
CONTINUOUS
 62
256
 10
-426.646979999999990
 20
-33.151293000000003
 40
1.000000000000004
 50
114.715267000000150
 51
210.000000000000510
  0
LINE
  8
0
  6
CONTINUOUS
 62
256
 10
-427.513006000000020
 20
-33.651293000000003
 11
-426.006050000000020
 21
-36.261417000000002
  0
ARC
  8
0
  6
CONTINUOUS
 62
256
 10
-422.373562999999990
 20
-40.553069000000001
 40
1.000000000000000
 50
113.186146000000120
 51
210.000000000000510
  0
LINE
  8
0
  6
CONTINUOUS
 62
256
 10
-423.239588000000030
 20
-41.053069000000001
 11
-421.727694999999980
 21
-43.671745000000001
  0
ARC
  8
0
  6
CONTINUOUS
 62
256
 10
-425.140023999999980
 20
-35.761417000000002
 40
0.999999999999984
 50
210.000000000000510
 51
294.260829999998690
  0
ARC
  8
0
  6
CONTINUOUS
 62
256
 10
-420.861670000000000
 20
-43.171745000000001
 40
0.999999999999984
 50
210.000000000000510
 51
292.410458000000630
  0
ARC
  8
0
  6
CONTINUOUS
 62
256
 10
-418.080884000000030
 20
-47.988207000000003
 40
0.999999999999999
 50
110.405931999999720
 51
210.000000000000510
  0
LINE
  8
0
  6
CONTINUOUS
 62
256
 10
-418.946909000000010
 20
-48.488207000000003
 11
-417.421990999999990
 21
-51.129441999999997
  0
ARC
  8
0
  6
CONTINUOUS
 62
256
 10
-416.555966000000010
 20
-50.629441999999997
 40
0.999999999999984
 50
210.000000000000510
 51
288.787729000000870
  0
LINE
  8
0
  6
CONTINUOUS
 62
256
 10
-448.597305000000010
 20
-65.170371000000003
 11
-445.583393000000000
 21
-65.170371000000003
  0
ARC
  8
0
  6
CONTINUOUS
 62
256
 10
-440.050470000000020
 20
-64.170371000000003
 40
1.000000000000019
 50
173.186146000000240
 51
270.000000000000000
  0
ARC
  8
0
  6
CONTINUOUS
 62
256
 10
-448.597305000000010
 20
-64.170371000000003
 40
1.000000000000027
 50
174.715267000000240
 51
270.000000000000000
  0
ARC
  8
0
  6
CONTINUOUS
 62
256
 10
-445.583393000000000
 20
-64.170371000000003
 40
1.000000000000000
 50
270.000000000000000
 51
354.260829999999540
  0
TEXT
  8
0
  6
CONTINUOUS
 62
256
 10
479.881439208984370
 20
-181.415084838867190
 40
3.299999952316284
  1
1/1
 50
0.000002504478167
 41
0.850909097352304
  7
STANDARD1
  0
TEXT
  8
0
  6
CONTINUOUS
 62
256
 10
477.463439941406250
 20
-181.415084838867190
 40
3.299999952316284
  1
 
 50
0.000002504478167
 41
1.733333298293026
  7
STANDARD1
  0
TEXT
  8
0
  6
CONTINUOUS
 62
256
 10
464.412811279296870
 20
-181.415084838867190
 40
3.299999952316284
  1
SCALE
 50
0.000002504478167
 41
0.821052645401140
  7
STANDARD1
  0
TEXT
  8
0
  6
CONTINUOUS
 62
256
 10
461.161437988281250
 20
-181.415084838867190
 40
3.299999952316284
  1
 
 50
0.000002504478167
 41
1.733333298293026
  7
STANDARD1
  0
TEXT
  8
0
  6
CONTINUOUS
 62
256
 10
476.015594482421870
 20
-176.115081787109370
 40
3.299999952316284
  1
1/240
 50
0.000002504478167
 41
0.821052645401140
  7
STANDARD1
  0
TEXT
  8
0
  6
CONTINUOUS
 62
256
 10
472.233612060546870
 20
-176.115081787109370
 40
3.299999952316284
  1
ü`
 50
0.000002504478167
 41
1.176000019651471
  7
STANDARD1
  0
TEXT
  8
0
  6
CONTINUOUS
 62
256
 10
464.437438964843750
 20
-176.115081787109370
 40
3.299999952316284
  1
1/5
 50
0.000002504478167
 41
0.850909097352304
  7
STANDARD1
  0
TEXT
  8
0
  6
CONTINUOUS
 62
256
 10
461.161437988281250
 20
-176.115081787109370
 40
3.299999952316284
  1
 
 50
0.000002504478167
 41
1.733333298293026
  7
STANDARD1
  0
TEXT
  8
0
  6
CONTINUOUS
 62
256
 10
461.161437988281250
 20
-170.815078735351560
 40
3.299999952316284
  1
GM-SHYFB-RH
 50
0.000002504478167
 41
0.798139564113939
  7
STANDARD1
  0
TEXT
  8
0
  6
CONTINUOUS
 62
256
 10
466.986816406250000
 20
-165.515090942382810
 40
3.299999952316284
  1
0.1kW
 50
0.000002504478167
 41
0.821052645401140
  7
STANDARD1
  0
TEXT
  8
0
  6
CONTINUOUS
 62
256
 10
461.161437988281250
 20
-165.515090942382810
 40
3.299999952316284
  1
  
 50
0.000002504478167
 41
1.485714400175845
  7
STANDARD1
  0
TEXT
  8
0
  6
CONTINUOUS
 62
256
 10
466.980926513671870
 20
-160.215087890625000
 40
3.299999952316284
  1
SHY061
 50
0.000002504478167
 41
0.813913121261144
  7
STANDARD1
  0
TEXT
  8
0
  6
CONTINUOUS
 62
256
 10
461.161437988281250
 20
-160.215087890625000
 40
3.299999952316284
  1
  
 50
0.000002504478167
 41
1.485714400175845
  7
STANDARD1
  0
LINE
  8
0
  6
DASHDOT
 62
256
 10
346.423881999999990
 20
-12.670370999999999
 11
436.240837000000000
 21
-12.670370999999999
  0
LINE
  8
0
  6
DASHDOT
 62
256
 10
346.500843999999970
 20
-117.670371000000000
 11
436.724819000000020
 21
-117.670371000000000
  0
ARC
  8
0
  6
CONTINUOUS
 62
256
 10
436.292222999999980
 20
-22.839801000000001
 40
6.099999000000002
 50
68.122719999999973
 51
95.398089000000198
  0
LINE
  8
0
  6
CONTINUOUS
 62
256
 10
343.961652000000020
 20
-20.983747999999999
 11
341.372800999999980
 21
-23.572599000000000
  0
LINE
  8
0
  6
CONTINUOUS
 62
256
 10
435.306121000000020
 20
-17.179099000000001
 11
435.718366000000000
 21
-16.766853999999999
  0
ARC
  8
0
  6
CONTINUOUS
 62
256
 10
738.061651999999980
 20
-67.670371000000003
 40
400.600000000000080
 50
174.256317999999990
 51
180.000000000000000
  0
ARC
  8
0
  6
CONTINUOUS
 62
256
 10
346.039706000000020
 20
-28.239504000000000
 40
6.600000000000019
 50
135.000000000000140
 51
174.256317999999960
  0
LINE
  8
0
  6
CONTINUOUS
 62
256
 10
347.961652000000020
 20
-118.356994000000000
 11
341.372800999999980
 21
-111.768142999999990
  0
ARC
  8
0
  6
CONTINUOUS
 62
256
 10
738.061651999999980
 20
-67.670371000000003
 40
400.600000000000020
 50
180.000000000000000
 51
185.743681999999980
  0
ARC
  8
0
  6
CONTINUOUS
 62
256
 10
346.039706000000020
 20
-107.101238000000000
 40
6.599999999999973
 50
185.743682000000060
 51
224.999999999999830
  0
ARC
  8
0
  6
CONTINUOUS
 62
256
 10
391.461652000000020
 20
140.829629000000010
 40
300.000000000000000
 50
263.967951000000030
 51
276.032048999999970
  0
ARC
  8
0
  6
CONTINUOUS
 62
256
 10
422.461652000000020
 20
-152.537036000000000
 40
5.000000000000002
 50
276.032049000000030
 51
0.000000000000000
  0
ARC
  8
0
  6
CONTINUOUS
 62
256
 10
360.461652000000020
 20
-152.537036000000000
 40
5.000000000000000
 50
180.000000000000000
 51
263.967950999999970
  0
LINE
  8
0
  6
CONTINUOUS
 62
256
 10
388.961652000000020
 20
-159.670370999999990
 11
388.961652000000020
 21
-159.159954000000000
  0
LINE
  8
0
  6
CONTINUOUS
 62
256
 10
388.961652000000020
 20
-159.670370999999990
 11
393.961652000000020
 21
-159.670370999999990
  0
LINE
  8
0
  6
CONTINUOUS
 62
256
 10
393.961652000000020
 20
-159.670370999999990
 11
393.961652000000020
 21
-159.159954000000000
  0
LINE
  8
0
  6
CONTINUOUS
 62
256
 10
355.461652000000020
 20
-128.609277999999990
 11
355.461652000000020
 21
-152.537036000000000
  0
LINE
  8
0
  6
CONTINUOUS
 62
256
 10
427.461652000000020
 20
-127.518337000000000
 11
427.461652000000020
 21
-152.537036000000000
  0
ARC
  8
0
  6
CONTINUOUS
 62
256
 10
436.292222999999980
 20
-22.839801000000001
 40
6.099999000000007
 50
354.601927999999990
 51
64.048414999999892
  0
LINE
  8
0
  6
CONTINUOUS
 62
256
 10
438.961652000000020
 20
-20.983747999999999
 11
441.878366000000030
 21
-23.900461000000000
  0
LINE
  8
0
  6
CONTINUOUS
 62
256
 10
438.961652000000020
 20
-20.418061999999999
 11
442.161208999999990
 21
-23.617618000000000
  0
LINE
  8
0
  6
CONTINUOUS
 62
256
 10
441.878366000000030
 20
-23.900461000000000
 11
442.365168999999980
 21
-23.413658000000002
  0
LINE
  8
0
  6
CONTINUOUS
 62
256
 10
438.961652000000020
 20
-20.983747999999999
 11
441.550503999999990
 21
-23.572599000000000
  0
ARC
  8
0
  6
CONTINUOUS
 62
256
 10
44.861651999999999
 20
-67.670371000000003
 40
400.600000000000020
 50
0.000000000000000
 51
5.743682000000000
  0
ARC
  8
0
  6
CONTINUOUS
 62
256
 10
436.883599000000000
 20
-28.239504000000000
 40
6.599999999999973
 50
5.743682000000032
 51
44.999999999999844
  0
ARC
  8
0
  6
CONTINUOUS
 62
256
 10
436.883599000000000
 20
-107.101238000000000
 40
6.600000000000017
 50
315.000000000000170
 51
354.256318000000020
  0
ARC
  8
0
  6
CONTINUOUS
 62
256
 10
44.861651999999999
 20
-67.670371000000003
 40
400.600000000000020
 50
354.256318000000020
 51
0.000000000000000
  0
LINE
  8
0
  6
CONTINUOUS
 62
256
 10
434.961652000000020
 20
-118.356994000000000
 11
441.550503999999990
 21
-111.768142999999990
  0
ARC
  8
0
  6
CONTINUOUS
 62
256
 10
-283.194068000000020
 20
-106.070370999999990
 40
20.599999999999991
 50
235.000000000000000
 51
270.000000000000000
  0
ARC
  8
0
  6
CONTINUOUS
 62
256
 10
-301.089223000000000
 20
-115.513991000000000
 40
2.600000000000023
 50
180.000000000000000
 51
234.999999999999940
  0
LINE
  8
0
  6
CONTINUOUS
 62
256
 10
-295.009742000000020
 20
-122.944903000000000
 11
-302.580520999999980
 21
-117.643787000000000
  0
LINE
  8
0
  6
CONTINUOUS
 62
256
 10
-303.689223000000030
 20
-115.513991000000000
 11
-303.689223000000030
 21
-67.670371000000003
  0
LINE
  8
0
  6
CONTINUOUS
 62
256
 10
-227.689223000000000
 20
-108.712284999999990
 11
-143.689223000000000
 21
-108.712284999999990
  0
LINE
  8
0
  6
CONTINUOUS
 62
256
 10
-227.689223000000000
 20
-113.803454000000000
 11
-143.689223000000000
 21
-113.803454000000000
  0
LINE
  8
0
  6
CONTINUOUS
 62
256
 10
-227.689223000000000
 20
-118.170371000000000
 11
-143.689223000000000
 21
-118.170371000000000
  0
LINE
  8
0
  6
CONTINUOUS
 62
256
 10
-227.689223000000000
 20
-118.670371000000000
 11
-143.689223000000000
 21
-118.670371000000000
  0
LINE
  8
0
  6
CONTINUOUS
 62
256
 10
-143.689223000000000
 20
-121.170371000000000
 11
-145.489223000000010
 21
-121.170371000000000
  0
LINE
  8
0
  6
CONTINUOUS
 62
256
 10
-145.489223000000010
 20
-120.170371000000000
 11
-145.489223000000010
 21
-158.170370999999990
  0
ARC
  8
0
  6
CONTINUOUS
 62
256
 10
-146.489223000000010
 20
-158.170370999999990
 40
1.000000000000000
 50
270.000000000000000
 51
0.000000000000000
  0
LINE
  8
0
  6
CONTINUOUS
 62
256
 10
-234.489223000000010
 20
-159.170370999999990
 11
-146.489223000000010
 21
-159.170370999999990
  0
ARC
  8
0
  6
CONTINUOUS
 62
256
 10
-234.489223000000010
 20
-158.170370999999990
 40
1.000000000000000
 50
180.000000000000000
 51
270.000000000000000
  0
LINE
  8
0
  6
CONTINUOUS
 62
256
 10
-228.489223000000010
 20
-159.670370999999990
 11
-220.489223000000010
 21
-159.670370999999990
  0
LINE
  8
0
  6
CONTINUOUS
 62
256
 10
-160.489223000000010
 20
-159.670370999999990
 11
-152.489223000000010
 21
-159.670370999999990
  0
LINE
  8
0
  6
CONTINUOUS
 62
256
 10
-160.489223000000010
 20
-159.170370999999990
 11
-160.489223000000010
 21
-159.670370999999990
  0
LINE
  8
0
  6
CONTINUOUS
 62
256
 10
-152.489223000000010
 20
-159.170370999999990
 11
-152.489223000000010
 21
-159.670370999999990
  0
LINE
  8
0
  6
CONTINUOUS
 62
256
 10
-220.489223000000010
 20
-159.170370999999990
 11
-220.489223000000010
 21
-159.670370999999990
  0
LINE
  8
0
  6
CONTINUOUS
 62
256
 10
-228.489223000000010
 20
-159.170370999999990
 11
-228.489223000000010
 21
-159.670370999999990
  0
LINE
  8
0
  6
CONTINUOUS
 62
256
 10
-145.489223000000010
 20
-120.170371000000000
 11
-227.689223000000000
 21
-120.170371000000000
  0
POLYLINE
  8
0
  6
CONTINUOUS
 62
256
 66
1
 70
1
  0
VERTEX
  8
0
  6
CONTINUOUS
 62
256
 10
-233.989223000000010
 20
-114.997702000000000
  0
VERTEX
  8
0
  6
CONTINUOUS
 62
256
 10
-234.079532182104830
 20
-114.294745489441840
  0
VERTEX
  8
0
  6
CONTINUOUS
 62
256
 10
-234.346989197196960
 20
-113.618803203361860
  0
VERTEX
  8
0
  6
CONTINUOUS
 62
256
 10
-234.781315822178040
 20
-112.995851224741340
  0
VERTEX
  8
0
  6
CONTINUOUS
 62
256
 10
-235.365821128423220
 20
-112.449829248763170
  0
VERTEX
  8
0
  6
CONTINUOUS
 62
256
 10
-236.078042904807890
 20
-112.001720593751510
  0
VERTEX
  8
0
  6
CONTINUOUS
 62
256
 10
-236.890610867884080
 20
-111.668745824016260
  0
VERTEX
  8
0
  6
CONTINUOUS
 62
256
 10
-237.772298486524190
 20
-111.463700973223940
  0
VERTEX
  8
0
  6
CONTINUOUS
 62
256
 10
-238.689223000000000
 20
-111.394465800000010
  0
VERTEX
  8
0
  6
CONTINUOUS
 62
256
 10
-239.606147513475800
 20
-111.463700973223940
  0
VERTEX
  8
0
  6
CONTINUOUS
 62
256
 10
-240.487835132115920
 20
-111.668745824016260
  0
VERTEX
  8
0
  6
CONTINUOUS
 62
256
 10
-241.300403095192110
 20
-112.001720593751510
  0
VERTEX
  8
0
  6
CONTINUOUS
 62
256
 10
-242.012624871576780
 20
-112.449829248763170
  0
VERTEX
  8
0
  6
CONTINUOUS
 62
256
 10
-242.597130177821950
 20
-112.995851224741340
  0
VERTEX
  8
0
  6
CONTINUOUS
 62
256
 10
-243.031456802803040
 20
-113.618803203361860
  0
VERTEX
  8
0
  6
CONTINUOUS
 62
256
 10
-243.298913817895170
 20
-114.294745489441840
  0
VERTEX
  8
0
  6
CONTINUOUS
 62
256
 10
-243.389222999999990
 20
-114.997702000000000
  0
VERTEX
  8
0
  6
CONTINUOUS
 62
256
 10
-243.298913817895170
 20
-115.700658510558170
  0
VERTEX
  8
0
  6
CONTINUOUS
 62
256
 10
-243.031456802803040
 20
-116.376600796638140
  0
VERTEX
  8
0
  6
CONTINUOUS
 62
256
 10
-242.597130177821950
 20
-116.999552775258660
  0
VERTEX
  8
0
  6
CONTINUOUS
 62
256
 10
-242.012624871576780
 20
-117.545574751236840
  0
VERTEX
  8
0
  6
CONTINUOUS
 62
256
 10
-241.300403095192110
 20
-117.993683406248490
  0
VERTEX
  8
0
  6
CONTINUOUS
 62
256
 10
-240.487835132115920
 20
-118.326658175983740
  0
VERTEX
  8
0
  6
CONTINUOUS
 62
256
 10
-239.606147513475800
 20
-118.531703026776070
  0
VERTEX
  8
0
  6
CONTINUOUS
 62
256
 10
-238.689223000000000
 20
-118.600938200000000
  0
VERTEX
  8
0
  6
CONTINUOUS
 62
256
 10
-237.772298486524190
 20
-118.531703026776070
  0
VERTEX
  8
0
  6
CONTINUOUS
 62
256
 10
-236.890610867884080
 20
-118.326658175983750
  0
VERTEX
  8
0
  6
CONTINUOUS
 62
256
 10
-236.078042904807890
 20
-117.993683406248490
  0
VERTEX
  8
0
  6
CONTINUOUS
 62
256
 10
-235.365821128423250
 20
-117.545574751236840
  0
VERTEX
  8
0
  6
CONTINUOUS
 62
256
 10
-234.781315822178040
 20
-116.999552775258660
  0
VERTEX
  8
0
  6
CONTINUOUS
 62
256
 10
-234.346989197196960
 20
-116.376600796638140
  0
VERTEX
  8
0
  6
CONTINUOUS
 62
256
 10
-234.079532182104830
 20
-115.700658510558170
  0
SEQEND
  8
0
  6
CONTINUOUS
 62
256
  0
LINE
  8
0
  6
CONTINUOUS
 62
256
 10
-240.689223000000000
 20
-117.990078000000000
 11
-238.689223000000000
 21
-116.814291999999990
  0
LINE
  8
0
  6
CONTINUOUS
 62
256
 10
-238.689223000000000
 20
-116.814291999999990
 11
-236.689223000000000
 21
-115.161649999999990
  0
LINE
  8
0
  6
CONTINUOUS
 62
256
 10
-236.689223000000000
 20
-117.990078000000000
 11
-238.689223000000000
 21
-116.814291999999990
  0
LINE
  8
0
  6
CONTINUOUS
 62
256
 10
-238.689223000000000
 20
-116.814291999999990
 11
-240.689223000000000
 21
-115.161649999999990
  0
LINE
  8
0
  6
CONTINUOUS
 62
256
 10
-227.689223000000000
 20
-119.010067000000010
 11
-227.689223000000000
 21
-67.670371000000003
  0
ARC
  8
0
  6
CONTINUOUS
 62
256
 10
-230.689223000000000
 20
-119.010067000000010
 40
3.000000000000000
 50
270.000000000000000
 51
0.000000000000000
  0
LINE
  8
0
  6
CONTINUOUS
 62
256
 10
-234.689223000000000
 20
-122.010067000000010
 11
-230.689223000000000
 21
-122.010067000000010
  0
ARC
  8
0
  6
CONTINUOUS
 62
256
 10
-234.689223000000000
 20
-125.010067000000010
 40
3.000000000000000
 50
90.000000000000000
 51
180.000000000000000
  0
LINE
  8
0
  6
CONTINUOUS
 62
256
 10
-237.689223000000000
 20
-126.670371000000000
 11
-283.194068000000020
 21
-126.670371000000000
  0
LINE
  8
0
  6
CONTINUOUS
 62
256
 10
-237.689223000000000
 20
-126.670371000000000
 11
-237.689223000000000
 21
-125.010067000000010
  0
LINE
  8
0
  6
CONTINUOUS
 62
256
 10
-235.489223000000010
 20
-122.118701000000000
 11
-235.489223000000010
 21
-158.170370999999990
  0
LINE
  8
0
  6
CONTINUOUS
 62
256
 10
-235.489223000000010
 20
-125.170371000000000
 11
-145.489223000000010
 21
-125.170371000000000
  0
POLYLINE
  8
0
  6
CONTINUOUS
 62
256
 66
1
 70
1
  0
VERTEX
  8
0
  6
CONTINUOUS
 62
256
 10
-233.989223000000010
 20
-20.343039999999998
  0
VERTEX
  8
0
  6
CONTINUOUS
 62
256
 10
-234.079532182104830
 20
-19.640083489441832
  0
VERTEX
  8
0
  6
CONTINUOUS
 62
256
 10
-234.346989197196960
 20
-18.964141203361859
  0
VERTEX
  8
0
  6
CONTINUOUS
 62
256
 10
-234.781315822178040
 20
-18.341189224741338
  0
VERTEX
  8
0
  6
CONTINUOUS
 62
256
 10
-235.365821128423220
 20
-17.795167248763157
  0
VERTEX
  8
0
  6
CONTINUOUS
 62
256
 10
-236.078042904807890
 20
-17.347058593751509
  0
VERTEX
  8
0
  6
CONTINUOUS
 62
256
 10
-236.890610867884080
 20
-17.014083824016261
  0
VERTEX
  8
0
  6
CONTINUOUS
 62
256
 10
-237.772298486524190
 20
-16.809038973223938
  0
VERTEX
  8
0
  6
CONTINUOUS
 62
256
 10
-238.689223000000000
 20
-16.739803800000008
  0
VERTEX
  8
0
  6
CONTINUOUS
 62
256
 10
-239.606147513475800
 20
-16.809038973223938
  0
VERTEX
  8
0
  6
CONTINUOUS
 62
256
 10
-240.487835132115920
 20
-17.014083824016261
  0
VERTEX
  8
0
  6
CONTINUOUS
 62
256
 10
-241.300403095192110
 20
-17.347058593751509
  0
VERTEX
  8
0
  6
CONTINUOUS
 62
256
 10
-242.012624871576780
 20
-17.795167248763157
  0
VERTEX
  8
0
  6
CONTINUOUS
 62
256
 10
-242.597130177821950
 20
-18.341189224741338
  0
VERTEX
  8
0
  6
CONTINUOUS
 62
256
 10
-243.031456802803040
 20
-18.964141203361859
  0
VERTEX
  8
0
  6
CONTINUOUS
 62
256
 10
-243.298913817895170
 20
-19.640083489441828
  0
VERTEX
  8
0
  6
CONTINUOUS
 62
256
 10
-243.389222999999990
 20
-20.343039999999998
  0
VERTEX
  8
0
  6
CONTINUOUS
 62
256
 10
-243.298913817895170
 20
-21.045996510558165
  0
VERTEX
  8
0
  6
CONTINUOUS
 62
256
 10
-243.031456802803040
 20
-21.721938796638135
  0
VERTEX
  8
0
  6
CONTINUOUS
 62
256
 10
-242.597130177821950
 20
-22.344890775258659
  0
VERTEX
  8
0
  6
CONTINUOUS
 62
256
 10
-242.012624871576780
 20
-22.890912751236836
  0
VERTEX
  8
0
  6
CONTINUOUS
 62
256
 10
-241.300403095192110
 20
-23.339021406248484
  0
VERTEX
  8
0
  6
CONTINUOUS
 62
256
 10
-240.487835132115920
 20
-23.671996175983733
  0
VERTEX
  8
0
  6
CONTINUOUS
 62
256
 10
-239.606147513475800
 20
-23.877041026776059
  0
VERTEX
  8
0
  6
CONTINUOUS
 62
256
 10
-238.689223000000000
 20
-23.946276199999986
  0
VERTEX
  8
0
  6
CONTINUOUS
 62
256
 10
-237.772298486524190
 20
-23.877041026776059
  0
VERTEX
  8
0
  6
CONTINUOUS
 62
256
 10
-236.890610867884080
 20
-23.671996175983736
  0
VERTEX
  8
0
  6
CONTINUOUS
 62
256
 10
-236.078042904807890
 20
-23.339021406248488
  0
VERTEX
  8
0
  6
CONTINUOUS
 62
256
 10
-235.365821128423250
 20
-22.890912751236840
  0
VERTEX
  8
0
  6
CONTINUOUS
 62
256
 10
-234.781315822178040
 20
-22.344890775258659
  0
VERTEX
  8
0
  6
CONTINUOUS
 62
256
 10
-234.346989197196960
 20
-21.721938796638138
  0
VERTEX
  8
0
  6
CONTINUOUS
 62
256
 10
-234.079532182104830
 20
-21.045996510558169
  0
SEQEND
  8
0
  6
CONTINUOUS
 62
256
  0
LINE
  8
0
  6
CONTINUOUS
 62
256
 10
-240.689223000000000
 20
-17.350664999999999
 11
-238.689223000000000
 21
-18.526450000000001
  0
LINE
  8
0
  6
CONTINUOUS
 62
256
 10
-238.689223000000000
 20
-18.526450000000001
 11
-236.689223000000000
 21
-20.179092000000001
  0
LINE
  8
0
  6
CONTINUOUS
 62
256
 10
-236.689223000000000
 20
-17.350664999999999
 11
-238.689223000000000
 21
-18.526450000000001
  0
LINE
  8
0
  6
CONTINUOUS
 62
256
 10
-238.689223000000000
 20
-18.526450000000001
 11
-240.689223000000000
 21
-20.179092000000001
  0
LINE
  8
0
  6
CONTINUOUS
 62
256
 10
-227.689223000000000
 20
-8.670370999999999
 11
-227.689223000000000
 21
-67.670371000000003
  0
ARC
  8
0
  6
CONTINUOUS
 62
256
 10
-283.194068000000020
 20
-29.270371000000001
 40
20.600000000000001
 50
90.000000000000000
 51
124.999999999999990
  0
ARC
  8
0
  6
CONTINUOUS
 62
256
 10
-301.089223000000000
 20
-19.826751000000002
 40
2.600000000000001
 50
125.000000000000110
 51
180.000000000000000
  0
LINE
  8
0
  6
CONTINUOUS
 62
256
 10
-303.689223000000030
 20
-19.826751000000002
 11
-303.689223000000030
 21
-67.670371000000003
  0
LINE
  8
0
  6
CONTINUOUS
 62
256
 10
-295.009742000000020
 20
-12.395839000000000
 11
-302.580520999999980
 21
-17.696956000000000
  0
LINE
  8
0
  6
CONTINUOUS
 62
256
 10
-227.689223000000000
 20
-8.670370999999999
 11
-283.194068000000020
 21
-8.670370999999999
  0
LINE
  8
0
  6
CONTINUOUS
 62
256
 10
-143.689223000000000
 20
-121.170371000000000
 11
-143.689223000000000
 21
-67.670371000000003
  0
LINE
  8
0
  6
DASHDOT
 62
256
 10
-112.367368000000000
 20
-67.670371000000003
 11
-312.007186999999990
 21
-67.670371000000003
  0
LINE
  8
0
  6
CONTINUOUS
 62
256
 10
-227.689223000000000
 20
-81.670371000000003
 11
-143.689223000000000
 21
-81.670371000000003
  0
LINE
  8
0
  6
CONTINUOUS
 62
256
 10
-227.689223000000000
 20
-86.056486000000007
 11
-143.689223000000000
 21
-86.056486000000007
  0
LINE
  8
0
  6
CONTINUOUS
 62
256
 10
-227.689223000000000
 20
-87.298406000000000
 11
-143.689223000000000
 21
-87.298406000000000
  0
LINE
  8
0
  6
CONTINUOUS
 62
256
 10
-227.689223000000000
 20
-90.508611000000002
 11
-143.689223000000000
 21
-90.508611000000002
  0
LINE
  8
0
  6
CONTINUOUS
 62
256
 10
-227.689223000000000
 20
-91.855013000000000
 11
-143.689223000000000
 21
-91.855013000000000
  0
LINE
  8
0
  6
CONTINUOUS
 62
256
 10
-227.689223000000000
 20
-94.947744000000000
 11
-143.689223000000000
 21
-94.947744000000000
  0
LINE
  8
0
  6
CONTINUOUS
 62
256
 10
-227.689223000000000
 20
-96.426766999999998
 11
-143.689223000000000
 21
-96.426766999999998
  0
LINE
  8
0
  6
CONTINUOUS
 62
256
 10
-227.689223000000000
 20
-99.384761999999995
 11
-143.689223000000000
 21
-99.384761999999995
  0
LINE
  8
0
  6
CONTINUOUS
 62
256
 10
-227.689223000000000
 20
-100.973972000000000
 11
-143.689223000000000
 21
-100.973972000000000
  0
LINE
  8
0
  6
CONTINUOUS
 62
256
 10
-143.689223000000000
 20
-14.170370999999999
 11
-143.689223000000000
 21
-67.670371000000003
  0
LINE
  8
0
  6
CONTINUOUS
 62
256
 10
-227.689223000000000
 20
-16.670370999999999
 11
-143.689223000000000
 21
-16.670370999999999
  0
LINE
  8
0
  6
CONTINUOUS
 62
256
 10
-227.689223000000000
 20
-17.170370999999999
 11
-143.689223000000000
 21
-17.170370999999999
  0
LINE
  8
0
  6
CONTINUOUS
 62
256
 10
-227.689223000000000
 20
-21.537289000000001
 11
-143.689223000000000
 21
-21.537289000000001
  0
LINE
  8
0
  6
CONTINUOUS
 62
256
 10
-227.689223000000000
 20
-26.628457000000001
 11
-143.689223000000000
 21
-26.628457000000001
  0
LINE
  8
0
  6
CONTINUOUS
 62
256
 10
-227.689223000000000
 20
-34.366770000000002
 11
-143.689223000000000
 21
-34.366770000000002
  0
LINE
  8
0
  6
CONTINUOUS
 62
256
 10
-227.689223000000000
 20
-35.955979999999997
 11
-143.689223000000000
 21
-35.955979999999997
  0
LINE
  8
0
  6
CONTINUOUS
 62
256
 10
-227.689223000000000
 20
-38.913975999999998
 11
-143.689223000000000
 21
-38.913975999999998
  0
LINE
  8
0
  6
CONTINUOUS
 62
256
 10
-227.689223000000000
 20
-40.392999000000003
 11
-143.689223000000000
 21
-40.392999000000003
  0
LINE
  8
0
  6
CONTINUOUS
 62
256
 10
-227.689223000000000
 20
-43.485729999999997
 11
-143.689223000000000
 21
-43.485729999999997
  0
LINE
  8
0
  6
CONTINUOUS
 62
256
 10
-227.689223000000000
 20
-44.832130999999997
 11
-143.689223000000000
 21
-44.832130999999997
  0
LINE
  8
0
  6
CONTINUOUS
 62
256
 10
-227.689223000000000
 20
-49.284255999999999
 11
-143.689223000000000
 21
-49.284255999999999
  0
LINE
  8
0
  6
CONTINUOUS
 62
256
 10
-227.689223000000000
 20
-48.042335999999999
 11
-143.689223000000000
 21
-48.042335999999999
  0
LINE
  8
0
  6
CONTINUOUS
 62
256
 10
-227.689223000000000
 20
-53.670371000000003
 11
-143.689223000000000
 21
-53.670371000000003
  0
LINE
  8
0
  6
CONTINUOUS
 62
256
 10
-143.689223000000000
 20
-14.170370999999999
 11
-227.689223000000000
 21
-14.170370999999999
  0
ARC
  8
0
  6
CONTINUOUS
 62
256
 10
391.461652000000020
 20
-67.670371000000003
 40
53.499999999999979
 50
324.398361000000020
 51
15.715855999999990
  0
ARC
  8
0
  6
CONTINUOUS
 62
256
 10
441.961652000000020
 20
-36.670371000000003
 40
1.000000000000000
 50
0.000000000000000
 51
90.000000000000000
  0
LINE
  8
0
  6
CONTINUOUS
 62
256
 10
441.961652000000020
 20
-35.670371000000003
 11
438.961652000000020
 21
-35.670371000000003
  0
LINE
  8
0
  6
CONTINUOUS
 62
256
 10
442.961652000000020
 20
-36.670371000000003
 11
442.961652000000020
 21
-54.670371000000003
  0
LINE
  8
0
  6
CONTINUOUS
 62
256
 10
442.961652000000020
 20
-72.670371000000003
 11
442.961652000000020
 21
-54.670371000000003
  0
ARC
  8
0
  6
CONTINUOUS
 62
256
 10
441.961652000000020
 20
-72.670371000000003
 40
1.000000000000000
 50
270.000000000000000
 51
0.000000000000000
  0
LINE
  8
0
  6
CONTINUOUS
 62
256
 10
441.961652000000020
 20
-73.670371000000003
 11
438.961652000000020
 21
-73.670371000000003
  0
ARC
  8
0
  6
CONTINUOUS
 62
256
 10
391.461652000000020
 20
-67.670371000000003
 40
53.500000000000028
 50
164.284144000000000
 51
215.601638999999980
  0
LINE
  8
0
  6
CONTINUOUS
 62
256
 10
339.961652000000020
 20
-72.670371000000003
 11
339.961652000000020
 21
-54.670371000000003
  0
ARC
  8
0
  6
CONTINUOUS
 62
256
 10
340.961652000000020
 20
-72.670371000000003
 40
1.000000000000000
 50
180.000000000000000
 51
270.000000000000000
  0
LINE
  8
0
  6
CONTINUOUS
 62
256
 10
340.961652000000020
 20
-73.670371000000003
 11
343.961652000000020
 21
-73.670371000000003
  0
LINE
  8
0
  6
CONTINUOUS
 62
256
 10
339.961652000000020
 20
-36.670371000000003
 11
339.961652000000020
 21
-54.670371000000003
  0
ARC
  8
0
  6
CONTINUOUS
 62
256
 10
340.961652000000020
 20
-36.670371000000003
 40
1.000000000000000
 50
90.000000000000000
 51
180.000000000000000
  0
LINE
  8
0
  6
CONTINUOUS
 62
256
 10
340.961652000000020
 20
-35.670371000000003
 11
343.961652000000020
 21
-35.670371000000003
  0
LINE
  8
0
  6
CONTINUOUS
 62
256
 10
359.211652000000020
 20
-128.674735000000000
 11
347.961652000000020
 21
-128.478365000000000
  0
LINE
  8
0
  6
CONTINUOUS
 62
256
 10
358.461652000000020
 20
-128.687826000000000
 11
358.461652000000020
 21
-119.557868000000000
  0
LINE
  8
0
  6
CONTINUOUS
 62
256
 10
358.461652000000020
 20
-128.687826000000000
 11
358.461652000000020
 21
-124.179098999999990
  0
LINE
  8
0
  6
CONTINUOUS
 62
256
 10
358.461652000000020
 20
-128.687826000000000
 11
425.461652000000020
 21
-127.518337000000000
  0
LINE
  8
0
  6
CONTINUOUS
 62
256
 10
434.961652000000020
 20
-127.518337000000000
 11
434.961652000000020
 21
-113.952011000000000
  0
LINE
  8
0
  6
CONTINUOUS
 62
256
 10
425.461652000000020
 20
-127.518337000000000
 11
434.961652000000020
 21
-127.518337000000000
  0
LINE
  8
0
  6
CONTINUOUS
 62
256
 10
434.961652000000020
 20
-92.161643999999995
 11
438.961652000000020
 21
-92.161643999999995
  0
LINE
  8
0
  6
CONTINUOUS
 62
256
 10
358.461652000000020
 20
-1.679099000000000
 11
347.961652000000020
 21
-1.862377000000000
  0
LINE
  8
0
  6
CONTINUOUS
 62
256
 10
358.461652000000020
 20
-1.670371000000000
 11
425.461652000000020
 21
-2.839860000000000
  0
LINE
  8
0
  6
CONTINUOUS
 62
256
 10
358.461652000000020
 20
-119.557868000000000
 11
358.461652000000020
 21
-5.161644000000000
  0
LINE
  8
0
  6
CONTINUOUS
 62
256
 10
358.461652000000020
 20
-1.661644000000000
 11
358.461652000000020
 21
-6.170371000000000
  0
LINE
  8
0
  6
CONTINUOUS
 62
256
 10
434.961652000000020
 20
-113.952011000000000
 11
434.961652000000020
 21
-2.839860000000000
  0
LINE
  8
0
  6
CONTINUOUS
 62
256
 10
425.461652000000020
 20
-2.839860000000000
 11
434.961652000000020
 21
-2.839860000000000
  0
LINE
  8
0
  6
CONTINUOUS
 62
256
 10
438.961652000000020
 20
-17.179099000000001
 11
438.961652000000020
 21
-92.161643999999995
  0
LINE
  8
0
  6
CONTINUOUS
 62
256
 10
434.961652000000020
 20
-17.179099000000001
 11
438.961652000000020
 21
-17.179099000000001
  0
LINE
  8
0
  6
CONTINUOUS
 62
256
 10
343.961652000000020
 20
-92.170371000000003
 11
347.961652000000020
 21
-92.170371000000003
  0
LINE
  8
0
  6
CONTINUOUS
 62
256
 10
347.961652000000020
 20
-1.862377000000000
 11
347.961652000000020
 21
-128.478365000000000
  0
LINE
  8
0
  6
CONTINUOUS
 62
256
 10
343.961652000000020
 20
-17.170370999999999
 11
347.961652000000020
 21
-17.170370999999999
  0
LINE
  8
0
  6
CONTINUOUS
 62
256
 10
343.961652000000020
 20
-17.170370999999999
 11
343.961652000000020
 21
-92.170371000000003
  0
ARC
  8
0
  6
CONTINUOUS
 62
256
 10
346.429297000000020
 20
-26.880655999999998
 40
2.999999999999979
 50
145.340699999999770
 51
214.659300000000290
  0
LINE
  8
0
  6
CONTINUOUS
 62
256
 10
434.961652000000020
 20
-102.685090000000000
 11
438.615327999999980
 21
-106.338765000000000
  0
LINE
  8
0
  6
CONTINUOUS
 62
256
 10
347.961652000000020
 20
-102.685090000000000
 11
344.307976999999990
 21
-106.338765000000000
  0
LINE
  8
0
  6
CONTINUOUS
 62
256
 10
444.961652000000020
 20
-87.170371000000003
 11
444.961652000000020
 21
-48.170371000000003
  0
LINE
  8
0
  6
CONTINUOUS
 62
256
 10
337.961652000000020
 20
-48.170371000000003
 11
337.961652000000020
 21
-87.170371000000003
  0
ARC
  8
0
  6
CONTINUOUS
 62
256
 10
418.961652000000020
 20
-40.170371000000003
 40
24.999999999999979
 50
5.730174999999997
 51
36.869897999999985
  0
ARC
  8
0
  6
CONTINUOUS
 62
256
 10
43.961652000000001
 20
-47.670371000000003
 40
399.999999999999940
 50
0.053000000000000
 51
1.431984000000000
  0
ARC
  8
0
  6
CONTINUOUS
 62
256
 10
418.961652000000020
 20
-95.170371000000003
 40
24.999999999999996
 50
309.791818999999920
 51
354.269824999999970
  0
ARC
  8
0
  6
CONTINUOUS
 62
256
 10
43.961652000000001
 20
-87.670371000000003
 40
400.000000000000000
 50
358.568016000000060
 51
359.928470000000000
  0
ARC
  8
0
  6
CONTINUOUS
 62
256
 10
363.961652000000020
 20
-95.170371000000003
 40
25.000000000000007
 50
176.561350000000000
 51
230.208180999999940
  0
ARC
  8
0
  6
CONTINUOUS
 62
256
 10
738.961651999999960
 20
-87.670371000000003
 40
400.000000000000000
 50
180.071529999999970
 51
180.859540999999980
  0
ARC
  8
0
  6
CONTINUOUS
 62
256
 10
363.961652000000020
 20
-40.170371000000003
 40
25.000000000000007
 50
143.130101999999990
 51
174.269825000000000
  0
ARC
  8
0
  6
CONTINUOUS
 62
256
 10
738.961651999999960
 20
-47.670371000000003
 40
400.000000000000000
 50
178.568016000000000
 51
179.928470000000000
  0
ARC
  8
0
  6
CONTINUOUS
 62
256
 10
436.494008000000010
 20
-26.880655999999998
 40
2.999999999999979
 50
325.340699999999800
 51
34.659300000000293
  0
ARC
  8
0
  6
CONTINUOUS
 62
256
 10
436.494008000000010
 20
-108.460086000000000
 40
2.999999999999989
 50
322.837479999999800
 51
44.999999999999808
  0
ARC
  8
0
  6
CONTINUOUS
 62
256
 10
434.553372000000020
 20
-110.691270000000000
 40
3.000000000000008
 50
277.821860000000360
 51
315.130421000000410
  0
ARC
  8
0
  6
CONTINUOUS
 62
256
 10
348.369933000000000
 20
-110.691270000000000
 40
3.000000000000017
 50
224.869578999999560
 51
262.178139999999640
  0
ARC
  8
0
  6
CONTINUOUS
 62
256
 10
346.429297000000020
 20
-108.460086000000000
 40
3.000000000000014
 50
135.000000000000200
 51
217.162520000000170
  0
ARC
  8
0
  6
CONTINUOUS
 62
256
 10
444.461652000000020
 20
-47.170371000000003
 40
0.500000000000000
 50
180.000000000000000
 51
270.000000000000000
  0
ARC
  8
0
  6
CONTINUOUS
 62
256
 10
444.461652000000020
 20
-88.170371000000003
 40
0.500000000000000
 50
90.000000000000000
 51
180.000000000000000
  0
ARC
  8
0
  6
CONTINUOUS
 62
256
 10
444.461652000000020
 20
-87.170371000000003
 40
0.500000000000000
 50
270.000000000000000
 51
0.000000000000000
  0
ARC
  8
0
  6
CONTINUOUS
 62
256
 10
338.461652000000020
 20
-88.170371000000003
 40
0.500000000000000
 50
0.000000000000000
 51
90.000000000000000
  0
ARC
  8
0
  6
CONTINUOUS
 62
256
 10
338.461652000000020
 20
-47.170371000000003
 40
0.500000000000000
 50
270.000000000000000
 51
0.000000000000000
  0
ARC
  8
0
  6
CONTINUOUS
 62
256
 10
338.461652000000020
 20
-48.170371000000003
 40
0.500000000000000
 50
90.000000000000000
 51
180.000000000000000
  0
ARC
  8
0
  6
CONTINUOUS
 62
256
 10
338.461652000000020
 20
-87.170371000000003
 40
0.500000000000000
 50
180.000000000000000
 51
270.000000000000000
  0
ARC
  8
0
  6
CONTINUOUS
 62
256
 10
444.461652000000020
 20
-48.170371000000003
 40
0.500000000000000
 50
0.000000000000000
 51
90.000000000000000
  0
LINE
  8
0
  6
DASHDOT
 62
256
 10
391.461652000000020
 20
-162.261653999999990
 11
391.461652000000020
 21
2.426758000000000
  0
LINE
  8
0
  6
DASHDOT
 62
256
 10
399.369722000000020
 20
-67.670371000000003
 11
383.869160000000020
 21
-67.670371000000003
  0
LINE
  8
0
  6
DASHDOT
 62
256
 10
330.840920999999980
 20
-54.670371000000003
 11
449.134684999999990
 21
-54.670371000000003
  0
CIRCLE
  8
0
  6
CONTINUOUS
 62
256
 10
-27.689222999999998
 20
-54.670371000000003
 40
19.000000000000000
  0
LINE
  8
0
  6
CONTINUOUS
 62
256
 10
-34.303601000000000
 20
-11.170370999999999
 11
-11.761653000000001
 21
-11.170370999999999
  0
ARC
  8
0
  6
CONTINUOUS
 62
256
 10
-0.974318000000000
 20
-110.229547999999990
 40
3.500000000000000
 50
275.267653000000000
 51
334.043061999999910
  0
ARC
  8
0
  6
CONTINUOUS
 62
256
 10
14.310777000000000
 20
-117.670371000000000
 40
11.000000000000000
 50
93.372287000000000
 51
154.043061999999990
  0
ARC
  8
0
  6
CONTINUOUS
 62
256
 10
-103.689223000000000
 20
-12.670370999999999
 40
13.500000000000000
 50
273.372286999999970
 51
334.043062000000020
  0
LINE
  8
0
  6
CONTINUOUS
 62
256
 10
-143.689223000000000
 20
-67.670371000000003
 11
-143.689223000000000
 21
-14.170370999999999
  0
LINE
  8
0
  6
CONTINUOUS
 62
256
 10
-143.689223000000000
 20
-67.670371000000003
 11
-143.689223000000000
 21
-121.170371000000000
  0
ARC
  8
0
  6
CONTINUOUS
 62
256
 10
-128.689223000000000
 20
-36.778205000000000
 40
3.000000000000000
 50
0.000000000000000
 51
90.000000000000000
  0
ARC
  8
0
  6
CONTINUOUS
 62
256
 10
-128.689223000000000
 20
-98.562537000000006
 40
3.000000000000000
 50
270.000000000000000
 51
0.000000000000000
  0
ARC
  8
0
  6
CONTINUOUS
 62
256
 10
-128.689223000000000
 20
-16.909002000000001
 40
3.000000000000000
 50
0.000000000000000
 51
91.000000000000156
  0
ARC
  8
0
  6
CONTINUOUS
 62
256
 10
-128.689223000000000
 20
-118.431740000000000
 40
2.999999999999997
 50
268.999999999999830
 51
0.000000000000000
  0
LINE
  8
0
  6
CONTINUOUS
 62
256
 10
-125.689223000000000
 20
-118.431740000000000
 11
-125.689223000000000
 21
-67.670371000000003
  0
LINE
  8
0
  6
CONTINUOUS
 62
256
 10
-125.689223000000000
 20
-16.909002000000001
 11
-125.689223000000000
 21
-67.670371000000003
  0
ARC
  8
0
  6
CONTINUOUS
 62
256
 10
-136.689223000000000
 20
-107.100022999999990
 40
2.000000000000000
 50
180.000000000000000
 51
270.000000000000000
  0
ARC
  8
0
  6
CONTINUOUS
 62
256
 10
-135.689223000000000
 20
-115.170371000000000
 40
3.000000000000000
 50
90.000000000000000
 51
180.000000000000000
  0
ARC
  8
0
  6
CONTINUOUS
 62
256
 10
-130.689223000000000
 20
-107.170371000000000
 40
5.000000000000000
 50
270.000000000000000
 51
0.000000000000000
  0
ARC
  8
0
  6
CONTINUOUS
 62
256
 10
-130.689223000000000
 20
-104.100022999999990
 40
5.000000000000000
 50
270.000000000000000
 51
0.000000000000000
  0
ARC
  8
0
  6
CONTINUOUS
 62
256
 10
-135.689223000000000
 20
-98.562537000000006
 40
3.000000000000000
 50
180.000000000000000
 51
270.000000000000000
  0
ARC
  8
0
  6
CONTINUOUS
 62
256
 10
-130.689223000000000
 20
-28.170370999999999
 40
5.000000000000000
 50
0.000000000000000
 51
90.000000000000000
  0
ARC
  8
0
  6
CONTINUOUS
 62
256
 10
-130.689223000000000
 20
-31.240720000000000
 40
5.000000000000000
 50
0.000000000000000
 51
90.000000000000000
  0
ARC
  8
0
  6
CONTINUOUS
 62
256
 10
-136.689223000000000
 20
-28.240720000000000
 40
2.000000000000000
 50
90.000000000000000
 51
180.000000000000000
  0
ARC
  8
0
  6
CONTINUOUS
 62
256
 10
-135.689223000000000
 20
-20.170370999999999
 40
3.000000000000000
 50
180.000000000000000
 51
270.000000000000000
  0
ARC
  8
0
  6
CONTINUOUS
 62
256
 10
-135.689223000000000
 20
-36.778205000000000
 40
3.000000000000000
 50
90.000000000000000
 51
180.000000000000000
  0
ARC
  8
0
  6
CONTINUOUS
 62
256
 10
-141.689223000000000
 20
-118.204824000000000
 40
2.999999999999997
 50
268.999999999999830
 51
0.000000000000000
  0
ARC
  8
0
  6
CONTINUOUS
 62
256
 10
-141.689223000000000
 20
-17.135918000000000
 40
3.000000000000000
 50
0.000000000000000
 51
91.000000000000156
  0
LINE
  8
0
  6
CONTINUOUS
 62
256
 10
-138.689223000000000
 20
-115.170371000000000
 11
-138.689223000000000
 21
-118.204824000000000
  0
LINE
  8
0
  6
CONTINUOUS
 62
256
 10
-136.689223000000000
 20
-109.100022999999990
 11
-130.689223000000000
 21
-109.100022999999990
  0
LINE
  8
0
  6
CONTINUOUS
 62
256
 10
-135.689223000000000
 20
-112.170371000000000
 11
-130.689223000000000
 21
-112.170371000000000
  0
LINE
  8
0
  6
CONTINUOUS
 62
256
 10
-138.689223000000000
 20
-67.670371000000003
 11
-138.689223000000000
 21
-107.100022999999990
  0
LINE
  8
0
  6
CONTINUOUS
 62
256
 10
-128.689223000000000
 20
-101.562537000000010
 11
-135.689223000000000
 21
-101.562537000000010
  0
LINE
  8
0
  6
CONTINUOUS
 62
256
 10
-125.689223000000000
 20
-104.562537000000010
 11
-125.689223000000000
 21
-107.170371000000000
  0
LINE
  8
0
  6
CONTINUOUS
 62
256
 10
-138.689223000000000
 20
-87.670371000000003
 11
-143.689223000000000
 21
-87.670371000000003
  0
LINE
  8
0
  6
CONTINUOUS
 62
256
 10
-138.689223000000000
 20
-67.670371000000003
 11
-138.689223000000000
 21
-28.240720000000000
  0
LINE
  8
0
  6
CONTINUOUS
 62
256
 10
-138.689223000000000
 20
-47.670371000000003
 11
-143.689223000000000
 21
-47.670371000000003
  0
LINE
  8
0
  6
CONTINUOUS
 62
256
 10
-128.689223000000000
 20
-33.778205000000000
 11
-135.689223000000000
 21
-33.778205000000000
  0
LINE
  8
0
  6
CONTINUOUS
 62
256
 10
-125.689223000000000
 20
-30.778205000000000
 11
-125.689223000000000
 21
-28.170370999999999
  0
LINE
  8
0
  6
CONTINUOUS
 62
256
 10
-136.689223000000000
 20
-26.240720000000000
 11
-130.689223000000000
 21
-26.240720000000000
  0
LINE
  8
0
  6
CONTINUOUS
 62
256
 10
-135.689223000000000
 20
-23.170370999999999
 11
-130.689223000000000
 21
-23.170370999999999
  0
LINE
  8
0
  6
CONTINUOUS
 62
256
 10
-138.689223000000000
 20
-20.170370999999999
 11
-138.689223000000000
 21
-17.135918000000000
  0
CIRCLE
  8
0
  6
CONTINUOUS
 62
256
 10
-27.689222999999998
 20
-54.670371000000003
 40
37.500000000000000
  0
CIRCLE
  8
0
  6
CONTINUOUS
 62
256
 10
-27.689222999999998
 20
-54.670371000000003
 40
42.000000000000000
  0
INSERT
  8
0
  2
ZU_SYM_1
 10
0.311000000000000
 20
-6.170321000000000
  0
INSERT
  8
0
  2
ZU_SYM_2
 10
0.311000000000000
 20
-124.170421000000000
  0
INSERT
  8
0
  2
ZU_SYM_3
 10
-89.689222999999998
 20
-124.170371000000000
  0
INSERT
  8
0
  2
ZU_SYM_4
 10
-89.689222999999998
 20
-6.170371000000000
  0
LINE
  8
0
  6
DASHDOT
 62
256
 10
-27.689222999999998
 20
-109.439136000000000
 11
-27.689222999999998
 21
7.201912000000000
  0
ARC
  8
0
  6
CONTINUOUS
 62
256
 10
-118.261932000000000
 20
-124.562298000000000
 40
3.000000000000003
 50
16.809628999999994
 51
89.000000000000128
  0
LINE
  8
0
  6
DASHDOT
 62
256
 10
-75.647165999999999
 20
-54.670371000000003
 11
28.577898000000001
 21
-54.670371000000003
  0
LINE
  8
0
  6
CONTINUOUS
 62
256
 10
-118.636865000000000
 20
-13.785446000000000
 11
-143.689223000000000
 21
-14.222735999999999
  0
LINE
  8
0
  6
CONTINUOUS
 62
256
 10
-118.209574000000000
 20
-121.562755000000000
 11
-143.689223000000000
 21
-121.118005999999990
  0
ARC
  8
0
  6
CONTINUOUS
 62
256
 10
-118.689223000000000
 20
-10.785902999999999
 40
3.000000000000000
 50
270.999999999999890
 51
0.000000000000000
  0
LINE
  8
0
  6
DASHDOT
 62
256
 10
0.311000000000000
 20
-13.130970000000000
 11
0.311000000000000
 21
1.061310000000000
  0
ARC
  8
0
  6
CONTINUOUS
 62
256
 10
-103.689223000000000
 20
-12.670370999999999
 40
11.000000000000000
 50
273.372286999999970
 51
334.043061999999960
  0
ARC
  8
0
  6
CONTINUOUS
 62
256
 10
-78.565185999999997
 20
-14.670370999999999
 40
6.000000000000000
 50
90.000000000000000
 51
142.616544000000000
  0
ARC
  8
0
  6
CONTINUOUS
 62
256
 10
-78.565185999999997
 20
-115.670371000000000
 40
5.999999999999999
 50
217.383456000000020
 51
270.000000000000000
  0
ARC
  8
0
  6
CONTINUOUS
 62
256
 10
-102.689223000000000
 20
-100.699808000000000
 40
6.000000000000000
 50
180.000000000000000
 51
266.627712999999970
  0
ARC
  8
0
  6
CONTINUOUS
 62
256
 10
-103.689223000000000
 20
-117.670371000000000
 40
10.999999999999996
 50
25.956938000000029
 51
86.627712999999986
  0
ARC
  8
0
  6
CONTINUOUS
 62
256
 10
-88.404127000000003
 20
-110.229547999999990
 40
6.000000000000003
 50
205.956938000000010
 51
264.732347000000000
  0
ARC
  8
0
  6
CONTINUOUS
 62
256
 10
-10.813260000000000
 20
-115.670371000000000
 40
6.000000000000000
 50
270.000000000000000
 51
322.616544000000030
  0
ARC
  8
0
  6
CONTINUOUS
 62
256
 10
-0.974318000000000
 20
-110.229547999999990
 40
6.000000000000001
 50
275.267653000000000
 51
334.043061999999960
  0
ARC
  8
0
  6
CONTINUOUS
 62
256
 10
13.310777000000000
 20
-100.699808000000000
 40
6.000000000000006
 50
273.372286999999970
 51
0.000000000000000
  0
ARC
  8
0
  6
CONTINUOUS
 62
256
 10
-89.689445000000006
 20
-124.170421000000000
 40
8.000000000000005
 50
37.383455999999988
 51
84.732347000000033
  0
LINE
  8
0
  6
CONTINUOUS
 62
256
 10
-94.689222999999998
 20
-2.070371000000000
 11
-95.089223000000004
 21
-1.670371000000000
  0
LINE
  8
0
  6
CONTINUOUS
 62
256
 10
-84.289223000000007
 20
-1.670371000000000
 11
-84.689222999999998
 21
-2.070371000000000
  0
LINE
  8
0
  6
CONTINUOUS
 62
256
 10
-4.689000000000000
 20
-2.070371000000000
 11
-5.089000000000000
 21
-1.670371000000000
  0
LINE
  8
0
  6
CONTINUOUS
 62
256
 10
5.711000000000000
 20
-1.670371000000000
 11
5.311000000000000
 21
-2.070371000000000
  0
LINE
  8
0
  6
CONTINUOUS
 62
256
 10
5.311000000000000
 20
-128.270421000000000
 11
5.711000000000000
 21
-128.670421000000000
  0
LINE
  8
0
  6
CONTINUOUS
 62
256
 10
-4.689000000000000
 20
-128.270421000000000
 11
-5.089000000000000
 21
-128.670421000000000
  0
LINE
  8
0
  6
CONTINUOUS
 62
256
 10
-94.689222999999998
 20
-128.270371000000010
 11
-95.089223000000004
 21
-128.670370999999990
  0
LINE
  8
0
  6
CONTINUOUS
 62
256
 10
-84.689222999999998
 20
-128.270371000000010
 11
-84.289223000000007
 21
-128.670370999999990
  0
ARC
  8
0
  6
CONTINUOUS
 62
256
 10
18.310777000000002
 20
-121.670371000000000
 40
6.999999999999986
 50
270.000000000000000
 51
0.000000000000000
  0
LINE
  8
0
  6
CONTINUOUS
 62
256
 10
-94.689222999999998
 20
-127.670371000000000
 11
-108.689223000000000
 21
-127.670371000000000
  0
LINE
  8
0
  6
CONTINUOUS
 62
256
 10
-4.689000000000000
 20
-127.670371000000000
 11
-84.689222999999998
 21
-127.670371000000000
  0
LINE
  8
0
  6
DASHDOT
 62
256
 10
6.053950000000000
 20
-117.670371000000000
 11
28.263134999999998
 21
-117.670371000000000
  0
LINE
  8
0
  6
DASHDOT
 62
256
 10
14.310777000000000
 20
-126.180252000000000
 11
14.310777000000000
 21
-110.346239000000000
  0
LINE
  8
0
  6
DASHDOT
 62
256
 10
0.311000000000000
 20
-131.270421000000000
 11
0.311000000000000
 21
-116.450764000000010
  0
LINE
  8
0
  6
DASHDOT
 62
256
 10
7.411000000000000
 20
-124.170421000000000
 11
-6.789000000000000
 21
-124.170421000000000
  0
ARC
  8
0
  6
CONTINUOUS
 62
256
 10
0.311000000000000
 20
-124.170421000000000
 40
7.999999999999997
 50
95.267652999999996
 51
142.616544000000000
  0
ARC
  8
0
  6
CONTINUOUS
 62
256
 10
0.311000000000000
 20
-124.170421000000000
 40
5.000000000000000
 50
0.000000000000000
 51
180.000000000000000
  0
LINE
  8
0
  6
CONTINUOUS
 62
256
 10
5.311000000000000
 20
-124.170421000000000
 11
5.311000000000000
 21
-128.270421000000000
  0
LINE
  8
0
  6
CONTINUOUS
 62
256
 10
-4.689000000000000
 20
-124.170421000000000
 11
-4.689000000000000
 21
-128.270421000000000
  0
LINE
  8
0
  6
DASHDOT
 62
256
 10
-103.689223000000000
 20
-126.180252000000000
 11
-103.689223000000000
 21
-108.454161000000000
  0
LINE
  8
0
  6
DASHDOT
 62
256
 10
-95.459091000000001
 20
-117.670371000000000
 11
-112.625411000000000
 21
-117.670371000000000
  0
LINE
  8
0
  6
DASHDOT
 62
256
 10
-89.689222999999998
 20
-131.670370999999990
 11
-89.689222999999998
 21
-116.670371000000000
  0
LINE
  8
0
  6
DASHDOT
 62
256
 10
-82.189222999999998
 20
-124.170371000000000
 11
-97.189222999999998
 21
-124.170371000000000
  0
LINE
  8
0
  6
CONTINUOUS
 62
256
 10
-84.689222999999998
 20
-124.170371000000000
 11
-84.689222999999998
 21
-128.270371000000010
  0
LINE
  8
0
  6
CONTINUOUS
 62
256
 10
-94.689222999999998
 20
-124.170371000000000
 11
-94.689222999999998
 21
-128.270371000000010
  0
ARC
  8
0
  6
CONTINUOUS
 62
256
 10
-89.689222999999998
 20
-124.170371000000000
 40
5.000000000000000
 50
0.000000000000000
 51
180.000000000000000
  0
LINE
  8
0
  6
CONTINUOUS
 62
256
 10
-84.689222999999998
 20
-2.670371000000000
 11
-4.689000000000000
 21
-2.670371000000000
  0
LINE
  8
0
  6
CONTINUOUS
 62
256
 10
-84.689222999999998
 20
-6.170371000000000
 11
-84.689222999999998
 21
-2.070371000000000
  0
LINE
  8
0
  6
CONTINUOUS
 62
256
 10
-94.689222999999998
 20
-6.170371000000000
 11
-94.689222999999998
 21
-2.070371000000000
  0
ARC
  8
0
  6
CONTINUOUS
 62
256
 10
-89.689222999999998
 20
-6.170371000000000
 40
5.000000000000000
 50
180.000000000000000
 51
0.000000000000000
  0
LINE
  8
0
  6
CONTINUOUS
 62
256
 10
5.311000000000000
 20
-2.670371000000000
 11
18.310777000000002
 21
-2.670371000000000
  0
LINE
  8
0
  6
CONTINUOUS
 62
256
 10
-4.689000000000000
 20
-6.170321000000000
 11
-4.689000000000000
 21
-2.070371000000000
  0
LINE
  8
0
  6
CONTINUOUS
 62
256
 10
5.311000000000000
 20
-6.170321000000000
 11
5.311000000000000
 21
-2.070371000000000
  0
LINE
  8
0
  6
CONTINUOUS
 62
256
 10
-10.813260000000000
 20
-121.670371000000000
 11
-78.565185999999997
 21
-121.670371000000000
  0
LINE
  8
0
  6
CONTINUOUS
 62
256
 10
19.310777000000002
 20
-29.640934000000001
 11
19.310777000000002
 21
-100.699808000000000
  0
ARC
  8
0
  6
CONTINUOUS
 62
256
 10
18.310777000000002
 20
-8.670370999999999
 40
6.000000000000000
 50
0.000000000000000
 51
90.000000000000000
  0
LINE
  8
0
  6
CONTINUOUS
 62
256
 10
-108.689223000000000
 20
-2.670371000000000
 11
-94.689222999999998
 21
-2.670371000000000
  0
ARC
  8
0
  6
CONTINUOUS
 62
256
 10
-108.689223000000000
 20
-8.670370999999999
 40
6.000000000000000
 50
90.000000000000000
 51
180.000000000000000
  0
LINE
  8
0
  6
CONTINUOUS
 62
256
 10
-114.689223000000000
 20
-121.670371000000000
 11
-114.689223000000000
 21
-8.670370999999999
  0
ARC
  8
0
  6
CONTINUOUS
 62
256
 10
-108.689223000000000
 20
-121.670371000000000
 40
6.000000000000000
 50
180.000000000000000
 51
270.000000000000000
  0
LINE
  8
0
  6
CONTINUOUS
 62
256
 10
18.310777000000002
 20
-127.670371000000000
 11
5.311000000000000
 21
-127.670371000000000
  0
ARC
  8
0
  6
CONTINUOUS
 62
256
 10
18.310777000000002
 20
-121.670371000000000
 40
6.000000000000000
 50
270.000000000000000
 51
0.000000000000000
  0
LINE
  8
0
  6
CONTINUOUS
 62
256
 10
24.310777000000002
 20
-8.670370999999999
 11
24.310777000000002
 21
-121.670371000000000
  0
LINE
  8
0
  6
DASHDOT
 62
256
 10
-82.189222999999998
 20
-6.170371000000000
 11
-97.189222999999998
 21
-6.170371000000000
  0
LINE
  8
0
  6
DASHDOT
 62
256
 10
-89.689222999999998
 20
1.329629000000000
 11
-89.689222999999998
 21
-13.670370999999999
  0
LINE
  8
0
  6
DASHDOT
 62
256
 10
7.411000000000000
 20
-6.170321000000000
 11
-6.789000000000000
 21
-6.170321000000000
  0
LINE
  8
0
  6
CONTINUOUS
 62
256
 10
-115.689223000000000
 20
-121.670371000000000
 11
-115.689223000000000
 21
-8.670370999999999
  0
ARC
  8
0
  6
CONTINUOUS
 62
256
 10
-108.689223000000000
 20
-121.670371000000000
 40
7.000000000000000
 50
180.000000000000000
 51
270.000000000000000
  0
LINE
  8
0
  6
CONTINUOUS
 62
256
 10
-108.689223000000000
 20
-128.670370999999990
 11
18.310777000000002
 21
-128.670370999999990
  0
ARC
  8
0
  6
CONTINUOUS
 62
256
 10
18.310777000000002
 20
-8.670370999999999
 40
7.000000000000000
 50
0.000000000000000
 51
90.000000000000000
  0
LINE
  8
0
  6
CONTINUOUS
 62
256
 10
25.310777000000002
 20
-8.670370999999999
 11
25.310777000000002
 21
-121.670371000000000
  0
LINE
  8
0
  6
CONTINUOUS
 62
256
 10
18.310777000000002
 20
-1.670371000000000
 11
-108.689223000000000
 21
-1.670371000000000
  0
LINE
  8
0
  6
DASHDOT
 62
256
 10
-95.459091000000001
 20
-12.670370999999999
 11
-112.625411000000000
 21
-12.670370999999999
  0
ARC
  8
0
  6
CONTINUOUS
 62
256
 10
-108.689223000000000
 20
-8.670370999999999
 40
7.000000000000000
 50
90.000000000000000
 51
180.000000000000000
  0
LINE
  8
0
  6
CONTINUOUS
 62
256
 10
16.810777000000002
 20
-29.640934000000001
 11
16.810777000000002
 21
-100.699808000000000
  0
ARC
  8
0
  6
CONTINUOUS
 62
256
 10
13.310777000000000
 20
-29.640934000000001
 40
3.500000000000002
 50
0.000000000000000
 51
86.627712999999986
  0
ARC
  8
0
  6
CONTINUOUS
 62
256
 10
14.310777000000000
 20
-12.670370999999999
 40
13.500000000000002
 50
205.956937999999980
 51
266.627713000000030
  0
ARC
  8
0
  6
CONTINUOUS
 62
256
 10
-0.974318000000000
 20
-20.111194999999999
 40
3.500000000000001
 50
25.956938000000019
 51
84.732347000000004
  0
ARC
  8
0
  6
CONTINUOUS
 62
256
 10
0.311000000000000
 20
-6.170321000000000
 40
10.500000000000000
 50
221.014737000000000
 51
264.732347000000000
  0
ARC
  8
0
  6
CONTINUOUS
 62
256
 10
-11.761653000000001
 20
-16.670370999999999
 40
5.499999999999999
 50
41.014736999999990
 51
90.000000000000000
  0
LINE
  8
0
  6
DASHDOT
 62
256
 10
14.310777000000000
 20
-4.160490000000000
 11
14.310777000000000
 21
-19.994503000000002
  0
LINE
  8
0
  6
DASHDOT
 62
256
 10
6.053950000000000
 20
-12.670370999999999
 11
28.263134999999998
 21
-12.670370999999999
  0
ARC
  8
0
  6
CONTINUOUS
 62
256
 10
0.311000000000000
 20
-6.170321000000000
 40
5.000000000000000
 50
180.000000000000000
 51
0.000000000000000
  0
ARC
  8
0
  6
CONTINUOUS
 62
256
 10
0.311000000000000
 20
-6.170321000000000
 40
8.000000000000000
 50
217.383456000000000
 51
264.732347000000000
  0
ARC
  8
0
  6
CONTINUOUS
 62
256
 10
14.310777000000000
 20
-12.670370999999999
 40
10.999999999999998
 50
205.956937999999980
 51
266.627713000000030
  0
ARC
  8
0
  6
CONTINUOUS
 62
256
 10
13.310777000000000
 20
-29.640934000000001
 40
6.000000000000002
 50
0.000000000000000
 51
86.627712999999986
  0
ARC
  8
0
  6
CONTINUOUS
 62
256
 10
-0.974318000000000
 20
-20.111194999999999
 40
6.000000000000000
 50
25.956938000000008
 51
84.732347000000004
  0
ARC
  8
0
  6
CONTINUOUS
 62
256
 10
-10.813260000000000
 20
-14.670370999999999
 40
6.000000000000001
 50
37.383456000000010
 51
90.000000000000000
  0
ARC
  8
0
  6
CONTINUOUS
 62
256
 10
13.310777000000000
 20
-100.699808000000000
 40
3.500000000000002
 50
273.372286999999970
 51
0.000000000000000
  0
ARC
  8
0
  6
CONTINUOUS
 62
256
 10
14.310777000000000
 20
-117.670371000000000
 40
13.500000000000004
 50
93.372287000000000
 51
154.043062000000020
  0
ARC
  8
0
  6
CONTINUOUS
 62
256
 10
0.311000000000000
 20
-124.170421000000000
 40
10.500000000000000
 50
95.267652999999996
 51
142.616544000000000
  0
LINE
  8
0
  6
CONTINUOUS
 62
256
 10
-10.813260000000000
 20
-119.170371000000000
 11
-77.616792000000004
 21
-119.170371000000000
  0
ARC
  8
0
  6
CONTINUOUS
 62
256
 10
-77.616792000000004
 20
-113.670371000000000
 40
5.500000000000001
 50
221.014736999999910
 51
270.000000000000000
  0
ARC
  8
0
  6
CONTINUOUS
 62
256
 10
-89.689445000000006
 20
-124.170421000000000
 40
10.500000000000004
 50
41.014737000000025
 51
84.732347000000033
  0
ARC
  8
0
  6
CONTINUOUS
 62
256
 10
-88.404127000000003
 20
-110.229547999999990
 40
3.500000000000000
 50
205.956938000000090
 51
264.732346999999950
  0
ARC
  8
0
  6
CONTINUOUS
 62
256
 10
-103.689223000000000
 20
-117.670371000000000
 40
13.499999999999998
 50
25.956938000000015
 51
86.627712999999972
  0
ARC
  8
0
  6
CONTINUOUS
 62
256
 10
-102.689223000000000
 20
-100.699808000000000
 40
3.500000000000000
 50
180.000000000000000
 51
266.627713000000030
  0
LINE
  8
0
  6
CONTINUOUS
 62
256
 10
-106.189223000000000
 20
-100.699808000000000
 11
-106.189223000000000
 21
-29.640934000000001
  0
ARC
  8
0
  6
CONTINUOUS
 62
256
 10
-88.404127000000003
 20
-20.111194999999999
 40
3.500000000000000
 50
95.267653000000053
 51
154.043061999999960
  0
ARC
  8
0
  6
CONTINUOUS
 62
256
 10
-102.689223000000000
 20
-29.640934000000001
 40
3.499999999999999
 50
93.372286999999972
 51
180.000000000000000
  0
LINE
  8
0
  6
DASHDOT
 62
256
 10
-103.689223000000000
 20
-4.160490000000000
 11
-103.689223000000000
 21
-21.886581000000000
  0
LINE
  8
0
  6
CONTINUOUS
 62
256
 10
-108.689223000000000
 20
-100.699808000000000
 11
-108.689223000000000
 21
-29.640934000000001
  0
ARC
  8
0
  6
CONTINUOUS
 62
256
 10
-102.689223000000000
 20
-29.640934000000001
 40
5.999999999999999
 50
93.372287000000000
 51
180.000000000000000
  0
ARC
  8
0
  6
CONTINUOUS
 62
256
 10
-88.404127000000003
 20
-20.111194999999999
 40
6.000000000000000
 50
95.267653000000010
 51
154.043062000000020
  0
ARC
  8
0
  6
CONTINUOUS
 62
256
 10
-89.689445000000006
 20
-6.170321000000000
 40
10.499999999999998
 50
275.267653000000000
 51
318.985262999999970
  0
ARC
  8
0
  6
CONTINUOUS
 62
256
 10
-89.689445000000006
 20
-6.170321000000000
 40
7.999999999999999
 50
275.267653000000000
 51
322.616544000000030
  0
LINE
  8
0
  6
CONTINUOUS
 62
256
 10
-78.565185999999997
 20
-8.670370999999999
 11
-10.813260000000000
 21
-8.670370999999999
  0
LINE
  8
0
  6
CONTINUOUS
 62
256
 10
-77.616792000000004
 20
-11.170370999999999
 11
-34.303601000000000
 21
-11.170370999999999
  0
ARC
  8
0
  6
CONTINUOUS
 62
256
 10
-77.616792000000004
 20
-16.670370999999999
 40
5.500000000000000
 50
90.000000000000000
 51
138.985263000000030
  0
LINE
  8
0
  6
CONTINUOUS
 62
256
 10
-23.689222999999998
 20
-38.870370999999999
 11
-31.689222999999998
 21
-38.870370999999999
  0
LINE
  8
0
  6
CONTINUOUS
 62
256
 10
-23.689222999999998
 20
-38.870370999999999
 11
-23.689222999999998
 21
-42.827652000000000
  0
LINE
  8
0
  6
CONTINUOUS
 62
256
 10
-31.689222999999998
 20
-38.870370999999999
 11
-31.689222999999998
 21
-42.827652000000000
  0
ARC
  8
0
  6
CONTINUOUS
 62
256
 10
-27.689222999999998
 20
-54.670371000000003
 40
12.500000000000000
 50
108.662925000000000
 51
71.337074999999999
  0
ARC
  8
0
  6
CONTINUOUS
 62
256
 10
-10.813260000000000
 20
-115.670371000000000
 40
3.500000000000000
 50
270.000000000000000
 51
322.616543999999980
  0
LINE
  8
0
  6
DASHDOT
 62
256
 10
293.434172999999990
 20
-54.670371000000003
 11
244.457719999999990
 21
-54.670371000000003
  0
LINE
  8
0
  6
DASHDOT
 62
256
 10
269.365996000000000
 20
-29.426829000000001
 11
269.365996000000000
 21
-79.310253000000003
  0
ARC
  8
0
  6
CONTINUOUS
 62
256
 10
269.365996000000000
 20
-54.670371000000003
 40
12.500000000000002
 50
108.662925000000020
 51
71.337074999999999
  0
ARC
  8
0
  6
CONTINUOUS
 62
256
 10
269.365996000000000
 20
-54.670371000000003
 40
12.500000000000002
 50
108.662925000000020
 51
71.337074999999999
  0
LINE
  8
0
  6
CONTINUOUS
 62
256
 10
265.365996000000000
 20
-42.827652000000000
 11
265.365996000000000
 21
-38.870370999999999
  0
LINE
  8
0
  6
CONTINUOUS
 62
256
 10
273.365996000000000
 20
-38.870370999999999
 11
265.365996000000000
 21
-38.870370999999999
  0
LINE
  8
0
  6
CONTINUOUS
 62
256
 10
273.365996000000000
 20
-42.827652000000000
 11
273.365996000000000
 21
-38.870370999999999
  0
CIRCLE
  8
0
  6
CONTINUOUS
 62
256
 10
269.365996000000000
 20
-54.670371000000003
 40
19.000000000000000
  0
LINE
  8
0
  6
CONTINUOUS
 62
256
 10
96.412786999999994
 20
-67.170371000000003
 11
112.412786999999990
 21
-67.170371000000003
  0
LINE
  8
0
  6
CONTINUOUS
 62
256
 10
96.412786999999994
 20
-42.170371000000003
 11
112.412786999999990
 21
-42.170371000000003
  0
LINE
  8
0
  6
CONTINUOUS
 62
256
 10
157.412787000000010
 20
-67.170371000000003
 11
177.412787000000010
 21
-67.170371000000003
  0
LINE
  8
0
  6
CONTINUOUS
 62
256
 10
157.412787000000010
 20
-42.170371000000003
 11
177.412787000000010
 21
-42.170371000000003
  0
LINE
  8
0
  6
CONTINUOUS
 62
256
 10
155.412787000000010
 20
-41.170371000000003
 11
157.412787000000010
 21
-41.170371000000003
  0
LINE
  8
0
  6
CONTINUOUS
 62
256
 10
155.412787000000010
 20
-68.170371000000003
 11
157.412787000000010
 21
-68.170371000000003
  0
LINE
  8
0
  6
CONTINUOUS
 62
256
 10
94.412786999999994
 20
-41.170371000000003
 11
96.412786999999994
 21
-41.170371000000003
  0
LINE
  8
0
  6
CONTINUOUS
 62
256
 10
94.412786999999994
 20
-68.170371000000003
 11
96.412786999999994
 21
-68.170371000000003
  0
LINE
  8
0
  6
CONTINUOUS
 62
256
 10
94.412786999999994
 20
-68.170371000000003
 11
94.412786999999994
 21
-41.170371000000003
  0
LINE
  8
0
  6
CONTINUOUS
 62
256
 10
157.412787000000010
 20
-68.170371000000003
 11
157.412787000000010
 21
-41.170371000000003
  0
LINE
  8
0
  6
CONTINUOUS
 62
256
 10
96.412786999999994
 20
-68.170371000000003
 11
96.412786999999994
 21
-41.170371000000003
  0
LINE
  8
0
  6
CONTINUOUS
 62
256
 10
155.412787000000010
 20
-68.170371000000003
 11
155.412787000000010
 21
-41.170371000000003
  0
LINE
  8
0
  6
CONTINUOUS
 62
256
 10
112.412786999999990
 20
-67.670371000000003
 11
112.412786999999990
 21
-41.670371000000003
  0
LINE
  8
0
  6
CONTINUOUS
 62
256
 10
139.412787000000010
 20
-67.670371000000003
 11
139.412787000000010
 21
-41.670371000000003
  0
LINE
  8
0
  6
CONTINUOUS
 62
256
 10
116.912786999999990
 20
-33.320371000000002
 11
146.912812000000000
 21
-33.320371000000002
  0
LINE
  8
0
  6
CONTINUOUS
 62
256
 10
74.412786999999994
 20
-67.170371000000003
 11
94.412786999999994
 21
-67.170371000000003
  0
LINE
  8
0
  6
CONTINUOUS
 62
256
 10
74.412786999999994
 20
-42.170371000000003
 11
94.412786999999994
 21
-42.170371000000003
  0
LINE
  8
0
  6
CONTINUOUS
 62
256
 10
110.912786999999990
 20
-38.870370999999999
 11
177.412787000000010
 21
-38.870370999999999
  0
LINE
  8
0
  6
DASHDOT
 62
256
 10
72.019988999999995
 20
-54.670371000000003
 11
180.353321999999990
 21
-54.670371000000003
  0
LINE
  8
0
  6
CONTINUOUS
 62
256
 10
116.912786999999990
 20
-33.320371000000002
 11
116.912786999999990
 21
-34.620370999999999
  0
LINE
  8
0
  6
CONTINUOUS
 62
256
 10
89.412786999999994
 20
-73.670371000000003
 11
89.412786999999994
 21
-74.720371000000000
  0
LINE
  8
0
  6
CONTINUOUS
 62
256
 10
89.412786999999994
 20
-35.670371000000003
 11
89.412786999999994
 21
-34.620370999999999
  0
LINE
  8
0
  6
CONTINUOUS
 62
256
 10
162.412787000000010
 20
-34.670371000000003
 11
146.912812000000000
 21
-34.670371000000003
  0
LINE
  8
0
  6
CONTINUOUS
 62
256
 10
162.412787000000010
 20
-74.670371000000003
 11
146.912812000000000
 21
-74.670371000000003
  0
LINE
  8
0
  6
CONTINUOUS
 62
256
 10
162.412787000000010
 20
-35.670371000000003
 11
162.412787000000010
 21
-34.670369999999998
  0
LINE
  8
0
  6
CONTINUOUS
 62
256
 10
162.412787000000010
 20
-73.670371000000003
 11
162.412787000000010
 21
-74.670371000000003
  0
LINE
  8
0
  6
CONTINUOUS
 62
256
 10
74.412786999999994
 20
-73.670371000000003
 11
74.412786999999994
 21
-35.670371000000003
  0
LINE
  8
0
  6
CONTINUOUS
 62
256
 10
74.412786999999994
 20
-73.670371000000003
 11
89.412786999999994
 21
-73.670371000000003
  0
LINE
  8
0
  6
CONTINUOUS
 62
256
 10
74.412786999999994
 20
-35.670371000000003
 11
89.412786999999994
 21
-35.670371000000003
  0
LINE
  8
0
  6
CONTINUOUS
 62
256
 10
177.412787000000010
 20
-73.670371000000003
 11
177.412787000000010
 21
-35.670371000000003
  0
LINE
  8
0
  6
CONTINUOUS
 62
256
 10
177.412787000000010
 20
-35.670371000000003
 11
162.412787000000010
 21
-35.670371000000003
  0
LINE
  8
0
  6
CONTINUOUS
 62
256
 10
74.412786999999994
 20
-38.870370999999999
 11
110.912786999999990
 21
-38.870370999999999
  0
LINE
  8
0
  6
CONTINUOUS
 62
256
 10
177.412787000000010
 20
-73.670371000000003
 11
162.412787000000010
 21
-73.670371000000003
  0
LINE
  8
0
  6
CONTINUOUS
 62
256
 10
89.412786999999994
 20
-34.620370999999999
 11
116.912786999999990
 21
-34.620370999999999
  0
LINE
  8
0
  6
CONTINUOUS
 62
256
 10
89.412786999999994
 20
-74.720371000000000
 11
116.912786999999990
 21
-74.720371000000000
  0
LINE
  8
0
  6
CONTINUOUS
 62
256
 10
116.912786999999990
 20
-76.020370999999997
 11
146.912812000000000
 21
-76.020370999999997
  0
LINE
  8
0
  6
CONTINUOUS
 62
256
 10
116.912786999999990
 20
-76.020370999999997
 11
116.912786999999990
 21
-74.720371000000000
  0
LINE
  8
0
  6
CONTINUOUS
 62
256
 10
146.912812000000000
 20
-74.670371000000003
 11
146.912812000000000
 21
-76.020370999999997
  0
LINE
  8
0
  6
CONTINUOUS
 62
256
 10
146.912812000000000
 20
-34.670371000000003
 11
146.912812000000000
 21
-33.320371000000002
  0
LINE
  8
0
  6
CONTINUOUS
 62
256
 10
112.412786999999990
 20
-41.670371000000003
 11
139.412787000000010
 21
-41.670371000000003
  0
LINE
  8
0
  6
CONTINUOUS
 62
256
 10
112.412786999999990
 20
-67.670371000000003
 11
139.412787000000010
 21
-67.670371000000003
  0
LINE
  8
0
  6
CONTINUOUS
 62
256
 10
139.412787000000010
 20
-42.170371000000003
 11
155.412787000000010
 21
-42.170371000000003
  0
LINE
  8
0
  6
CONTINUOUS
 62
256
 10
139.412787000000010
 20
-67.170371000000003
 11
155.412787000000010
 21
-67.170371000000003
  0
ENDSEC
  0
EOF
