  0
SECTION
  2
HEADER
  9
$TEXTSIZE
 40
2.5
  9
$ACADVER
  1
AC1009
  9
$DIMASZ
 40
3.863703297614046
  9
$DIMEXE
 40
2.000000000000000
  9
$DIMEXO
 40
1.000000000000000
  9
$DIMLFAC
 40
1.000000000000000
  9
$DIMSCALE
 40
1.000000000000000
  9
$DIMTAD
 70
1
  9
$DIMTFAC
 40
0.625000000000000
  9
$DIMTXT
 40
3.200000047683716
  9
$LUPREC
 70
3
  9
$REGENMODE
 70
1
  9
$TEXTSTYLE
  7
STANDARD1
  0
ENDSEC
  0
SECTION
  2
TABLES
  0
TABLE
  2
LTYPE
 70
4
  0
LTYPE
  2
CONTINUOUS
 70
64
  3
Solid line
 72
65
 73
0
 40
0.0
  0
LTYPE
  2
DASHED
 70
64
  3
-- -- -- -- -- -- -- -- -- -- -- -- -- -- --
 72
65
 73
2
 40
0.75
 49
0.5
 49
-0.25
  0
LTYPE
  2
DASHDOT
 70
64
  3
__ . __ . __ . __ . __ . __ . __ . __ . __ . __
 72
65
 73
4
 40
1.0
 49
0.5
 49
-0.25
 49
0.0
 49
-0.25
  0
LTYPE
  2
DIVIDE
 70
64
  3
__ . . __ . . __ . . __ . . __ . . __ . . __
 72
65
 73
6
 40
1.25
 49
0.5
 49
-0.25
 49
0.0
 49
-0.25
 49
0.0
 49
-0.25
  0
ENDTAB
  0
TABLE
  2
LAYER
 70
3
  0
LAYER
  2
0
 70
64
 62
53
  6
CONTINUOUS
  0
LAYER
  2
1
 70
64
 62
102
  6
CONTINUOUS
  0
LAYER
  2
2
 70
64
 62
102
  6
CONTINUOUS
  0
ENDTAB
  0
TABLE
  2
STYLE
 70
4
  0
STYLE
  2
STANDARD1
 70
64
 40
0.0
 41
1.0
 50
0.0
 71
0
 42
3.200000047683716
  3
MONOTXT
  4
BIGFONT
  0
STYLE
  2
STANDARD2
 70
68
 40
0.0
 41
1.0
 50
0.0
 71
0
 42
3.200000047683716
  3
MONOTXT
  4
BIGFONT
  0
STYLE
  2
STANDARD3
 70
64
 40
0.0
 41
1.0
 50
0.0
 71
0
 42
3.200000047683716
  3
MONOTXT
  4

  0
STYLE
  2
STANDARD4
 70
68
 40
0.0
 41
1.0
 50
0.0
 71
0
 42
3.200000047683716
  3
MONOTXT
  4

  0
ENDTAB
  0
TABLE
  2
VIEW
 70
0
  0
ENDTAB
  0
ENDSEC
  0
SECTION
  2
BLOCKS
  0
BLOCK
  8
0
  2
ZU_SYM_1
 70
64
 10
0.000000000000000
 20
0.000000000000000
  0
LINE
  8
0
  6
CONTINUOUS
 62
256
 10
1.999999000000000
 20
-1.154699000000000
 11
-0.000002000000000
 21
-2.309398000000000
  0
LINE
  8
0
  6
CONTINUOUS
 62
256
 10
-1.999999000000000
 20
1.154700000000000
 11
0.000002000000000
 21
2.309399000000000
  0
LINE
  8
0
  6
CONTINUOUS
 62
256
 10
-0.000002000000000
 20
-2.309397000000000
 11
-1.999997000000000
 21
-1.154696000000000
  0
LINE
  8
0
  6
CONTINUOUS
 62
256
 10
1.999998000000000
 20
1.154696000000000
 11
0.000002000000000
 21
2.309399000000000
  0
LINE
  8
0
  6
CONTINUOUS
 62
256
 10
1.999998000000000
 20
1.154695000000000
 11
1.999999000000000
 21
-1.154699000000000
  0
LINE
  8
0
  6
CONTINUOUS
 62
256
 10
-1.999998000000000
 20
-1.154696000000000
 11
-1.999999000000000
 21
1.154700000000000
  0
POINT
  8
0
  6
CONTINUOUS
 62
256
 10
0.000000000000000
 20
0.000000000000000
  0
CIRCLE
  8
0
  6
CONTINUOUS
 62
256
 10
0.000000000000000
 20
0.000000000000000
 40
4.249999000000000
  0
ENDBLK
  8
0
  0
BLOCK
  8
0
  2
ZU_SYM_2
 70
64
 10
0.000000000000000
 20
0.000000000000000
  0
LINE
  8
0
  6
CONTINUOUS
 62
256
 10
1.999999000000000
 20
-1.154699000000000
 11
-0.000002000000000
 21
-2.309398000000000
  0
LINE
  8
0
  6
CONTINUOUS
 62
256
 10
-1.999999000000000
 20
1.154700000000000
 11
0.000002000000000
 21
2.309399000000000
  0
LINE
  8
0
  6
CONTINUOUS
 62
256
 10
-0.000002000000000
 20
-2.309397000000000
 11
-1.999997000000000
 21
-1.154696000000000
  0
LINE
  8
0
  6
CONTINUOUS
 62
256
 10
1.999998000000000
 20
1.154696000000000
 11
0.000002000000000
 21
2.309399000000000
  0
LINE
  8
0
  6
CONTINUOUS
 62
256
 10
1.999998000000000
 20
1.154695000000000
 11
1.999999000000000
 21
-1.154699000000000
  0
LINE
  8
0
  6
CONTINUOUS
 62
256
 10
-1.999998000000000
 20
-1.154696000000000
 11
-1.999999000000000
 21
1.154700000000000
  0
POINT
  8
0
  6
CONTINUOUS
 62
256
 10
0.000000000000000
 20
0.000000000000000
  0
CIRCLE
  8
0
  6
CONTINUOUS
 62
256
 10
0.000000000000000
 20
0.000000000000000
 40
4.249999000000000
  0
ENDBLK
  8
0
  0
BLOCK
  8
0
  2
ZU_SYM_3
 70
64
 10
0.000000000000000
 20
0.000000000000000
  0
LINE
  8
0
  6
CONTINUOUS
 62
256
 10
1.999999000000000
 20
-1.154699000000000
 11
-0.000002000000000
 21
-2.309398000000000
  0
LINE
  8
0
  6
CONTINUOUS
 62
256
 10
-1.999999000000000
 20
1.154700000000000
 11
0.000002000000000
 21
2.309399000000000
  0
LINE
  8
0
  6
CONTINUOUS
 62
256
 10
-0.000002000000000
 20
-2.309397000000000
 11
-1.999997000000000
 21
-1.154696000000000
  0
LINE
  8
0
  6
CONTINUOUS
 62
256
 10
1.999998000000000
 20
1.154696000000000
 11
0.000002000000000
 21
2.309399000000000
  0
LINE
  8
0
  6
CONTINUOUS
 62
256
 10
1.999998000000000
 20
1.154695000000000
 11
1.999999000000000
 21
-1.154699000000000
  0
LINE
  8
0
  6
CONTINUOUS
 62
256
 10
-1.999998000000000
 20
-1.154696000000000
 11
-1.999999000000000
 21
1.154700000000000
  0
POINT
  8
0
  6
CONTINUOUS
 62
256
 10
0.000000000000000
 20
0.000000000000000
  0
CIRCLE
  8
0
  6
CONTINUOUS
 62
256
 10
0.000000000000000
 20
0.000000000000000
 40
4.249999000000000
  0
ENDBLK
  8
0
  0
BLOCK
  8
0
  2
ZU_SYM_4
 70
64
 10
0.000000000000000
 20
0.000000000000000
  0
LINE
  8
0
  6
CONTINUOUS
 62
256
 10
1.999999000000000
 20
-1.154699000000000
 11
-0.000002000000000
 21
-2.309398000000000
  0
LINE
  8
0
  6
CONTINUOUS
 62
256
 10
-1.999999000000000
 20
1.154700000000000
 11
0.000002000000000
 21
2.309399000000000
  0
LINE
  8
0
  6
CONTINUOUS
 62
256
 10
-0.000002000000000
 20
-2.309397000000000
 11
-1.999997000000000
 21
-1.154696000000000
  0
LINE
  8
0
  6
CONTINUOUS
 62
256
 10
1.999998000000000
 20
1.154696000000000
 11
0.000002000000000
 21
2.309399000000000
  0
LINE
  8
0
  6
CONTINUOUS
 62
256
 10
1.999998000000000
 20
1.154695000000000
 11
1.999999000000000
 21
-1.154699000000000
  0
LINE
  8
0
  6
CONTINUOUS
 62
256
 10
-1.999998000000000
 20
-1.154696000000000
 11
-1.999999000000000
 21
1.154700000000000
  0
POINT
  8
0
  6
CONTINUOUS
 62
256
 10
0.000000000000000
 20
0.000000000000000
  0
CIRCLE
  8
0
  6
CONTINUOUS
 62
256
 10
0.000000000000000
 20
0.000000000000000
 40
4.249999000000000
  0
ENDBLK
  8
0
  0
ENDSEC
  0
SECTION
  2
ENTITIES
  0
TEXT
  8
0
  6
CONTINUOUS
 62
256
 10
-70.375488281250000
 20
-13.156250000000000
 40
2.799999952316284
  1
ü@
 50
0.000002504478167
 41
0.996000017370497
  7
STANDARD1
  0
TEXT
  8
0
  6
CONTINUOUS
 62
256
 10
1.624511957168579
 20
-253.406250000000000
 40
2.799999952316284
  1
ü@
 50
0.000002504478167
 41
0.996000017370497
  7
STANDARD1
  0
CIRCLE
  8
0
  6
CONTINUOUS
 62
256
 10
-97.186642000000006
 20
-23.662160000000000
 40
7.000000000000000
  0
CIRCLE
  8
0
  6
CONTINUOUS
 62
256
 10
20.813358000000001
 20
-23.662160000000000
 40
7.000000000000000
  0
CIRCLE
  8
0
  6
CONTINUOUS
 62
256
 10
20.813358000000001
 20
-128.662160000000000
 40
7.000000000000000
  0
CIRCLE
  8
0
  6
CONTINUOUS
 62
256
 10
-97.186642000000006
 20
-128.662160000000000
 40
7.000000000000000
  0
LINE
  8
0
  6
DASHED
 62
256
 10
415.464232999999980
 20
-19.162160000000000
 11
480.464232999999980
 21
-19.162160000000000
  0
LINE
  8
0
  6
DASHED
 62
256
 10
404.464232999999980
 20
-16.662160000000000
 11
415.464232999999980
 21
-16.662160000000000
  0
LINE
  8
0
  6
DASHED
 62
256
 10
415.464232999999980
 20
-28.162160000000000
 11
480.464232999999980
 21
-28.162160000000000
  0
LINE
  8
0
  6
DASHED
 62
256
 10
415.464232999999980
 20
-30.662160000000000
 11
415.464232999999980
 21
-16.662160000000000
  0
LINE
  8
0
  6
DASHED
 62
256
 10
404.464232999999980
 20
-30.662160000000000
 11
415.464232999999980
 21
-30.662160000000000
  0
LINE
  8
0
  6
DASHED
 62
256
 10
491.464232999999980
 20
-16.662160000000000
 11
480.464232999999980
 21
-16.662160000000000
  0
LINE
  8
0
  6
DASHED
 62
256
 10
480.464232999999980
 20
-30.662160000000000
 11
480.464232999999980
 21
-16.662160000000000
  0
LINE
  8
0
  6
DASHED
 62
256
 10
491.464232999999980
 20
-30.662160000000000
 11
480.464232999999980
 21
-30.662160000000000
  0
LINE
  8
0
  6
DASHED
 62
256
 10
415.464232999999980
 20
-124.162160000000000
 11
480.464232999999980
 21
-124.162160000000000
  0
LINE
  8
0
  6
DASHED
 62
256
 10
404.464232999999980
 20
-121.662160000000000
 11
415.464232999999980
 21
-121.662160000000000
  0
LINE
  8
0
  6
DASHED
 62
256
 10
415.464232999999980
 20
-133.162160000000000
 11
480.464232999999980
 21
-133.162160000000000
  0
LINE
  8
0
  6
DASHED
 62
256
 10
404.464232999999980
 20
-135.662160000000000
 11
415.464232999999980
 21
-135.662160000000000
  0
LINE
  8
0
  6
DASHED
 62
256
 10
415.464232999999980
 20
-135.662160000000000
 11
415.464232999999980
 21
-121.662160000000000
  0
LINE
  8
0
  6
DASHED
 62
256
 10
480.464232999999980
 20
-135.662160000000000
 11
480.464232999999980
 21
-121.662160000000000
  0
LINE
  8
0
  6
DASHED
 62
256
 10
491.464232999999980
 20
-121.662160000000000
 11
480.464232999999980
 21
-121.662160000000000
  0
LINE
  8
0
  6
DASHED
 62
256
 10
491.464232999999980
 20
-135.662160000000000
 11
480.464232999999980
 21
-135.662160000000000
  0
LINE
  8
0
  6
DASHDOT
 62
256
 10
-21.186641999999999
 20
73.804393000000005
 11
-21.186641999999999
 21
189.617999000000000
  0
LINE
  8
0
  6
CONTINUOUS
 62
256
 10
-39.186641999999999
 20
77.324049000000002
 11
-21.186641999999999
 21
77.324049000000002
  0
ARC
  8
0
  6
CONTINUOUS
 62
256
 10
-39.186641999999999
 20
78.324049000000002
 40
1.000000000000000
 50
180.000000000000000
 51
270.000000000000000
  0
LINE
  8
0
  6
CONTINUOUS
 62
256
 10
-40.186641999999999
 20
78.324049000000002
 11
-40.186641999999999
 21
81.324049000000002
  0
LINE
  8
0
  6
CONTINUOUS
 62
256
 10
-3.186642000000000
 20
77.324049000000002
 11
-21.186641999999999
 21
77.324049000000002
  0
LINE
  8
0
  6
CONTINUOUS
 62
256
 10
-2.186642000000000
 20
78.324049000000002
 11
-2.186642000000000
 21
81.324049000000002
  0
ARC
  8
0
  6
CONTINUOUS
 62
256
 10
-3.186642000000000
 20
78.324049000000002
 40
1.000000000000000
 50
270.000000000000000
 51
0.000000000000000
  0
LINE
  8
0
  6
CONTINUOUS
 62
256
 10
-39.186641999999999
 20
180.324049000000000
 11
-21.186641999999999
 21
180.324049000000000
  0
ARC
  8
0
  6
CONTINUOUS
 62
256
 10
-39.186641999999999
 20
179.324049000000000
 40
1.000000000000000
 50
90.000000000000000
 51
180.000000000000000
  0
LINE
  8
0
  6
CONTINUOUS
 62
256
 10
-40.186641999999999
 20
179.324049000000000
 11
-40.186641999999999
 21
176.324049000000000
  0
ARC
  8
0
  6
CONTINUOUS
 62
256
 10
-3.186642000000000
 20
179.324049000000000
 40
1.000000000000000
 50
0.000000000000000
 51
90.000000000000000
  0
LINE
  8
0
  6
CONTINUOUS
 62
256
 10
-2.186642000000000
 20
179.324049000000000
 11
-2.186642000000000
 21
176.324049000000000
  0
LINE
  8
0
  6
CONTINUOUS
 62
256
 10
-3.186642000000000
 20
180.324049000000000
 11
-21.186641999999999
 21
180.324049000000000
  0
LINE
  8
0
  6
CONTINUOUS
 62
256
 10
-132.186642000000010
 20
176.324049000000000
 11
-132.186642000000010
 21
179.358501999999990
  0
LINE
  8
0
  6
CONTINUOUS
 62
256
 10
-129.186642000000010
 20
173.324049000000000
 11
-124.186642000000010
 21
173.324049000000000
  0
LINE
  8
0
  6
CONTINUOUS
 62
256
 10
-130.186642000000010
 20
170.253700000000010
 11
-124.186642000000010
 21
170.253700000000010
  0
LINE
  8
0
  6
CONTINUOUS
 62
256
 10
-119.186642000000010
 20
165.716215000000010
 11
-119.186642000000010
 21
168.324049000000000
  0
LINE
  8
0
  6
CONTINUOUS
 62
256
 10
-122.186642000000010
 20
162.716215000000010
 11
-129.186642000000010
 21
162.716215000000010
  0
LINE
  8
0
  6
CONTINUOUS
 62
256
 10
-132.186642000000010
 20
148.824049000000000
 11
-137.186642000000010
 21
148.824049000000000
  0
LINE
  8
0
  6
CONTINUOUS
 62
256
 10
-132.186642000000010
 20
128.824049000000000
 11
-132.186642000000010
 21
168.253700000000010
  0
LINE
  8
0
  6
CONTINUOUS
 62
256
 10
-132.186642000000010
 20
108.824049000000000
 11
-137.186642000000010
 21
108.824049000000000
  0
LINE
  8
0
  6
CONTINUOUS
 62
256
 10
-119.186642000000010
 20
91.931882999999999
 11
-119.186642000000010
 21
89.324049000000002
  0
LINE
  8
0
  6
CONTINUOUS
 62
256
 10
-122.186642000000010
 20
94.931882999999999
 11
-129.186642000000010
 21
94.931882999999999
  0
LINE
  8
0
  6
CONTINUOUS
 62
256
 10
-132.186642000000010
 20
128.824049000000000
 11
-132.186642000000010
 21
89.394396999999998
  0
LINE
  8
0
  6
CONTINUOUS
 62
256
 10
-129.186642000000010
 20
84.324049000000002
 11
-124.186642000000010
 21
84.324049000000002
  0
LINE
  8
0
  6
CONTINUOUS
 62
256
 10
-130.186642000000010
 20
87.394396999999998
 11
-124.186642000000010
 21
87.394396999999998
  0
LINE
  8
0
  6
CONTINUOUS
 62
256
 10
-132.186642000000010
 20
81.324049000000002
 11
-132.186642000000010
 21
78.289596000000003
  0
ARC
  8
0
  6
CONTINUOUS
 62
256
 10
-135.186642000000010
 20
179.358501999999990
 40
3.000000000000000
 50
0.000000000000000
 51
91.000000000000142
  0
ARC
  8
0
  6
CONTINUOUS
 62
256
 10
-135.186642000000010
 20
78.289596000000003
 40
2.999999999999997
 50
268.999999999999830
 51
0.000000000000000
  0
ARC
  8
0
  6
CONTINUOUS
 62
256
 10
-129.186642000000010
 20
159.716215000000010
 40
3.000000000000000
 50
90.000000000000000
 51
180.000000000000000
  0
ARC
  8
0
  6
CONTINUOUS
 62
256
 10
-129.186642000000010
 20
176.324049000000000
 40
3.000000000000000
 50
180.000000000000000
 51
270.000000000000000
  0
ARC
  8
0
  6
CONTINUOUS
 62
256
 10
-130.186642000000010
 20
168.253700000000010
 40
2.000000000000000
 50
90.000000000000000
 51
180.000000000000000
  0
ARC
  8
0
  6
CONTINUOUS
 62
256
 10
-124.186642000000010
 20
165.253700000000010
 40
5.000000000000000
 50
0.000000000000000
 51
90.000000000000000
  0
ARC
  8
0
  6
CONTINUOUS
 62
256
 10
-124.186642000000010
 20
168.324049000000000
 40
5.000000000000000
 50
0.000000000000000
 51
90.000000000000000
  0
ARC
  8
0
  6
CONTINUOUS
 62
256
 10
-129.186642000000010
 20
97.931882999999999
 40
3.000000000000000
 50
180.000000000000000
 51
270.000000000000000
  0
ARC
  8
0
  6
CONTINUOUS
 62
256
 10
-124.186642000000010
 20
92.394396999999998
 40
5.000000000000000
 50
270.000000000000000
 51
0.000000000000000
  0
ARC
  8
0
  6
CONTINUOUS
 62
256
 10
-124.186642000000010
 20
89.324049000000002
 40
5.000000000000000
 50
270.000000000000000
 51
0.000000000000000
  0
ARC
  8
0
  6
CONTINUOUS
 62
256
 10
-129.186642000000010
 20
81.324049000000002
 40
3.000000000000000
 50
90.000000000000000
 51
180.000000000000000
  0
ARC
  8
0
  6
CONTINUOUS
 62
256
 10
-130.186642000000010
 20
89.394396999999998
 40
2.000000000000000
 50
180.000000000000000
 51
270.000000000000000
  0
LINE
  8
0
  6
CONTINUOUS
 62
256
 10
-119.186642000000010
 20
179.585418000000000
 11
-119.186642000000010
 21
128.824049000000000
  0
LINE
  8
0
  6
CONTINUOUS
 62
256
 10
-119.186642000000010
 20
78.062680000000000
 11
-119.186642000000010
 21
128.824049000000000
  0
ARC
  8
0
  6
CONTINUOUS
 62
256
 10
-122.186642000000010
 20
179.585418000000000
 40
3.000000000000000
 50
0.000000000000000
 51
80.279896999999892
  0
ARC
  8
0
  6
CONTINUOUS
 62
256
 10
-122.186642000000010
 20
97.931882999999999
 40
3.000000000000000
 50
270.000000000000000
 51
0.000000000000000
  0
ARC
  8
0
  6
CONTINUOUS
 62
256
 10
-122.186642000000010
 20
159.716215000000010
 40
3.000000000000000
 50
0.000000000000000
 51
90.000000000000000
  0
LINE
  8
0
  6
CONTINUOUS
 62
256
 10
-119.186642000000010
 20
78.062680000000000
 11
-119.186642000000010
 21
84.324049000000002
  0
LINE
  8
0
  6
CONTINUOUS
 62
256
 10
-119.186642000000010
 20
179.585418000000000
 11
-119.186642000000010
 21
162.324049000000000
  0
ARC
  8
0
  6
CONTINUOUS
 62
256
 10
-116.186642000000010
 20
95.324049000000002
 40
3.000000000000000
 50
90.000000000000000
 51
180.000000000000000
  0
LINE
  8
0
  6
CONTINUOUS
 62
256
 10
-111.178219000000000
 20
98.324049000000002
 11
-116.186642000000010
 21
98.324049000000002
  0
ARC
  8
0
  6
CONTINUOUS
 62
256
 10
-122.186642000000010
 20
78.062680000000000
 40
3.000000000000000
 50
279.720103000000110
 51
0.000000000000000
  0
ARC
  8
0
  6
CONTINUOUS
 62
256
 10
-116.186642000000010
 20
173.324049000000000
 40
3.000000000000000
 50
180.000000000000000
 51
270.000000000000000
  0
LINE
  8
0
  6
CONTINUOUS
 62
256
 10
-110.017152999999990
 20
170.324049000000000
 11
-116.186642000000010
 21
170.324049000000000
  0
LINE
  8
0
  6
CONTINUOUS
 62
256
 10
-109.169186999999990
 20
96.324049000000002
 11
-108.977181000000000
 21
85.324049000000002
  0
LINE
  8
0
  6
CONTINUOUS
 62
256
 10
31.813358000000001
 20
85.324049000000002
 11
-108.977181000000000
 21
85.324049000000002
  0
LINE
  8
0
  6
CONTINUOUS
 62
256
 10
32.005364000000000
 20
96.324049000000002
 11
31.813358000000001
 21
85.324049000000002
  0
LINE
  8
0
  6
CONTINUOUS
 62
256
 10
-58.686641999999999
 20
172.324049000000000
 11
-58.686641999999999
 21
176.324049000000000
  0
LINE
  8
0
  6
CONTINUOUS
 62
256
 10
16.313358000000001
 20
176.324049000000000
 11
-58.686641999999999
 21
176.324049000000000
  0
LINE
  8
0
  6
CONTINUOUS
 62
256
 10
16.313358000000001
 20
172.324049000000000
 11
16.313358000000001
 21
176.324049000000000
  0
LINE
  8
0
  6
CONTINUOUS
 62
256
 10
-58.686641999999999
 20
81.324049000000002
 11
-58.686641999999999
 21
85.324049000000002
  0
LINE
  8
0
  6
CONTINUOUS
 62
256
 10
16.313358000000001
 20
81.324049000000002
 11
16.313358000000001
 21
85.324049000000002
  0
LINE
  8
0
  6
CONTINUOUS
 62
256
 10
-94.311434000000006
 20
85.324049000000002
 11
-80.276275999999996
 21
85.324049000000002
  0
LINE
  8
0
  6
CONTINUOUS
 62
256
 10
16.313358000000001
 20
81.324049000000002
 11
-58.686641999999999
 21
81.324049000000002
  0
ARC
  8
0
  6
CONTINUOUS
 62
256
 10
-110.017152999999990
 20
172.324049000000000
 40
2.000000000000000
 50
270.000000000000000
 51
0.000000000000000
  0
ARC
  8
0
  6
CONTINUOUS
 62
256
 10
-111.178219000000000
 20
96.324049000000002
 40
2.000000000000000
 50
0.000000000000000
 51
90.000000000000000
  0
LINE
  8
0
  6
CONTINUOUS
 62
256
 10
-121.680136000000000
 20
182.542351000000000
 11
-137.186642000000010
 21
182.271683999999990
  0
LINE
  8
0
  6
CONTINUOUS
 62
256
 10
-121.680136000000000
 20
75.105746999999994
 11
-137.186642000000010
 21
75.376413999999997
  0
LINE
  8
0
  6
CONTINUOUS
 62
256
 10
-108.017152999999990
 20
162.824049000000000
 11
-108.017152999999990
 21
172.324049000000000
  0
LINE
  8
0
  6
CONTINUOUS
 62
256
 10
-108.017152999999990
 20
172.324049000000000
 11
-21.186641999999999
 21
172.324049000000000
  0
LINE
  8
0
  6
CONTINUOUS
 62
256
 10
-109.177914000000000
 20
96.324049000000002
 11
-108.017152999999990
 21
162.824049000000000
  0
LINE
  8
0
  6
CONTINUOUS
 62
256
 10
-109.178219000000000
 20
96.324049000000002
 11
32.005364000000000
 21
96.324049000000002
  0
LINE
  8
0
  6
CONTINUOUS
 62
256
 10
31.996635999999999
 20
96.324049000000002
 11
30.835874000000000
 21
162.824049000000000
  0
LINE
  8
0
  6
CONTINUOUS
 62
256
 10
30.835874000000000
 20
162.824049000000000
 11
30.835874000000000
 21
172.324049000000000
  0
LINE
  8
0
  6
CONTINUOUS
 62
256
 10
-21.186641999999999
 20
172.324049000000000
 11
30.835874000000000
 21
172.324049000000000
  0
LINE
  8
0
  6
CONTINUOUS
 62
256
 10
-137.186642000000010
 20
128.824049000000000
 11
-137.186642000000010
 21
182.271683999999990
  0
LINE
  8
0
  6
CONTINUOUS
 62
256
 10
-137.186642000000010
 20
128.824049000000000
 11
-137.186642000000010
 21
75.376413999999997
  0
LINE
  8
0
  6
CONTINUOUS
 62
256
 10
-221.186642000000010
 20
74.824049000000002
 11
-298.691487000000000
 21
74.824049000000002
  0
LINE
  8
0
  6
CONTINUOUS
 62
256
 10
-221.186642000000010
 20
74.824049000000002
 11
-221.186642000000010
 21
128.824049000000000
  0
LINE
  8
0
  6
CONTINUOUS
 62
256
 10
-221.186642000000010
 20
182.824049000000000
 11
-221.186642000000010
 21
128.824049000000000
  0
LINE
  8
0
  6
CONTINUOUS
 62
256
 10
-221.186642000000010
 20
182.824049000000000
 11
-298.691487000000000
 21
182.824049000000000
  0
LINE
  8
0
  6
CONTINUOUS
 62
256
 10
-232.186642000000010
 20
79.680127999999996
 11
-234.186642000000010
 21
81.332768999999999
  0
LINE
  8
0
  6
CONTINUOUS
 62
256
 10
-230.186642000000010
 20
78.504341999999994
 11
-232.186642000000010
 21
79.680127999999996
  0
LINE
  8
0
  6
CONTINUOUS
 62
256
 10
-232.186642000000010
 20
79.680127999999996
 11
-230.186642000000010
 21
81.332768999999999
  0
LINE
  8
0
  6
CONTINUOUS
 62
256
 10
-234.186642000000010
 20
78.504341999999994
 11
-232.186642000000010
 21
79.680127999999996
  0
POLYLINE
  8
0
  6
CONTINUOUS
 62
256
 66
1
 70
1
  0
VERTEX
  8
0
  6
CONTINUOUS
 62
256
 10
-227.486642000000020
 20
81.496718000000001
  0
VERTEX
  8
0
  6
CONTINUOUS
 62
256
 10
-227.576951182104840
 20
82.199674510558168
  0
VERTEX
  8
0
  6
CONTINUOUS
 62
256
 10
-227.844408197196970
 20
82.875616796638141
  0
VERTEX
  8
0
  6
CONTINUOUS
 62
256
 10
-228.278734822178050
 20
83.498568775258661
  0
VERTEX
  8
0
  6
CONTINUOUS
 62
256
 10
-228.863240128423230
 20
84.044590751236854
  0
VERTEX
  8
0
  6
CONTINUOUS
 62
256
 10
-229.575461904807900
 20
84.492699406248491
  0
VERTEX
  8
0
  6
CONTINUOUS
 62
256
 10
-230.388029867884090
 20
84.825674175983750
  0
VERTEX
  8
0
  6
CONTINUOUS
 62
256
 10
-231.269717486524200
 20
85.030719026776069
  0
VERTEX
  8
0
  6
CONTINUOUS
 62
256
 10
-232.186642000000010
 20
85.099954199999999
  0
VERTEX
  8
0
  6
CONTINUOUS
 62
256
 10
-233.103566513475810
 20
85.030719026776069
  0
VERTEX
  8
0
  6
CONTINUOUS
 62
256
 10
-233.985254132115930
 20
84.825674175983750
  0
VERTEX
  8
0
  6
CONTINUOUS
 62
256
 10
-234.797822095192120
 20
84.492699406248491
  0
VERTEX
  8
0
  6
CONTINUOUS
 62
256
 10
-235.510043871576780
 20
84.044590751236854
  0
VERTEX
  8
0
  6
CONTINUOUS
 62
256
 10
-236.094549177821960
 20
83.498568775258661
  0
VERTEX
  8
0
  6
CONTINUOUS
 62
256
 10
-236.528875802803040
 20
82.875616796638141
  0
VERTEX
  8
0
  6
CONTINUOUS
 62
256
 10
-236.796332817895180
 20
82.199674510558168
  0
VERTEX
  8
0
  6
CONTINUOUS
 62
256
 10
-236.886641999999990
 20
81.496718000000001
  0
VERTEX
  8
0
  6
CONTINUOUS
 62
256
 10
-236.796332817895180
 20
80.793761489441835
  0
VERTEX
  8
0
  6
CONTINUOUS
 62
256
 10
-236.528875802803040
 20
80.117819203361861
  0
VERTEX
  8
0
  6
CONTINUOUS
 62
256
 10
-236.094549177821960
 20
79.494867224741341
  0
VERTEX
  8
0
  6
CONTINUOUS
 62
256
 10
-235.510043871576780
 20
78.948845248763163
  0
VERTEX
  8
0
  6
CONTINUOUS
 62
256
 10
-234.797822095192120
 20
78.500736593751512
  0
VERTEX
  8
0
  6
CONTINUOUS
 62
256
 10
-233.985254132115930
 20
78.167761824016253
  0
VERTEX
  8
0
  6
CONTINUOUS
 62
256
 10
-233.103566513475810
 20
77.962716973223934
  0
VERTEX
  8
0
  6
CONTINUOUS
 62
256
 10
-232.186642000000010
 20
77.893481800000004
  0
VERTEX
  8
0
  6
CONTINUOUS
 62
256
 10
-231.269717486524200
 20
77.962716973223934
  0
VERTEX
  8
0
  6
CONTINUOUS
 62
256
 10
-230.388029867884090
 20
78.167761824016253
  0
VERTEX
  8
0
  6
CONTINUOUS
 62
256
 10
-229.575461904807900
 20
78.500736593751512
  0
VERTEX
  8
0
  6
CONTINUOUS
 62
256
 10
-228.863240128423260
 20
78.948845248763149
  0
VERTEX
  8
0
  6
CONTINUOUS
 62
256
 10
-228.278734822178050
 20
79.494867224741341
  0
VERTEX
  8
0
  6
CONTINUOUS
 62
256
 10
-227.844408197196970
 20
80.117819203361861
  0
VERTEX
  8
0
  6
CONTINUOUS
 62
256
 10
-227.576951182104840
 20
80.793761489441835
  0
SEQEND
  8
0
  6
CONTINUOUS
 62
256
  0
LINE
  8
0
  6
CONTINUOUS
 62
256
 10
-232.186642000000010
 20
177.967970000000010
 11
-234.186642000000010
 21
176.315327999999990
  0
LINE
  8
0
  6
CONTINUOUS
 62
256
 10
-230.186642000000010
 20
179.143755000000000
 11
-232.186642000000010
 21
177.967970000000010
  0
LINE
  8
0
  6
CONTINUOUS
 62
256
 10
-232.186642000000010
 20
177.967970000000010
 11
-230.186642000000010
 21
176.315327999999990
  0
LINE
  8
0
  6
CONTINUOUS
 62
256
 10
-234.186642000000010
 20
179.143755000000000
 11
-232.186642000000010
 21
177.967970000000010
  0
POLYLINE
  8
0
  6
CONTINUOUS
 62
256
 66
1
 70
1
  0
VERTEX
  8
0
  6
CONTINUOUS
 62
256
 10
-227.486642000000020
 20
176.151379999999990
  0
VERTEX
  8
0
  6
CONTINUOUS
 62
256
 10
-227.576951182104840
 20
176.854336510558170
  0
VERTEX
  8
0
  6
CONTINUOUS
 62
256
 10
-227.844408197196970
 20
177.530278796638130
  0
VERTEX
  8
0
  6
CONTINUOUS
 62
256
 10
-228.278734822178050
 20
178.153230775258660
  0
VERTEX
  8
0
  6
CONTINUOUS
 62
256
 10
-228.863240128423230
 20
178.699252751236830
  0
VERTEX
  8
0
  6
CONTINUOUS
 62
256
 10
-229.575461904807900
 20
179.147361406248480
  0
VERTEX
  8
0
  6
CONTINUOUS
 62
256
 10
-230.388029867884090
 20
179.480336175983720
  0
VERTEX
  8
0
  6
CONTINUOUS
 62
256
 10
-231.269717486524200
 20
179.685381026776070
  0
VERTEX
  8
0
  6
CONTINUOUS
 62
256
 10
-232.186642000000010
 20
179.754616199999990
  0
VERTEX
  8
0
  6
CONTINUOUS
 62
256
 10
-233.103566513475810
 20
179.685381026776070
  0
VERTEX
  8
0
  6
CONTINUOUS
 62
256
 10
-233.985254132115930
 20
179.480336175983720
  0
VERTEX
  8
0
  6
CONTINUOUS
 62
256
 10
-234.797822095192120
 20
179.147361406248480
  0
VERTEX
  8
0
  6
CONTINUOUS
 62
256
 10
-235.510043871576780
 20
178.699252751236830
  0
VERTEX
  8
0
  6
CONTINUOUS
 62
256
 10
-236.094549177821960
 20
178.153230775258660
  0
VERTEX
  8
0
  6
CONTINUOUS
 62
256
 10
-236.528875802803040
 20
177.530278796638130
  0
VERTEX
  8
0
  6
CONTINUOUS
 62
256
 10
-236.796332817895180
 20
176.854336510558170
  0
VERTEX
  8
0
  6
CONTINUOUS
 62
256
 10
-236.886641999999990
 20
176.151379999999990
  0
VERTEX
  8
0
  6
CONTINUOUS
 62
256
 10
-236.796332817895180
 20
175.448423489441810
  0
VERTEX
  8
0
  6
CONTINUOUS
 62
256
 10
-236.528875802803040
 20
174.772481203361850
  0
VERTEX
  8
0
  6
CONTINUOUS
 62
256
 10
-236.094549177821960
 20
174.149529224741310
  0
VERTEX
  8
0
  6
CONTINUOUS
 62
256
 10
-235.510043871576780
 20
173.603507248763150
  0
VERTEX
  8
0
  6
CONTINUOUS
 62
256
 10
-234.797822095192120
 20
173.155398593751500
  0
VERTEX
  8
0
  6
CONTINUOUS
 62
256
 10
-233.985254132115930
 20
172.822423824016250
  0
VERTEX
  8
0
  6
CONTINUOUS
 62
256
 10
-233.103566513475810
 20
172.617378973223940
  0
VERTEX
  8
0
  6
CONTINUOUS
 62
256
 10
-232.186642000000010
 20
172.548143799999990
  0
VERTEX
  8
0
  6
CONTINUOUS
 62
256
 10
-231.269717486524200
 20
172.617378973223940
  0
VERTEX
  8
0
  6
CONTINUOUS
 62
256
 10
-230.388029867884090
 20
172.822423824016250
  0
VERTEX
  8
0
  6
CONTINUOUS
 62
256
 10
-229.575461904807900
 20
173.155398593751500
  0
VERTEX
  8
0
  6
CONTINUOUS
 62
256
 10
-228.863240128423260
 20
173.603507248763150
  0
VERTEX
  8
0
  6
CONTINUOUS
 62
256
 10
-228.278734822178050
 20
174.149529224741310
  0
VERTEX
  8
0
  6
CONTINUOUS
 62
256
 10
-227.844408197196970
 20
174.772481203361850
  0
VERTEX
  8
0
  6
CONTINUOUS
 62
256
 10
-227.576951182104840
 20
175.448423489441810
  0
SEQEND
  8
0
  6
CONTINUOUS
 62
256
  0
LINE
  8
0
  6
DASHDOT
 62
256
 10
35.771686000000003
 20
128.824049000000000
 11
-323.049744999999970
 21
128.824049000000000
  0
LINE
  8
0
  6
CONTINUOUS
 62
256
 10
-137.186642000000010
 20
181.324049000000000
 11
-221.186642000000010
 21
181.324049000000000
  0
LINE
  8
0
  6
CONTINUOUS
 62
256
 10
-221.186642000000010
 20
179.324049000000000
 11
-137.186642000000010
 21
179.324049000000000
  0
LINE
  8
0
  6
CONTINUOUS
 62
256
 10
-221.186642000000010
 20
179.824049000000000
 11
-137.186642000000010
 21
179.824049000000000
  0
LINE
  8
0
  6
CONTINUOUS
 62
256
 10
-221.186642000000010
 20
174.957131000000000
 11
-137.186642000000010
 21
174.957131000000000
  0
LINE
  8
0
  6
CONTINUOUS
 62
256
 10
-221.186642000000010
 20
173.328703999999990
 11
-137.186642000000010
 21
173.328703999999990
  0
LINE
  8
0
  6
CONTINUOUS
 62
256
 10
-221.186642000000010
 20
169.865962000000000
 11
-137.186642000000010
 21
169.865962000000000
  0
LINE
  8
0
  6
CONTINUOUS
 62
256
 10
-221.344242000000010
 20
168.864484000000000
 11
-137.186642000000010
 21
168.864484000000000
  0
LINE
  8
0
  6
CONTINUOUS
 62
256
 10
-221.186642000000010
 20
157.580444000000000
 11
-137.186642000000010
 21
157.580444000000000
  0
LINE
  8
0
  6
CONTINUOUS
 62
256
 10
-221.186642000000010
 20
156.101420999999990
 11
-137.186642000000010
 21
156.101420999999990
  0
LINE
  8
0
  6
CONTINUOUS
 62
256
 10
-221.186642000000010
 20
153.008690000000000
 11
-137.186642000000010
 21
153.008690000000000
  0
LINE
  8
0
  6
CONTINUOUS
 62
256
 10
-221.186642000000010
 20
151.662287999999990
 11
-137.186642000000010
 21
151.662287999999990
  0
LINE
  8
0
  6
CONTINUOUS
 62
256
 10
-221.186642000000010
 20
148.824049000000000
 11
-137.186642000000010
 21
148.824049000000000
  0
LINE
  8
0
  6
CONTINUOUS
 62
256
 10
-221.186642000000010
 20
160.538440000000010
 11
-137.186642000000010
 21
160.538440000000010
  0
LINE
  8
0
  6
CONTINUOUS
 62
256
 10
-221.186642000000010
 20
162.127649999999990
 11
-137.186642000000010
 21
162.127649999999990
  0
LINE
  8
0
  6
CONTINUOUS
 62
256
 10
-310.507161999999990
 20
179.098581000000000
 11
-318.077941000000010
 21
173.797463999999990
  0
LINE
  8
0
  6
CONTINUOUS
 62
256
 10
-319.186642000000010
 20
171.667668999999990
 11
-319.186642000000010
 21
128.824049000000000
  0
ARC
  8
0
  6
CONTINUOUS
 62
256
 10
-316.586641999999980
 20
171.667668999999990
 40
2.599999999999996
 50
125.000000000000210
 51
180.000000000000000
  0
ARC
  8
0
  6
CONTINUOUS
 62
256
 10
-298.691487000000000
 20
162.224049000000010
 40
20.599999999999994
 50
90.000000000000000
 51
125.000000000000010
  0
LINE
  8
0
  6
CONTINUOUS
 62
256
 10
-137.186642000000010
 20
76.324049000000002
 11
-221.186642000000010
 21
76.324049000000002
  0
LINE
  8
0
  6
CONTINUOUS
 62
256
 10
-221.186642000000010
 20
78.324049000000002
 11
-137.186642000000010
 21
78.324049000000002
  0
LINE
  8
0
  6
CONTINUOUS
 62
256
 10
-221.186642000000010
 20
77.824049000000002
 11
-137.186642000000010
 21
77.824049000000002
  0
LINE
  8
0
  6
CONTINUOUS
 62
256
 10
-221.186642000000010
 20
82.690966000000003
 11
-137.186642000000010
 21
82.690966000000003
  0
LINE
  8
0
  6
CONTINUOUS
 62
256
 10
-221.186642000000010
 20
84.319393000000005
 11
-137.186642000000010
 21
84.319393000000005
  0
LINE
  8
0
  6
CONTINUOUS
 62
256
 10
-221.186642000000010
 20
87.782134999999997
 11
-137.186642000000010
 21
87.782134999999997
  0
LINE
  8
0
  6
CONTINUOUS
 62
256
 10
-221.344242000000010
 20
88.783613000000003
 11
-137.186642000000010
 21
88.783613000000003
  0
LINE
  8
0
  6
CONTINUOUS
 62
256
 10
-221.186642000000010
 20
100.067653000000010
 11
-137.186642000000010
 21
100.067653000000010
  0
LINE
  8
0
  6
CONTINUOUS
 62
256
 10
-221.186642000000010
 20
101.546676000000010
 11
-137.186642000000010
 21
101.546676000000010
  0
LINE
  8
0
  6
CONTINUOUS
 62
256
 10
-221.186642000000010
 20
104.639407000000010
 11
-137.186642000000010
 21
104.639407000000010
  0
LINE
  8
0
  6
CONTINUOUS
 62
256
 10
-221.186642000000010
 20
105.985809000000000
 11
-137.186642000000010
 21
105.985809000000000
  0
LINE
  8
0
  6
CONTINUOUS
 62
256
 10
-221.186642000000010
 20
108.824049000000000
 11
-137.186642000000010
 21
108.824049000000000
  0
LINE
  8
0
  6
CONTINUOUS
 62
256
 10
-221.186642000000010
 20
97.109657999999996
 11
-137.186642000000010
 21
97.109657999999996
  0
LINE
  8
0
  6
CONTINUOUS
 62
256
 10
-221.186642000000010
 20
95.520448000000002
 11
-137.186642000000010
 21
95.520448000000002
  0
LINE
  8
0
  6
CONTINUOUS
 62
256
 10
-310.507161999999990
 20
78.549516999999994
 11
-318.077941000000010
 21
83.850633000000002
  0
LINE
  8
0
  6
CONTINUOUS
 62
256
 10
-319.186642000000010
 20
85.980429000000001
 11
-319.186642000000010
 21
128.824049000000000
  0
ARC
  8
0
  6
CONTINUOUS
 62
256
 10
-316.586641999999980
 20
85.980429000000001
 40
2.600000000000023
 50
180.000000000000000
 51
234.999999999999940
  0
ARC
  8
0
  6
CONTINUOUS
 62
256
 10
-298.691487000000000
 20
95.424048999999997
 40
20.599999999999991
 50
235.000000000000000
 51
270.000000000000000
  0
LINE
  8
0
  6
CONTINUOUS
 62
256
 10
-490.127096999999990
 20
-138.510124999999990
 11
-490.127096999999990
 21
-129.348783000000000
  0
LINE
  8
0
  6
CONTINUOUS
 62
256
 10
-482.627096999999990
 20
-138.510124999999990
 11
-490.127096999999990
 21
-138.510124999999990
  0
LINE
  8
0
  6
CONTINUOUS
 62
256
 10
-403.127096999999990
 20
-139.470154000000010
 11
-403.127096999999990
 21
-129.293429000000000
  0
LINE
  8
0
  6
CONTINUOUS
 62
256
 10
-410.627096999999990
 20
-139.601067000000000
 11
-403.127096999999990
 21
-139.470154000000010
  0
LINE
  8
0
  6
CONTINUOUS
 62
256
 10
-399.127096999999990
 20
-28.162160000000000
 11
-402.940473999999990
 21
-28.162160000000000
  0
LINE
  8
0
  6
CONTINUOUS
 62
256
 10
-399.127096999999990
 20
-28.162160000000000
 11
-399.127096999999990
 21
-31.975536000000002
  0
LINE
  8
0
  6
CONTINUOUS
 62
256
 10
-403.127096999999990
 20
-12.854165000000000
 11
-403.127096999999990
 21
-27.975536000000002
  0
LINE
  8
0
  6
CONTINUOUS
 62
256
 10
-414.127096999999990
 20
-21.555439000000000
 11
-414.127096999999990
 21
-16.153431999999999
  0
LINE
  8
0
  6
CONTINUOUS
 62
256
 10
-414.127096999999990
 20
-12.662160000000000
 11
-403.127096999999990
 21
-12.854165000000000
  0
LINE
  8
0
  6
CONTINUOUS
 62
256
 10
-414.127096999999990
 20
-12.653432000000000
 11
-414.127096999999990
 21
-17.162160000000000
  0
LINE
  8
0
  6
CONTINUOUS
 62
256
 10
-414.127096999999990
 20
-12.670887000000000
 11
-480.627096999999990
 21
-13.831649000000001
  0
LINE
  8
0
  6
CONTINUOUS
 62
256
 10
-490.322448000000010
 20
-28.170887000000000
 11
-494.127096999999990
 21
-28.170887000000000
  0
LINE
  8
0
  6
CONTINUOUS
 62
256
 10
-494.127096999999990
 20
-28.170887000000000
 11
-494.127096999999990
 21
-31.975536000000002
  0
LINE
  8
0
  6
CONTINUOUS
 62
256
 10
-490.127096999999990
 20
-27.975536000000002
 11
-490.127096999999990
 21
-13.831649000000001
  0
LINE
  8
0
  6
CONTINUOUS
 62
256
 10
-480.627096999999990
 20
-13.831649000000001
 11
-490.127096999999990
 21
-13.831649000000001
  0
LINE
  8
0
  6
CONTINUOUS
 62
256
 10
-482.627096999999990
 20
-136.162160000000000
 11
-476.619596000000000
 21
-136.162160000000000
  0
LINE
  8
0
  6
CONTINUOUS
 62
256
 10
-482.627096999999990
 20
-134.662119999999990
 11
-482.627096999999990
 21
-136.162160000000000
  0
LINE
  8
0
  6
CONTINUOUS
 62
256
 10
-410.627096999999990
 20
-134.662119999999990
 11
-410.627096999999990
 21
-136.162160000000000
  0
LINE
  8
0
  6
CONTINUOUS
 62
256
 10
-416.639112000000010
 20
-136.162160000000000
 11
-410.627096999999990
 21
-136.162160000000000
  0
ARC
  8
0
  6
CONTINUOUS
 62
256
 10
-401.205151000000000
 20
-39.231293000000001
 40
6.599999999999972
 50
5.743682000000001
 51
44.999999999999829
  0
ARC
  8
0
  6
CONTINUOUS
 62
256
 10
-793.227096999999960
 20
-78.662160000000000
 40
400.600000000000020
 50
0.000000000000000
 51
5.743682000000000
  0
ARC
  8
0
  6
CONTINUOUS
 62
256
 10
-418.563340999999980
 20
-41.672091999999999
 40
20.599999999999994
 50
45.000000000000014
 51
84.247716999999938
  0
LINE
  8
0
  6
CONTINUOUS
 62
256
 10
-403.996940999999990
 20
-27.105692999999999
 11
-396.538246000000020
 21
-34.564388000000001
  0
ARC
  8
0
  6
CONTINUOUS
 62
256
 10
-446.627096999999990
 20
-320.262159999999990
 40
300.600000000000020
 50
84.247716999999994
 51
90.000000000000000
  0
ARC
  8
0
  6
CONTINUOUS
 62
256
 10
-492.049043999999980
 20
-39.231293000000001
 40
6.600000000000017
 50
135.000000000000170
 51
174.256317999999940
  0
ARC
  8
0
  6
CONTINUOUS
 62
256
 10
-100.027097000000000
 20
-78.662160000000000
 40
400.600000000000080
 50
174.256317999999990
 51
180.000000000000000
  0
ARC
  8
0
  6
CONTINUOUS
 62
256
 10
-474.690854000000000
 20
-41.672091999999999
 40
20.600000000000005
 50
95.752283000000077
 51
135.000000000000000
  0
LINE
  8
0
  6
CONTINUOUS
 62
256
 10
-489.257253999999990
 20
-27.105692999999999
 11
-496.715949000000020
 21
-34.564388000000001
  0
ARC
  8
0
  6
CONTINUOUS
 62
256
 10
-446.627096999999990
 20
-320.262159999999990
 40
300.600000000000020
 50
90.000000000000000
 51
95.752283000000006
  0
ARC
  8
0
  6
CONTINUOUS
 62
256
 10
-492.049043999999980
 20
-118.093027000000010
 40
6.599999999999973
 50
185.743682000000060
 51
224.999999999999830
  0
ARC
  8
0
  6
CONTINUOUS
 62
256
 10
-100.027097000000000
 20
-78.662160000000000
 40
400.600000000000020
 50
180.000000000000000
 51
185.743681999999980
  0
ARC
  8
0
  6
CONTINUOUS
 62
256
 10
-474.690854000000000
 20
-115.652227000000000
 40
20.600000000000001
 50
225.000000000000030
 51
264.247716999999910
  0
LINE
  8
0
  6
CONTINUOUS
 62
256
 10
-489.257253999999990
 20
-130.218627000000000
 11
-496.715949000000020
 21
-122.759930999999990
  0
ARC
  8
0
  6
CONTINUOUS
 62
256
 10
-446.627096999999990
 20
162.937839999999990
 40
300.600000000000020
 50
264.247717000000020
 51
270.000000000000000
  0
ARC
  8
0
  6
CONTINUOUS
 62
256
 10
-446.627096999999990
 20
162.937839999999990
 40
290.797000000000030
 50
270.000000000000000
 51
275.752282999999980
  0
LINE
  8
0
  6
CONTINUOUS
 62
256
 10
-410.928709000000030
 20
-123.286859000000010
 11
-405.041294999999990
 21
-117.399445000000000
  0
ARC
  8
0
  6
CONTINUOUS
 62
256
 10
-418.563340999999980
 20
-115.652227000000000
 40
10.797000000000002
 50
275.752282999999980
 51
315.000000000000060
  0
ARC
  8
0
  6
CONTINUOUS
 62
256
 10
-446.627096999999990
 20
162.937839999999990
 40
300.600000000000020
 50
270.000000000000000
 51
275.752282999999980
  0
LINE
  8
0
  6
CONTINUOUS
 62
256
 10
-403.996940999999990
 20
-130.218627000000000
 11
-396.538246000000020
 21
-122.759930999999990
  0
ARC
  8
0
  6
CONTINUOUS
 62
256
 10
-418.563340999999980
 20
-115.652227000000000
 40
20.600000000000001
 50
275.752282999999860
 51
314.999999999999940
  0
ARC
  8
0
  6
CONTINUOUS
 62
256
 10
-446.627096999999990
 20
-320.262159999999990
 40
290.797000000000030
 50
84.998350000000002
 51
90.000000000000000
  0
LINE
  8
0
  6
CONTINUOUS
 62
256
 10
-408.381599999999990
 20
-36.584569000000002
 11
-405.041294999999990
 21
-39.924874000000003
  0
ARC
  8
0
  6
CONTINUOUS
 62
256
 10
-423.087300000000030
 20
-51.290269000000002
 40
20.797000000000011
 50
44.999999999999986
 51
84.998349999999959
  0
ARC
  8
0
  6
CONTINUOUS
 62
256
 10
-793.227096999999960
 20
-78.662160000000000
 40
390.797000000000030
 50
0.000000000000000
 51
5.417964000000000
  0
ARC
  8
0
  6
CONTINUOUS
 62
256
 10
-407.162615000000020
 20
-42.046194999999997
 40
2.999999999999997
 50
5.417964000000066
 51
44.999999999999808
  0
ARC
  8
0
  6
CONTINUOUS
 62
256
 10
-446.627096999999990
 20
-320.262159999999990
 40
290.797000000000030
 50
90.000000000000000
 51
95.001649999999998
  0
LINE
  8
0
  6
CONTINUOUS
 62
256
 10
-484.872594999999990
 20
-36.584569000000002
 11
-488.212899999999990
 21
-39.924874000000003
  0
ARC
  8
0
  6
CONTINUOUS
 62
256
 10
-470.166895000000010
 20
-51.290269000000002
 40
20.797000000000001
 50
95.001650000000041
 51
135.000000000000030
  0
ARC
  8
0
  6
CONTINUOUS
 62
256
 10
-100.027097000000000
 20
-78.662160000000000
 40
390.797000000000030
 50
174.582035999999990
 51
180.000000000000000
  0
ARC
  8
0
  6
CONTINUOUS
 62
256
 10
-486.091579000000020
 20
-42.046194999999997
 40
3.000000000000014
 50
135.000000000000200
 51
174.582035999999930
  0
ARC
  8
0
  6
CONTINUOUS
 62
256
 10
-446.627096999999990
 20
162.937839999999990
 40
290.797000000000030
 50
264.998350000000070
 51
270.000000000000000
  0
LINE
  8
0
  6
CONTINUOUS
 62
256
 10
-484.872594999999990
 20
-120.739750000000000
 11
-488.212899999999990
 21
-117.399445000000000
  0
ARC
  8
0
  6
CONTINUOUS
 62
256
 10
-470.166895000000010
 20
-106.034049999999990
 40
20.797000000000008
 50
224.999999999999970
 51
264.998350000000070
  0
ARC
  8
0
  6
CONTINUOUS
 62
256
 10
-100.027097000000000
 20
-78.662160000000000
 40
390.797000000000030
 50
180.000000000000000
 51
185.417963999999980
  0
ARC
  8
0
  6
CONTINUOUS
 62
256
 10
-486.091579000000020
 20
-115.278125000000000
 40
2.999999999999996
 50
185.417963999999930
 51
224.999999999999800
  0
ARC
  8
0
  6
CONTINUOUS
 62
256
 10
-407.162615000000020
 20
-115.278125000000000
 40
3.000000000000014
 50
315.000000000000230
 51
354.582036000000070
  0
ARC
  8
0
  6
CONTINUOUS
 62
256
 10
-793.227096999999960
 20
-78.662160000000000
 40
390.797000000000030
 50
354.582036000000020
 51
0.000000000000000
  0
ARC
  8
0
  6
CONTINUOUS
 62
256
 10
-401.205151000000000
 20
-118.093027000000010
 40
6.600000000000017
 50
315.000000000000170
 51
354.256318000000020
  0
ARC
  8
0
  6
CONTINUOUS
 62
256
 10
-793.227096999999960
 20
-78.662160000000000
 40
400.600000000000020
 50
354.256318000000020
 51
0.000000000000000
  0
ARC
  8
0
  6
CONTINUOUS
 62
256
 10
-481.451658000000010
 20
-75.162160000000000
 40
1.000000000000000
 50
270.000000000000000
 51
354.260829999999540
  0
ARC
  8
0
  6
CONTINUOUS
 62
256
 10
-484.465570000000010
 20
-75.162160000000000
 40
1.000000000000027
 50
174.715267000000240
 51
270.000000000000000
  0
ARC
  8
0
  6
CONTINUOUS
 62
256
 10
-475.918733999999970
 20
-75.162160000000000
 40
1.000000000000019
 50
173.186146000000240
 51
270.000000000000000
  0
LINE
  8
0
  6
CONTINUOUS
 62
256
 10
-484.465570000000010
 20
-76.162160000000000
 11
-481.451658000000010
 21
-76.162160000000000
  0
ARC
  8
0
  6
CONTINUOUS
 62
256
 10
-452.424230000000020
 20
-61.621231000000002
 40
0.999999999999984
 50
210.000000000000510
 51
288.787729000000870
  0
LINE
  8
0
  6
CONTINUOUS
 62
256
 10
-454.815173000000020
 20
-59.479996000000000
 11
-453.290256000000000
 21
-62.121231000000002
  0
ARC
  8
0
  6
CONTINUOUS
 62
256
 10
-453.949147999999980
 20
-58.979996000000000
 40
0.999999999999999
 50
110.405931999999720
 51
210.000000000000510
  0
ARC
  8
0
  6
CONTINUOUS
 62
256
 10
-456.729934000000010
 20
-54.163533000000001
 40
0.999999999999984
 50
210.000000000000510
 51
292.410458000000630
  0
ARC
  8
0
  6
CONTINUOUS
 62
256
 10
-461.008288999999990
 20
-46.753205999999999
 40
0.999999999999984
 50
210.000000000000510
 51
294.260829999998690
  0
LINE
  8
0
  6
CONTINUOUS
 62
256
 10
-459.107851999999980
 20
-52.044857999999998
 11
-457.595958999999990
 21
-54.663533000000001
  0
ARC
  8
0
  6
CONTINUOUS
 62
256
 10
-458.241827000000000
 20
-51.544857999999998
 40
1.000000000000000
 50
113.186146000000120
 51
210.000000000000510
  0
LINE
  8
0
  6
CONTINUOUS
 62
256
 10
-463.381269999999970
 20
-44.643081000000002
 11
-461.874314000000030
 21
-47.253205999999999
  0
ARC
  8
0
  6
CONTINUOUS
 62
256
 10
-462.515244999999990
 20
-44.143081000000002
 40
1.000000000000004
 50
114.715267000000150
 51
210.000000000000510
  0
ARC
  8
0
  6
CONTINUOUS
 62
256
 10
-468.577423000000010
 20
-47.643081000000002
 40
0.999999999999984
 50
30.000000000000544
 51
125.284733000001220
  0
ARC
  8
0
  6
CONTINUOUS
 62
256
 10
-467.070466000000010
 20
-50.253205999999999
 40
1.000000000000004
 50
305.739170000000000
 51
30.000000000000544
  0
ARC
  8
0
  6
CONTINUOUS
 62
256
 10
-472.894948000000000
 20
-75.162160000000000
 40
1.000000000000000
 50
270.000000000000000
 51
352.410458000000010
  0
ARC
  8
0
  6
CONTINUOUS
 62
256
 10
-464.304005000000020
 20
-55.044857999999998
 40
0.999999999999984
 50
30.000000000000544
 51
126.813854000000730
  0
ARC
  8
0
  6
CONTINUOUS
 62
256
 10
-462.792111999999970
 20
-57.663533000000001
 40
0.999999999999987
 50
307.589541999999030
 51
30.000000000000544
  0
ARC
  8
0
  6
CONTINUOUS
 62
256
 10
-467.333376999999980
 20
-75.162160000000000
 40
0.999999999999978
 50
170.405932000000040
 51
270.000000000000000
  0
ARC
  8
0
  6
CONTINUOUS
 62
256
 10
-464.283541000000010
 20
-75.162160000000000
 40
1.000000000000000
 50
270.000000000000000
 51
348.787729000000300
  0
ARC
  8
0
  6
CONTINUOUS
 62
256
 10
-460.011326000000000
 20
-62.479996000000000
 40
0.999999999999984
 50
30.000000000000544
 51
129.594067999999310
  0
ARC
  8
0
  6
CONTINUOUS
 62
256
 10
-458.486407999999980
 20
-65.121230999999995
 40
1.000000000000006
 50
311.212270999999760
 51
30.000000000000544
  0
ARC
  8
0
  6
CONTINUOUS
 62
256
 10
-455.658186000000000
 20
-70.019855000000007
 40
0.999999999999984
 50
30.000000000000544
 51
136.260205000000240
  0
ARC
  8
0
  6
CONTINUOUS
 62
256
 10
-458.627096999999990
 20
-75.162160000000000
 40
0.999999999999976
 50
163.739794999999330
 51
270.000000000000000
  0
ARC
  8
0
  6
CONTINUOUS
 62
256
 10
-455.458858000000020
 20
-75.162160000000000
 40
1.000000000000000
 50
270.000000000000000
 51
338.381728000000520
  0
ARC
  8
0
  6
CONTINUOUS
 62
256
 10
-454.074067000000010
 20
-72.763630000000006
 40
0.999999999999985
 50
321.618271999998970
 51
30.000000000000544
  0
ARC
  8
0
  6
CONTINUOUS
 62
256
 10
-446.627096999999990
 20
-78.662160000000000
 40
39.000000000000000
 50
125.284733000000000
 51
174.715267000000010
  0
ARC
  8
0
  6
CONTINUOUS
 62
256
 10
-446.627096999999990
 20
-78.662160000000000
 40
30.499999999999989
 50
126.813853999999980
 51
173.186145999999980
  0
ARC
  8
0
  6
CONTINUOUS
 62
256
 10
-446.627096999999990
 20
-78.662160000000000
 40
34.000000000000007
 50
125.739170000000040
 51
174.260830000000000
  0
ARC
  8
0
  6
CONTINUOUS
 62
256
 10
-446.627096999999990
 20
-78.662160000000000
 40
25.499999999999996
 50
127.589541999999970
 51
172.410458000000010
  0
ARC
  8
0
  6
CONTINUOUS
 62
256
 10
-446.627096999999990
 20
-78.662160000000000
 40
21.999999999999986
 50
129.594067999999940
 51
170.405931999999980
  0
ARC
  8
0
  6
CONTINUOUS
 62
256
 10
-446.627096999999990
 20
-78.662160000000000
 40
17.000000000000014
 50
131.212271000000020
 51
168.787728999999980
  0
ARC
  8
0
  6
CONTINUOUS
 62
256
 10
-446.627096999999990
 20
-78.662160000000000
 40
13.500000000000004
 50
136.260205000000010
 51
163.739794999999960
  0
ARC
  8
0
  6
CONTINUOUS
 62
256
 10
-446.627096999999990
 20
-78.662160000000000
 40
8.500000000000005
 50
141.618272000000020
 51
158.381728000000040
  0
LINE
  8
0
  6
CONTINUOUS
 62
256
 10
-463.437978999999980
 20
-54.544857999999998
 11
-461.926086000000000
 21
-57.163533000000001
  0
LINE
  8
0
  6
CONTINUOUS
 62
256
 10
-467.711396999999980
 20
-47.143081000000002
 11
-466.204440999999970
 21
-49.753205999999999
  0
LINE
  8
0
  6
CONTINUOUS
 62
256
 10
-459.145301000000020
 20
-61.979996000000000
 11
-457.620383000000000
 21
-64.621230999999995
  0
LINE
  8
0
  6
CONTINUOUS
 62
256
 10
-454.792161000000020
 20
-69.519855000000007
 11
-453.208040999999980
 21
-72.263630000000006
  0
LINE
  8
0
  6
CONTINUOUS
 62
256
 10
-458.627096999999990
 20
-76.162160000000000
 11
-455.458858000000020
 21
-76.162160000000000
  0
LINE
  8
0
  6
CONTINUOUS
 62
256
 10
-467.333376999999980
 20
-76.162160000000000
 11
-464.283541000000010
 21
-76.162160000000000
  0
LINE
  8
0
  6
CONTINUOUS
 62
256
 10
-475.918733999999970
 20
-76.162160000000000
 11
-472.894948000000000
 21
-76.162160000000000
  0
ARC
  8
0
  6
CONTINUOUS
 62
256
 10
-448.011889000000000
 20
-69.263630000000006
 40
0.999999999999984
 50
210.000000000000510
 51
278.381727999998870
  0
ARC
  8
0
  6
CONTINUOUS
 62
256
 10
-446.627096999999990
 20
-78.662160000000000
 40
8.500000000000002
 50
81.618271999999948
 51
98.381728000000052
  0
LINE
  8
0
  6
CONTINUOUS
 62
256
 10
-450.462034000000020
 20
-67.019855000000007
 11
-448.877913999999980
 21
-69.763630000000006
  0
ARC
  8
0
  6
CONTINUOUS
 62
256
 10
-449.596007999999980
 20
-66.519855000000007
 40
1.000000000000011
 50
103.739795000001280
 51
210.000000000000510
  0
ARC
  8
0
  6
CONTINUOUS
 62
256
 10
-428.970654000000020
 20
-75.162160000000000
 40
1.000000000000016
 50
191.212270999999730
 51
270.000000000000000
  0
LINE
  8
0
  6
CONTINUOUS
 62
256
 10
-425.920818000000000
 20
-76.162160000000000
 11
-428.970654000000020
 21
-76.162160000000000
  0
ARC
  8
0
  6
CONTINUOUS
 62
256
 10
-425.920818000000000
 20
-75.162160000000000
 40
1.000000000000000
 50
270.000000000000000
 51
9.594067999999961
  0
ARC
  8
0
  6
CONTINUOUS
 62
256
 10
-420.359245999999980
 20
-75.162160000000000
 40
0.999999999999990
 50
187.589541999999990
 51
270.000000000000000
  0
LINE
  8
0
  6
CONTINUOUS
 62
256
 10
-417.335460000000010
 20
-76.162160000000000
 11
-420.359245999999980
 21
-76.162160000000000
  0
ARC
  8
0
  6
CONTINUOUS
 62
256
 10
-417.335460000000010
 20
-75.162160000000000
 40
1.000000000000000
 50
270.000000000000000
 51
6.813853999999752
  0
ARC
  8
0
  6
CONTINUOUS
 62
256
 10
-411.802536999999970
 20
-75.162160000000000
 40
0.999999999999978
 50
185.739170000000430
 51
270.000000000000000
  0
LINE
  8
0
  6
CONTINUOUS
 62
256
 10
-408.788625000000020
 20
-76.162160000000000
 11
-411.802536999999970
 21
-76.162160000000000
  0
ARC
  8
0
  6
CONTINUOUS
 62
256
 10
-408.788625000000020
 20
-75.162160000000000
 40
1.000000000000000
 50
270.000000000000000
 51
5.284732999999778
  0
ARC
  8
0
  6
CONTINUOUS
 62
256
 10
-428.950190000000020
 20
-55.044857999999998
 40
1.000000000000011
 50
53.186145999999269
 51
149.999999999999460
  0
LINE
  8
0
  6
CONTINUOUS
 62
256
 10
-429.816215000000000
 20
-54.544857999999998
 11
-431.328107999999990
 21
-57.163533000000001
  0
ARC
  8
0
  6
CONTINUOUS
 62
256
 10
-430.462083000000010
 20
-57.663533000000001
 40
0.999999999999984
 50
149.999999999999460
 51
232.410458000000890
  0
ARC
  8
0
  6
CONTINUOUS
 62
256
 10
-424.676772000000030
 20
-47.643081000000002
 40
1.000000000000011
 50
54.715266999998782
 51
149.999999999999460
  0
LINE
  8
0
  6
CONTINUOUS
 62
256
 10
-425.542798000000000
 20
-47.143081000000002
 11
-427.049754000000010
 21
-49.753205999999999
  0
ARC
  8
0
  6
CONTINUOUS
 62
256
 10
-426.183727999999970
 20
-50.253205999999999
 40
0.999999999999984
 50
149.999999999999460
 51
234.260830000000000
  0
ARC
  8
0
  6
CONTINUOUS
 62
256
 10
-439.180128000000020
 20
-72.763630000000006
 40
0.999999999999984
 50
149.999999999999460
 51
218.381728000001000
  0
LINE
  8
0
  6
CONTINUOUS
 62
256
 10
-438.462034000000020
 20
-69.519855000000007
 11
-440.046153000000000
 21
-72.263630000000006
  0
ARC
  8
0
  6
CONTINUOUS
 62
256
 10
-434.767787000000000
 20
-65.121230999999995
 40
0.999999999999984
 50
149.999999999999460
 51
228.787729000000240
  0
LINE
  8
0
  6
CONTINUOUS
 62
256
 10
-434.108894000000020
 20
-61.979996000000000
 11
-435.633811999999980
 21
-64.621230999999995
  0
ARC
  8
0
  6
CONTINUOUS
 62
256
 10
-433.242868999999980
 20
-62.479996000000000
 40
0.999999999999988
 50
50.405932000000682
 51
149.999999999999460
  0
ARC
  8
0
  6
CONTINUOUS
 62
256
 10
-437.795337000000020
 20
-75.162160000000000
 40
1.000000000000013
 50
201.618271999999450
 51
270.000000000000000
  0
ARC
  8
0
  6
CONTINUOUS
 62
256
 10
-446.627096999999990
 20
-78.662160000000000
 40
8.500000000000016
 50
21.618271999999980
 51
38.381727999999960
  0
ARC
  8
0
  6
CONTINUOUS
 62
256
 10
-437.596007999999980
 20
-70.019855000000007
 40
1.000000000000005
 50
43.739794999999773
 51
149.999999999999460
  0
LINE
  8
0
  6
CONTINUOUS
 62
256
 10
-434.627096999999990
 20
-76.162160000000000
 11
-437.795337000000020
 21
-76.162160000000000
  0
ARC
  8
0
  6
CONTINUOUS
 62
256
 10
-434.627096999999990
 20
-75.162160000000000
 40
1.000000000000000
 50
270.000000000000000
 51
16.260205000000671
  0
ARC
  8
0
  6
CONTINUOUS
 62
256
 10
-446.627096999999990
 20
-78.662160000000000
 40
13.499999999999989
 50
16.260205000000035
 51
43.739795000000001
  0
ARC
  8
0
  6
CONTINUOUS
 62
256
 10
-446.627096999999990
 20
-78.662160000000000
 40
16.999999999999993
 50
11.212271000000010
 51
48.787728999999970
  0
ARC
  8
0
  6
CONTINUOUS
 62
256
 10
-446.627096999999990
 20
-78.662160000000000
 40
21.999999999999979
 50
9.594068000000020
 51
50.405932000000057
  0
ARC
  8
0
  6
CONTINUOUS
 62
256
 10
-446.627096999999990
 20
-78.662160000000000
 40
30.499999999999986
 50
6.813854000000005
 51
53.186146000000036
  0
ARC
  8
0
  6
CONTINUOUS
 62
256
 10
-446.627096999999990
 20
-78.662160000000000
 40
25.500000000000011
 50
7.589541999999985
 51
52.410458000000027
  0
ARC
  8
0
  6
CONTINUOUS
 62
256
 10
-446.627096999999990
 20
-78.662160000000000
 40
33.999999999999972
 50
5.739170000000013
 51
54.260829999999970
  0
ARC
  8
0
  6
CONTINUOUS
 62
256
 10
-446.627096999999990
 20
-78.662160000000000
 40
38.999999999999986
 50
5.284733000000007
 51
54.715266999999990
  0
ARC
  8
0
  6
CONTINUOUS
 62
256
 10
-435.012367999999980
 20
-51.544857999999998
 40
0.999999999999984
 50
329.999999999999490
 51
66.813853999999878
  0
LINE
  8
0
  6
CONTINUOUS
 62
256
 10
-434.146342000000000
 20
-52.044857999999998
 11
-435.658234999999990
 21
-54.663533000000001
  0
ARC
  8
0
  6
CONTINUOUS
 62
256
 10
-436.524261000000020
 20
-54.163533000000001
 40
1.000000000000003
 50
247.589541999999370
 51
329.999999999999490
  0
ARC
  8
0
  6
CONTINUOUS
 62
256
 10
-430.738949999999990
 20
-44.143081000000002
 40
0.999999999999984
 50
329.999999999999490
 51
65.284732999999861
  0
LINE
  8
0
  6
CONTINUOUS
 62
256
 10
-429.872925000000010
 20
-44.643081000000002
 11
-431.379881000000010
 21
-47.253205999999999
  0
ARC
  8
0
  6
CONTINUOUS
 62
256
 10
-432.245905999999990
 20
-46.753205999999999
 40
0.999999999999992
 50
245.739170000001340
 51
329.999999999999490
  0
ARC
  8
0
  6
CONTINUOUS
 62
256
 10
-445.242305999999990
 20
-69.263630000000006
 40
0.999999999999998
 50
261.618272000001130
 51
329.999999999999490
  0
LINE
  8
0
  6
CONTINUOUS
 62
256
 10
-442.792161000000020
 20
-67.019855000000007
 11
-444.376280000000010
 21
-69.763630000000006
  0
ARC
  8
0
  6
CONTINUOUS
 62
256
 10
-440.829965000000020
 20
-61.621231000000002
 40
1.000000000000004
 50
251.212270999999130
 51
329.999999999999490
  0
LINE
  8
0
  6
CONTINUOUS
 62
256
 10
-438.439021000000030
 20
-59.479996000000000
 11
-439.963938999999980
 21
-62.121231000000002
  0
ARC
  8
0
  6
CONTINUOUS
 62
256
 10
-439.305047000000000
 20
-58.979996000000000
 40
0.999999999999984
 50
329.999999999999490
 51
69.594068000000291
  0
ARC
  8
0
  6
CONTINUOUS
 62
256
 10
-443.658186000000000
 20
-66.519855000000007
 40
0.999999999999984
 50
329.999999999999490
 51
76.260204999998734
  0
ARC
  8
0
  6
CONTINUOUS
 62
256
 10
-446.627096999999990
 20
-78.662160000000000
 40
13.500000000000004
 50
76.260205000000070
 51
103.739794999999930
  0
ARC
  8
0
  6
CONTINUOUS
 62
256
 10
-446.627096999999990
 20
-78.662160000000000
 40
16.999999999999993
 50
71.212271000000044
 51
108.787728999999960
  0
ARC
  8
0
  6
CONTINUOUS
 62
256
 10
-446.627096999999990
 20
-78.662160000000000
 40
21.999999999999996
 50
69.594067999999993
 51
110.405932000000020
  0
ARC
  8
0
  6
CONTINUOUS
 62
256
 10
-446.627096999999990
 20
-78.662160000000000
 40
30.500000000000004
 50
66.813853999999992
 51
113.186146000000010
  0
ARC
  8
0
  6
CONTINUOUS
 62
256
 10
-446.627096999999990
 20
-78.662160000000000
 40
25.500000000000007
 50
67.589541999999966
 51
112.410458000000050
  0
ARC
  8
0
  6
CONTINUOUS
 62
256
 10
-446.627096999999990
 20
-78.662160000000000
 40
34.000000000000000
 50
65.739169999999987
 51
114.260830000000010
  0
ARC
  8
0
  6
CONTINUOUS
 62
256
 10
-446.627096999999990
 20
-78.662160000000000
 40
38.999999999999993
 50
65.284733000000031
 51
114.715266999999980
  0
LINE
  8
0
  6
CONTINUOUS
 62
256
 10
-475.918733999999970
 20
-81.162160000000000
 11
-472.894948000000000
 21
-81.162160000000000
  0
LINE
  8
0
  6
CONTINUOUS
 62
256
 10
-467.333376999999980
 20
-81.162160000000000
 11
-464.283541000000010
 21
-81.162160000000000
  0
LINE
  8
0
  6
CONTINUOUS
 62
256
 10
-458.627096999999990
 20
-81.162160000000000
 11
-455.458858000000020
 21
-81.162160000000000
  0
LINE
  8
0
  6
CONTINUOUS
 62
256
 10
-454.792161000000020
 20
-87.804464999999993
 11
-453.208040999999980
 21
-85.060688999999996
  0
LINE
  8
0
  6
CONTINUOUS
 62
256
 10
-459.145301000000020
 20
-95.344324000000000
 11
-457.620383000000000
 21
-92.703087999999994
  0
LINE
  8
0
  6
CONTINUOUS
 62
256
 10
-467.711396999999980
 20
-110.181237999999990
 11
-466.204440999999970
 21
-107.571113999999990
  0
LINE
  8
0
  6
CONTINUOUS
 62
256
 10
-484.465570000000010
 20
-81.162160000000000
 11
-481.451658000000010
 21
-81.162160000000000
  0
LINE
  8
0
  6
CONTINUOUS
 62
256
 10
-463.437978999999980
 20
-102.779462000000000
 11
-461.926086000000000
 21
-100.160786000000000
  0
ARC
  8
0
  6
CONTINUOUS
 62
256
 10
-446.627096999999990
 20
-78.662160000000000
 40
8.500000000000016
 50
201.618271999999960
 51
218.381727999999950
  0
ARC
  8
0
  6
CONTINUOUS
 62
256
 10
-446.627096999999990
 20
-78.662160000000000
 40
13.499999999999989
 50
196.260205000000010
 51
223.739794999999960
  0
ARC
  8
0
  6
CONTINUOUS
 62
256
 10
-446.627096999999990
 20
-78.662160000000000
 40
16.999999999999993
 50
191.212271000000020
 51
228.787728999999980
  0
ARC
  8
0
  6
CONTINUOUS
 62
256
 10
-446.627096999999990
 20
-78.662160000000000
 40
21.999999999999975
 50
189.594067999999960
 51
230.405932000000060
  0
ARC
  8
0
  6
CONTINUOUS
 62
256
 10
-446.627096999999990
 20
-78.662160000000000
 40
25.500000000000011
 50
187.589541999999990
 51
232.410458000000030
  0
ARC
  8
0
  6
CONTINUOUS
 62
256
 10
-446.627096999999990
 20
-78.662160000000000
 40
33.999999999999972
 50
185.739169999999970
 51
234.260829999999970
  0
ARC
  8
0
  6
CONTINUOUS
 62
256
 10
-446.627096999999990
 20
-78.662160000000000
 40
30.499999999999986
 50
186.813853999999990
 51
233.186146000000040
  0
ARC
  8
0
  6
CONTINUOUS
 62
256
 10
-446.627096999999990
 20
-78.662160000000000
 40
38.999999999999986
 50
185.284732999999990
 51
234.715266999999980
  0
ARC
  8
0
  6
CONTINUOUS
 62
256
 10
-454.074067000000010
 20
-84.560688999999996
 40
0.999999999999984
 50
329.999999999999490
 51
38.381728000001026
  0
ARC
  8
0
  6
CONTINUOUS
 62
256
 10
-455.458858000000020
 20
-82.162160000000000
 40
1.000000000000013
 50
21.618271999999475
 51
90.000000000000000
  0
ARC
  8
0
  6
CONTINUOUS
 62
256
 10
-458.627096999999990
 20
-82.162160000000000
 40
1.000000000000000
 50
90.000000000000000
 51
196.260205000000670
  0
ARC
  8
0
  6
CONTINUOUS
 62
256
 10
-455.658186000000000
 20
-87.304464999999993
 40
1.000000000000005
 50
223.739794999999760
 51
329.999999999999490
  0
ARC
  8
0
  6
CONTINUOUS
 62
256
 10
-458.486407999999980
 20
-92.203087999999994
 40
0.999999999999984
 50
329.999999999999490
 51
48.787728999999715
  0
ARC
  8
0
  6
CONTINUOUS
 62
256
 10
-460.011326000000000
 20
-94.844324000000000
 40
0.999999999999988
 50
230.405932000000690
 51
329.999999999999490
  0
ARC
  8
0
  6
CONTINUOUS
 62
256
 10
-464.283541000000010
 20
-82.162160000000000
 40
1.000000000000016
 50
11.212270999999729
 51
90.000000000000000
  0
ARC
  8
0
  6
CONTINUOUS
 62
256
 10
-467.333376999999980
 20
-82.162160000000000
 40
1.000000000000000
 50
90.000000000000000
 51
189.594067999999960
  0
ARC
  8
0
  6
CONTINUOUS
 62
256
 10
-475.918733999999970
 20
-82.162160000000000
 40
1.000000000000000
 50
90.000000000000000
 51
186.813853999999760
  0
ARC
  8
0
  6
CONTINUOUS
 62
256
 10
-462.792111999999970
 20
-99.660786000000002
 40
0.999999999999984
 50
329.999999999999490
 51
52.410458000001171
  0
ARC
  8
0
  6
CONTINUOUS
 62
256
 10
-464.304005000000020
 20
-102.279462000000000
 40
1.000000000000011
 50
233.186145999999270
 51
329.999999999999490
  0
ARC
  8
0
  6
CONTINUOUS
 62
256
 10
-472.894948000000000
 20
-82.162160000000000
 40
0.999999999999990
 50
7.589541999999997
 51
90.000000000000000
  0
ARC
  8
0
  6
CONTINUOUS
 62
256
 10
-484.465570000000010
 20
-82.162160000000000
 40
1.000000000000000
 50
90.000000000000000
 51
185.284732999999760
  0
ARC
  8
0
  6
CONTINUOUS
 62
256
 10
-481.451658000000010
 20
-82.162160000000000
 40
0.999999999999978
 50
5.739170000000447
 51
90.000000000000000
  0
ARC
  8
0
  6
CONTINUOUS
 62
256
 10
-467.070466000000010
 20
-107.071113999999990
 40
0.999999999999984
 50
329.999999999999490
 51
54.260829999999778
  0
ARC
  8
0
  6
CONTINUOUS
 62
256
 10
-468.577423000000010
 20
-109.681237999999990
 40
1.000000000000016
 50
234.715266999999020
 51
329.999999999999490
  0
CIRCLE
  8
0
  6
CONTINUOUS
 62
256
 10
-446.627096999999990
 20
-78.662160000000000
 40
5.000000000000000
  0
ARC
  8
0
  6
CONTINUOUS
 62
256
 10
-462.515244999999990
 20
-113.181237999999990
 40
0.999999999999984
 50
149.999999999999460
 51
245.284732999999870
  0
LINE
  8
0
  6
CONTINUOUS
 62
256
 10
-463.381269999999970
 20
-112.681237999999990
 11
-461.874314000000030
 21
-110.071113999999990
  0
ARC
  8
0
  6
CONTINUOUS
 62
256
 10
-446.627096999999990
 20
-78.662160000000000
 40
39.000000000000014
 50
245.284732999999960
 51
294.715266999999980
  0
ARC
  8
0
  6
CONTINUOUS
 62
256
 10
-446.627096999999990
 20
-78.662160000000000
 40
34.000000000000000
 50
245.739170000000000
 51
294.260830000000000
  0
ARC
  8
0
  6
CONTINUOUS
 62
256
 10
-446.627096999999990
 20
-78.662160000000000
 40
25.500000000000007
 50
247.589541999999940
 51
292.410458000000010
  0
ARC
  8
0
  6
CONTINUOUS
 62
256
 10
-446.627096999999990
 20
-78.662160000000000
 40
30.499999999999996
 50
246.813853999999990
 51
293.186146000000010
  0
ARC
  8
0
  6
CONTINUOUS
 62
256
 10
-458.241827000000000
 20
-105.779462000000000
 40
0.999999999999984
 50
149.999999999999460
 51
246.813853999999880
  0
LINE
  8
0
  6
CONTINUOUS
 62
256
 10
-459.107851999999980
 20
-105.279462000000000
 11
-457.595958999999990
 21
-102.660786000000000
  0
ARC
  8
0
  6
CONTINUOUS
 62
256
 10
-446.627096999999990
 20
-78.662160000000000
 40
21.999999999999996
 50
249.594067999999990
 51
290.405932000000010
  0
ARC
  8
0
  6
CONTINUOUS
 62
256
 10
-461.008288999999990
 20
-110.571113999999990
 40
0.999999999999992
 50
65.739170000001337
 51
149.999999999999460
  0
ARC
  8
0
  6
CONTINUOUS
 62
256
 10
-456.729934000000010
 20
-103.160786000000000
 40
1.000000000000009
 50
67.589541999999554
 51
149.999999999999460
  0
ARC
  8
0
  6
CONTINUOUS
 62
256
 10
-453.949147999999980
 20
-98.344324000000000
 40
0.999999999999984
 50
149.999999999999460
 51
249.594068000000160
  0
ARC
  8
0
  6
CONTINUOUS
 62
256
 10
-446.627096999999990
 20
-78.662160000000000
 40
16.999999999999993
 50
251.212271000000040
 51
288.787728999999960
  0
LINE
  8
0
  6
CONTINUOUS
 62
256
 10
-454.815173000000020
 20
-97.844324000000000
 11
-453.290256000000000
 21
-95.203087999999994
  0
ARC
  8
0
  6
CONTINUOUS
 62
256
 10
-452.424230000000020
 20
-95.703087999999994
 40
1.000000000000010
 50
71.212270999999262
 51
149.999999999999460
  0
ARC
  8
0
  6
CONTINUOUS
 62
256
 10
-446.627096999999990
 20
-78.662160000000000
 40
13.500000000000004
 50
256.260205000000040
 51
283.739794999999960
  0
ARC
  8
0
  6
CONTINUOUS
 62
256
 10
-449.596007999999980
 20
-90.804464999999993
 40
0.999999999999984
 50
149.999999999999460
 51
256.260204999998730
  0
LINE
  8
0
  6
CONTINUOUS
 62
256
 10
-450.462034000000020
 20
-90.304464999999993
 11
-448.877913999999980
 21
-87.560688999999996
  0
ARC
  8
0
  6
CONTINUOUS
 62
256
 10
-443.658186000000000
 20
-90.804464999999993
 40
1.000000000000011
 50
283.739795000001270
 51
30.000000000000544
  0
ARC
  8
0
  6
CONTINUOUS
 62
256
 10
-446.627096999999990
 20
-78.662160000000000
 40
8.500000000000002
 50
261.618271999999930
 51
278.381728000000070
  0
ARC
  8
0
  6
CONTINUOUS
 62
256
 10
-448.011889000000000
 20
-88.060688999999996
 40
0.999999999999998
 50
81.618272000001099
 51
149.999999999999460
  0
ARC
  8
0
  6
CONTINUOUS
 62
256
 10
-439.305047000000000
 20
-98.344324000000000
 40
0.999999999999993
 50
290.405931999999840
 51
30.000000000000544
  0
LINE
  8
0
  6
CONTINUOUS
 62
256
 10
-438.439021000000030
 20
-97.844324000000000
 11
-439.963938999999980
 21
-95.203087999999994
  0
ARC
  8
0
  6
CONTINUOUS
 62
256
 10
-440.829965000000020
 20
-95.703087999999994
 40
0.999999999999984
 50
30.000000000000544
 51
108.787729000000750
  0
LINE
  8
0
  6
CONTINUOUS
 62
256
 10
-442.792161000000020
 20
-90.304464999999993
 11
-444.376280000000010
 21
-87.560688999999996
  0
ARC
  8
0
  6
CONTINUOUS
 62
256
 10
-445.242305999999990
 20
-88.060688999999996
 40
0.999999999999984
 50
30.000000000000544
 51
98.381727999998901
  0
ARC
  8
0
  6
CONTINUOUS
 62
256
 10
-432.245905999999990
 20
-110.571113999999990
 40
0.999999999999984
 50
30.000000000000544
 51
114.260829999998650
  0
LINE
  8
0
  6
CONTINUOUS
 62
256
 10
-429.872925000000010
 20
-112.681237999999990
 11
-431.379881000000010
 21
-110.071113999999990
  0
ARC
  8
0
  6
CONTINUOUS
 62
256
 10
-430.738949999999990
 20
-113.181237999999990
 40
1.000000000000004
 50
294.715267000000150
 51
30.000000000000544
  0
ARC
  8
0
  6
CONTINUOUS
 62
256
 10
-436.524261000000020
 20
-103.160786000000000
 40
0.999999999999984
 50
30.000000000000544
 51
112.410458000000460
  0
LINE
  8
0
  6
CONTINUOUS
 62
256
 10
-434.146342000000000
 20
-105.279462000000000
 11
-435.658234999999990
 21
-102.660786000000000
  0
ARC
  8
0
  6
CONTINUOUS
 62
256
 10
-435.012367999999980
 20
-105.779462000000000
 40
1.000000000000000
 50
293.186146000000120
 51
30.000000000000544
  0
ARC
  8
0
  6
CONTINUOUS
 62
256
 10
-446.627096999999990
 20
-78.662160000000000
 40
39.000000000000000
 50
305.284733000000020
 51
354.715266999999980
  0
ARC
  8
0
  6
CONTINUOUS
 62
256
 10
-446.627096999999990
 20
-78.662160000000000
 40
33.999999999999986
 50
305.739169999999940
 51
354.260830000000000
  0
ARC
  8
0
  6
CONTINUOUS
 62
256
 10
-446.627096999999990
 20
-78.662160000000000
 40
25.499999999999986
 50
307.589541999999990
 51
352.410458000000010
  0
ARC
  8
0
  6
CONTINUOUS
 62
256
 10
-446.627096999999990
 20
-78.662160000000000
 40
30.499999999999982
 50
306.813853999999990
 51
353.186146000000010
  0
ARC
  8
0
  6
CONTINUOUS
 62
256
 10
-446.627096999999990
 20
-78.662160000000000
 40
21.999999999999986
 50
309.594067999999940
 51
350.405932000000010
  0
ARC
  8
0
  6
CONTINUOUS
 62
256
 10
-446.627096999999990
 20
-78.662160000000000
 40
17.000000000000014
 50
311.212270999999990
 51
348.787729000000010
  0
ARC
  8
0
  6
CONTINUOUS
 62
256
 10
-446.627096999999990
 20
-78.662160000000000
 40
13.500000000000004
 50
316.260204999999980
 51
343.739794999999960
  0
ARC
  8
0
  6
CONTINUOUS
 62
256
 10
-434.627096999999990
 20
-82.162160000000000
 40
0.999999999999976
 50
343.739794999999330
 51
90.000000000000000
  0
LINE
  8
0
  6
CONTINUOUS
 62
256
 10
-434.627096999999990
 20
-81.162160000000000
 11
-437.795337000000020
 21
-81.162160000000000
  0
ARC
  8
0
  6
CONTINUOUS
 62
256
 10
-437.596007999999980
 20
-87.304464999999993
 40
0.999999999999984
 50
210.000000000000510
 51
316.260205000000270
  0
ARC
  8
0
  6
CONTINUOUS
 62
256
 10
-446.627096999999990
 20
-78.662160000000000
 40
8.500000000000005
 50
321.618272000000050
 51
338.381728000000010
  0
ARC
  8
0
  6
CONTINUOUS
 62
256
 10
-437.795337000000020
 20
-82.162160000000000
 40
1.000000000000000
 50
90.000000000000000
 51
158.381728000000550
  0
ARC
  8
0
  6
CONTINUOUS
 62
256
 10
-433.242868999999980
 20
-94.844324000000000
 40
0.999999999999984
 50
210.000000000000510
 51
309.594067999999310
  0
LINE
  8
0
  6
CONTINUOUS
 62
256
 10
-434.108894000000020
 20
-95.344324000000000
 11
-435.633811999999980
 21
-92.703087999999994
  0
ARC
  8
0
  6
CONTINUOUS
 62
256
 10
-434.767787000000000
 20
-92.203087999999994
 40
1.000000000000006
 50
131.212270999999760
 51
210.000000000000510
  0
LINE
  8
0
  6
CONTINUOUS
 62
256
 10
-438.462034000000020
 20
-87.804464999999993
 11
-440.046153000000000
 21
-85.060688999999996
  0
ARC
  8
0
  6
CONTINUOUS
 62
256
 10
-439.180128000000020
 20
-84.560688999999996
 40
0.999999999999985
 50
141.618271999999000
 51
210.000000000000510
  0
ARC
  8
0
  6
CONTINUOUS
 62
256
 10
-426.183727999999970
 20
-107.071113999999990
 40
0.999999999999998
 50
125.739170000000210
 51
210.000000000000510
  0
LINE
  8
0
  6
CONTINUOUS
 62
256
 10
-425.542798000000000
 20
-110.181237999999990
 11
-427.049754000000010
 21
-107.571113999999990
  0
ARC
  8
0
  6
CONTINUOUS
 62
256
 10
-424.676772000000030
 20
-109.681237999999990
 40
0.999999999999984
 50
210.000000000000510
 51
305.284733000000980
  0
ARC
  8
0
  6
CONTINUOUS
 62
256
 10
-430.462083000000010
 20
-99.660786000000002
 40
0.999999999999993
 50
127.589541999998830
 51
210.000000000000510
  0
LINE
  8
0
  6
CONTINUOUS
 62
256
 10
-429.816215000000000
 20
-102.779462000000000
 11
-431.328107999999990
 21
-100.160786000000000
  0
ARC
  8
0
  6
CONTINUOUS
 62
256
 10
-428.950190000000020
 20
-102.279462000000000
 40
0.999999999999984
 50
210.000000000000510
 51
306.813854000000730
  0
ARC
  8
0
  6
CONTINUOUS
 62
256
 10
-408.788625000000020
 20
-82.162160000000000
 40
1.000000000000027
 50
354.715267000000210
 51
90.000000000000000
  0
LINE
  8
0
  6
CONTINUOUS
 62
256
 10
-408.788625000000020
 20
-81.162160000000000
 11
-411.802536999999970
 21
-81.162160000000000
  0
ARC
  8
0
  6
CONTINUOUS
 62
256
 10
-411.802536999999970
 20
-82.162160000000000
 40
1.000000000000000
 50
90.000000000000000
 51
174.260829999999570
  0
ARC
  8
0
  6
CONTINUOUS
 62
256
 10
-417.335460000000010
 20
-82.162160000000000
 40
1.000000000000019
 50
353.186146000000240
 51
90.000000000000000
  0
LINE
  8
0
  6
CONTINUOUS
 62
256
 10
-417.335460000000010
 20
-81.162160000000000
 11
-420.359245999999980
 21
-81.162160000000000
  0
ARC
  8
0
  6
CONTINUOUS
 62
256
 10
-420.359245999999980
 20
-82.162160000000000
 40
1.000000000000000
 50
90.000000000000000
 51
172.410458000000010
  0
ARC
  8
0
  6
CONTINUOUS
 62
256
 10
-425.920818000000000
 20
-82.162160000000000
 40
0.999999999999978
 50
350.405932000000010
 51
90.000000000000000
  0
LINE
  8
0
  6
CONTINUOUS
 62
256
 10
-425.920818000000000
 20
-81.162160000000000
 11
-428.970654000000020
 21
-81.162160000000000
  0
ARC
  8
0
  6
CONTINUOUS
 62
256
 10
-428.970654000000020
 20
-82.162160000000000
 40
1.000000000000000
 50
90.000000000000000
 51
168.787729000000270
  0
ARC
  8
0
  6
CONTINUOUS
 62
256
 10
-446.627096999999990
 20
129.837840000000000
 40
300.000000000000000
 50
263.967951000000030
 51
276.032048999999970
  0
ARC
  8
0
  6
CONTINUOUS
 62
256
 10
-415.627096999999990
 20
-163.528825000000010
 40
5.000000000000002
 50
276.032049000000030
 51
0.000000000000000
  0
ARC
  8
0
  6
CONTINUOUS
 62
256
 10
-477.627096999999990
 20
-163.528825000000010
 40
5.000000000000000
 50
180.000000000000000
 51
263.967950999999970
  0
LINE
  8
0
  6
CONTINUOUS
 62
256
 10
-449.127096999999990
 20
-170.662160000000000
 11
-449.127096999999990
 21
-170.151743000000010
  0
LINE
  8
0
  6
CONTINUOUS
 62
256
 10
-449.127096999999990
 20
-170.662160000000000
 11
-444.127096999999990
 21
-170.662160000000000
  0
LINE
  8
0
  6
CONTINUOUS
 62
256
 10
-444.127096999999990
 20
-170.662160000000000
 11
-444.127096999999990
 21
-170.151743000000010
  0
LINE
  8
0
  6
CONTINUOUS
 62
256
 10
-482.627096999999990
 20
-136.162160000000000
 11
-482.627096999999990
 21
-163.528825000000010
  0
LINE
  8
0
  6
CONTINUOUS
 62
256
 10
-410.627096999999990
 20
-136.162160000000000
 11
-410.627096999999990
 21
-163.528825000000010
  0
LINE
  8
0
  6
DASHDOT
 62
256
 10
-508.350826999999980
 20
-78.662160000000000
 11
-383.132867999999970
 21
-78.662160000000000
  0
LINE
  8
0
  6
DASHDOT
 62
256
 10
-446.627096999999990
 20
-9.225084000000001
 11
-446.627096999999990
 21
-173.166552000000000
  0
TEXT
  8
0
  6
CONTINUOUS
 62
256
 10
532.608276367187500
 20
-197.373062133789060
 40
3.299999952316284
  1
1/1
 50
0.000002504478167
 41
0.850909097352304
  7
STANDARD1
  0
TEXT
  8
0
  6
CONTINUOUS
 62
256
 10
530.190307617187500
 20
-197.373062133789060
 40
3.299999952316284
  1
 
 50
0.000002504478167
 41
1.733333298293026
  7
STANDARD1
  0
TEXT
  8
0
  6
CONTINUOUS
 62
256
 10
517.139648437500000
 20
-197.373062133789060
 40
3.299999952316284
  1
SCALE
 50
0.000002504478167
 41
0.821052645401140
  7
STANDARD1
  0
TEXT
  8
0
  6
CONTINUOUS
 62
256
 10
513.888305664062500
 20
-197.373062133789060
 40
3.299999952316284
  1
 
 50
0.000002504478167
 41
1.733333298293026
  7
STANDARD1
  0
TEXT
  8
0
  6
CONTINUOUS
 62
256
 10
528.751525878906250
 20
-192.073059082031250
 40
3.299999952316284
  1
1/60
 50
0.000002504478167
 41
0.832000075658163
  7
STANDARD1
  0
TEXT
  8
0
  6
CONTINUOUS
 62
256
 10
524.960449218750000
 20
-192.073059082031250
 40
3.299999952316284
  1
ü`
 50
0.000002504478167
 41
1.176000019651471
  7
STANDARD1
  0
TEXT
  8
0
  6
CONTINUOUS
 62
256
 10
517.164306640625000
 20
-192.073059082031250
 40
3.299999952316284
  1
1/5
 50
0.000002504478167
 41
0.850909097352304
  7
STANDARD1
  0
TEXT
  8
0
  6
CONTINUOUS
 62
256
 10
513.888305664062500
 20
-192.073059082031250
 40
3.299999952316284
  1
 
 50
0.000002504478167
 41
1.733333298293026
  7
STANDARD1
  0
TEXT
  8
0
  6
CONTINUOUS
 62
256
 10
513.888305664062500
 20
-186.773056030273440
 40
3.299999952316284
  1
GM-SHYFB-RH
 50
0.000002504478167
 41
0.798139564113939
  7
STANDARD1
  0
TEXT
  8
0
  6
CONTINUOUS
 62
256
 10
519.713684082031250
 20
-181.473068237304690
 40
3.299999952316284
  1
0.2kW
 50
0.000002504478167
 41
0.821052645401140
  7
STANDARD1
  0
TEXT
  8
0
  6
CONTINUOUS
 62
256
 10
513.888305664062500
 20
-181.473068237304690
 40
3.299999952316284
  1
  
 50
0.000002504478167
 41
1.485714400175845
  7
STANDARD1
  0
TEXT
  8
0
  6
CONTINUOUS
 62
256
 10
519.707763671875000
 20
-176.173065185546870
 40
3.299999952316284
  1
SHY062
 50
0.000002504478167
 41
0.813913121261144
  7
STANDARD1
  0
TEXT
  8
0
  6
CONTINUOUS
 62
256
 10
513.888305664062500
 20
-176.173065185546870
 40
3.299999952316284
  1
  
 50
0.000002504478167
 41
1.485714400175845
  7
STANDARD1
  0
LINE
  8
0
  6
DASHDOT
 62
256
 10
447.964232999999980
 20
-3.879731000000000
 11
447.964232999999980
 21
-176.135146999999990
  0
LINE
  8
0
  6
CONTINUOUS
 62
256
 10
175.915367000000000
 20
-78.162160000000000
 11
191.915367000000000
 21
-78.162160000000000
  0
LINE
  8
0
  6
CONTINUOUS
 62
256
 10
175.915367000000000
 20
-53.162160000000000
 11
191.915367000000000
 21
-53.162160000000000
  0
LINE
  8
0
  6
CONTINUOUS
 62
256
 10
148.915367000000000
 20
-78.662160000000000
 11
175.915367000000000
 21
-78.662160000000000
  0
LINE
  8
0
  6
CONTINUOUS
 62
256
 10
148.915367000000000
 20
-52.662160000000000
 11
175.915367000000000
 21
-52.662160000000000
  0
LINE
  8
0
  6
CONTINUOUS
 62
256
 10
183.415392999999990
 20
-45.662160000000000
 11
183.415392999999990
 21
-44.312159999999999
  0
LINE
  8
0
  6
CONTINUOUS
 62
256
 10
183.415392999999990
 20
-85.662160000000000
 11
183.415392999999990
 21
-87.012159999999994
  0
LINE
  8
0
  6
CONTINUOUS
 62
256
 10
153.415367000000000
 20
-87.012159999999994
 11
153.415367000000000
 21
-85.712159999999997
  0
LINE
  8
0
  6
CONTINUOUS
 62
256
 10
153.415367000000000
 20
-87.012159999999994
 11
183.415392999999990
 21
-87.012159999999994
  0
LINE
  8
0
  6
CONTINUOUS
 62
256
 10
125.915367000000000
 20
-85.712159999999997
 11
153.415367000000000
 21
-85.712159999999997
  0
LINE
  8
0
  6
CONTINUOUS
 62
256
 10
125.915367000000000
 20
-45.612160000000003
 11
153.415367000000000
 21
-45.612160000000003
  0
LINE
  8
0
  6
CONTINUOUS
 62
256
 10
213.915367000000000
 20
-84.662160000000000
 11
198.915367000000000
 21
-84.662160000000000
  0
LINE
  8
0
  6
CONTINUOUS
 62
256
 10
110.915367000000000
 20
-49.862160000000003
 11
147.415367000000000
 21
-49.862160000000003
  0
LINE
  8
0
  6
CONTINUOUS
 62
256
 10
213.915367000000000
 20
-46.662160000000000
 11
198.915367000000000
 21
-46.662160000000000
  0
LINE
  8
0
  6
CONTINUOUS
 62
256
 10
213.915367000000000
 20
-84.662160000000000
 11
213.915367000000000
 21
-46.662160000000000
  0
LINE
  8
0
  6
CONTINUOUS
 62
256
 10
110.915367000000000
 20
-46.662160000000000
 11
125.915367000000000
 21
-46.662160000000000
  0
LINE
  8
0
  6
CONTINUOUS
 62
256
 10
110.915367000000000
 20
-84.662160000000000
 11
125.915367000000000
 21
-84.662160000000000
  0
LINE
  8
0
  6
CONTINUOUS
 62
256
 10
110.915367000000000
 20
-84.662160000000000
 11
110.915367000000000
 21
-46.662160000000000
  0
LINE
  8
0
  6
CONTINUOUS
 62
256
 10
198.915367000000000
 20
-84.662160000000000
 11
198.915367000000000
 21
-85.662160000000000
  0
LINE
  8
0
  6
CONTINUOUS
 62
256
 10
198.915367000000000
 20
-46.662160000000000
 11
198.915367000000000
 21
-45.662157999999998
  0
LINE
  8
0
  6
CONTINUOUS
 62
256
 10
198.915367000000000
 20
-85.662160000000000
 11
183.415392999999990
 21
-85.662160000000000
  0
LINE
  8
0
  6
CONTINUOUS
 62
256
 10
198.915367000000000
 20
-45.662160000000000
 11
183.415392999999990
 21
-45.662160000000000
  0
LINE
  8
0
  6
CONTINUOUS
 62
256
 10
125.915367000000000
 20
-46.662160000000000
 11
125.915367000000000
 21
-45.612160000000003
  0
LINE
  8
0
  6
CONTINUOUS
 62
256
 10
125.915367000000000
 20
-84.662160000000000
 11
125.915367000000000
 21
-85.712159999999997
  0
LINE
  8
0
  6
CONTINUOUS
 62
256
 10
153.415367000000000
 20
-44.312159999999999
 11
153.415367000000000
 21
-45.612160000000003
  0
LINE
  8
0
  6
DASHDOT
 62
256
 10
108.522569000000000
 20
-65.662160000000000
 11
216.855901999999990
 21
-65.662160000000000
  0
LINE
  8
0
  6
CONTINUOUS
 62
256
 10
147.415367000000000
 20
-49.862160000000003
 11
213.915367000000000
 21
-49.862160000000003
  0
LINE
  8
0
  6
CONTINUOUS
 62
256
 10
110.915367000000000
 20
-53.162160000000000
 11
130.915367000000000
 21
-53.162160000000000
  0
LINE
  8
0
  6
CONTINUOUS
 62
256
 10
110.915367000000000
 20
-78.162160000000000
 11
130.915367000000000
 21
-78.162160000000000
  0
LINE
  8
0
  6
CONTINUOUS
 62
256
 10
153.415367000000000
 20
-44.312159999999999
 11
183.415392999999990
 21
-44.312159999999999
  0
LINE
  8
0
  6
CONTINUOUS
 62
256
 10
175.915367000000000
 20
-78.662160000000000
 11
175.915367000000000
 21
-52.662160000000000
  0
LINE
  8
0
  6
CONTINUOUS
 62
256
 10
148.915367000000000
 20
-78.662160000000000
 11
148.915367000000000
 21
-52.662160000000000
  0
LINE
  8
0
  6
CONTINUOUS
 62
256
 10
191.915367000000000
 20
-79.162160000000000
 11
191.915367000000000
 21
-52.162160000000000
  0
LINE
  8
0
  6
CONTINUOUS
 62
256
 10
132.915367000000000
 20
-79.162160000000000
 11
132.915367000000000
 21
-52.162160000000000
  0
LINE
  8
0
  6
CONTINUOUS
 62
256
 10
193.915367000000000
 20
-79.162160000000000
 11
193.915367000000000
 21
-52.162160000000000
  0
LINE
  8
0
  6
CONTINUOUS
 62
256
 10
130.915367000000000
 20
-79.162160000000000
 11
130.915367000000000
 21
-52.162160000000000
  0
LINE
  8
0
  6
CONTINUOUS
 62
256
 10
130.915367000000000
 20
-79.162160000000000
 11
132.915367000000000
 21
-79.162160000000000
  0
LINE
  8
0
  6
CONTINUOUS
 62
256
 10
130.915367000000000
 20
-52.162160000000000
 11
132.915367000000000
 21
-52.162160000000000
  0
LINE
  8
0
  6
CONTINUOUS
 62
256
 10
191.915367000000000
 20
-79.162160000000000
 11
193.915367000000000
 21
-79.162160000000000
  0
LINE
  8
0
  6
CONTINUOUS
 62
256
 10
191.915367000000000
 20
-52.162160000000000
 11
193.915367000000000
 21
-52.162160000000000
  0
LINE
  8
0
  6
CONTINUOUS
 62
256
 10
193.915367000000000
 20
-53.162160000000000
 11
213.915367000000000
 21
-53.162160000000000
  0
LINE
  8
0
  6
CONTINUOUS
 62
256
 10
193.915367000000000
 20
-78.162160000000000
 11
213.915367000000000
 21
-78.162160000000000
  0
LINE
  8
0
  6
CONTINUOUS
 62
256
 10
132.915367000000000
 20
-53.162160000000000
 11
148.915367000000000
 21
-53.162160000000000
  0
LINE
  8
0
  6
CONTINUOUS
 62
256
 10
132.915367000000000
 20
-78.162160000000000
 11
148.915367000000000
 21
-78.162160000000000
  0
CIRCLE
  8
0
  6
CONTINUOUS
 62
256
 10
315.868576000000020
 20
-65.662160000000000
 40
19.000000000000000
  0
LINE
  8
0
  6
CONTINUOUS
 62
256
 10
319.868576000000020
 20
-53.819440000000000
 11
319.868576000000020
 21
-49.862160000000003
  0
LINE
  8
0
  6
CONTINUOUS
 62
256
 10
319.868576000000020
 20
-49.862160000000003
 11
311.868576000000020
 21
-49.862160000000003
  0
LINE
  8
0
  6
CONTINUOUS
 62
256
 10
311.868576000000020
 20
-53.819440000000000
 11
311.868576000000020
 21
-49.862160000000003
  0
ARC
  8
0
  6
CONTINUOUS
 62
256
 10
315.868576000000020
 20
-65.662160000000000
 40
12.500000000000002
 50
108.662925000000020
 51
71.337074999999999
  0
ARC
  8
0
  6
CONTINUOUS
 62
256
 10
315.868576000000020
 20
-65.662160000000000
 40
12.500000000000002
 50
108.662925000000020
 51
71.337074999999999
  0
LINE
  8
0
  6
DASHDOT
 62
256
 10
315.868576000000020
 20
-40.418618000000002
 11
315.868576000000020
 21
-90.302042000000000
  0
LINE
  8
0
  6
DASHDOT
 62
256
 10
339.936753000000010
 20
-65.662160000000000
 11
290.960300000000020
 21
-65.662160000000000
  0
ARC
  8
0
  6
CONTINUOUS
 62
256
 10
-4.310679000000000
 20
-126.662160000000000
 40
3.500000000000000
 50
270.000000000000000
 51
322.616544000000090
  0
ARC
  8
0
  6
CONTINUOUS
 62
256
 10
-21.186641999999999
 20
-65.662160000000000
 40
12.500000000000000
 50
108.662925000000000
 51
71.337074999999999
  0
LINE
  8
0
  6
CONTINUOUS
 62
256
 10
-25.186641999999999
 20
-49.862160000000003
 11
-25.186641999999999
 21
-53.819440000000000
  0
LINE
  8
0
  6
CONTINUOUS
 62
256
 10
-17.186641999999999
 20
-49.862160000000003
 11
-17.186641999999999
 21
-53.819440000000000
  0
LINE
  8
0
  6
CONTINUOUS
 62
256
 10
-17.186641999999999
 20
-49.862160000000003
 11
-25.186641999999999
 21
-49.862160000000003
  0
ARC
  8
0
  6
CONTINUOUS
 62
256
 10
-71.114211999999995
 20
-27.662160000000000
 40
5.500000000000000
 50
90.000000000000000
 51
138.985263000000060
  0
LINE
  8
0
  6
CONTINUOUS
 62
256
 10
-71.114211999999995
 20
-22.162160000000000
 11
-27.801020000000001
 21
-22.162160000000000
  0
LINE
  8
0
  6
CONTINUOUS
 62
256
 10
-72.062605000000005
 20
-19.662160000000000
 11
-4.310679000000000
 21
-19.662160000000000
  0
ARC
  8
0
  6
CONTINUOUS
 62
256
 10
-83.186864000000000
 20
-17.162109999999998
 40
8.000000000000000
 50
275.267653000000000
 51
322.616544000000030
  0
ARC
  8
0
  6
CONTINUOUS
 62
256
 10
-83.186864000000000
 20
-17.162109999999998
 40
10.499999999999998
 50
275.267653000000000
 51
318.985262999999970
  0
ARC
  8
0
  6
CONTINUOUS
 62
256
 10
-81.901546999999994
 20
-31.102982999999998
 40
5.999999999999998
 50
95.267653000000010
 51
154.043062000000020
  0
ARC
  8
0
  6
CONTINUOUS
 62
256
 10
-96.186642000000006
 20
-40.632722000000001
 40
5.999999999999999
 50
93.372287000000000
 51
180.000000000000000
  0
LINE
  8
0
  6
CONTINUOUS
 62
256
 10
-102.186642000000010
 20
-111.691597000000000
 11
-102.186642000000010
 21
-40.632722000000001
  0
LINE
  8
0
  6
DASHDOT
 62
256
 10
-97.186642000000006
 20
-15.152278000000001
 11
-97.186642000000006
 21
-32.878369999999997
  0
ARC
  8
0
  6
CONTINUOUS
 62
256
 10
-96.186642000000006
 20
-40.632722000000001
 40
3.500000000000003
 50
93.372286999999972
 51
180.000000000000000
  0
ARC
  8
0
  6
CONTINUOUS
 62
256
 10
-81.901546999999994
 20
-31.102982999999998
 40
3.500000000000000
 50
95.267653000000053
 51
154.043061999999960
  0
LINE
  8
0
  6
CONTINUOUS
 62
256
 10
-99.686642000000006
 20
-111.691597000000000
 11
-99.686642000000006
 21
-40.632722000000001
  0
ARC
  8
0
  6
CONTINUOUS
 62
256
 10
-96.186642000000006
 20
-111.691597000000000
 40
3.500000000000000
 50
180.000000000000000
 51
266.627713000000030
  0
ARC
  8
0
  6
CONTINUOUS
 62
256
 10
-97.186642000000006
 20
-128.662160000000000
 40
13.499999999999998
 50
25.956938000000015
 51
86.627712999999972
  0
ARC
  8
0
  6
CONTINUOUS
 62
256
 10
-81.901546999999994
 20
-121.221335999999990
 40
3.500000000000000
 50
205.956938000000090
 51
264.732346999999950
  0
ARC
  8
0
  6
CONTINUOUS
 62
256
 10
-83.186864000000000
 20
-135.162209999999990
 40
10.500000000000004
 50
41.014737000000025
 51
84.732347000000033
  0
ARC
  8
0
  6
CONTINUOUS
 62
256
 10
-71.114211999999995
 20
-124.662160000000000
 40
5.500000000000001
 50
221.014736999999910
 51
270.000000000000000
  0
LINE
  8
0
  6
CONTINUOUS
 62
256
 10
-4.310679000000000
 20
-130.162160000000000
 11
-71.114211999999995
 21
-130.162160000000000
  0
ARC
  8
0
  6
CONTINUOUS
 62
256
 10
6.813580000000000
 20
-135.162209999999990
 40
10.500000000000000
 50
95.267652999999996
 51
142.616544000000000
  0
ARC
  8
0
  6
CONTINUOUS
 62
256
 10
20.813358000000001
 20
-128.662160000000000
 40
13.500000000000004
 50
93.372287000000000
 51
154.043062000000020
  0
ARC
  8
0
  6
CONTINUOUS
 62
256
 10
19.813358000000001
 20
-111.691597000000000
 40
3.500000000000003
 50
273.372286999999970
 51
0.000000000000000
  0
ARC
  8
0
  6
CONTINUOUS
 62
256
 10
-4.310679000000000
 20
-25.662160000000000
 40
6.000000000000001
 50
37.383456000000010
 51
90.000000000000000
  0
ARC
  8
0
  6
CONTINUOUS
 62
256
 10
5.528262000000000
 20
-31.102982999999998
 40
5.999999999999999
 50
25.956938000000012
 51
84.732347000000004
  0
ARC
  8
0
  6
CONTINUOUS
 62
256
 10
19.813358000000001
 20
-40.632722000000001
 40
6.000000000000000
 50
0.000000000000000
 51
86.627713000000014
  0
ARC
  8
0
  6
CONTINUOUS
 62
256
 10
20.813358000000001
 20
-23.662160000000000
 40
11.000000000000000
 50
205.956938000000010
 51
266.627713000000030
  0
ARC
  8
0
  6
CONTINUOUS
 62
256
 10
6.813580000000000
 20
-17.162109999999998
 40
8.000000000000000
 50
217.383455999999970
 51
264.732347000000000
  0
ARC
  8
0
  6
CONTINUOUS
 62
256
 10
6.813580000000000
 20
-17.162109999999998
 40
5.000000000000000
 50
180.000000000000000
 51
0.000000000000000
  0
LINE
  8
0
  6
DASHDOT
 62
256
 10
12.556530000000000
 20
-23.662160000000000
 11
34.765715000000000
 21
-23.662160000000000
  0
LINE
  8
0
  6
DASHDOT
 62
256
 10
20.813358000000001
 20
-15.152278000000001
 11
20.813358000000001
 21
-30.986291999999999
  0
ARC
  8
0
  6
CONTINUOUS
 62
256
 10
-5.259073000000000
 20
-27.662160000000000
 40
5.499999999999999
 50
41.014736999999990
 51
90.000000000000000
  0
ARC
  8
0
  6
CONTINUOUS
 62
256
 10
6.813580000000000
 20
-17.162109999999998
 40
10.500000000000000
 50
221.014737000000000
 51
264.732347000000000
  0
ARC
  8
0
  6
CONTINUOUS
 62
256
 10
5.528262000000000
 20
-31.102982999999998
 40
3.500000000000001
 50
25.956938000000019
 51
84.732347000000004
  0
ARC
  8
0
  6
CONTINUOUS
 62
256
 10
20.813358000000001
 20
-23.662160000000000
 40
13.500000000000002
 50
205.956937999999980
 51
266.627713000000030
  0
ARC
  8
0
  6
CONTINUOUS
 62
256
 10
19.813358000000001
 20
-40.632722000000001
 40
3.500000000000000
 50
0.000000000000000
 51
86.627712999999986
  0
LINE
  8
0
  6
CONTINUOUS
 62
256
 10
23.313358000000001
 20
-40.632722000000001
 11
23.313358000000001
 21
-111.691597000000000
  0
ARC
  8
0
  6
CONTINUOUS
 62
256
 10
-102.186642000000010
 20
-19.662160000000000
 40
7.000000000000000
 50
90.000000000000000
 51
180.000000000000000
  0
LINE
  8
0
  6
DASHDOT
 62
256
 10
-88.956511000000006
 20
-23.662160000000000
 11
-106.122831000000010
 21
-23.662160000000000
  0
LINE
  8
0
  6
CONTINUOUS
 62
256
 10
24.813358000000001
 20
-12.662160000000000
 11
-102.186642000000010
 21
-12.662160000000000
  0
LINE
  8
0
  6
CONTINUOUS
 62
256
 10
31.813358000000001
 20
-19.662160000000000
 11
31.813358000000001
 21
-132.662160000000000
  0
ARC
  8
0
  6
CONTINUOUS
 62
256
 10
24.813358000000001
 20
-19.662160000000000
 40
7.000000000000000
 50
0.000000000000000
 51
90.000000000000000
  0
LINE
  8
0
  6
CONTINUOUS
 62
256
 10
-102.186642000000010
 20
-139.662160000000000
 11
24.813358000000001
 21
-139.662160000000000
  0
ARC
  8
0
  6
CONTINUOUS
 62
256
 10
-102.186642000000010
 20
-132.662160000000000
 40
7.000000000000000
 50
180.000000000000000
 51
270.000000000000000
  0
LINE
  8
0
  6
CONTINUOUS
 62
256
 10
-109.186642000000010
 20
-132.662160000000000
 11
-109.186642000000010
 21
-19.662160000000000
  0
LINE
  8
0
  6
DASHDOT
 62
256
 10
13.913580000000000
 20
-17.162109999999998
 11
-0.286420000000000
 21
-17.162109999999998
  0
LINE
  8
0
  6
DASHDOT
 62
256
 10
-83.186642000000006
 20
-9.662160000000000
 11
-83.186642000000006
 21
-24.662160000000000
  0
LINE
  8
0
  6
DASHDOT
 62
256
 10
-75.686642000000006
 20
-17.162160000000000
 11
-90.686642000000006
 21
-17.162160000000000
  0
LINE
  8
0
  6
CONTINUOUS
 62
256
 10
30.813358000000001
 20
-19.662160000000000
 11
30.813358000000001
 21
-132.662160000000000
  0
ARC
  8
0
  6
CONTINUOUS
 62
256
 10
24.813358000000001
 20
-132.662160000000000
 40
6.000000000000000
 50
270.000000000000000
 51
0.000000000000000
  0
LINE
  8
0
  6
CONTINUOUS
 62
256
 10
24.813358000000001
 20
-138.662160000000000
 11
11.813580000000000
 21
-138.662160000000000
  0
ARC
  8
0
  6
CONTINUOUS
 62
256
 10
-102.186642000000010
 20
-132.662160000000000
 40
6.000000000000000
 50
180.000000000000000
 51
270.000000000000000
  0
LINE
  8
0
  6
CONTINUOUS
 62
256
 10
-108.186642000000010
 20
-132.662160000000000
 11
-108.186642000000010
 21
-19.662160000000000
  0
ARC
  8
0
  6
CONTINUOUS
 62
256
 10
-102.186642000000010
 20
-19.662160000000000
 40
6.000000000000000
 50
90.000000000000000
 51
180.000000000000000
  0
LINE
  8
0
  6
CONTINUOUS
 62
256
 10
-102.186642000000010
 20
-13.662160000000000
 11
-88.186642000000006
 21
-13.662160000000000
  0
ARC
  8
0
  6
CONTINUOUS
 62
256
 10
24.813358000000001
 20
-19.662160000000000
 40
6.000000000000000
 50
0.000000000000000
 51
90.000000000000000
  0
LINE
  8
0
  6
CONTINUOUS
 62
256
 10
25.813358000000001
 20
-40.632722000000001
 11
25.813358000000001
 21
-111.691597000000000
  0
LINE
  8
0
  6
CONTINUOUS
 62
256
 10
-4.310679000000000
 20
-132.662160000000000
 11
-72.062605000000005
 21
-132.662160000000000
  0
LINE
  8
0
  6
CONTINUOUS
 62
256
 10
11.813580000000000
 20
-17.162109999999998
 11
11.813580000000000
 21
-13.062160000000000
  0
LINE
  8
0
  6
CONTINUOUS
 62
256
 10
1.813580000000000
 20
-17.162109999999998
 11
1.813580000000000
 21
-13.062160000000000
  0
LINE
  8
0
  6
CONTINUOUS
 62
256
 10
11.813580000000000
 20
-13.662160000000000
 11
24.813358000000001
 21
-13.662160000000000
  0
ARC
  8
0
  6
CONTINUOUS
 62
256
 10
-83.186642000000006
 20
-17.162160000000000
 40
5.000000000000000
 50
180.000000000000000
 51
0.000000000000000
  0
LINE
  8
0
  6
CONTINUOUS
 62
256
 10
-88.186642000000006
 20
-17.162160000000000
 11
-88.186642000000006
 21
-13.062160000000000
  0
LINE
  8
0
  6
CONTINUOUS
 62
256
 10
-78.186642000000006
 20
-17.162160000000000
 11
-78.186642000000006
 21
-13.062160000000000
  0
LINE
  8
0
  6
CONTINUOUS
 62
256
 10
-78.186642000000006
 20
-13.662160000000000
 11
1.813580000000000
 21
-13.662160000000000
  0
ARC
  8
0
  6
CONTINUOUS
 62
256
 10
-83.186642000000006
 20
-135.162160000000000
 40
5.000000000000000
 50
0.000000000000000
 51
180.000000000000000
  0
LINE
  8
0
  6
CONTINUOUS
 62
256
 10
-88.186642000000006
 20
-135.162160000000000
 11
-88.186642000000006
 21
-139.262159999999990
  0
LINE
  8
0
  6
CONTINUOUS
 62
256
 10
-78.186642000000006
 20
-135.162160000000000
 11
-78.186642000000006
 21
-139.262159999999990
  0
LINE
  8
0
  6
DASHDOT
 62
256
 10
-75.686642000000006
 20
-135.162160000000000
 11
-90.686642000000006
 21
-135.162160000000000
  0
LINE
  8
0
  6
DASHDOT
 62
256
 10
-83.186642000000006
 20
-142.662160000000000
 11
-83.186642000000006
 21
-127.662160000000000
  0
LINE
  8
0
  6
DASHDOT
 62
256
 10
-88.956511000000006
 20
-128.662160000000000
 11
-106.122831000000010
 21
-128.662160000000000
  0
LINE
  8
0
  6
DASHDOT
 62
256
 10
-97.186642000000006
 20
-137.172041000000010
 11
-97.186642000000006
 21
-119.445950000000000
  0
LINE
  8
0
  6
CONTINUOUS
 62
256
 10
1.813580000000000
 20
-135.162209999999990
 11
1.813580000000000
 21
-139.262210000000010
  0
LINE
  8
0
  6
CONTINUOUS
 62
256
 10
11.813580000000000
 20
-135.162209999999990
 11
11.813580000000000
 21
-139.262210000000010
  0
ARC
  8
0
  6
CONTINUOUS
 62
256
 10
6.813580000000000
 20
-135.162209999999990
 40
5.000000000000000
 50
0.000000000000000
 51
180.000000000000000
  0
ARC
  8
0
  6
CONTINUOUS
 62
256
 10
6.813580000000000
 20
-135.162209999999990
 40
7.999999999999997
 50
95.267652999999996
 51
142.616544000000000
  0
LINE
  8
0
  6
DASHDOT
 62
256
 10
13.913580000000000
 20
-135.162209999999990
 11
-0.286420000000000
 21
-135.162209999999990
  0
LINE
  8
0
  6
DASHDOT
 62
256
 10
6.813580000000000
 20
-142.262210000000010
 11
6.813580000000000
 21
-127.442552000000010
  0
LINE
  8
0
  6
DASHDOT
 62
256
 10
20.813358000000001
 20
-137.172041000000010
 11
20.813358000000001
 21
-121.338027999999990
  0
LINE
  8
0
  6
DASHDOT
 62
256
 10
12.556530000000000
 20
-128.662160000000000
 11
34.765715000000000
 21
-128.662160000000000
  0
LINE
  8
0
  6
CONTINUOUS
 62
256
 10
1.813580000000000
 20
-138.662160000000000
 11
-78.186642000000006
 21
-138.662160000000000
  0
LINE
  8
0
  6
CONTINUOUS
 62
256
 10
-88.186642000000006
 20
-138.662160000000000
 11
-102.186642000000010
 21
-138.662160000000000
  0
ARC
  8
0
  6
CONTINUOUS
 62
256
 10
24.813358000000001
 20
-132.662160000000000
 40
7.000000000000000
 50
270.000000000000000
 51
0.000000000000000
  0
LINE
  8
0
  6
CONTINUOUS
 62
256
 10
-78.186642000000006
 20
-139.262159999999990
 11
-77.786642000000001
 21
-139.662160000000000
  0
LINE
  8
0
  6
CONTINUOUS
 62
256
 10
-88.186642000000006
 20
-139.262159999999990
 11
-88.586641999999998
 21
-139.662160000000000
  0
LINE
  8
0
  6
CONTINUOUS
 62
256
 10
1.813580000000000
 20
-139.262210000000010
 11
1.413580000000000
 21
-139.662209999999990
  0
LINE
  8
0
  6
CONTINUOUS
 62
256
 10
11.813580000000000
 20
-139.262210000000010
 11
12.213580000000000
 21
-139.662209999999990
  0
LINE
  8
0
  6
CONTINUOUS
 62
256
 10
12.213580000000000
 20
-12.662160000000000
 11
11.813580000000000
 21
-13.062160000000000
  0
LINE
  8
0
  6
CONTINUOUS
 62
256
 10
1.813580000000000
 20
-13.062160000000000
 11
1.413580000000000
 21
-12.662160000000000
  0
LINE
  8
0
  6
CONTINUOUS
 62
256
 10
-77.786642000000001
 20
-12.662160000000000
 11
-78.186642000000006
 21
-13.062160000000000
  0
LINE
  8
0
  6
CONTINUOUS
 62
256
 10
-88.186642000000006
 20
-13.062160000000000
 11
-88.586641999999998
 21
-12.662160000000000
  0
ARC
  8
0
  6
CONTINUOUS
 62
256
 10
-83.186864000000000
 20
-135.162209999999990
 40
8.000000000000005
 50
37.383455999999988
 51
84.732347000000033
  0
ARC
  8
0
  6
CONTINUOUS
 62
256
 10
19.813358000000001
 20
-111.691597000000000
 40
6.000000000000006
 50
273.372286999999970
 51
0.000000000000000
  0
ARC
  8
0
  6
CONTINUOUS
 62
256
 10
5.528262000000000
 20
-121.221335999999990
 40
6.000000000000001
 50
275.267653000000000
 51
334.043061999999960
  0
ARC
  8
0
  6
CONTINUOUS
 62
256
 10
-4.310679000000000
 20
-126.662160000000000
 40
6.000000000000000
 50
270.000000000000000
 51
322.616544000000090
  0
ARC
  8
0
  6
CONTINUOUS
 62
256
 10
-81.901546999999994
 20
-121.221335999999990
 40
6.000000000000003
 50
205.956938000000010
 51
264.732347000000000
  0
ARC
  8
0
  6
CONTINUOUS
 62
256
 10
-97.186642000000006
 20
-128.662160000000000
 40
10.999999999999996
 50
25.956938000000029
 51
86.627712999999986
  0
ARC
  8
0
  6
CONTINUOUS
 62
256
 10
-96.186642000000006
 20
-111.691597000000000
 40
6.000000000000000
 50
180.000000000000000
 51
266.627712999999970
  0
ARC
  8
0
  6
CONTINUOUS
 62
256
 10
-72.062605000000005
 20
-126.662160000000000
 40
5.999999999999990
 50
217.383455999999910
 51
270.000000000000000
  0
ARC
  8
0
  6
CONTINUOUS
 62
256
 10
-72.062605000000005
 20
-25.662160000000000
 40
6.000000000000000
 50
90.000000000000000
 51
142.616543999999980
  0
ARC
  8
0
  6
CONTINUOUS
 62
256
 10
-97.186642000000006
 20
-23.662160000000000
 40
11.000000000000000
 50
273.372286999999970
 51
334.043061999999960
  0
LINE
  8
0
  6
DASHDOT
 62
256
 10
6.813580000000000
 20
-24.122758000000001
 11
6.813580000000000
 21
-9.930479000000000
  0
ARC
  8
0
  6
CONTINUOUS
 62
256
 10
-112.186642000000010
 20
-21.777691000000001
 40
3.000000000000000
 50
270.999999999999890
 51
0.000000000000000
  0
LINE
  8
0
  6
CONTINUOUS
 62
256
 10
-111.706993999999990
 20
-132.554543000000000
 11
-137.186642000000010
 21
-132.109794999999990
  0
LINE
  8
0
  6
CONTINUOUS
 62
256
 10
-112.134285000000010
 20
-24.777234000000000
 11
-137.186642000000010
 21
-25.214524999999998
  0
LINE
  8
0
  6
DASHDOT
 62
256
 10
-69.144586000000004
 20
-65.662160000000000
 11
35.080477999999999
 21
-65.662160000000000
  0
ARC
  8
0
  6
CONTINUOUS
 62
256
 10
-111.759351000000000
 20
-135.554087000000010
 40
3.000000000000003
 50
16.809628999999994
 51
89.000000000000128
  0
LINE
  8
0
  6
DASHDOT
 62
256
 10
-21.186641999999999
 20
-120.430925000000000
 11
-21.186641999999999
 21
-3.789877000000000
  0
LINE
  8
0
  6
DASHDOT
 62
256
 10
-153.265588000000010
 20
-78.662160000000000
 11
-101.663482000000000
 21
-78.662160000000000
  0
INSERT
  8
0
  2
ZU_SYM_1
 10
-83.186642000000006
 20
-17.162160000000000
  0
INSERT
  8
0
  2
ZU_SYM_2
 10
-83.186642000000006
 20
-135.162160000000000
  0
INSERT
  8
0
  2
ZU_SYM_3
 10
6.813580000000000
 20
-135.162209999999990
  0
INSERT
  8
0
  2
ZU_SYM_4
 10
6.813580000000000
 20
-17.162109999999998
  0
CIRCLE
  8
0
  6
CONTINUOUS
 62
256
 10
-21.186641999999999
 20
-65.662160000000000
 40
42.000000000000000
  0
CIRCLE
  8
0
  6
CONTINUOUS
 62
256
 10
-21.186641999999999
 20
-65.662160000000000
 40
37.500000000000000
  0
LINE
  8
0
  6
CONTINUOUS
 62
256
 10
-132.186642000000010
 20
-31.162160000000000
 11
-132.186642000000010
 21
-28.127707000000001
  0
LINE
  8
0
  6
CONTINUOUS
 62
256
 10
-129.186642000000010
 20
-34.162160000000000
 11
-124.186642000000010
 21
-34.162160000000000
  0
LINE
  8
0
  6
CONTINUOUS
 62
256
 10
-130.186642000000010
 20
-37.232508000000003
 11
-124.186642000000010
 21
-37.232508000000003
  0
LINE
  8
0
  6
CONTINUOUS
 62
256
 10
-119.186642000000010
 20
-41.769993999999997
 11
-119.186642000000010
 21
-39.162160000000000
  0
LINE
  8
0
  6
CONTINUOUS
 62
256
 10
-122.186642000000010
 20
-44.769993999999997
 11
-129.186642000000010
 21
-44.769993999999997
  0
LINE
  8
0
  6
CONTINUOUS
 62
256
 10
-132.186642000000010
 20
-58.662160000000000
 11
-137.186642000000010
 21
-58.662160000000000
  0
LINE
  8
0
  6
CONTINUOUS
 62
256
 10
-132.186642000000010
 20
-78.662160000000000
 11
-132.186642000000010
 21
-39.232508000000003
  0
LINE
  8
0
  6
CONTINUOUS
 62
256
 10
-132.186642000000010
 20
-98.662160000000000
 11
-137.186642000000010
 21
-98.662160000000000
  0
LINE
  8
0
  6
CONTINUOUS
 62
256
 10
-119.186642000000010
 20
-115.554326000000000
 11
-119.186642000000010
 21
-118.162160000000000
  0
LINE
  8
0
  6
CONTINUOUS
 62
256
 10
-122.186642000000010
 20
-112.554326000000000
 11
-129.186642000000010
 21
-112.554326000000000
  0
LINE
  8
0
  6
CONTINUOUS
 62
256
 10
-132.186642000000010
 20
-78.662160000000000
 11
-132.186642000000010
 21
-118.091811000000010
  0
LINE
  8
0
  6
CONTINUOUS
 62
256
 10
-129.186642000000010
 20
-123.162160000000000
 11
-124.186642000000010
 21
-123.162160000000000
  0
LINE
  8
0
  6
CONTINUOUS
 62
256
 10
-130.186642000000010
 20
-120.091811000000010
 11
-124.186642000000010
 21
-120.091811000000010
  0
LINE
  8
0
  6
CONTINUOUS
 62
256
 10
-132.186642000000010
 20
-126.162160000000000
 11
-132.186642000000010
 21
-129.196613000000010
  0
ARC
  8
0
  6
CONTINUOUS
 62
256
 10
-135.186642000000010
 20
-28.127707000000001
 40
3.000000000000000
 50
0.000000000000000
 51
91.000000000000156
  0
ARC
  8
0
  6
CONTINUOUS
 62
256
 10
-135.186642000000010
 20
-129.196613000000010
 40
3.000000000000011
 50
268.999999999999830
 51
0.000000000000000
  0
ARC
  8
0
  6
CONTINUOUS
 62
256
 10
-129.186642000000010
 20
-47.769993999999997
 40
3.000000000000000
 50
90.000000000000000
 51
180.000000000000000
  0
ARC
  8
0
  6
CONTINUOUS
 62
256
 10
-129.186642000000010
 20
-31.162160000000000
 40
3.000000000000000
 50
180.000000000000000
 51
270.000000000000000
  0
ARC
  8
0
  6
CONTINUOUS
 62
256
 10
-130.186642000000010
 20
-39.232508000000003
 40
2.000000000000000
 50
90.000000000000000
 51
180.000000000000000
  0
ARC
  8
0
  6
CONTINUOUS
 62
256
 10
-124.186642000000010
 20
-42.232508000000003
 40
5.000000000000000
 50
0.000000000000000
 51
90.000000000000000
  0
ARC
  8
0
  6
CONTINUOUS
 62
256
 10
-124.186642000000010
 20
-39.162160000000000
 40
5.000000000000000
 50
0.000000000000000
 51
90.000000000000000
  0
ARC
  8
0
  6
CONTINUOUS
 62
256
 10
-129.186642000000010
 20
-109.554326000000000
 40
3.000000000000000
 50
180.000000000000000
 51
270.000000000000000
  0
ARC
  8
0
  6
CONTINUOUS
 62
256
 10
-124.186642000000010
 20
-115.091811000000010
 40
5.000000000000000
 50
270.000000000000000
 51
0.000000000000000
  0
ARC
  8
0
  6
CONTINUOUS
 62
256
 10
-124.186642000000010
 20
-118.162160000000000
 40
5.000000000000000
 50
270.000000000000000
 51
0.000000000000000
  0
ARC
  8
0
  6
CONTINUOUS
 62
256
 10
-129.186642000000010
 20
-126.162160000000000
 40
3.000000000000000
 50
90.000000000000000
 51
180.000000000000000
  0
ARC
  8
0
  6
CONTINUOUS
 62
256
 10
-130.186642000000010
 20
-118.091811000000010
 40
2.000000000000000
 50
180.000000000000000
 51
270.000000000000000
  0
LINE
  8
0
  6
CONTINUOUS
 62
256
 10
-119.186642000000010
 20
-27.900791000000002
 11
-119.186642000000010
 21
-78.662160000000000
  0
LINE
  8
0
  6
CONTINUOUS
 62
256
 10
-119.186642000000010
 20
-129.423529000000000
 11
-119.186642000000010
 21
-78.662160000000000
  0
ARC
  8
0
  6
CONTINUOUS
 62
256
 10
-122.186642000000010
 20
-129.423529000000000
 40
3.000000000000011
 50
269.000000000000110
 51
0.000000000000000
  0
ARC
  8
0
  6
CONTINUOUS
 62
256
 10
-122.186642000000010
 20
-27.900791000000002
 40
3.000000000000000
 50
0.000000000000000
 51
90.999999999999872
  0
ARC
  8
0
  6
CONTINUOUS
 62
256
 10
-122.186642000000010
 20
-109.554326000000000
 40
3.000000000000000
 50
270.000000000000000
 51
0.000000000000000
  0
ARC
  8
0
  6
CONTINUOUS
 62
256
 10
-122.186642000000010
 20
-47.769993999999997
 40
3.000000000000000
 50
0.000000000000000
 51
90.000000000000000
  0
LINE
  8
0
  6
CONTINUOUS
 62
256
 10
-137.186642000000010
 20
-78.662160000000000
 11
-137.186642000000010
 21
-132.162160000000000
  0
LINE
  8
0
  6
CONTINUOUS
 62
256
 10
-137.186642000000010
 20
-78.662160000000000
 11
-137.186642000000010
 21
-25.162160000000000
  0
ARC
  8
0
  6
CONTINUOUS
 62
256
 10
-97.186642000000006
 20
-23.662160000000000
 40
13.500000000000004
 50
273.372286999999970
 51
334.043062000000020
  0
ARC
  8
0
  6
CONTINUOUS
 62
256
 10
20.813358000000001
 20
-128.662160000000000
 40
11.000000000000000
 50
93.372287000000000
 51
154.043061999999990
  0
ARC
  8
0
  6
CONTINUOUS
 62
256
 10
5.528262000000000
 20
-121.221335999999990
 40
3.500000000000000
 50
275.267653000000000
 51
334.043061999999910
  0
LINE
  8
0
  6
CONTINUOUS
 62
256
 10
-27.801020000000001
 20
-22.162160000000000
 11
-5.259073000000000
 21
-22.162160000000000
  0
CIRCLE
  8
0
  6
CONTINUOUS
 62
256
 10
-21.186641999999999
 20
-65.662160000000000
 40
19.000000000000000
  0
ARC
  8
0
  6
CONTINUOUS
 62
256
 10
-298.691487000000000
 20
-117.062160000000010
 40
20.599999999999991
 50
235.000000000000000
 51
270.000000000000000
  0
ARC
  8
0
  6
CONTINUOUS
 62
256
 10
-316.586641999999980
 20
-126.505780000000000
 40
2.600000000000023
 50
180.000000000000000
 51
234.999999999999940
  0
LINE
  8
0
  6
CONTINUOUS
 62
256
 10
-310.507161999999990
 20
-133.936691999999990
 11
-318.077941000000010
 21
-128.635574999999990
  0
LINE
  8
0
  6
CONTINUOUS
 62
256
 10
-319.186642000000010
 20
-126.505780000000000
 11
-319.186642000000010
 21
-78.662160000000000
  0
LINE
  8
0
  6
CONTINUOUS
 62
256
 10
-221.186642000000010
 20
-119.704074000000010
 11
-137.186642000000010
 21
-119.704074000000010
  0
LINE
  8
0
  6
CONTINUOUS
 62
256
 10
-221.186642000000010
 20
-124.795242000000000
 11
-137.186642000000010
 21
-124.795242000000000
  0
LINE
  8
0
  6
CONTINUOUS
 62
256
 10
-221.186642000000010
 20
-129.162160000000000
 11
-137.186642000000010
 21
-129.162160000000000
  0
LINE
  8
0
  6
CONTINUOUS
 62
256
 10
-221.186642000000010
 20
-129.662160000000000
 11
-137.186642000000010
 21
-129.662160000000000
  0
LINE
  8
0
  6
CONTINUOUS
 62
256
 10
-137.186642000000010
 20
-132.162160000000000
 11
-138.986641999999990
 21
-132.162160000000000
  0
LINE
  8
0
  6
CONTINUOUS
 62
256
 10
-138.986641999999990
 20
-131.162160000000000
 11
-138.986641999999990
 21
-169.162160000000000
  0
ARC
  8
0
  6
CONTINUOUS
 62
256
 10
-139.986641999999990
 20
-169.162160000000000
 40
1.000000000000000
 50
270.000000000000000
 51
0.000000000000000
  0
LINE
  8
0
  6
CONTINUOUS
 62
256
 10
-227.986641999999990
 20
-170.162160000000000
 11
-139.986641999999990
 21
-170.162160000000000
  0
ARC
  8
0
  6
CONTINUOUS
 62
256
 10
-227.986641999999990
 20
-169.162160000000000
 40
1.000000000000000
 50
180.000000000000000
 51
270.000000000000000
  0
LINE
  8
0
  6
CONTINUOUS
 62
256
 10
-221.986641999999990
 20
-170.662160000000000
 11
-213.986641999999990
 21
-170.662160000000000
  0
LINE
  8
0
  6
CONTINUOUS
 62
256
 10
-153.986641999999990
 20
-170.662160000000000
 11
-145.986641999999990
 21
-170.662160000000000
  0
LINE
  8
0
  6
CONTINUOUS
 62
256
 10
-153.986641999999990
 20
-170.162160000000000
 11
-153.986641999999990
 21
-170.662160000000000
  0
LINE
  8
0
  6
CONTINUOUS
 62
256
 10
-145.986641999999990
 20
-170.162160000000000
 11
-145.986641999999990
 21
-170.662160000000000
  0
LINE
  8
0
  6
CONTINUOUS
 62
256
 10
-213.986641999999990
 20
-170.162160000000000
 11
-213.986641999999990
 21
-170.662160000000000
  0
LINE
  8
0
  6
CONTINUOUS
 62
256
 10
-221.986641999999990
 20
-170.162160000000000
 11
-221.986641999999990
 21
-170.662160000000000
  0
LINE
  8
0
  6
CONTINUOUS
 62
256
 10
-138.986641999999990
 20
-131.162160000000000
 11
-221.186642000000010
 21
-131.162160000000000
  0
POLYLINE
  8
0
  6
CONTINUOUS
 62
256
 66
1
 70
1
  0
VERTEX
  8
0
  6
CONTINUOUS
 62
256
 10
-227.486642000000020
 20
-125.989491000000000
  0
VERTEX
  8
0
  6
CONTINUOUS
 62
256
 10
-227.576951182104840
 20
-125.286534489441830
  0
VERTEX
  8
0
  6
CONTINUOUS
 62
256
 10
-227.844408197196970
 20
-124.610592203361860
  0
VERTEX
  8
0
  6
CONTINUOUS
 62
256
 10
-228.278734822178050
 20
-123.987640224741340
  0
VERTEX
  8
0
  6
CONTINUOUS
 62
256
 10
-228.863240128423230
 20
-123.441618248763150
  0
VERTEX
  8
0
  6
CONTINUOUS
 62
256
 10
-229.575461904807900
 20
-122.993509593751510
  0
VERTEX
  8
0
  6
CONTINUOUS
 62
256
 10
-230.388029867884090
 20
-122.660534824016250
  0
VERTEX
  8
0
  6
CONTINUOUS
 62
256
 10
-231.269717486524200
 20
-122.455489973223930
  0
VERTEX
  8
0
  6
CONTINUOUS
 62
256
 10
-232.186642000000010
 20
-122.386254800000000
  0
VERTEX
  8
0
  6
CONTINUOUS
 62
256
 10
-233.103566513475810
 20
-122.455489973223930
  0
VERTEX
  8
0
  6
CONTINUOUS
 62
256
 10
-233.985254132115930
 20
-122.660534824016250
  0
VERTEX
  8
0
  6
CONTINUOUS
 62
256
 10
-234.797822095192120
 20
-122.993509593751510
  0
VERTEX
  8
0
  6
CONTINUOUS
 62
256
 10
-235.510043871576780
 20
-123.441618248763150
  0
VERTEX
  8
0
  6
CONTINUOUS
 62
256
 10
-236.094549177821960
 20
-123.987640224741340
  0
VERTEX
  8
0
  6
CONTINUOUS
 62
256
 10
-236.528875802803040
 20
-124.610592203361860
  0
VERTEX
  8
0
  6
CONTINUOUS
 62
256
 10
-236.796332817895180
 20
-125.286534489441830
  0
VERTEX
  8
0
  6
CONTINUOUS
 62
256
 10
-236.886641999999990
 20
-125.989491000000000
  0
VERTEX
  8
0
  6
CONTINUOUS
 62
256
 10
-236.796332817895180
 20
-126.692447510558170
  0
VERTEX
  8
0
  6
CONTINUOUS
 62
256
 10
-236.528875802803040
 20
-127.368389796638140
  0
VERTEX
  8
0
  6
CONTINUOUS
 62
256
 10
-236.094549177821960
 20
-127.991341775258660
  0
VERTEX
  8
0
  6
CONTINUOUS
 62
256
 10
-235.510043871576780
 20
-128.537363751236850
  0
VERTEX
  8
0
  6
CONTINUOUS
 62
256
 10
-234.797822095192120
 20
-128.985472406248500
  0
VERTEX
  8
0
  6
CONTINUOUS
 62
256
 10
-233.985254132115930
 20
-129.318447175983750
  0
VERTEX
  8
0
  6
CONTINUOUS
 62
256
 10
-233.103566513475810
 20
-129.523492026776070
  0
VERTEX
  8
0
  6
CONTINUOUS
 62
256
 10
-232.186642000000010
 20
-129.592727199999980
  0
VERTEX
  8
0
  6
CONTINUOUS
 62
256
 10
-231.269717486524200
 20
-129.523492026776070
  0
VERTEX
  8
0
  6
CONTINUOUS
 62
256
 10
-230.388029867884090
 20
-129.318447175983750
  0
VERTEX
  8
0
  6
CONTINUOUS
 62
256
 10
-229.575461904807900
 20
-128.985472406248500
  0
VERTEX
  8
0
  6
CONTINUOUS
 62
256
 10
-228.863240128423260
 20
-128.537363751236850
  0
VERTEX
  8
0
  6
CONTINUOUS
 62
256
 10
-228.278734822178050
 20
-127.991341775258660
  0
VERTEX
  8
0
  6
CONTINUOUS
 62
256
 10
-227.844408197196970
 20
-127.368389796638140
  0
VERTEX
  8
0
  6
CONTINUOUS
 62
256
 10
-227.576951182104840
 20
-126.692447510558170
  0
SEQEND
  8
0
  6
CONTINUOUS
 62
256
  0
LINE
  8
0
  6
CONTINUOUS
 62
256
 10
-234.186642000000010
 20
-128.981866000000000
 11
-232.186642000000010
 21
-127.806081000000010
  0
LINE
  8
0
  6
CONTINUOUS
 62
256
 10
-232.186642000000010
 20
-127.806081000000010
 11
-230.186642000000010
 21
-126.153439000000010
  0
LINE
  8
0
  6
CONTINUOUS
 62
256
 10
-230.186642000000010
 20
-128.981866000000000
 11
-232.186642000000010
 21
-127.806081000000010
  0
LINE
  8
0
  6
CONTINUOUS
 62
256
 10
-232.186642000000010
 20
-127.806081000000010
 11
-234.186642000000010
 21
-126.153439000000010
  0
LINE
  8
0
  6
CONTINUOUS
 62
256
 10
-221.186642000000010
 20
-130.001856000000000
 11
-221.186642000000010
 21
-78.662160000000000
  0
ARC
  8
0
  6
CONTINUOUS
 62
256
 10
-224.186642000000010
 20
-130.001856000000000
 40
3.000000000000000
 50
270.000000000000000
 51
0.000000000000000
  0
LINE
  8
0
  6
CONTINUOUS
 62
256
 10
-228.186642000000010
 20
-133.001856000000000
 11
-224.186642000000010
 21
-133.001856000000000
  0
ARC
  8
0
  6
CONTINUOUS
 62
256
 10
-228.186642000000010
 20
-136.001856000000000
 40
3.000000000000000
 50
90.000000000000000
 51
180.000000000000000
  0
LINE
  8
0
  6
CONTINUOUS
 62
256
 10
-231.186642000000010
 20
-137.662160000000000
 11
-298.691487000000000
 21
-137.662160000000000
  0
LINE
  8
0
  6
CONTINUOUS
 62
256
 10
-231.186642000000010
 20
-137.662160000000000
 11
-231.186642000000010
 21
-136.001856000000000
  0
LINE
  8
0
  6
CONTINUOUS
 62
256
 10
-228.986641999999990
 20
-133.110490000000000
 11
-228.986641999999990
 21
-169.162160000000000
  0
LINE
  8
0
  6
CONTINUOUS
 62
256
 10
-228.986641999999990
 20
-136.162160000000000
 11
-138.986641999999990
 21
-136.162160000000000
  0
POLYLINE
  8
0
  6
CONTINUOUS
 62
256
 66
1
 70
1
  0
VERTEX
  8
0
  6
CONTINUOUS
 62
256
 10
-227.486642000000020
 20
-31.334828999999999
  0
VERTEX
  8
0
  6
CONTINUOUS
 62
256
 10
-227.576951182104840
 20
-30.631872489441832
  0
VERTEX
  8
0
  6
CONTINUOUS
 62
256
 10
-227.844408197196970
 20
-29.955930203361859
  0
VERTEX
  8
0
  6
CONTINUOUS
 62
256
 10
-228.278734822178050
 20
-29.332978224741339
  0
VERTEX
  8
0
  6
CONTINUOUS
 62
256
 10
-228.863240128423230
 20
-28.786956248763158
  0
VERTEX
  8
0
  6
CONTINUOUS
 62
256
 10
-229.575461904807900
 20
-28.338847593751510
  0
VERTEX
  8
0
  6
CONTINUOUS
 62
256
 10
-230.388029867884090
 20
-28.005872824016262
  0
VERTEX
  8
0
  6
CONTINUOUS
 62
256
 10
-231.269717486524200
 20
-27.800827973223939
  0
VERTEX
  8
0
  6
CONTINUOUS
 62
256
 10
-232.186642000000010
 20
-27.731592800000008
  0
VERTEX
  8
0
  6
CONTINUOUS
 62
256
 10
-233.103566513475810
 20
-27.800827973223939
  0
VERTEX
  8
0
  6
CONTINUOUS
 62
256
 10
-233.985254132115930
 20
-28.005872824016262
  0
VERTEX
  8
0
  6
CONTINUOUS
 62
256
 10
-234.797822095192120
 20
-28.338847593751510
  0
VERTEX
  8
0
  6
CONTINUOUS
 62
256
 10
-235.510043871576780
 20
-28.786956248763158
  0
VERTEX
  8
0
  6
CONTINUOUS
 62
256
 10
-236.094549177821960
 20
-29.332978224741339
  0
VERTEX
  8
0
  6
CONTINUOUS
 62
256
 10
-236.528875802803040
 20
-29.955930203361859
  0
VERTEX
  8
0
  6
CONTINUOUS
 62
256
 10
-236.796332817895180
 20
-30.631872489441829
  0
VERTEX
  8
0
  6
CONTINUOUS
 62
256
 10
-236.886641999999990
 20
-31.334828999999999
  0
VERTEX
  8
0
  6
CONTINUOUS
 62
256
 10
-236.796332817895180
 20
-32.037785510558166
  0
VERTEX
  8
0
  6
CONTINUOUS
 62
256
 10
-236.528875802803040
 20
-32.713727796638139
  0
VERTEX
  8
0
  6
CONTINUOUS
 62
256
 10
-236.094549177821960
 20
-33.336679775258659
  0
VERTEX
  8
0
  6
CONTINUOUS
 62
256
 10
-235.510043871576780
 20
-33.882701751236837
  0
VERTEX
  8
0
  6
CONTINUOUS
 62
256
 10
-234.797822095192120
 20
-34.330810406248489
  0
VERTEX
  8
0
  6
CONTINUOUS
 62
256
 10
-233.985254132115930
 20
-34.663785175983733
  0
VERTEX
  8
0
  6
CONTINUOUS
 62
256
 10
-233.103566513475810
 20
-34.868830026776060
  0
VERTEX
  8
0
  6
CONTINUOUS
 62
256
 10
-232.186642000000010
 20
-34.938065199999990
  0
VERTEX
  8
0
  6
CONTINUOUS
 62
256
 10
-231.269717486524200
 20
-34.868830026776060
  0
VERTEX
  8
0
  6
CONTINUOUS
 62
256
 10
-230.388029867884090
 20
-34.663785175983733
  0
VERTEX
  8
0
  6
CONTINUOUS
 62
256
 10
-229.575461904807900
 20
-34.330810406248489
  0
VERTEX
  8
0
  6
CONTINUOUS
 62
256
 10
-228.863240128423260
 20
-33.882701751236837
  0
VERTEX
  8
0
  6
CONTINUOUS
 62
256
 10
-228.278734822178050
 20
-33.336679775258659
  0
VERTEX
  8
0
  6
CONTINUOUS
 62
256
 10
-227.844408197196970
 20
-32.713727796638139
  0
VERTEX
  8
0
  6
CONTINUOUS
 62
256
 10
-227.576951182104840
 20
-32.037785510558166
  0
SEQEND
  8
0
  6
CONTINUOUS
 62
256
  0
LINE
  8
0
  6
CONTINUOUS
 62
256
 10
-234.186642000000010
 20
-28.342452999999999
 11
-232.186642000000010
 21
-29.518239000000001
  0
LINE
  8
0
  6
CONTINUOUS
 62
256
 10
-232.186642000000010
 20
-29.518239000000001
 11
-230.186642000000010
 21
-31.170880000000000
  0
LINE
  8
0
  6
CONTINUOUS
 62
256
 10
-230.186642000000010
 20
-28.342452999999999
 11
-232.186642000000010
 21
-29.518239000000001
  0
LINE
  8
0
  6
CONTINUOUS
 62
256
 10
-232.186642000000010
 20
-29.518239000000001
 11
-234.186642000000010
 21
-31.170880000000000
  0
LINE
  8
0
  6
CONTINUOUS
 62
256
 10
-221.186642000000010
 20
-19.662160000000000
 11
-221.186642000000010
 21
-78.662160000000000
  0
ARC
  8
0
  6
CONTINUOUS
 62
256
 10
-298.691487000000000
 20
-40.262160000000002
 40
20.600000000000001
 50
90.000000000000000
 51
124.999999999999990
  0
ARC
  8
0
  6
CONTINUOUS
 62
256
 10
-316.586641999999980
 20
-30.818539999999999
 40
2.600000000000001
 50
125.000000000000110
 51
180.000000000000000
  0
LINE
  8
0
  6
CONTINUOUS
 62
256
 10
-319.186642000000010
 20
-30.818539999999999
 11
-319.186642000000010
 21
-78.662160000000000
  0
LINE
  8
0
  6
CONTINUOUS
 62
256
 10
-310.507161999999990
 20
-23.387627999999999
 11
-318.077941000000010
 21
-28.688744000000000
  0
LINE
  8
0
  6
CONTINUOUS
 62
256
 10
-221.186642000000010
 20
-19.662160000000000
 11
-298.691487000000000
 21
-19.662160000000000
  0
LINE
  8
0
  6
CONTINUOUS
 62
256
 10
-137.186642000000010
 20
-132.162160000000000
 11
-137.186642000000010
 21
-78.662160000000000
  0
LINE
  8
0
  6
DASHDOT
 62
256
 10
-132.025956000000010
 20
-78.662160000000000
 11
-327.504606000000020
 21
-78.662160000000000
  0
LINE
  8
0
  6
CONTINUOUS
 62
256
 10
-221.186642000000010
 20
-92.662160000000000
 11
-137.186642000000010
 21
-92.662160000000000
  0
LINE
  8
0
  6
CONTINUOUS
 62
256
 10
-221.186642000000010
 20
-97.048275000000004
 11
-137.186642000000010
 21
-97.048275000000004
  0
LINE
  8
0
  6
CONTINUOUS
 62
256
 10
-221.186642000000010
 20
-98.290194000000000
 11
-137.186642000000010
 21
-98.290194000000000
  0
LINE
  8
0
  6
CONTINUOUS
 62
256
 10
-221.186642000000010
 20
-101.500399000000000
 11
-137.186642000000010
 21
-101.500399000000000
  0
LINE
  8
0
  6
CONTINUOUS
 62
256
 10
-221.186642000000010
 20
-102.846801000000000
 11
-137.186642000000010
 21
-102.846801000000000
  0
LINE
  8
0
  6
CONTINUOUS
 62
256
 10
-221.186642000000010
 20
-105.939532000000000
 11
-137.186642000000010
 21
-105.939532000000000
  0
LINE
  8
0
  6
CONTINUOUS
 62
256
 10
-221.186642000000010
 20
-107.418555000000000
 11
-137.186642000000010
 21
-107.418555000000000
  0
LINE
  8
0
  6
CONTINUOUS
 62
256
 10
-221.186642000000010
 20
-110.376551000000010
 11
-137.186642000000010
 21
-110.376551000000010
  0
LINE
  8
0
  6
CONTINUOUS
 62
256
 10
-221.186642000000010
 20
-111.965761000000000
 11
-137.186642000000010
 21
-111.965761000000000
  0
LINE
  8
0
  6
CONTINUOUS
 62
256
 10
-137.186642000000010
 20
-25.162160000000000
 11
-137.186642000000010
 21
-78.662160000000000
  0
LINE
  8
0
  6
CONTINUOUS
 62
256
 10
-221.186642000000010
 20
-27.662160000000000
 11
-137.186642000000010
 21
-27.662160000000000
  0
LINE
  8
0
  6
CONTINUOUS
 62
256
 10
-221.186642000000010
 20
-28.162160000000000
 11
-137.186642000000010
 21
-28.162160000000000
  0
LINE
  8
0
  6
CONTINUOUS
 62
256
 10
-221.186642000000010
 20
-32.529077000000001
 11
-137.186642000000010
 21
-32.529077000000001
  0
LINE
  8
0
  6
CONTINUOUS
 62
256
 10
-221.186642000000010
 20
-37.620246000000002
 11
-137.186642000000010
 21
-37.620246000000002
  0
LINE
  8
0
  6
CONTINUOUS
 62
256
 10
-221.186642000000010
 20
-45.358559000000000
 11
-137.186642000000010
 21
-45.358559000000000
  0
LINE
  8
0
  6
CONTINUOUS
 62
256
 10
-221.186642000000010
 20
-46.947769000000001
 11
-137.186642000000010
 21
-46.947769000000001
  0
LINE
  8
0
  6
CONTINUOUS
 62
256
 10
-221.186642000000010
 20
-49.905763999999998
 11
-137.186642000000010
 21
-49.905763999999998
  0
LINE
  8
0
  6
CONTINUOUS
 62
256
 10
-221.186642000000010
 20
-51.384787000000003
 11
-137.186642000000010
 21
-51.384787000000003
  0
LINE
  8
0
  6
CONTINUOUS
 62
256
 10
-221.186642000000010
 20
-54.477518000000003
 11
-137.186642000000010
 21
-54.477518000000003
  0
LINE
  8
0
  6
CONTINUOUS
 62
256
 10
-221.186642000000010
 20
-55.823920000000001
 11
-137.186642000000010
 21
-55.823920000000001
  0
LINE
  8
0
  6
CONTINUOUS
 62
256
 10
-221.186642000000010
 20
-60.276045000000003
 11
-137.186642000000010
 21
-60.276045000000003
  0
LINE
  8
0
  6
CONTINUOUS
 62
256
 10
-221.186642000000010
 20
-59.034125000000003
 11
-137.186642000000010
 21
-59.034125000000003
  0
LINE
  8
0
  6
CONTINUOUS
 62
256
 10
-221.186642000000010
 20
-64.662160000000000
 11
-137.186642000000010
 21
-64.662160000000000
  0
LINE
  8
0
  6
CONTINUOUS
 62
256
 10
-137.186642000000010
 20
-25.162160000000000
 11
-221.186642000000010
 21
-25.162160000000000
  0
LINE
  8
0
  6
DASHDOT
 62
256
 10
387.343502000000000
 20
-65.662160000000000
 11
505.637265000000010
 21
-65.662160000000000
  0
LINE
  8
0
  6
DASHDOT
 62
256
 10
455.872302999999990
 20
-78.662160000000000
 11
440.371739999999990
 21
-78.662160000000000
  0
ARC
  8
0
  6
CONTINUOUS
 62
256
 10
500.964232999999980
 20
-59.162160000000000
 40
0.500000000000000
 50
0.000000000000000
 51
90.000000000000000
  0
ARC
  8
0
  6
CONTINUOUS
 62
256
 10
394.964232999999980
 20
-98.162160000000000
 40
0.500000000000000
 50
180.000000000000000
 51
270.000000000000000
  0
ARC
  8
0
  6
CONTINUOUS
 62
256
 10
394.964232999999980
 20
-59.162160000000000
 40
0.500000000000000
 50
90.000000000000000
 51
180.000000000000000
  0
ARC
  8
0
  6
CONTINUOUS
 62
256
 10
394.964232999999980
 20
-58.162160000000000
 40
0.500000000000000
 50
270.000000000000000
 51
0.000000000000000
  0
ARC
  8
0
  6
CONTINUOUS
 62
256
 10
394.964232999999980
 20
-99.162160000000000
 40
0.500000000000000
 50
0.000000000000000
 51
90.000000000000000
  0
ARC
  8
0
  6
CONTINUOUS
 62
256
 10
500.964232999999980
 20
-98.162160000000000
 40
0.500000000000000
 50
270.000000000000000
 51
0.000000000000000
  0
ARC
  8
0
  6
CONTINUOUS
 62
256
 10
500.964232999999980
 20
-99.162160000000000
 40
0.500000000000000
 50
90.000000000000000
 51
180.000000000000000
  0
ARC
  8
0
  6
CONTINUOUS
 62
256
 10
500.964232999999980
 20
-58.162160000000000
 40
0.500000000000000
 50
180.000000000000000
 51
270.000000000000000
  0
ARC
  8
0
  6
CONTINUOUS
 62
256
 10
402.931877999999980
 20
-119.451874000000000
 40
3.000000000000014
 50
135.000000000000200
 51
217.162520000000170
  0
ARC
  8
0
  6
CONTINUOUS
 62
256
 10
404.872514000000020
 20
-121.683058000000000
 40
3.000000000000017
 50
224.869578999999560
 51
262.178139999999640
  0
ARC
  8
0
  6
CONTINUOUS
 62
256
 10
491.055951999999990
 20
-121.683058000000000
 40
3.000000000000008
 50
277.821860000000360
 51
315.130421000000410
  0
ARC
  8
0
  6
CONTINUOUS
 62
256
 10
492.996587999999970
 20
-119.451874000000000
 40
2.999999999999989
 50
322.837479999999800
 51
44.999999999999808
  0
ARC
  8
0
  6
CONTINUOUS
 62
256
 10
492.996587999999970
 20
-37.872444999999999
 40
2.999999999999981
 50
325.340699999999740
 51
34.659300000000293
  0
ARC
  8
0
  6
CONTINUOUS
 62
256
 10
795.464233000000040
 20
-58.662160000000000
 40
400.000000000000000
 50
178.568016000000000
 51
179.928470000000000
  0
ARC
  8
0
  6
CONTINUOUS
 62
256
 10
420.464232999999980
 20
-51.162160000000000
 40
25.000000000000011
 50
143.130101999999990
 51
174.269825000000000
  0
ARC
  8
0
  6
CONTINUOUS
 62
256
 10
795.464233000000040
 20
-98.662160000000000
 40
400.000000000000000
 50
180.071529999999970
 51
180.859540999999980
  0
ARC
  8
0
  6
CONTINUOUS
 62
256
 10
420.464232999999980
 20
-106.162160000000000
 40
25.000000000000007
 50
176.561350000000000
 51
230.208180999999940
  0
ARC
  8
0
  6
CONTINUOUS
 62
256
 10
100.464232999999990
 20
-98.662160000000000
 40
400.000000000000000
 50
358.568016000000060
 51
359.928470000000000
  0
ARC
  8
0
  6
CONTINUOUS
 62
256
 10
475.464232999999980
 20
-106.162160000000000
 40
24.999999999999986
 50
309.791818999999920
 51
354.269824999999970
  0
ARC
  8
0
  6
CONTINUOUS
 62
256
 10
100.464232999999990
 20
-58.662160000000000
 40
399.999999999999940
 50
0.053000000000000
 51
1.431984000000000
  0
ARC
  8
0
  6
CONTINUOUS
 62
256
 10
475.464232999999980
 20
-51.162160000000000
 40
24.999999999999979
 50
5.730174999999997
 51
36.869897999999985
  0
LINE
  8
0
  6
CONTINUOUS
 62
256
 10
394.464232999999980
 20
-59.162160000000000
 11
394.464232999999980
 21
-98.162160000000000
  0
LINE
  8
0
  6
CONTINUOUS
 62
256
 10
501.464232999999980
 20
-98.162160000000000
 11
501.464232999999980
 21
-59.162160000000000
  0
LINE
  8
0
  6
CONTINUOUS
 62
256
 10
404.464232999999980
 20
-113.676878000000000
 11
400.810557000000020
 21
-117.330554000000010
  0
LINE
  8
0
  6
CONTINUOUS
 62
256
 10
491.464232999999980
 20
-113.676878000000000
 11
495.117909000000000
 21
-117.330554000000010
  0
ARC
  8
0
  6
CONTINUOUS
 62
256
 10
402.931877999999980
 20
-37.872444999999999
 40
2.999999999999981
 50
145.340699999999710
 51
214.659300000000290
  0
LINE
  8
0
  6
CONTINUOUS
 62
256
 10
400.464232999999980
 20
-28.162160000000000
 11
400.464232999999980
 21
-103.162160000000000
  0
LINE
  8
0
  6
CONTINUOUS
 62
256
 10
400.464232999999980
 20
-28.162160000000000
 11
404.464232999999980
 21
-28.162160000000000
  0
LINE
  8
0
  6
CONTINUOUS
 62
256
 10
404.464232999999980
 20
-12.854165000000000
 11
404.464232999999980
 21
-139.470154000000010
  0
LINE
  8
0
  6
CONTINUOUS
 62
256
 10
400.464232999999980
 20
-103.162160000000000
 11
404.464232999999980
 21
-103.162160000000000
  0
LINE
  8
0
  6
CONTINUOUS
 62
256
 10
491.464232999999980
 20
-28.170887000000000
 11
495.464232999999980
 21
-28.170887000000000
  0
LINE
  8
0
  6
CONTINUOUS
 62
256
 10
495.464232999999980
 20
-28.170887000000000
 11
495.464232999999980
 21
-103.153432000000000
  0
LINE
  8
0
  6
CONTINUOUS
 62
256
 10
481.964232999999980
 20
-13.831649000000001
 11
491.464232999999980
 21
-13.831649000000001
  0
LINE
  8
0
  6
CONTINUOUS
 62
256
 10
491.464232999999980
 20
-124.943800000000000
 11
491.464232999999980
 21
-13.831649000000001
  0
LINE
  8
0
  6
CONTINUOUS
 62
256
 10
414.964232999999980
 20
-12.653432000000000
 11
414.964232999999980
 21
-17.162160000000000
  0
LINE
  8
0
  6
CONTINUOUS
 62
256
 10
414.964232999999980
 20
-130.549657000000000
 11
414.964232999999980
 21
-16.153431999999999
  0
LINE
  8
0
  6
CONTINUOUS
 62
256
 10
414.964232999999980
 20
-12.662160000000000
 11
481.964232999999980
 21
-13.831649000000001
  0
LINE
  8
0
  6
CONTINUOUS
 62
256
 10
414.964232999999980
 20
-12.670887000000000
 11
404.464232999999980
 21
-12.854165000000000
  0
LINE
  8
0
  6
CONTINUOUS
 62
256
 10
491.464232999999980
 20
-103.153432000000000
 11
495.464232999999980
 21
-103.153432000000000
  0
LINE
  8
0
  6
CONTINUOUS
 62
256
 10
481.964232999999980
 20
-138.510124999999990
 11
491.464232999999980
 21
-138.510124999999990
  0
LINE
  8
0
  6
CONTINUOUS
 62
256
 10
491.464232999999980
 20
-138.510124999999990
 11
491.464232999999980
 21
-124.943800000000000
  0
LINE
  8
0
  6
CONTINUOUS
 62
256
 10
414.964232999999980
 20
-139.679615000000010
 11
481.964232999999980
 21
-138.510124999999990
  0
LINE
  8
0
  6
CONTINUOUS
 62
256
 10
414.964232999999980
 20
-139.679615000000010
 11
414.964232999999980
 21
-135.170886999999990
  0
LINE
  8
0
  6
CONTINUOUS
 62
256
 10
414.964232999999980
 20
-139.679615000000010
 11
414.964232999999980
 21
-130.549657000000000
  0
LINE
  8
0
  6
CONTINUOUS
 62
256
 10
415.714232999999980
 20
-139.666524000000010
 11
404.464232999999980
 21
-139.470154000000010
  0
LINE
  8
0
  6
CONTINUOUS
 62
256
 10
397.464232999999980
 20
-46.662160000000000
 11
400.464232999999980
 21
-46.662160000000000
  0
ARC
  8
0
  6
CONTINUOUS
 62
256
 10
397.464232999999980
 20
-47.662160000000000
 40
1.000000000000000
 50
90.000000000000000
 51
180.000000000000000
  0
LINE
  8
0
  6
CONTINUOUS
 62
256
 10
396.464232999999980
 20
-47.662160000000000
 11
396.464232999999980
 21
-65.662160000000000
  0
LINE
  8
0
  6
CONTINUOUS
 62
256
 10
397.464232999999980
 20
-84.662160000000000
 11
400.464232999999980
 21
-84.662160000000000
  0
ARC
  8
0
  6
CONTINUOUS
 62
256
 10
397.464232999999980
 20
-83.662160000000000
 40
1.000000000000000
 50
180.000000000000000
 51
270.000000000000000
  0
LINE
  8
0
  6
CONTINUOUS
 62
256
 10
396.464232999999980
 20
-83.662160000000000
 11
396.464232999999980
 21
-65.662160000000000
  0
ARC
  8
0
  6
CONTINUOUS
 62
256
 10
447.964232999999980
 20
-78.662160000000000
 40
53.500000000000028
 50
164.284144000000030
 51
215.601638999999980
  0
LINE
  8
0
  6
CONTINUOUS
 62
256
 10
498.464232999999980
 20
-84.662160000000000
 11
495.464232999999980
 21
-84.662160000000000
  0
ARC
  8
0
  6
CONTINUOUS
 62
256
 10
498.464232999999980
 20
-83.662160000000000
 40
1.000000000000000
 50
270.000000000000000
 51
0.000000000000000
  0
LINE
  8
0
  6
CONTINUOUS
 62
256
 10
499.464232999999980
 20
-83.662160000000000
 11
499.464232999999980
 21
-65.662160000000000
  0
LINE
  8
0
  6
CONTINUOUS
 62
256
 10
499.464232999999980
 20
-47.662160000000000
 11
499.464232999999980
 21
-65.662160000000000
  0
LINE
  8
0
  6
CONTINUOUS
 62
256
 10
498.464232999999980
 20
-46.662160000000000
 11
495.464232999999980
 21
-46.662160000000000
  0
ARC
  8
0
  6
CONTINUOUS
 62
256
 10
498.464232999999980
 20
-47.662160000000000
 40
1.000000000000000
 50
0.000000000000000
 51
90.000000000000000
  0
ARC
  8
0
  6
CONTINUOUS
 62
256
 10
447.964232999999980
 20
-78.662160000000000
 40
53.499999999999986
 50
324.398360999999970
 51
15.715855999999983
  0
LINE
  8
0
  6
CONTINUOUS
 62
256
 10
400.464232999999980
 20
-31.975536000000002
 11
397.875382000000000
 21
-34.564388000000001
  0
LINE
  8
0
  6
CONTINUOUS
 62
256
 10
495.464232999999980
 20
-31.975536000000002
 11
498.053085000000010
 21
-34.564388000000001
  0
ARC
  8
0
  6
CONTINUOUS
 62
256
 10
101.364233000000000
 20
-78.662160000000000
 40
400.600000000000020
 50
354.256318000000020
 51
0.000000000000000
  0
ARC
  8
0
  6
CONTINUOUS
 62
256
 10
493.386180000000020
 20
-118.093027000000010
 40
6.600000000000017
 50
315.000000000000170
 51
354.256318000000020
  0
LINE
  8
0
  6
CONTINUOUS
 62
256
 10
491.464232999999980
 20
-129.348783000000000
 11
498.053085000000010
 21
-122.759930999999990
  0
ARC
  8
0
  6
CONTINUOUS
 62
256
 10
101.364233000000000
 20
-78.662160000000000
 40
400.600000000000020
 50
0.000000000000000
 51
5.743682000000000
  0
ARC
  8
0
  6
CONTINUOUS
 62
256
 10
493.386180000000020
 20
-39.231293000000001
 40
6.599999999999972
 50
5.743682000000001
 51
44.999999999999829
  0
LINE
  8
0
  6
CONTINUOUS
 62
256
 10
483.964232999999980
 20
-138.510124999999990
 11
483.964232999999980
 21
-163.528825000000010
  0
LINE
  8
0
  6
CONTINUOUS
 62
256
 10
411.964232999999980
 20
-139.601067000000000
 11
411.964232999999980
 21
-163.528825000000010
  0
LINE
  8
0
  6
CONTINUOUS
 62
256
 10
450.464232999999980
 20
-170.662160000000000
 11
450.464232999999980
 21
-170.151743000000010
  0
LINE
  8
0
  6
CONTINUOUS
 62
256
 10
445.464232999999980
 20
-170.662160000000000
 11
450.464232999999980
 21
-170.662160000000000
  0
LINE
  8
0
  6
CONTINUOUS
 62
256
 10
445.464232999999980
 20
-170.662160000000000
 11
445.464232999999980
 21
-170.151743000000010
  0
ARC
  8
0
  6
CONTINUOUS
 62
256
 10
416.964232999999980
 20
-163.528825000000010
 40
5.000000000000000
 50
180.000000000000000
 51
263.967950999999970
  0
ARC
  8
0
  6
CONTINUOUS
 62
256
 10
478.964232999999980
 20
-163.528825000000010
 40
5.000000000000002
 50
276.032049000000030
 51
0.000000000000000
  0
ARC
  8
0
  6
CONTINUOUS
 62
256
 10
447.964232999999980
 20
129.837840000000000
 40
300.000000000000000
 50
263.967951000000030
 51
276.032048999999970
  0
LINE
  8
0
  6
CONTINUOUS
 62
256
 10
404.464232999999980
 20
-129.348783000000000
 11
397.875382000000000
 21
-122.759930999999990
  0
ARC
  8
0
  6
CONTINUOUS
 62
256
 10
794.564232999999940
 20
-78.662160000000000
 40
400.600000000000020
 50
180.000000000000000
 51
185.743681999999980
  0
ARC
  8
0
  6
CONTINUOUS
 62
256
 10
402.542285999999990
 20
-118.093027000000010
 40
6.599999999999973
 50
185.743682000000060
 51
224.999999999999830
  0
ARC
  8
0
  6
CONTINUOUS
 62
256
 10
794.564232999999940
 20
-78.662160000000000
 40
400.600000000000080
 50
174.256317999999990
 51
180.000000000000000
  0
ARC
  8
0
  6
CONTINUOUS
 62
256
 10
402.542285999999990
 20
-39.231293000000001
 40
6.600000000000017
 50
135.000000000000170
 51
174.256317999999940
  0
LINE
  8
0
  6
DASHDOT
 62
256
 10
402.926463000000010
 20
-23.662160000000000
 11
492.743417000000020
 21
-23.662160000000000
  0
LINE
  8
0
  6
DASHDOT
 62
256
 10
403.003424000000000
 20
-128.662160000000000
 11
493.227398999999990
 21
-128.662160000000000
  0
ENDSEC
  0
EOF
