  0
SECTION
  2
HEADER
  9
$TEXTSIZE
 40
2.5
  9
$ACADVER
  1
AC1009
  9
$DIMASZ
 40
3.863703297614046
  9
$DIMEXE
 40
2.000000000000000
  9
$DIMEXO
 40
1.000000000000000
  9
$DIMLFAC
 40
1.000000000000000
  9
$DIMSCALE
 40
1.000000000000000
  9
$DIMTAD
 70
1
  9
$DIMTFAC
 40
0.625000000000000
  9
$DIMTXT
 40
3.200000047683716
  9
$LUPREC
 70
3
  9
$REGENMODE
 70
1
  9
$TEXTSTYLE
  7
STANDARD1
  0
ENDSEC
  0
SECTION
  2
TABLES
  0
TABLE
  2
LTYPE
 70
4
  0
LTYPE
  2
CONTINUOUS
 70
64
  3
Solid line
 72
65
 73
0
 40
0.0
  0
LTYPE
  2
DASHED
 70
64
  3
-- -- -- -- -- -- -- -- -- -- -- -- -- -- --
 72
65
 73
2
 40
0.75
 49
0.5
 49
-0.25
  0
LTYPE
  2
DASHDOT
 70
64
  3
__ . __ . __ . __ . __ . __ . __ . __ . __ . __
 72
65
 73
4
 40
1.0
 49
0.5
 49
-0.25
 49
0.0
 49
-0.25
  0
LTYPE
  2
DIVIDE
 70
64
  3
__ . . __ . . __ . . __ . . __ . . __ . . __
 72
65
 73
6
 40
1.25
 49
0.5
 49
-0.25
 49
0.0
 49
-0.25
 49
0.0
 49
-0.25
  0
ENDTAB
  0
TABLE
  2
LAYER
 70
3
  0
LAYER
  2
0
 70
64
 62
53
  6
CONTINUOUS
  0
LAYER
  2
1
 70
64
 62
102
  6
CONTINUOUS
  0
LAYER
  2
2
 70
64
 62
102
  6
CONTINUOUS
  0
ENDTAB
  0
TABLE
  2
STYLE
 70
4
  0
STYLE
  2
STANDARD1
 70
64
 40
0.0
 41
1.0
 50
0.0
 71
0
 42
3.200000047683716
  3
MONOTXT
  4
BIGFONT
  0
STYLE
  2
STANDARD2
 70
68
 40
0.0
 41
1.0
 50
0.0
 71
0
 42
3.200000047683716
  3
MONOTXT
  4
BIGFONT
  0
STYLE
  2
STANDARD3
 70
64
 40
0.0
 41
1.0
 50
0.0
 71
0
 42
3.200000047683716
  3
MONOTXT
  4

  0
STYLE
  2
STANDARD4
 70
68
 40
0.0
 41
1.0
 50
0.0
 71
0
 42
3.200000047683716
  3
MONOTXT
  4

  0
ENDTAB
  0
TABLE
  2
VIEW
 70
0
  0
ENDTAB
  0
ENDSEC
  0
SECTION
  2
BLOCKS
  0
BLOCK
  8
0
  2
ZU_SYM_1
 70
64
 10
0.000000000000000
 20
0.000000000000000
  0
LINE
  8
0
  6
CONTINUOUS
 62
256
 10
2.499999000000000
 20
-1.443374000000000
 11
-0.000005000000000
 21
-2.886748000000000
  0
LINE
  8
0
  6
CONTINUOUS
 62
256
 10
0.000005000000000
 20
2.886748000000000
 11
-2.500000000000000
 21
1.443377000000000
  0
LINE
  8
0
  6
CONTINUOUS
 62
256
 10
-0.000006000000000
 20
-2.886747000000000
 11
-2.499998000000000
 21
-1.443372000000000
  0
LINE
  8
0
  6
CONTINUOUS
 62
256
 10
0.000005000000000
 20
2.886749000000000
 11
2.499999000000000
 21
1.443372000000000
  0
LINE
  8
0
  6
CONTINUOUS
 62
256
 10
2.499998000000000
 20
1.443372000000000
 11
2.499999000000000
 21
-1.443374000000000
  0
LINE
  8
0
  6
CONTINUOUS
 62
256
 10
-2.499998000000000
 20
-1.443372000000000
 11
-2.499999000000000
 21
1.443378000000000
  0
POINT
  8
0
  6
CONTINUOUS
 62
256
 10
0.000000000000000
 20
0.000000000000000
  0
CIRCLE
  8
0
  6
CONTINUOUS
 62
256
 10
0.000000000000000
 20
0.000000000000000
 40
5.000000000000000
  0
ENDBLK
  8
0
  0
BLOCK
  8
0
  2
ZU_SYM_2
 70
64
 10
0.000000000000000
 20
0.000000000000000
  0
LINE
  8
0
  6
CONTINUOUS
 62
256
 10
2.499999000000000
 20
-1.443374000000000
 11
-0.000005000000000
 21
-2.886748000000000
  0
LINE
  8
0
  6
CONTINUOUS
 62
256
 10
0.000005000000000
 20
2.886748000000000
 11
-2.500000000000000
 21
1.443377000000000
  0
LINE
  8
0
  6
CONTINUOUS
 62
256
 10
-0.000006000000000
 20
-2.886747000000000
 11
-2.499998000000000
 21
-1.443372000000000
  0
LINE
  8
0
  6
CONTINUOUS
 62
256
 10
0.000005000000000
 20
2.886749000000000
 11
2.499999000000000
 21
1.443372000000000
  0
LINE
  8
0
  6
CONTINUOUS
 62
256
 10
2.499998000000000
 20
1.443372000000000
 11
2.499999000000000
 21
-1.443374000000000
  0
LINE
  8
0
  6
CONTINUOUS
 62
256
 10
-2.499998000000000
 20
-1.443372000000000
 11
-2.499999000000000
 21
1.443378000000000
  0
POINT
  8
0
  6
CONTINUOUS
 62
256
 10
0.000000000000000
 20
0.000000000000000
  0
CIRCLE
  8
0
  6
CONTINUOUS
 62
256
 10
0.000000000000000
 20
0.000000000000000
 40
5.000000000000000
  0
ENDBLK
  8
0
  0
BLOCK
  8
0
  2
ZU_SYM_3
 70
64
 10
0.000000000000000
 20
0.000000000000000
  0
LINE
  8
0
  6
CONTINUOUS
 62
256
 10
2.499999000000000
 20
-1.443374000000000
 11
-0.000005000000000
 21
-2.886748000000000
  0
LINE
  8
0
  6
CONTINUOUS
 62
256
 10
0.000005000000000
 20
2.886748000000000
 11
-2.500000000000000
 21
1.443377000000000
  0
LINE
  8
0
  6
CONTINUOUS
 62
256
 10
-0.000006000000000
 20
-2.886747000000000
 11
-2.499998000000000
 21
-1.443372000000000
  0
LINE
  8
0
  6
CONTINUOUS
 62
256
 10
0.000005000000000
 20
2.886749000000000
 11
2.499999000000000
 21
1.443372000000000
  0
LINE
  8
0
  6
CONTINUOUS
 62
256
 10
2.499998000000000
 20
1.443372000000000
 11
2.499999000000000
 21
-1.443374000000000
  0
LINE
  8
0
  6
CONTINUOUS
 62
256
 10
-2.499998000000000
 20
-1.443372000000000
 11
-2.499999000000000
 21
1.443378000000000
  0
POINT
  8
0
  6
CONTINUOUS
 62
256
 10
0.000000000000000
 20
0.000000000000000
  0
CIRCLE
  8
0
  6
CONTINUOUS
 62
256
 10
0.000000000000000
 20
0.000000000000000
 40
5.000000000000000
  0
ENDBLK
  8
0
  0
BLOCK
  8
0
  2
ZU_SYM_4
 70
64
 10
0.000000000000000
 20
0.000000000000000
  0
LINE
  8
0
  6
CONTINUOUS
 62
256
 10
2.499999000000000
 20
-1.443374000000000
 11
-0.000005000000000
 21
-2.886748000000000
  0
LINE
  8
0
  6
CONTINUOUS
 62
256
 10
0.000005000000000
 20
2.886748000000000
 11
-2.500000000000000
 21
1.443377000000000
  0
LINE
  8
0
  6
CONTINUOUS
 62
256
 10
-0.000006000000000
 20
-2.886747000000000
 11
-2.499998000000000
 21
-1.443372000000000
  0
LINE
  8
0
  6
CONTINUOUS
 62
256
 10
0.000005000000000
 20
2.886749000000000
 11
2.499999000000000
 21
1.443372000000000
  0
LINE
  8
0
  6
CONTINUOUS
 62
256
 10
2.499998000000000
 20
1.443372000000000
 11
2.499999000000000
 21
-1.443374000000000
  0
LINE
  8
0
  6
CONTINUOUS
 62
256
 10
-2.499998000000000
 20
-1.443372000000000
 11
-2.499999000000000
 21
1.443378000000000
  0
POINT
  8
0
  6
CONTINUOUS
 62
256
 10
0.000000000000000
 20
0.000000000000000
  0
CIRCLE
  8
0
  6
CONTINUOUS
 62
256
 10
0.000000000000000
 20
0.000000000000000
 40
5.000000000000000
  0
ENDBLK
  8
0
  0
ENDSEC
  0
SECTION
  2
ENTITIES
  0
TEXT
  8
0
  6
CONTINUOUS
 62
256
 10
-70.375488281250000
 20
-13.156250000000000
 40
2.799999952316284
  1
ü@
 50
0.000002504478167
 41
0.996000017370497
  7
STANDARD1
  0
TEXT
  8
0
  6
CONTINUOUS
 62
256
 10
1.624511957168579
 20
-253.406250000000000
 40
2.799999952316284
  1
ü@
 50
0.000002504478167
 41
0.996000017370497
  7
STANDARD1
  0
CIRCLE
  8
0
  6
CONTINUOUS
 62
256
 10
-7.620495000000000
 20
-56.839882000000003
 40
8.500000000000000
  0
CIRCLE
  8
0
  6
CONTINUOUS
 62
256
 10
-141.620495000000010
 20
-56.839882000000003
 40
8.500000000000000
  0
CIRCLE
  8
0
  6
CONTINUOUS
 62
256
 10
-141.620495000000010
 20
-178.839881999999990
 40
8.500000000000000
  0
CIRCLE
  8
0
  6
CONTINUOUS
 62
256
 10
-7.620495000000000
 20
-178.839881999999990
 40
8.500000000000000
  0
LINE
  8
0
  6
DASHED
 62
256
 10
387.530379999999980
 20
-48.339882000000003
 11
374.530379999999980
 21
-48.339882000000003
  0
LINE
  8
0
  6
DASHED
 62
256
 10
387.530379999999980
 20
-48.339882000000003
 11
387.530379999999980
 21
-65.339882000000003
  0
LINE
  8
0
  6
DASHED
 62
256
 10
459.530379999999980
 20
-51.339882000000003
 11
387.530379999999980
 21
-51.339882000000003
  0
LINE
  8
0
  6
DASHED
 62
256
 10
459.530379999999980
 20
-62.339882000000003
 11
387.530379999999980
 21
-62.339882000000003
  0
LINE
  8
0
  6
DASHED
 62
256
 10
387.530379999999980
 20
-65.339882000000003
 11
374.530379999999980
 21
-65.339882000000003
  0
LINE
  8
0
  6
DASHED
 62
256
 10
472.530379999999980
 20
-48.339882000000003
 11
459.530379999999980
 21
-48.339882000000003
  0
LINE
  8
0
  6
DASHED
 62
256
 10
459.530379999999980
 20
-48.339882000000003
 11
459.530379999999980
 21
-65.339882000000003
  0
LINE
  8
0
  6
DASHED
 62
256
 10
472.530379999999980
 20
-65.339882000000003
 11
459.530379999999980
 21
-65.339882000000003
  0
LINE
  8
0
  6
DASHED
 62
256
 10
387.530379999999980
 20
-170.339881999999990
 11
374.530379999999980
 21
-170.339881999999990
  0
LINE
  8
0
  6
DASHED
 62
256
 10
459.530379999999980
 20
-173.339881999999990
 11
387.530379999999980
 21
-173.339881999999990
  0
LINE
  8
0
  6
DASHED
 62
256
 10
387.530379999999980
 20
-170.339881999999990
 11
387.530379999999980
 21
-187.339881999999990
  0
LINE
  8
0
  6
DASHED
 62
256
 10
459.530379999999980
 20
-184.339881999999990
 11
387.530379999999980
 21
-184.339881999999990
  0
LINE
  8
0
  6
DASHED
 62
256
 10
387.530379999999980
 20
-187.339881999999990
 11
374.530379999999980
 21
-187.339881999999990
  0
LINE
  8
0
  6
DASHED
 62
256
 10
459.530379999999980
 20
-170.339881999999990
 11
459.530379999999980
 21
-187.339881999999990
  0
LINE
  8
0
  6
DASHED
 62
256
 10
472.530379999999980
 20
-170.339881999999990
 11
459.530379999999980
 21
-170.339881999999990
  0
LINE
  8
0
  6
DASHED
 62
256
 10
472.530379999999980
 20
-187.339881999999990
 11
459.530379999999980
 21
-187.339881999999990
  0
LINE
  8
0
  6
DASHDOT
 62
256
 10
-55.620494999999998
 20
164.671519999999990
 11
-55.620494999999998
 21
36.719057999999997
  0
LINE
  8
0
  6
CONTINUOUS
 62
256
 10
-76.620495000000005
 20
158.211160000000010
 11
-55.620494999999998
 21
158.211160000000010
  0
ARC
  8
0
  6
CONTINUOUS
 62
256
 10
-76.620495000000005
 20
157.211160000000010
 40
1.000000000000000
 50
90.000000000000000
 51
180.000000000000000
  0
LINE
  8
0
  6
CONTINUOUS
 62
256
 10
-77.620495000000005
 20
154.211160000000010
 11
-77.620495000000005
 21
157.211160000000010
  0
LINE
  8
0
  6
CONTINUOUS
 62
256
 10
-34.620494999999998
 20
158.211160000000010
 11
-55.620494999999998
 21
158.211160000000010
  0
ARC
  8
0
  6
CONTINUOUS
 62
256
 10
-34.620494999999998
 20
157.211160000000010
 40
1.000000000000000
 50
0.000000000000000
 51
90.000000000000000
  0
LINE
  8
0
  6
CONTINUOUS
 62
256
 10
-33.620494999999998
 20
154.211160000000010
 11
-33.620494999999998
 21
157.211160000000010
  0
LINE
  8
0
  6
CONTINUOUS
 62
256
 10
-76.620495000000005
 20
44.211160000000000
 11
-55.620494999999998
 21
44.211160000000000
  0
ARC
  8
0
  6
CONTINUOUS
 62
256
 10
-76.620495000000005
 20
45.211160000000000
 40
1.000000000000000
 50
180.000000000000000
 51
270.000000000000000
  0
LINE
  8
0
  6
CONTINUOUS
 62
256
 10
-77.620495000000005
 20
48.211160000000000
 11
-77.620495000000005
 21
45.211160000000000
  0
LINE
  8
0
  6
CONTINUOUS
 62
256
 10
-34.620494999999998
 20
44.211160000000000
 11
-55.620494999999998
 21
44.211160000000000
  0
ARC
  8
0
  6
CONTINUOUS
 62
256
 10
-34.620494999999998
 20
45.211160000000000
 40
1.000000000000000
 50
270.000000000000000
 51
0.000000000000000
  0
LINE
  8
0
  6
CONTINUOUS
 62
256
 10
-33.620494999999998
 20
48.211160000000000
 11
-33.620494999999998
 21
45.211160000000000
  0
ARC
  8
0
  6
CONTINUOUS
 62
256
 10
-162.120495000000010
 20
143.711160000000010
 40
3.000000000000000
 50
180.000000000000000
 51
270.000000000000000
  0
LINE
  8
0
  6
CONTINUOUS
 62
256
 10
-162.120495000000010
 20
66.211160000000007
 11
-156.812805999999990
 21
66.211160000000007
  0
ARC
  8
0
  6
CONTINUOUS
 62
256
 10
-162.120495000000010
 20
63.211160000000000
 40
3.000000000000007
 50
90.000000000000000
 51
180.000000000000000
  0
ARC
  8
0
  6
CONTINUOUS
 62
256
 10
-168.120495000000010
 20
62.764052999999997
 40
3.000000000000000
 50
270.000000000000000
 51
0.000000000000000
  0
ARC
  8
0
  6
CONTINUOUS
 62
256
 10
-168.120495000000010
 20
59.693705000000001
 40
3.000000000000000
 50
270.000000000000000
 51
0.000000000000000
  0
LINE
  8
0
  6
CONTINUOUS
 62
256
 10
-175.120495000000010
 20
56.693705000000001
 11
-168.120495000000010
 21
56.693705000000001
  0
LINE
  8
0
  6
CONTINUOUS
 62
256
 10
-176.120495000000010
 20
59.764052999999997
 11
-168.120495000000010
 21
59.764052999999997
  0
ARC
  8
0
  6
CONTINUOUS
 62
256
 10
-180.120495000000010
 20
49.641643999999999
 40
1.999999999999998
 50
268.999999999999830
 51
0.000000000000000
  0
LINE
  8
0
  6
CONTINUOUS
 62
256
 10
-178.120495000000010
 20
53.693705000000001
 11
-178.120495000000010
 21
49.641643999999999
  0
ARC
  8
0
  6
CONTINUOUS
 62
256
 10
-175.120495000000010
 20
70.301539000000005
 40
3.000000000000000
 50
180.000000000000000
 51
270.000000000000000
  0
ARC
  8
0
  6
CONTINUOUS
 62
256
 10
-176.120495000000010
 20
61.764052999999997
 40
2.000000000000000
 50
180.000000000000000
 51
270.000000000000000
  0
LINE
  8
0
  6
CONTINUOUS
 62
256
 10
-169.815813999999990
 20
67.301539000000005
 11
-175.120495000000010
 21
67.301539000000005
  0
ARC
  8
0
  6
CONTINUOUS
 62
256
 10
-175.120495000000010
 20
53.693705000000001
 40
3.000000000000000
 50
90.000000000000000
 51
180.000000000000000
  0
LINE
  8
0
  6
CONTINUOUS
 62
256
 10
-178.120495000000010
 20
81.193704999999994
 11
-183.120495000000010
 21
81.193704999999994
  0
LINE
  8
0
  6
CONTINUOUS
 62
256
 10
-178.120495000000010
 20
101.193704999999990
 11
-178.120495000000010
 21
61.764052999999997
  0
LINE
  8
0
  6
CONTINUOUS
 62
256
 10
-165.120495000000010
 20
151.972531000000000
 11
-165.120495000000010
 21
50.414878000000002
  0
ARC
  8
0
  6
CONTINUOUS
 62
256
 10
-168.120495000000010
 20
139.623356000000000
 40
3.000000000000000
 50
0.000000000000000
 51
90.000000000000000
  0
ARC
  8
0
  6
CONTINUOUS
 62
256
 10
-168.120495000000010
 20
142.693704999999990
 40
3.000000000000000
 50
0.000000000000000
 51
90.000000000000000
  0
LINE
  8
0
  6
CONTINUOUS
 62
256
 10
-176.120495000000010
 20
142.623356000000000
 11
-168.120495000000010
 21
142.623356000000000
  0
LINE
  8
0
  6
CONTINUOUS
 62
256
 10
-175.120495000000010
 20
145.693704999999990
 11
-168.120495000000010
 21
145.693704999999990
  0
LINE
  8
0
  6
CONTINUOUS
 62
256
 10
-170.055484000000010
 20
135.085871000000000
 11
-175.120495000000010
 21
135.085871000000000
  0
ARC
  8
0
  6
CONTINUOUS
 62
256
 10
-175.120495000000010
 20
132.085871000000000
 40
3.000000000000000
 50
90.000000000000000
 51
180.000000000000000
  0
ARC
  8
0
  6
CONTINUOUS
 62
256
 10
-176.120495000000010
 20
140.623356000000000
 40
2.000000000000000
 50
90.000000000000000
 51
180.000000000000000
  0
LINE
  8
0
  6
CONTINUOUS
 62
256
 10
-178.120495000000010
 20
101.193704999999990
 11
-178.120495000000010
 21
140.623356000000000
  0
ARC
  8
0
  6
CONTINUOUS
 62
256
 10
-175.120495000000010
 20
148.693704999999990
 40
3.000000000000000
 50
180.000000000000000
 51
270.000000000000000
  0
ARC
  8
0
  6
CONTINUOUS
 62
256
 10
-180.120495000000010
 20
152.745765000000010
 40
2.000000000000000
 50
0.000000000000000
 51
91.000000000000156
  0
LINE
  8
0
  6
CONTINUOUS
 62
256
 10
-178.120495000000010
 20
148.693704999999990
 11
-178.120495000000010
 21
152.745765000000010
  0
LINE
  8
0
  6
CONTINUOUS
 62
256
 10
-154.829956000000010
 20
64.211160000000007
 11
-154.620495000000010
 21
52.211160000000000
  0
LINE
  8
0
  6
CONTINUOUS
 62
256
 10
5.170044000000000
 20
64.211160000000007
 11
3.826004000000000
 21
140.211160000000010
  0
LINE
  8
0
  6
CONTINUOUS
 62
256
 10
4.934401000000000
 20
52.211160000000000
 11
5.143861000000000
 21
64.211160000000007
  0
LINE
  8
0
  6
CONTINUOUS
 62
256
 10
3.826004000000000
 20
140.211160000000010
 11
3.826004000000000
 21
150.211160000000010
  0
LINE
  8
0
  6
CONTINUOUS
 62
256
 10
-153.477188000000010
 20
140.211160000000010
 11
-153.477188000000010
 21
150.211160000000010
  0
LINE
  8
0
  6
CONTINUOUS
 62
256
 10
-154.821227999999990
 20
64.211160000000007
 11
-153.477188000000010
 21
140.211160000000010
  0
LINE
  8
0
  6
CONTINUOUS
 62
256
 10
-153.477188000000010
 20
150.211160000000010
 11
-110.213026000000000
 21
150.211160000000010
  0
LINE
  8
0
  6
CONTINUOUS
 62
256
 10
-13.120495000000000
 20
48.211160000000000
 11
-98.120495000000005
 21
48.211160000000000
  0
LINE
  8
0
  6
CONTINUOUS
 62
256
 10
-154.620495000000010
 20
52.211160000000000
 11
-110.213026000000000
 21
52.211160000000000
  0
LINE
  8
0
  6
CONTINUOUS
 62
256
 10
-110.213026000000000
 20
150.211160000000010
 11
3.826004000000000
 21
150.211160000000010
  0
LINE
  8
0
  6
CONTINUOUS
 62
256
 10
-110.213026000000000
 20
52.211160000000000
 11
4.934401000000000
 21
52.211160000000000
  0
LINE
  8
0
  6
CONTINUOUS
 62
256
 10
-98.120495000000005
 20
48.211160000000000
 11
-98.120495000000005
 21
52.211160000000000
  0
LINE
  8
0
  6
CONTINUOUS
 62
256
 10
5.170044000000000
 20
64.211160000000007
 11
-154.821227999999990
 21
64.211160000000007
  0
LINE
  8
0
  6
CONTINUOUS
 62
256
 10
-13.120495000000000
 20
150.211160000000010
 11
-13.120495000000000
 21
154.211160000000010
  0
LINE
  8
0
  6
CONTINUOUS
 62
256
 10
-13.120495000000000
 20
48.211160000000000
 11
-13.120495000000000
 21
52.211160000000000
  0
LINE
  8
0
  6
CONTINUOUS
 62
256
 10
-98.120495000000005
 20
150.211160000000010
 11
-98.120495000000005
 21
154.211160000000010
  0
LINE
  8
0
  6
CONTINUOUS
 62
256
 10
-98.120495000000005
 20
154.211160000000010
 11
-13.120495000000000
 21
154.211160000000010
  0
ARC
  8
0
  6
CONTINUOUS
 62
256
 10
-156.812805999999990
 20
64.211160000000007
 40
1.999999999999998
 50
358.999999999999830
 51
90.000000000000000
  0
ARC
  8
0
  6
CONTINUOUS
 62
256
 10
-155.477188000000010
 20
142.711160000000010
 40
2.000000000000000
 50
270.000000000000000
 51
0.000000000000000
  0
ARC
  8
0
  6
CONTINUOUS
 62
256
 10
-168.120495000000010
 20
151.972531000000000
 40
3.000000000000000
 50
0.000000000000000
 51
91.000000000000142
  0
ARC
  8
0
  6
CONTINUOUS
 62
256
 10
-168.120495000000010
 20
50.414878000000002
 40
2.999999999999997
 50
268.999999999999830
 51
0.000000000000000
  0
LINE
  8
0
  6
CONTINUOUS
 62
256
 10
-155.477188000000010
 20
140.711160000000010
 11
-162.120495000000010
 21
140.711160000000010
  0
LINE
  8
0
  6
CONTINUOUS
 62
256
 10
-183.120495000000010
 20
47.676246999999996
 11
-168.172852000000010
 21
47.415334999999999
  0
LINE
  8
0
  6
CONTINUOUS
 62
256
 10
-183.120495000000010
 20
154.711162000000000
 11
-168.172852000000010
 21
154.972073999999990
  0
LINE
  8
0
  6
CONTINUOUS
 62
256
 10
-183.120495000000010
 20
101.211160000000010
 11
-183.120495000000010
 21
154.711162000000000
  0
LINE
  8
0
  6
CONTINUOUS
 62
256
 10
-183.120495000000010
 20
101.211160000000010
 11
-183.120495000000010
 21
47.676246999999996
  0
LINE
  8
0
  6
CONTINUOUS
 62
256
 10
-267.120495000000010
 20
47.211160000000000
 11
-344.625339999999990
 21
47.211160000000000
  0
LINE
  8
0
  6
CONTINUOUS
 62
256
 10
-267.120495000000010
 20
47.211160000000000
 11
-267.120495000000010
 21
101.211160000000010
  0
LINE
  8
0
  6
CONTINUOUS
 62
256
 10
-267.120495000000010
 20
155.211160000000010
 11
-267.120495000000010
 21
101.211160000000010
  0
LINE
  8
0
  6
CONTINUOUS
 62
256
 10
-267.120495000000010
 20
155.211160000000010
 11
-344.625339999999990
 21
155.211160000000010
  0
LINE
  8
0
  6
CONTINUOUS
 62
256
 10
-278.120495000000010
 20
52.067239000000001
 11
-280.120495000000010
 21
53.719880000000003
  0
LINE
  8
0
  6
CONTINUOUS
 62
256
 10
-276.120495000000010
 20
50.891452999999998
 11
-278.120495000000010
 21
52.067239000000001
  0
LINE
  8
0
  6
CONTINUOUS
 62
256
 10
-278.120495000000010
 20
52.067239000000001
 11
-276.120495000000010
 21
53.719880000000003
  0
LINE
  8
0
  6
CONTINUOUS
 62
256
 10
-280.120495000000010
 20
50.891452999999998
 11
-278.120495000000010
 21
52.067239000000001
  0
POLYLINE
  8
0
  6
CONTINUOUS
 62
256
 66
1
 70
1
  0
VERTEX
  8
0
  6
CONTINUOUS
 62
256
 10
-273.420495000000020
 20
53.883828999999999
  0
VERTEX
  8
0
  6
CONTINUOUS
 62
256
 10
-273.510804182104830
 20
54.586785510558165
  0
VERTEX
  8
0
  6
CONTINUOUS
 62
256
 10
-273.778261197196970
 20
55.262727796638138
  0
VERTEX
  8
0
  6
CONTINUOUS
 62
256
 10
-274.212587822178080
 20
55.885679775258659
  0
VERTEX
  8
0
  6
CONTINUOUS
 62
256
 10
-274.797093128423230
 20
56.431701751236837
  0
VERTEX
  8
0
  6
CONTINUOUS
 62
256
 10
-275.509314904807870
 20
56.879810406248488
  0
VERTEX
  8
0
  6
CONTINUOUS
 62
256
 10
-276.321882867884090
 20
57.212785175983733
  0
VERTEX
  8
0
  6
CONTINUOUS
 62
256
 10
-277.203570486524200
 20
57.417830026776059
  0
VERTEX
  8
0
  6
CONTINUOUS
 62
256
 10
-278.120495000000010
 20
57.487065199999989
  0
VERTEX
  8
0
  6
CONTINUOUS
 62
256
 10
-279.037419513475810
 20
57.417830026776059
  0
VERTEX
  8
0
  6
CONTINUOUS
 62
256
 10
-279.919107132115930
 20
57.212785175983733
  0
VERTEX
  8
0
  6
CONTINUOUS
 62
256
 10
-280.731675095192140
 20
56.879810406248488
  0
VERTEX
  8
0
  6
CONTINUOUS
 62
256
 10
-281.443896871576780
 20
56.431701751236837
  0
VERTEX
  8
0
  6
CONTINUOUS
 62
256
 10
-282.028402177821930
 20
55.885679775258659
  0
VERTEX
  8
0
  6
CONTINUOUS
 62
256
 10
-282.462728802803040
 20
55.262727796638138
  0
VERTEX
  8
0
  6
CONTINUOUS
 62
256
 10
-282.730185817895180
 20
54.586785510558165
  0
VERTEX
  8
0
  6
CONTINUOUS
 62
256
 10
-282.820494999999990
 20
53.883828999999999
  0
VERTEX
  8
0
  6
CONTINUOUS
 62
256
 10
-282.730185817895180
 20
53.180872489441832
  0
VERTEX
  8
0
  6
CONTINUOUS
 62
256
 10
-282.462728802803040
 20
52.504930203361859
  0
VERTEX
  8
0
  6
CONTINUOUS
 62
256
 10
-282.028402177821930
 20
51.881978224741339
  0
VERTEX
  8
0
  6
CONTINUOUS
 62
256
 10
-281.443896871576780
 20
51.335956248763161
  0
VERTEX
  8
0
  6
CONTINUOUS
 62
256
 10
-280.731675095192140
 20
50.887847593751509
  0
VERTEX
  8
0
  6
CONTINUOUS
 62
256
 10
-279.919107132115930
 20
50.554872824016265
  0
VERTEX
  8
0
  6
CONTINUOUS
 62
256
 10
-279.037419513475810
 20
50.349827973223938
  0
VERTEX
  8
0
  6
CONTINUOUS
 62
256
 10
-278.120495000000010
 20
50.280592800000008
  0
VERTEX
  8
0
  6
CONTINUOUS
 62
256
 10
-277.203570486524200
 20
50.349827973223938
  0
VERTEX
  8
0
  6
CONTINUOUS
 62
256
 10
-276.321882867884090
 20
50.554872824016265
  0
VERTEX
  8
0
  6
CONTINUOUS
 62
256
 10
-275.509314904807870
 20
50.887847593751509
  0
VERTEX
  8
0
  6
CONTINUOUS
 62
256
 10
-274.797093128423230
 20
51.335956248763161
  0
VERTEX
  8
0
  6
CONTINUOUS
 62
256
 10
-274.212587822178080
 20
51.881978224741339
  0
VERTEX
  8
0
  6
CONTINUOUS
 62
256
 10
-273.778261197196970
 20
52.504930203361859
  0
VERTEX
  8
0
  6
CONTINUOUS
 62
256
 10
-273.510804182104830
 20
53.180872489441832
  0
SEQEND
  8
0
  6
CONTINUOUS
 62
256
  0
LINE
  8
0
  6
CONTINUOUS
 62
256
 10
-278.120495000000010
 20
150.355081000000010
 11
-280.120495000000010
 21
148.702439000000000
  0
LINE
  8
0
  6
CONTINUOUS
 62
256
 10
-276.120495000000010
 20
151.530866000000000
 11
-278.120495000000010
 21
150.355081000000010
  0
LINE
  8
0
  6
CONTINUOUS
 62
256
 10
-278.120495000000010
 20
150.355081000000010
 11
-276.120495000000010
 21
148.702439000000000
  0
LINE
  8
0
  6
CONTINUOUS
 62
256
 10
-280.120495000000010
 20
151.530866000000000
 11
-278.120495000000010
 21
150.355081000000010
  0
POLYLINE
  8
0
  6
CONTINUOUS
 62
256
 66
1
 70
1
  0
VERTEX
  8
0
  6
CONTINUOUS
 62
256
 10
-273.420495000000020
 20
148.538490999999990
  0
VERTEX
  8
0
  6
CONTINUOUS
 62
256
 10
-273.510804182104830
 20
149.241447510558170
  0
VERTEX
  8
0
  6
CONTINUOUS
 62
256
 10
-273.778261197196970
 20
149.917389796638130
  0
VERTEX
  8
0
  6
CONTINUOUS
 62
256
 10
-274.212587822178080
 20
150.540341775258670
  0
VERTEX
  8
0
  6
CONTINUOUS
 62
256
 10
-274.797093128423230
 20
151.086363751236830
  0
VERTEX
  8
0
  6
CONTINUOUS
 62
256
 10
-275.509314904807870
 20
151.534472406248480
  0
VERTEX
  8
0
  6
CONTINUOUS
 62
256
 10
-276.321882867884090
 20
151.867447175983730
  0
VERTEX
  8
0
  6
CONTINUOUS
 62
256
 10
-277.203570486524200
 20
152.072492026776080
  0
VERTEX
  8
0
  6
CONTINUOUS
 62
256
 10
-278.120495000000010
 20
152.141727199999990
  0
VERTEX
  8
0
  6
CONTINUOUS
 62
256
 10
-279.037419513475810
 20
152.072492026776080
  0
VERTEX
  8
0
  6
CONTINUOUS
 62
256
 10
-279.919107132115930
 20
151.867447175983730
  0
VERTEX
  8
0
  6
CONTINUOUS
 62
256
 10
-280.731675095192140
 20
151.534472406248480
  0
VERTEX
  8
0
  6
CONTINUOUS
 62
256
 10
-281.443896871576780
 20
151.086363751236830
  0
VERTEX
  8
0
  6
CONTINUOUS
 62
256
 10
-282.028402177821930
 20
150.540341775258670
  0
VERTEX
  8
0
  6
CONTINUOUS
 62
256
 10
-282.462728802803040
 20
149.917389796638130
  0
VERTEX
  8
0
  6
CONTINUOUS
 62
256
 10
-282.730185817895180
 20
149.241447510558170
  0
VERTEX
  8
0
  6
CONTINUOUS
 62
256
 10
-282.820494999999990
 20
148.538490999999990
  0
VERTEX
  8
0
  6
CONTINUOUS
 62
256
 10
-282.730185817895180
 20
147.835534489441810
  0
VERTEX
  8
0
  6
CONTINUOUS
 62
256
 10
-282.462728802803040
 20
147.159592203361850
  0
VERTEX
  8
0
  6
CONTINUOUS
 62
256
 10
-282.028402177821930
 20
146.536640224741320
  0
VERTEX
  8
0
  6
CONTINUOUS
 62
256
 10
-281.443896871576780
 20
145.990618248763160
  0
VERTEX
  8
0
  6
CONTINUOUS
 62
256
 10
-280.731675095192140
 20
145.542509593751500
  0
VERTEX
  8
0
  6
CONTINUOUS
 62
256
 10
-279.919107132115930
 20
145.209534824016260
  0
VERTEX
  8
0
  6
CONTINUOUS
 62
256
 10
-279.037419513475810
 20
145.004489973223940
  0
VERTEX
  8
0
  6
CONTINUOUS
 62
256
 10
-278.120495000000010
 20
144.935254800000000
  0
VERTEX
  8
0
  6
CONTINUOUS
 62
256
 10
-277.203570486524200
 20
145.004489973223940
  0
VERTEX
  8
0
  6
CONTINUOUS
 62
256
 10
-276.321882867884090
 20
145.209534824016260
  0
VERTEX
  8
0
  6
CONTINUOUS
 62
256
 10
-275.509314904807870
 20
145.542509593751500
  0
VERTEX
  8
0
  6
CONTINUOUS
 62
256
 10
-274.797093128423230
 20
145.990618248763160
  0
VERTEX
  8
0
  6
CONTINUOUS
 62
256
 10
-274.212587822178080
 20
146.536640224741320
  0
VERTEX
  8
0
  6
CONTINUOUS
 62
256
 10
-273.778261197196970
 20
147.159592203361850
  0
VERTEX
  8
0
  6
CONTINUOUS
 62
256
 10
-273.510804182104830
 20
147.835534489441810
  0
SEQEND
  8
0
  6
CONTINUOUS
 62
256
  0
LINE
  8
0
  6
DASHDOT
 62
256
 10
10.593779000000000
 20
101.211160000000010
 11
-368.983599000000030
 21
101.211160000000010
  0
LINE
  8
0
  6
CONTINUOUS
 62
256
 10
-183.120495000000010
 20
153.711160000000010
 11
-267.120495000000010
 21
153.711160000000010
  0
LINE
  8
0
  6
CONTINUOUS
 62
256
 10
-267.120495000000010
 20
151.711160000000010
 11
-183.120495000000010
 21
151.711160000000010
  0
LINE
  8
0
  6
CONTINUOUS
 62
256
 10
-267.120495000000010
 20
152.211160000000010
 11
-183.120495000000010
 21
152.211160000000010
  0
LINE
  8
0
  6
CONTINUOUS
 62
256
 10
-267.120495000000010
 20
147.344242000000010
 11
-183.120495000000010
 21
147.344242000000010
  0
LINE
  8
0
  6
CONTINUOUS
 62
256
 10
-267.120495000000010
 20
145.715814999999990
 11
-183.120495000000010
 21
145.715814999999990
  0
LINE
  8
0
  6
CONTINUOUS
 62
256
 10
-267.120495000000010
 20
142.253073000000000
 11
-183.120495000000010
 21
142.253073000000000
  0
LINE
  8
0
  6
CONTINUOUS
 62
256
 10
-267.278096000000010
 20
141.251595000000010
 11
-183.120495000000010
 21
141.251595000000010
  0
LINE
  8
0
  6
CONTINUOUS
 62
256
 10
-267.120495000000010
 20
129.967555000000000
 11
-183.120495000000010
 21
129.967555000000000
  0
LINE
  8
0
  6
CONTINUOUS
 62
256
 10
-267.120495000000010
 20
128.488531999999990
 11
-183.120495000000010
 21
128.488531999999990
  0
LINE
  8
0
  6
CONTINUOUS
 62
256
 10
-267.120495000000010
 20
125.395801000000010
 11
-183.120495000000010
 21
125.395801000000010
  0
LINE
  8
0
  6
CONTINUOUS
 62
256
 10
-267.120495000000010
 20
124.049398999999990
 11
-183.120495000000010
 21
124.049398999999990
  0
LINE
  8
0
  6
CONTINUOUS
 62
256
 10
-267.120495000000010
 20
121.211160000000010
 11
-183.120495000000010
 21
121.211160000000010
  0
LINE
  8
0
  6
CONTINUOUS
 62
256
 10
-267.120495000000010
 20
132.925551000000010
 11
-183.120495000000010
 21
132.925551000000010
  0
LINE
  8
0
  6
CONTINUOUS
 62
256
 10
-267.120495000000010
 20
134.514760999999990
 11
-183.120495000000010
 21
134.514760999999990
  0
LINE
  8
0
  6
CONTINUOUS
 62
256
 10
-356.441014999999990
 20
151.485692000000000
 11
-364.011794000000010
 21
146.184575000000000
  0
LINE
  8
0
  6
CONTINUOUS
 62
256
 10
-365.120495000000010
 20
144.054779999999990
 11
-365.120495000000010
 21
101.211160000000010
  0
ARC
  8
0
  6
CONTINUOUS
 62
256
 10
-362.520494999999980
 20
144.054779999999990
 40
2.599999999999996
 50
125.000000000000210
 51
180.000000000000000
  0
ARC
  8
0
  6
CONTINUOUS
 62
256
 10
-344.625339999999990
 20
134.611160000000010
 40
20.599999999999994
 50
90.000000000000000
 51
125.000000000000010
  0
LINE
  8
0
  6
CONTINUOUS
 62
256
 10
-183.120495000000010
 20
48.711160000000000
 11
-267.120495000000010
 21
48.711160000000000
  0
LINE
  8
0
  6
CONTINUOUS
 62
256
 10
-267.120495000000010
 20
50.711160000000000
 11
-183.120495000000010
 21
50.711160000000000
  0
LINE
  8
0
  6
CONTINUOUS
 62
256
 10
-267.120495000000010
 20
50.211160000000000
 11
-183.120495000000010
 21
50.211160000000000
  0
LINE
  8
0
  6
CONTINUOUS
 62
256
 10
-267.120495000000010
 20
55.078077000000000
 11
-183.120495000000010
 21
55.078077000000000
  0
LINE
  8
0
  6
CONTINUOUS
 62
256
 10
-267.120495000000010
 20
56.706504000000002
 11
-183.120495000000010
 21
56.706504000000002
  0
LINE
  8
0
  6
CONTINUOUS
 62
256
 10
-267.120495000000010
 20
60.169246000000001
 11
-183.120495000000010
 21
60.169246000000001
  0
LINE
  8
0
  6
CONTINUOUS
 62
256
 10
-267.278096000000010
 20
61.170724000000000
 11
-183.120495000000010
 21
61.170724000000000
  0
LINE
  8
0
  6
CONTINUOUS
 62
256
 10
-267.120495000000010
 20
72.454763999999997
 11
-183.120495000000010
 21
72.454763999999997
  0
LINE
  8
0
  6
CONTINUOUS
 62
256
 10
-267.120495000000010
 20
73.933786999999995
 11
-183.120495000000010
 21
73.933786999999995
  0
LINE
  8
0
  6
CONTINUOUS
 62
256
 10
-267.120495000000010
 20
77.026517999999996
 11
-183.120495000000010
 21
77.026517999999996
  0
LINE
  8
0
  6
CONTINUOUS
 62
256
 10
-267.120495000000010
 20
78.372919999999993
 11
-183.120495000000010
 21
78.372919999999993
  0
LINE
  8
0
  6
CONTINUOUS
 62
256
 10
-267.120495000000010
 20
81.211160000000007
 11
-183.120495000000010
 21
81.211160000000007
  0
LINE
  8
0
  6
CONTINUOUS
 62
256
 10
-267.120495000000010
 20
69.496768000000003
 11
-183.120495000000010
 21
69.496768000000003
  0
LINE
  8
0
  6
CONTINUOUS
 62
256
 10
-267.120495000000010
 20
67.907559000000006
 11
-183.120495000000010
 21
67.907559000000006
  0
LINE
  8
0
  6
CONTINUOUS
 62
256
 10
-356.441014999999990
 20
50.936627999999999
 11
-364.011794000000010
 21
56.237743999999999
  0
LINE
  8
0
  6
CONTINUOUS
 62
256
 10
-365.120495000000010
 20
58.367539000000001
 11
-365.120495000000010
 21
101.211160000000010
  0
ARC
  8
0
  6
CONTINUOUS
 62
256
 10
-362.520494999999980
 20
58.367539000000001
 40
2.600000000000023
 50
180.000000000000000
 51
234.999999999999890
  0
ARC
  8
0
  6
CONTINUOUS
 62
256
 10
-344.625339999999990
 20
67.811160000000001
 40
20.599999999999994
 50
235.000000000000030
 51
270.000000000000000
  0
LINE
  8
0
  6
CONTINUOUS
 62
256
 10
-458.613401000000010
 20
-191.831155000000000
 11
-459.613401000000010
 21
-191.813470000000000
  0
LINE
  8
0
  6
CONTINUOUS
 62
256
 10
-458.613401000000010
 20
-175.373301000000000
 11
-458.613401000000010
 21
-191.831155000000000
  0
LINE
  8
0
  6
CONTINUOUS
 62
256
 10
-446.613401000000010
 20
-191.630421000000010
 11
-446.613401000000010
 21
-165.009050000000000
  0
LINE
  8
0
  6
CONTINUOUS
 62
256
 10
-458.613401000000010
 20
-191.839881999999990
 11
-446.613401000000010
 21
-191.630421000000010
  0
LINE
  8
0
  6
CONTINUOUS
 62
256
 10
-531.613400999999950
 20
-190.540168999999990
 11
-534.613400999999950
 21
-190.487114999999990
  0
LINE
  8
0
  6
CONTINUOUS
 62
256
 10
-544.613400999999950
 20
-190.487114999999990
 11
-544.613400999999950
 21
-165.009050000000000
  0
LINE
  8
0
  6
CONTINUOUS
 62
256
 10
-534.613400999999950
 20
-190.487114999999990
 11
-544.613400999999950
 21
-190.487114999999990
  0
LINE
  8
0
  6
CONTINUOUS
 62
256
 10
-441.674869000000000
 20
-126.839882000000000
 11
-439.613401000000010
 21
-126.839882000000000
  0
LINE
  8
0
  6
CONTINUOUS
 62
256
 10
-438.613401000000010
 20
-125.839882000000000
 11
-438.613401000000010
 21
-104.839882000000000
  0
ARC
  8
0
  6
CONTINUOUS
 62
256
 10
-439.613401000000010
 20
-125.839882000000000
 40
1.000000000000000
 50
270.000000000000000
 51
0.000000000000000
  0
ARC
  8
0
  6
CONTINUOUS
 62
256
 10
-439.613401000000010
 20
-83.839882000000003
 40
1.000000000000000
 50
0.000000000000000
 51
90.000000000000000
  0
LINE
  8
0
  6
CONTINUOUS
 62
256
 10
-442.613401000000010
 20
-82.839882000000003
 11
-439.613401000000010
 21
-82.839882000000003
  0
LINE
  8
0
  6
CONTINUOUS
 62
256
 10
-438.613401000000010
 20
-83.839882000000003
 11
-438.613401000000010
 21
-104.839882000000000
  0
LINE
  8
0
  6
CONTINUOUS
 62
256
 10
-442.613401000000010
 20
-62.339882000000003
 11
-442.613401000000010
 21
-91.534621000000001
  0
LINE
  8
0
  6
CONTINUOUS
 62
256
 10
-442.613401000000010
 20
-62.339882000000003
 11
-446.613401000000010
 21
-62.339882000000003
  0
LINE
  8
0
  6
CONTINUOUS
 62
256
 10
-446.613401000000010
 20
-74.635803999999993
 11
-446.613401000000010
 21
-44.049343000000000
  0
LINE
  8
0
  6
CONTINUOUS
 62
256
 10
-458.613401000000010
 20
-43.813699999999997
 11
-458.613401000000010
 21
-64.271552999999997
  0
LINE
  8
0
  6
CONTINUOUS
 62
256
 10
-458.613401000000010
 20
-43.813699999999997
 11
-534.613400999999950
 21
-45.157739999999997
  0
LINE
  8
0
  6
CONTINUOUS
 62
256
 10
-446.613401000000010
 20
-44.049343000000000
 11
-458.613401000000010
 21
-43.839882000000003
  0
LINE
  8
0
  6
CONTINUOUS
 62
256
 10
-549.551931999999970
 20
-126.839882000000000
 11
-551.613400999999950
 21
-126.839882000000000
  0
ARC
  8
0
  6
CONTINUOUS
 62
256
 10
-551.613400999999950
 20
-125.839882000000000
 40
1.000000000000000
 50
180.000000000000000
 51
270.000000000000000
  0
LINE
  8
0
  6
CONTINUOUS
 62
256
 10
-552.613400999999950
 20
-125.839882000000000
 11
-552.613400999999950
 21
-104.839882000000000
  0
LINE
  8
0
  6
CONTINUOUS
 62
256
 10
-552.613400999999950
 20
-83.839882000000003
 11
-552.613400999999950
 21
-104.839882000000000
  0
ARC
  8
0
  6
CONTINUOUS
 62
256
 10
-551.613400999999950
 20
-83.839882000000003
 40
1.000000000000000
 50
90.000000000000000
 51
180.000000000000000
  0
LINE
  8
0
  6
CONTINUOUS
 62
256
 10
-548.613400999999950
 20
-82.839882000000003
 11
-551.613400999999950
 21
-82.839882000000003
  0
LINE
  8
0
  6
CONTINUOUS
 62
256
 10
-548.613400999999950
 20
-91.534621000000001
 11
-548.613400999999950
 21
-62.339882000000003
  0
LINE
  8
0
  6
CONTINUOUS
 62
256
 10
-544.613400999999950
 20
-74.635803999999993
 11
-544.613400999999950
 21
-45.157739999999997
  0
LINE
  8
0
  6
CONTINUOUS
 62
256
 10
-544.613400999999950
 20
-62.339882000000003
 11
-548.613400999999950
 21
-62.339882000000003
  0
LINE
  8
0
  6
CONTINUOUS
 62
256
 10
-534.613400999999950
 20
-45.157739999999997
 11
-544.613400999999950
 21
-45.157739999999997
  0
LINE
  8
0
  6
CONTINUOUS
 62
256
 10
-531.613400999999950
 20
-177.339881999999990
 11
-525.605900000000020
 21
-177.339881999999990
  0
LINE
  8
0
  6
CONTINUOUS
 62
256
 10
-531.613400999999950
 20
-175.839843000000000
 11
-531.613400999999950
 21
-177.339881999999990
  0
LINE
  8
0
  6
CONTINUOUS
 62
256
 10
-459.613401000000010
 20
-175.839843000000000
 11
-459.613401000000010
 21
-177.339881999999990
  0
LINE
  8
0
  6
CONTINUOUS
 62
256
 10
-465.625414999999980
 20
-177.339881999999990
 11
-459.613401000000010
 21
-177.339881999999990
  0
ARC
  8
0
  6
CONTINUOUS
 62
256
 10
-450.191454000000020
 20
-80.409014999999997
 40
6.599999999999973
 50
5.743682000000063
 51
44.999999999999829
  0
ARC
  8
0
  6
CONTINUOUS
 62
256
 10
-842.213400999999980
 20
-119.839882000000000
 40
400.600000000000020
 50
0.000000000000000
 51
5.743682000000000
  0
ARC
  8
0
  6
CONTINUOUS
 62
256
 10
-467.549644000000000
 20
-82.849815000000007
 40
20.599999999999991
 50
45.000000000000000
 51
84.247716999999938
  0
LINE
  8
0
  6
CONTINUOUS
 62
256
 10
-452.983244000000010
 20
-68.283415000000005
 11
-445.524548999999980
 21
-75.742109999999997
  0
ARC
  8
0
  6
CONTINUOUS
 62
256
 10
-495.613401000000010
 20
-361.439882000000010
 40
300.600000000000020
 50
84.247716999999994
 51
90.000000000000000
  0
ARC
  8
0
  6
CONTINUOUS
 62
256
 10
-541.035348000000000
 20
-80.409014999999997
 40
6.599999999999977
 50
134.999999999999830
 51
174.256317999999940
  0
ARC
  8
0
  6
CONTINUOUS
 62
256
 10
-149.013400999999990
 20
-119.839882000000000
 40
400.600000000000020
 50
174.256317999999990
 51
180.000000000000000
  0
ARC
  8
0
  6
CONTINUOUS
 62
256
 10
-523.677156999999970
 20
-82.849815000000007
 40
20.600000000000001
 50
95.752282999999920
 51
135.000000000000110
  0
LINE
  8
0
  6
CONTINUOUS
 62
256
 10
-538.243557000000010
 20
-68.283415000000005
 11
-545.702252000000040
 21
-75.742109999999997
  0
ARC
  8
0
  6
CONTINUOUS
 62
256
 10
-495.613401000000010
 20
-361.439882000000010
 40
300.600000000000020
 50
90.000000000000000
 51
95.752283000000020
  0
ARC
  8
0
  6
CONTINUOUS
 62
256
 10
-541.035348000000000
 20
-159.270749000000000
 40
6.599999999999971
 50
185.743681999999920
 51
225.000000000000170
  0
ARC
  8
0
  6
CONTINUOUS
 62
256
 10
-149.013400999999990
 20
-119.839882000000000
 40
400.600000000000080
 50
180.000000000000000
 51
185.743682000000010
  0
ARC
  8
0
  6
CONTINUOUS
 62
256
 10
-523.677156999999970
 20
-156.829949000000000
 40
20.600000000000030
 50
224.999999999999860
 51
264.247717000000080
  0
LINE
  8
0
  6
CONTINUOUS
 62
256
 10
-538.243557000000010
 20
-171.396348999999990
 11
-545.702252000000040
 21
-163.937654000000010
  0
ARC
  8
0
  6
CONTINUOUS
 62
256
 10
-495.613401000000010
 20
121.760118000000010
 40
300.600000000000020
 50
264.247717000000020
 51
270.000000000000000
  0
ARC
  8
0
  6
CONTINUOUS
 62
256
 10
-495.613401000000010
 20
121.760118000000010
 40
290.797000000000030
 50
270.000000000000000
 51
275.752282999999980
  0
LINE
  8
0
  6
CONTINUOUS
 62
256
 10
-459.915011999999990
 20
-164.464581000000010
 11
-454.027598000000010
 21
-158.577168000000000
  0
ARC
  8
0
  6
CONTINUOUS
 62
256
 10
-467.549644000000000
 20
-156.829949000000000
 40
10.796999999999988
 50
275.752283000000030
 51
315.000000000000000
  0
ARC
  8
0
  6
CONTINUOUS
 62
256
 10
-495.613401000000010
 20
121.760118000000010
 40
300.600000000000020
 50
270.000000000000000
 51
275.752282999999980
  0
LINE
  8
0
  6
CONTINUOUS
 62
256
 10
-452.983244000000010
 20
-171.396348999999990
 11
-445.524548999999980
 21
-163.937654000000010
  0
ARC
  8
0
  6
CONTINUOUS
 62
256
 10
-467.549644000000000
 20
-156.829949000000000
 40
20.599999999999991
 50
275.752282999999860
 51
315.000000000000000
  0
ARC
  8
0
  6
CONTINUOUS
 62
256
 10
-495.613401000000010
 20
-361.439882000000010
 40
290.797000000000030
 50
84.998350000000002
 51
90.000000000000000
  0
LINE
  8
0
  6
CONTINUOUS
 62
256
 10
-457.367903000000010
 20
-77.762292000000002
 11
-454.027598000000010
 21
-81.102597000000003
  0
ARC
  8
0
  6
CONTINUOUS
 62
256
 10
-472.073602999999990
 20
-92.467991999999995
 40
20.797000000000008
 50
44.999999999999972
 51
84.998349999999959
  0
ARC
  8
0
  6
CONTINUOUS
 62
256
 10
-842.213400999999980
 20
-119.839882000000000
 40
390.797000000000030
 50
0.000000000000000
 51
5.417964000000000
  0
ARC
  8
0
  6
CONTINUOUS
 62
256
 10
-456.148918999999980
 20
-83.223917000000000
 40
2.999999999999996
 50
5.417963999999932
 51
44.999999999999808
  0
ARC
  8
0
  6
CONTINUOUS
 62
256
 10
-495.613401000000010
 20
-361.439882000000010
 40
290.797000000000030
 50
90.000000000000000
 51
95.001649999999998
  0
LINE
  8
0
  6
CONTINUOUS
 62
256
 10
-533.858897999999950
 20
-77.762292000000002
 11
-537.199203000000010
 21
-81.102597000000003
  0
ARC
  8
0
  6
CONTINUOUS
 62
256
 10
-519.153197999999970
 20
-92.467991999999995
 40
20.796999999999997
 50
95.001649999999884
 51
135.000000000000030
  0
ARC
  8
0
  6
CONTINUOUS
 62
256
 10
-149.013400999999990
 20
-119.839882000000000
 40
390.796999999999970
 50
174.582035999999990
 51
180.000000000000000
  0
ARC
  8
0
  6
CONTINUOUS
 62
256
 10
-535.077883000000040
 20
-83.223917000000000
 40
3.000000000000014
 50
135.000000000000200
 51
174.582036000000160
  0
ARC
  8
0
  6
CONTINUOUS
 62
256
 10
-495.613401000000010
 20
121.760118000000010
 40
290.797000000000030
 50
264.998350000000070
 51
270.000000000000000
  0
LINE
  8
0
  6
CONTINUOUS
 62
256
 10
-533.858897999999950
 20
-161.917473000000000
 11
-537.199203000000010
 21
-158.577168000000000
  0
ARC
  8
0
  6
CONTINUOUS
 62
256
 10
-519.153197999999970
 20
-147.211772999999990
 40
20.797000000000015
 50
225.000000000000000
 51
264.998350000000070
  0
ARC
  8
0
  6
CONTINUOUS
 62
256
 10
-149.013400999999990
 20
-119.839882000000000
 40
390.796999999999970
 50
180.000000000000000
 51
185.417963999999980
  0
ARC
  8
0
  6
CONTINUOUS
 62
256
 10
-535.077883000000040
 20
-156.455847000000010
 40
3.000000000000055
 50
185.417964000000100
 51
224.999999999999630
  0
ARC
  8
0
  6
CONTINUOUS
 62
256
 10
-456.148918999999980
 20
-156.455847000000010
 40
3.000000000000004
 50
315.000000000000340
 51
354.582035999999790
  0
ARC
  8
0
  6
CONTINUOUS
 62
256
 10
-842.213400999999980
 20
-119.839882000000000
 40
390.797000000000030
 50
354.582036000000020
 51
0.000000000000000
  0
ARC
  8
0
  6
CONTINUOUS
 62
256
 10
-450.191454000000020
 20
-159.270749000000000
 40
6.600000000000017
 50
315.000000000000170
 51
354.256318000000020
  0
ARC
  8
0
  6
CONTINUOUS
 62
256
 10
-842.213400999999980
 20
-119.839882000000000
 40
400.600000000000020
 50
354.256318000000020
 51
0.000000000000000
  0
ARC
  8
0
  6
CONTINUOUS
 62
256
 10
-530.437960999999970
 20
-116.339882000000000
 40
1.000000000000000
 50
270.000000000000000
 51
354.260829999999540
  0
ARC
  8
0
  6
CONTINUOUS
 62
256
 10
-533.451872999999980
 20
-116.339882000000000
 40
1.000000000000027
 50
174.715267000000240
 51
270.000000000000000
  0
ARC
  8
0
  6
CONTINUOUS
 62
256
 10
-524.905037999999990
 20
-116.339882000000000
 40
0.999999999999962
 50
173.186145999999870
 51
270.000000000000000
  0
LINE
  8
0
  6
CONTINUOUS
 62
256
 10
-533.451872999999980
 20
-117.339882000000000
 11
-530.437960999999970
 21
-117.339882000000000
  0
ARC
  8
0
  6
CONTINUOUS
 62
256
 10
-501.410533999999980
 20
-102.798953999999990
 40
0.999999999999984
 50
210.000000000000510
 51
288.787729000000750
  0
LINE
  8
0
  6
CONTINUOUS
 62
256
 10
-503.801476999999980
 20
-100.657718000000000
 11
-502.276559000000020
 21
-103.298953999999990
  0
ARC
  8
0
  6
CONTINUOUS
 62
256
 10
-502.935452000000000
 20
-100.157718000000000
 40
0.999999999999993
 50
110.405931999999860
 51
210.000000000000510
  0
ARC
  8
0
  6
CONTINUOUS
 62
256
 10
-505.716236999999980
 20
-95.341256000000001
 40
0.999999999999984
 50
210.000000000000510
 51
292.410458000000400
  0
ARC
  8
0
  6
CONTINUOUS
 62
256
 10
-509.994592000000010
 20
-87.930927999999994
 40
0.999999999999984
 50
210.000000000000510
 51
294.260829999998690
  0
LINE
  8
0
  6
CONTINUOUS
 62
256
 10
-508.094156000000000
 20
-93.222579999999994
 11
-506.582263000000010
 21
-95.841256000000001
  0
ARC
  8
0
  6
CONTINUOUS
 62
256
 10
-507.228130000000020
 20
-92.722579999999994
 40
1.000000000000000
 50
113.186146000000120
 51
210.000000000000510
  0
LINE
  8
0
  6
CONTINUOUS
 62
256
 10
-512.367573999999990
 20
-85.820803999999995
 11
-510.860616999999990
 21
-88.430927999999994
  0
ARC
  8
0
  6
CONTINUOUS
 62
256
 10
-511.501548000000010
 20
-85.320803999999995
 40
1.000000000000004
 50
114.715267000000150
 51
209.999999999998890
  0
ARC
  8
0
  6
CONTINUOUS
 62
256
 10
-517.563725999999970
 20
-88.820803999999995
 40
0.999999999999984
 50
30.000000000000544
 51
125.284733000000970
  0
ARC
  8
0
  6
CONTINUOUS
 62
256
 10
-516.056770000000030
 20
-91.430927999999994
 40
0.999999999999998
 50
305.739170000000230
 51
30.000000000000544
  0
ARC
  8
0
  6
CONTINUOUS
 62
256
 10
-521.881252000000020
 20
-116.339882000000000
 40
1.000000000000000
 50
270.000000000000000
 51
352.410458000000460
  0
ARC
  8
0
  6
CONTINUOUS
 62
256
 10
-513.290307999999980
 20
-96.222579999999994
 40
0.999999999999984
 50
30.000000000000544
 51
126.813853999998120
  0
ARC
  8
0
  6
CONTINUOUS
 62
256
 10
-511.778415000000000
 20
-98.841256000000001
 40
0.999999999999993
 50
307.589541999998800
 51
30.000000000000544
  0
ARC
  8
0
  6
CONTINUOUS
 62
256
 10
-516.319679999999950
 20
-116.339882000000000
 40
1.000000000000034
 50
170.405932000000600
 51
270.000000000000000
  0
ARC
  8
0
  6
CONTINUOUS
 62
256
 10
-513.269844000000030
 20
-116.339882000000000
 40
1.000000000000000
 50
270.000000000000000
 51
348.787728999999620
  0
ARC
  8
0
  6
CONTINUOUS
 62
256
 10
-508.997629000000020
 20
-103.657718000000000
 40
0.999999999999984
 50
30.000000000000544
 51
129.594067999999310
  0
ARC
  8
0
  6
CONTINUOUS
 62
256
 10
-507.472712000000000
 20
-106.298953999999990
 40
1.000000000000006
 50
311.212270999999760
 51
30.000000000000544
  0
ARC
  8
0
  6
CONTINUOUS
 62
256
 10
-504.644490000000020
 20
-111.197577000000000
 40
0.999999999999984
 50
30.000000000000544
 51
136.260205000000240
  0
ARC
  8
0
  6
CONTINUOUS
 62
256
 10
-507.613401000000010
 20
-116.339882000000000
 40
0.999999999999976
 50
163.739794999999330
 51
270.000000000000000
  0
ARC
  8
0
  6
CONTINUOUS
 62
256
 10
-504.445161999999980
 20
-116.339882000000000
 40
1.000000000000000
 50
270.000000000000000
 51
338.381728000000520
  0
ARC
  8
0
  6
CONTINUOUS
 62
256
 10
-503.060369999999980
 20
-113.941353000000010
 40
0.999999999999985
 50
321.618271999998970
 51
30.000000000000544
  0
ARC
  8
0
  6
CONTINUOUS
 62
256
 10
-495.613401000000010
 20
-119.839882000000000
 40
38.999999999999964
 50
125.284732999999960
 51
174.715267000000010
  0
ARC
  8
0
  6
CONTINUOUS
 62
256
 10
-495.613401000000010
 20
-119.839882000000000
 40
30.499999999999982
 50
126.813853999999980
 51
173.186146000000010
  0
ARC
  8
0
  6
CONTINUOUS
 62
256
 10
-495.613401000000010
 20
-119.839882000000000
 40
34.000000000000007
 50
125.739170000000040
 51
174.260830000000000
  0
ARC
  8
0
  6
CONTINUOUS
 62
256
 10
-495.613401000000010
 20
-119.839882000000000
 40
25.499999999999996
 50
127.589541999999970
 51
172.410458000000010
  0
ARC
  8
0
  6
CONTINUOUS
 62
256
 10
-495.613401000000010
 20
-119.839882000000000
 40
21.999999999999986
 50
129.594067999999940
 51
170.405932000000010
  0
ARC
  8
0
  6
CONTINUOUS
 62
256
 10
-495.613401000000010
 20
-119.839882000000000
 40
17.000000000000014
 50
131.212271000000020
 51
168.787729000000040
  0
ARC
  8
0
  6
CONTINUOUS
 62
256
 10
-495.613401000000010
 20
-119.839882000000000
 40
13.500000000000004
 50
136.260205000000010
 51
163.739794999999960
  0
ARC
  8
0
  6
CONTINUOUS
 62
256
 10
-495.613401000000010
 20
-119.839882000000000
 40
8.500000000000005
 50
141.618272000000020
 51
158.381728000000040
  0
LINE
  8
0
  6
CONTINUOUS
 62
256
 10
-512.424282999999950
 20
-95.722579999999994
 11
-510.912390000000020
 21
-98.341256000000001
  0
LINE
  8
0
  6
CONTINUOUS
 62
256
 10
-516.697701000000050
 20
-88.320803999999995
 11
-515.190744000000000
 21
-90.930927999999994
  0
LINE
  8
0
  6
CONTINUOUS
 62
256
 10
-508.131603999999980
 20
-103.157718000000000
 11
-506.606686000000020
 21
-105.798953999999990
  0
LINE
  8
0
  6
CONTINUOUS
 62
256
 10
-503.778463999999990
 20
-110.697577000000000
 11
-502.194345000000000
 21
-113.441353000000010
  0
LINE
  8
0
  6
CONTINUOUS
 62
256
 10
-507.613401000000010
 20
-117.339882000000000
 11
-504.445161999999980
 21
-117.339882000000000
  0
LINE
  8
0
  6
CONTINUOUS
 62
256
 10
-516.319679999999950
 20
-117.339882000000000
 11
-513.269844000000030
 21
-117.339882000000000
  0
LINE
  8
0
  6
CONTINUOUS
 62
256
 10
-524.905037999999990
 20
-117.339882000000000
 11
-521.881252000000020
 21
-117.339882000000000
  0
ARC
  8
0
  6
CONTINUOUS
 62
256
 10
-496.998192000000020
 20
-110.441353000000010
 40
0.999999999999984
 50
210.000000000000510
 51
278.381727999998870
  0
ARC
  8
0
  6
CONTINUOUS
 62
256
 10
-495.613401000000010
 20
-119.839882000000000
 40
8.500000000000002
 50
81.618271999999948
 51
98.381728000000052
  0
LINE
  8
0
  6
CONTINUOUS
 62
256
 10
-499.448336999999980
 20
-108.197577000000000
 11
-497.864217999999990
 21
-110.941353000000010
  0
ARC
  8
0
  6
CONTINUOUS
 62
256
 10
-498.582312000000000
 20
-107.697577000000000
 40
1.000000000000011
 50
103.739795000001280
 51
210.000000000000510
  0
ARC
  8
0
  6
CONTINUOUS
 62
256
 10
-477.956956999999990
 20
-116.339882000000000
 40
1.000000000000016
 50
191.212270999999730
 51
270.000000000000000
  0
LINE
  8
0
  6
CONTINUOUS
 62
256
 10
-474.907122000000020
 20
-117.339882000000000
 11
-477.956956999999990
 21
-117.339882000000000
  0
ARC
  8
0
  6
CONTINUOUS
 62
256
 10
-474.907122000000020
 20
-116.339882000000000
 40
1.000000000000000
 50
270.000000000000000
 51
9.594067999999961
  0
ARC
  8
0
  6
CONTINUOUS
 62
256
 10
-469.345550000000000
 20
-116.339882000000000
 40
0.999999999999990
 50
187.589541999999990
 51
270.000000000000000
  0
LINE
  8
0
  6
CONTINUOUS
 62
256
 10
-466.321763999999970
 20
-117.339882000000000
 11
-469.345550000000000
 21
-117.339882000000000
  0
ARC
  8
0
  6
CONTINUOUS
 62
256
 10
-466.321763999999970
 20
-116.339882000000000
 40
1.000000000000000
 50
270.000000000000000
 51
6.813853999999752
  0
ARC
  8
0
  6
CONTINUOUS
 62
256
 10
-460.788840999999990
 20
-116.339882000000000
 40
0.999999999999978
 50
185.739170000000430
 51
270.000000000000000
  0
LINE
  8
0
  6
CONTINUOUS
 62
256
 10
-457.774927999999990
 20
-117.339882000000000
 11
-460.788840999999990
 21
-117.339882000000000
  0
ARC
  8
0
  6
CONTINUOUS
 62
256
 10
-457.774927999999990
 20
-116.339882000000000
 40
1.000000000000000
 50
270.000000000000000
 51
5.284732999999778
  0
ARC
  8
0
  6
CONTINUOUS
 62
256
 10
-477.936492999999980
 20
-96.222579999999994
 40
1.000000000000011
 50
53.186145999999269
 51
149.999999999999460
  0
LINE
  8
0
  6
CONTINUOUS
 62
256
 10
-478.802519000000020
 20
-95.722579999999994
 11
-480.314412000000000
 21
-98.341256000000001
  0
ARC
  8
0
  6
CONTINUOUS
 62
256
 10
-479.448386000000030
 20
-98.841256000000001
 40
0.999999999999984
 50
149.999999999999460
 51
232.410458000001200
  0
ARC
  8
0
  6
CONTINUOUS
 62
256
 10
-473.663075999999990
 20
-88.820803999999995
 40
1.000000000000016
 50
54.715266999999017
 51
149.999999999999460
  0
LINE
  8
0
  6
CONTINUOUS
 62
256
 10
-474.529101000000030
 20
-88.320803999999995
 11
-476.036057000000030
 21
-90.930927999999994
  0
ARC
  8
0
  6
CONTINUOUS
 62
256
 10
-475.170031999999990
 20
-91.430927999999994
 40
0.999999999999984
 50
149.999999999999460
 51
234.260829999999740
  0
ARC
  8
0
  6
CONTINUOUS
 62
256
 10
-488.166430999999990
 20
-113.941353000000010
 40
0.999999999999984
 50
149.999999999999460
 51
218.381728000001000
  0
LINE
  8
0
  6
CONTINUOUS
 62
256
 10
-487.448336999999980
 20
-110.697577000000000
 11
-489.032457000000020
 21
-113.441353000000010
  0
ARC
  8
0
  6
CONTINUOUS
 62
256
 10
-483.754090000000020
 20
-106.298953999999990
 40
0.999999999999984
 50
149.999999999999460
 51
228.787728999999730
  0
LINE
  8
0
  6
CONTINUOUS
 62
256
 10
-483.095197999999980
 20
-103.157718000000000
 11
-484.620116000000000
 21
-105.798953999999990
  0
ARC
  8
0
  6
CONTINUOUS
 62
256
 10
-482.229172000000010
 20
-103.657718000000000
 40
0.999999999999988
 50
50.405932000000682
 51
149.999999999999460
  0
ARC
  8
0
  6
CONTINUOUS
 62
256
 10
-486.781639999999980
 20
-116.339882000000000
 40
1.000000000000013
 50
201.618271999999450
 51
270.000000000000000
  0
ARC
  8
0
  6
CONTINUOUS
 62
256
 10
-495.613401000000010
 20
-119.839882000000000
 40
8.500000000000016
 50
21.618271999999980
 51
38.381727999999960
  0
ARC
  8
0
  6
CONTINUOUS
 62
256
 10
-486.582312000000000
 20
-111.197577000000000
 40
1.000000000000005
 50
43.739794999999773
 51
149.999999999999460
  0
LINE
  8
0
  6
CONTINUOUS
 62
256
 10
-483.613401000000010
 20
-117.339882000000000
 11
-486.781639999999980
 21
-117.339882000000000
  0
ARC
  8
0
  6
CONTINUOUS
 62
256
 10
-483.613401000000010
 20
-116.339882000000000
 40
1.000000000000000
 50
270.000000000000000
 51
16.260205000000671
  0
ARC
  8
0
  6
CONTINUOUS
 62
256
 10
-495.613401000000010
 20
-119.839882000000000
 40
13.499999999999989
 50
16.260205000000035
 51
43.739795000000001
  0
ARC
  8
0
  6
CONTINUOUS
 62
256
 10
-495.613401000000010
 20
-119.839882000000000
 40
16.999999999999993
 50
11.212271000000010
 51
48.787728999999970
  0
ARC
  8
0
  6
CONTINUOUS
 62
256
 10
-495.613401000000010
 20
-119.839882000000000
 40
21.999999999999979
 50
9.594068000000020
 51
50.405932000000064
  0
ARC
  8
0
  6
CONTINUOUS
 62
256
 10
-495.613401000000010
 20
-119.839882000000000
 40
30.499999999999986
 50
6.813854000000005
 51
53.186146000000029
  0
ARC
  8
0
  6
CONTINUOUS
 62
256
 10
-495.613401000000010
 20
-119.839882000000000
 40
25.500000000000011
 50
7.589541999999985
 51
52.410458000000027
  0
ARC
  8
0
  6
CONTINUOUS
 62
256
 10
-495.613401000000010
 20
-119.839882000000000
 40
33.999999999999972
 50
5.739170000000013
 51
54.260829999999984
  0
ARC
  8
0
  6
CONTINUOUS
 62
256
 10
-495.613401000000010
 20
-119.839882000000000
 40
38.999999999999986
 50
5.284733000000007
 51
54.715266999999990
  0
ARC
  8
0
  6
CONTINUOUS
 62
256
 10
-483.998671000000000
 20
-92.722579999999994
 40
0.999999999999984
 50
329.999999999999490
 51
66.813853999999878
  0
LINE
  8
0
  6
CONTINUOUS
 62
256
 10
-483.132646000000020
 20
-93.222579999999994
 11
-484.644539000000010
 21
-95.841256000000001
  0
ARC
  8
0
  6
CONTINUOUS
 62
256
 10
-485.510563999999990
 20
-95.341256000000001
 40
1.000000000000009
 50
247.589541999999540
 51
329.999999999999490
  0
ARC
  8
0
  6
CONTINUOUS
 62
256
 10
-479.725253000000010
 20
-85.320803999999995
 40
0.999999999999984
 50
329.999999999999490
 51
65.284732999999861
  0
LINE
  8
0
  6
CONTINUOUS
 62
256
 10
-478.859227999999970
 20
-85.820803999999995
 11
-480.366183999999980
 21
-88.430927999999994
  0
ARC
  8
0
  6
CONTINUOUS
 62
256
 10
-481.232210000000010
 20
-87.930927999999994
 40
0.999999999999992
 50
245.739170000001340
 51
329.999999999999490
  0
ARC
  8
0
  6
CONTINUOUS
 62
256
 10
-494.228609000000010
 20
-110.441353000000010
 40
0.999999999999998
 50
261.618272000001130
 51
329.999999999999490
  0
LINE
  8
0
  6
CONTINUOUS
 62
256
 10
-491.778463999999990
 20
-108.197577000000000
 11
-493.362584000000030
 21
-110.941353000000010
  0
ARC
  8
0
  6
CONTINUOUS
 62
256
 10
-489.816267999999980
 20
-102.798953999999990
 40
1.000000000000010
 50
251.212270999999220
 51
329.999999999999490
  0
LINE
  8
0
  6
CONTINUOUS
 62
256
 10
-487.425324999999990
 20
-100.657718000000000
 11
-488.950243000000000
 21
-103.298953999999990
  0
ARC
  8
0
  6
CONTINUOUS
 62
256
 10
-488.291350000000020
 20
-100.157718000000000
 40
0.999999999999984
 50
329.999999999999490
 51
69.594068000000149
  0
ARC
  8
0
  6
CONTINUOUS
 62
256
 10
-492.644490000000020
 20
-107.697577000000000
 40
0.999999999999984
 50
329.999999999999490
 51
76.260204999998734
  0
ARC
  8
0
  6
CONTINUOUS
 62
256
 10
-495.613401000000010
 20
-119.839882000000000
 40
13.499999999999989
 50
76.260205000000056
 51
103.739794999999940
  0
ARC
  8
0
  6
CONTINUOUS
 62
256
 10
-495.613401000000010
 20
-119.839882000000000
 40
16.999999999999993
 50
71.212271000000044
 51
108.787728999999960
  0
ARC
  8
0
  6
CONTINUOUS
 62
256
 10
-495.613401000000010
 20
-119.839882000000000
 40
21.999999999999996
 50
69.594067999999993
 51
110.405932000000020
  0
ARC
  8
0
  6
CONTINUOUS
 62
256
 10
-495.613401000000010
 20
-119.839882000000000
 40
30.499999999999996
 50
66.813853999999992
 51
113.186146000000020
  0
ARC
  8
0
  6
CONTINUOUS
 62
256
 10
-495.613401000000010
 20
-119.839882000000000
 40
25.500000000000007
 50
67.589541999999966
 51
112.410458000000050
  0
ARC
  8
0
  6
CONTINUOUS
 62
256
 10
-495.613401000000010
 20
-119.839882000000000
 40
34.000000000000000
 50
65.739169999999987
 51
114.260830000000010
  0
ARC
  8
0
  6
CONTINUOUS
 62
256
 10
-495.613401000000010
 20
-119.839882000000000
 40
38.999999999999993
 50
65.284733000000031
 51
114.715266999999980
  0
LINE
  8
0
  6
CONTINUOUS
 62
256
 10
-524.905037999999990
 20
-122.339882000000000
 11
-521.881252000000020
 21
-122.339882000000000
  0
LINE
  8
0
  6
CONTINUOUS
 62
256
 10
-516.319679999999950
 20
-122.339882000000000
 11
-513.269844000000030
 21
-122.339882000000000
  0
LINE
  8
0
  6
CONTINUOUS
 62
256
 10
-507.613401000000010
 20
-122.339882000000000
 11
-504.445161999999980
 21
-122.339882000000000
  0
LINE
  8
0
  6
CONTINUOUS
 62
256
 10
-503.778463999999990
 20
-128.982187000000010
 11
-502.194345000000000
 21
-126.238412000000000
  0
LINE
  8
0
  6
CONTINUOUS
 62
256
 10
-508.131603999999980
 20
-136.522045999999990
 11
-506.606686000000020
 21
-133.880810999999990
  0
LINE
  8
0
  6
CONTINUOUS
 62
256
 10
-516.697701000000050
 20
-151.358960999999990
 11
-515.190744000000000
 21
-148.748836000000010
  0
LINE
  8
0
  6
CONTINUOUS
 62
256
 10
-533.451872999999980
 20
-122.339882000000000
 11
-530.437960999999970
 21
-122.339882000000000
  0
LINE
  8
0
  6
CONTINUOUS
 62
256
 10
-512.424282999999950
 20
-143.957184000000010
 11
-510.912390000000020
 21
-141.338508999999990
  0
ARC
  8
0
  6
CONTINUOUS
 62
256
 10
-495.613401000000010
 20
-119.839882000000000
 40
8.500000000000016
 50
201.618271999999960
 51
218.381727999999950
  0
ARC
  8
0
  6
CONTINUOUS
 62
256
 10
-495.613401000000010
 20
-119.839882000000000
 40
13.499999999999989
 50
196.260205000000010
 51
223.739794999999990
  0
ARC
  8
0
  6
CONTINUOUS
 62
256
 10
-495.613401000000010
 20
-119.839882000000000
 40
17.000000000000046
 50
191.212270999999900
 51
228.787728999999960
  0
ARC
  8
0
  6
CONTINUOUS
 62
256
 10
-495.613401000000010
 20
-119.839882000000000
 40
22.000000000000032
 50
189.594067999999940
 51
230.405932000000060
  0
ARC
  8
0
  6
CONTINUOUS
 62
256
 10
-495.613401000000010
 20
-119.839882000000000
 40
25.500000000000011
 50
187.589541999999990
 51
232.410458000000030
  0
ARC
  8
0
  6
CONTINUOUS
 62
256
 10
-495.613401000000010
 20
-119.839882000000000
 40
33.999999999999972
 50
185.739169999999970
 51
234.260829999999970
  0
ARC
  8
0
  6
CONTINUOUS
 62
256
 10
-495.613401000000010
 20
-119.839882000000000
 40
30.500000000000043
 50
186.813853999999990
 51
233.186146000000040
  0
ARC
  8
0
  6
CONTINUOUS
 62
256
 10
-495.613401000000010
 20
-119.839882000000000
 40
38.999999999999986
 50
185.284732999999990
 51
234.715266999999900
  0
ARC
  8
0
  6
CONTINUOUS
 62
256
 10
-503.060369999999980
 20
-125.738412000000000
 40
0.999999999999984
 50
329.999999999999490
 51
38.381728000001026
  0
ARC
  8
0
  6
CONTINUOUS
 62
256
 10
-504.445161999999980
 20
-123.339882000000000
 40
1.000000000000013
 50
21.618271999999475
 51
90.000000000000000
  0
ARC
  8
0
  6
CONTINUOUS
 62
256
 10
-507.613401000000010
 20
-123.339882000000000
 40
1.000000000000000
 50
90.000000000000000
 51
196.260205000000670
  0
ARC
  8
0
  6
CONTINUOUS
 62
256
 10
-504.644490000000020
 20
-128.482187000000010
 40
0.999999999999995
 50
223.739794999999160
 51
329.999999999999490
  0
ARC
  8
0
  6
CONTINUOUS
 62
256
 10
-507.472712000000000
 20
-133.380810999999990
 40
0.999999999999984
 50
329.999999999999490
 51
48.787729000000247
  0
ARC
  8
0
  6
CONTINUOUS
 62
256
 10
-508.997629000000020
 20
-136.022045999999990
 40
0.999999999999999
 50
230.405932000001170
 51
329.999999999999490
  0
ARC
  8
0
  6
CONTINUOUS
 62
256
 10
-513.269844000000030
 20
-123.339882000000000
 40
0.999999999999960
 50
11.212271000000362
 51
90.000000000000000
  0
ARC
  8
0
  6
CONTINUOUS
 62
256
 10
-516.319679999999950
 20
-123.339882000000000
 40
1.000000000000000
 50
90.000000000000000
 51
189.594067999999400
  0
ARC
  8
0
  6
CONTINUOUS
 62
256
 10
-524.905037999999990
 20
-123.339882000000000
 40
1.000000000000000
 50
90.000000000000000
 51
186.813854000000130
  0
ARC
  8
0
  6
CONTINUOUS
 62
256
 10
-511.778415000000000
 20
-140.838508999999990
 40
0.999999999999984
 50
329.999999999999490
 51
52.410458000001171
  0
ARC
  8
0
  6
CONTINUOUS
 62
256
 10
-513.290307999999980
 20
-143.457184000000010
 40
0.999999999999966
 50
233.186146000001400
 51
329.999999999999490
  0
ARC
  8
0
  6
CONTINUOUS
 62
256
 10
-521.881252000000020
 20
-123.339882000000000
 40
1.000000000000046
 50
7.589541999999568
 51
90.000000000000000
  0
ARC
  8
0
  6
CONTINUOUS
 62
256
 10
-533.451872999999980
 20
-123.339882000000000
 40
1.000000000000000
 50
90.000000000000000
 51
185.284732999999760
  0
ARC
  8
0
  6
CONTINUOUS
 62
256
 10
-530.437960999999970
 20
-123.339882000000000
 40
0.999999999999978
 50
5.739170000000447
 51
90.000000000000000
  0
ARC
  8
0
  6
CONTINUOUS
 62
256
 10
-516.056770000000030
 20
-148.248836000000010
 40
0.999999999999984
 50
329.999999999999490
 51
54.260829999999778
  0
ARC
  8
0
  6
CONTINUOUS
 62
256
 10
-517.563725999999970
 20
-150.858960999999990
 40
1.000000000000016
 50
234.715266999999020
 51
329.999999999999490
  0
CIRCLE
  8
0
  6
CONTINUOUS
 62
256
 10
-495.613401000000010
 20
-119.839882000000000
 40
5.000000000000000
  0
ARC
  8
0
  6
CONTINUOUS
 62
256
 10
-511.501548000000010
 20
-154.358960999999990
 40
1.000000000000033
 50
150.000000000001110
 51
245.284732999999870
  0
LINE
  8
0
  6
CONTINUOUS
 62
256
 10
-512.367573999999990
 20
-153.858960999999990
 11
-510.860616999999990
 21
-151.248836000000010
  0
ARC
  8
0
  6
CONTINUOUS
 62
256
 10
-495.613401000000010
 20
-119.839882000000000
 40
39.000000000000000
 50
245.284732999999960
 51
294.715266999999980
  0
ARC
  8
0
  6
CONTINUOUS
 62
256
 10
-495.613401000000010
 20
-119.839882000000000
 40
34.000000000000000
 50
245.739170000000000
 51
294.260830000000000
  0
ARC
  8
0
  6
CONTINUOUS
 62
256
 10
-495.613401000000010
 20
-119.839882000000000
 40
25.500000000000018
 50
247.589541999999990
 51
292.410458000000010
  0
ARC
  8
0
  6
CONTINUOUS
 62
256
 10
-495.613401000000010
 20
-119.839882000000000
 40
30.499999999999996
 50
246.813853999999990
 51
293.186146000000010
  0
ARC
  8
0
  6
CONTINUOUS
 62
256
 10
-507.228130000000020
 20
-146.957184000000010
 40
0.999999999999984
 50
149.999999999999460
 51
246.813853999999880
  0
LINE
  8
0
  6
CONTINUOUS
 62
256
 10
-508.094156000000000
 20
-146.457184000000010
 11
-506.582263000000010
 21
-143.838508999999990
  0
ARC
  8
0
  6
CONTINUOUS
 62
256
 10
-495.613401000000010
 20
-119.839882000000000
 40
21.999999999999996
 50
249.594067999999990
 51
290.405932000000010
  0
ARC
  8
0
  6
CONTINUOUS
 62
256
 10
-509.994592000000010
 20
-151.748836000000010
 40
0.999999999999992
 50
65.739170000001337
 51
149.999999999999460
  0
ARC
  8
0
  6
CONTINUOUS
 62
256
 10
-505.716236999999980
 20
-144.338508999999990
 40
1.000000000000009
 50
67.589541999999554
 51
149.999999999999460
  0
ARC
  8
0
  6
CONTINUOUS
 62
256
 10
-502.935452000000000
 20
-139.522045999999990
 40
0.999999999999984
 50
149.999999999999460
 51
249.594068000000160
  0
ARC
  8
0
  6
CONTINUOUS
 62
256
 10
-495.613401000000010
 20
-119.839882000000000
 40
16.999999999999993
 50
251.212271000000040
 51
288.787728999999960
  0
LINE
  8
0
  6
CONTINUOUS
 62
256
 10
-503.801476999999980
 20
-139.022045999999990
 11
-502.276559000000020
 21
-136.380810999999990
  0
ARC
  8
0
  6
CONTINUOUS
 62
256
 10
-501.410533999999980
 20
-136.880810999999990
 40
1.000000000000010
 50
71.212270999999262
 51
149.999999999999460
  0
ARC
  8
0
  6
CONTINUOUS
 62
256
 10
-495.613401000000010
 20
-119.839882000000000
 40
13.499999999999989
 50
256.260205000000040
 51
283.739794999999960
  0
ARC
  8
0
  6
CONTINUOUS
 62
256
 10
-498.582312000000000
 20
-131.982187000000010
 40
0.999999999999984
 50
149.999999999999460
 51
256.260204999998510
  0
LINE
  8
0
  6
CONTINUOUS
 62
256
 10
-499.448336999999980
 20
-131.482187000000010
 11
-497.864217999999990
 21
-128.738412000000010
  0
ARC
  8
0
  6
CONTINUOUS
 62
256
 10
-492.644490000000020
 20
-131.982187000000010
 40
0.999999999999997
 50
283.739795000001440
 51
30.000000000000544
  0
ARC
  8
0
  6
CONTINUOUS
 62
256
 10
-495.613401000000010
 20
-119.839882000000000
 40
8.500000000000002
 50
261.618271999999930
 51
278.381728000000070
  0
ARC
  8
0
  6
CONTINUOUS
 62
256
 10
-496.998192000000020
 20
-129.238412000000010
 40
0.999999999999984
 50
81.618272000000985
 51
149.999999999999460
  0
ARC
  8
0
  6
CONTINUOUS
 62
256
 10
-488.291350000000020
 20
-139.522045999999990
 40
0.999999999999993
 50
290.405931999999840
 51
30.000000000000544
  0
LINE
  8
0
  6
CONTINUOUS
 62
256
 10
-487.425324999999990
 20
-139.022045999999990
 11
-488.950243000000000
 21
-136.380810999999990
  0
ARC
  8
0
  6
CONTINUOUS
 62
256
 10
-489.816267999999980
 20
-136.880810999999990
 40
0.999999999999984
 50
30.000000000000544
 51
108.787729000000750
  0
LINE
  8
0
  6
CONTINUOUS
 62
256
 10
-491.778463999999990
 20
-131.482187000000010
 11
-493.362584000000030
 21
-128.738412000000010
  0
ARC
  8
0
  6
CONTINUOUS
 62
256
 10
-494.228609000000010
 20
-129.238412000000010
 40
0.999999999999984
 50
30.000000000000544
 51
98.381727999999029
  0
ARC
  8
0
  6
CONTINUOUS
 62
256
 10
-481.232210000000010
 20
-151.748836000000010
 40
0.999999999999984
 50
30.000000000000544
 51
114.260829999998650
  0
LINE
  8
0
  6
CONTINUOUS
 62
256
 10
-478.859227999999970
 20
-153.858960999999990
 11
-480.366183999999980
 21
-151.248836000000010
  0
ARC
  8
0
  6
CONTINUOUS
 62
256
 10
-479.725253000000010
 20
-154.358960999999990
 40
1.000000000000004
 50
294.715267000000150
 51
30.000000000000544
  0
ARC
  8
0
  6
CONTINUOUS
 62
256
 10
-485.510563999999990
 20
-144.338508999999990
 40
0.999999999999984
 50
30.000000000000544
 51
112.410458000000460
  0
LINE
  8
0
  6
CONTINUOUS
 62
256
 10
-483.132646000000020
 20
-146.457184000000010
 11
-484.644539000000010
 21
-143.838508999999990
  0
ARC
  8
0
  6
CONTINUOUS
 62
256
 10
-483.998671000000000
 20
-146.957184000000010
 40
1.000000000000000
 50
293.186146000000120
 51
30.000000000000544
  0
ARC
  8
0
  6
CONTINUOUS
 62
256
 10
-495.613401000000010
 20
-119.839882000000000
 40
39.000000000000014
 50
305.284733000000020
 51
354.715266999999980
  0
ARC
  8
0
  6
CONTINUOUS
 62
256
 10
-495.613401000000010
 20
-119.839882000000000
 40
33.999999999999986
 50
305.739169999999940
 51
354.260830000000000
  0
ARC
  8
0
  6
CONTINUOUS
 62
256
 10
-495.613401000000010
 20
-119.839882000000000
 40
25.499999999999996
 50
307.589541999999990
 51
352.410458000000010
  0
ARC
  8
0
  6
CONTINUOUS
 62
256
 10
-495.613401000000010
 20
-119.839882000000000
 40
30.499999999999982
 50
306.813853999999990
 51
353.186146000000010
  0
ARC
  8
0
  6
CONTINUOUS
 62
256
 10
-495.613401000000010
 20
-119.839882000000000
 40
21.999999999999986
 50
309.594067999999940
 51
350.405932000000010
  0
ARC
  8
0
  6
CONTINUOUS
 62
256
 10
-495.613401000000010
 20
-119.839882000000000
 40
17.000000000000000
 50
311.212271000000040
 51
348.787729000000010
  0
ARC
  8
0
  6
CONTINUOUS
 62
256
 10
-495.613401000000010
 20
-119.839882000000000
 40
13.500000000000004
 50
316.260204999999980
 51
343.739794999999960
  0
ARC
  8
0
  6
CONTINUOUS
 62
256
 10
-483.613401000000010
 20
-123.339882000000000
 40
0.999999999999976
 50
343.739794999999330
 51
90.000000000000000
  0
LINE
  8
0
  6
CONTINUOUS
 62
256
 10
-483.613401000000010
 20
-122.339882000000000
 11
-486.781639999999980
 21
-122.339882000000000
  0
ARC
  8
0
  6
CONTINUOUS
 62
256
 10
-486.582312000000000
 20
-128.482187000000010
 40
0.999999999999984
 50
210.000000000000510
 51
316.260205000000780
  0
ARC
  8
0
  6
CONTINUOUS
 62
256
 10
-495.613401000000010
 20
-119.839882000000000
 40
8.500000000000005
 50
321.618272000000050
 51
338.381728000000010
  0
ARC
  8
0
  6
CONTINUOUS
 62
256
 10
-486.781639999999980
 20
-123.339882000000000
 40
1.000000000000000
 50
90.000000000000000
 51
158.381728000000550
  0
ARC
  8
0
  6
CONTINUOUS
 62
256
 10
-482.229172000000010
 20
-136.022045999999990
 40
0.999999999999984
 50
210.000000000000510
 51
309.594067999998800
  0
LINE
  8
0
  6
CONTINUOUS
 62
256
 10
-483.095197999999980
 20
-136.522045999999990
 11
-484.620116000000000
 21
-133.880810999999990
  0
ARC
  8
0
  6
CONTINUOUS
 62
256
 10
-483.754090000000020
 20
-133.380810999999990
 40
1.000000000000006
 50
131.212270999999760
 51
210.000000000000510
  0
LINE
  8
0
  6
CONTINUOUS
 62
256
 10
-487.448336999999980
 20
-128.982187000000010
 11
-489.032457000000020
 21
-126.238412000000000
  0
ARC
  8
0
  6
CONTINUOUS
 62
256
 10
-488.166430999999990
 20
-125.738412000000000
 40
0.999999999999985
 50
141.618271999999000
 51
210.000000000000510
  0
ARC
  8
0
  6
CONTINUOUS
 62
256
 10
-475.170031999999990
 20
-148.248836000000010
 40
0.999999999999998
 50
125.739170000000210
 51
210.000000000000510
  0
LINE
  8
0
  6
CONTINUOUS
 62
256
 10
-474.529101000000030
 20
-151.358960999999990
 11
-476.036057000000030
 21
-148.748836000000010
  0
ARC
  8
0
  6
CONTINUOUS
 62
256
 10
-473.663075999999990
 20
-150.858960999999990
 40
0.999999999999984
 50
210.000000000000510
 51
305.284733000000980
  0
ARC
  8
0
  6
CONTINUOUS
 62
256
 10
-479.448386000000030
 20
-140.838508999999990
 40
0.999999999999993
 50
127.589541999998830
 51
210.000000000000510
  0
LINE
  8
0
  6
CONTINUOUS
 62
256
 10
-478.802519000000020
 20
-143.957184000000010
 11
-480.314412000000000
 21
-141.338508999999990
  0
ARC
  8
0
  6
CONTINUOUS
 62
256
 10
-477.936492999999980
 20
-143.457184000000010
 40
0.999999999999984
 50
210.000000000000510
 51
306.813854000001190
  0
ARC
  8
0
  6
CONTINUOUS
 62
256
 10
-457.774927999999990
 20
-123.339882000000000
 40
1.000000000000027
 50
354.715267000000210
 51
90.000000000000000
  0
LINE
  8
0
  6
CONTINUOUS
 62
256
 10
-457.774927999999990
 20
-122.339882000000000
 11
-460.788840999999990
 21
-122.339882000000000
  0
ARC
  8
0
  6
CONTINUOUS
 62
256
 10
-460.788840999999990
 20
-123.339882000000000
 40
1.000000000000000
 50
90.000000000000000
 51
174.260829999999570
  0
ARC
  8
0
  6
CONTINUOUS
 62
256
 10
-466.321763999999970
 20
-123.339882000000000
 40
1.000000000000019
 50
353.186146000000240
 51
90.000000000000000
  0
LINE
  8
0
  6
CONTINUOUS
 62
256
 10
-466.321763999999970
 20
-122.339882000000000
 11
-469.345550000000000
 21
-122.339882000000000
  0
ARC
  8
0
  6
CONTINUOUS
 62
256
 10
-469.345550000000000
 20
-123.339882000000000
 40
1.000000000000000
 50
90.000000000000000
 51
172.410458000000010
  0
ARC
  8
0
  6
CONTINUOUS
 62
256
 10
-474.907122000000020
 20
-123.339882000000000
 40
0.999999999999978
 50
350.405932000000010
 51
90.000000000000000
  0
LINE
  8
0
  6
CONTINUOUS
 62
256
 10
-474.907122000000020
 20
-122.339882000000000
 11
-477.956956999999990
 21
-122.339882000000000
  0
ARC
  8
0
  6
CONTINUOUS
 62
256
 10
-477.956956999999990
 20
-123.339882000000000
 40
1.000000000000000
 50
90.000000000000000
 51
168.787729000000270
  0
ARC
  8
0
  6
CONTINUOUS
 62
256
 10
-495.613401000000010
 20
88.660117999999997
 40
300.000000000000000
 50
263.967951000000030
 51
276.032048999999970
  0
ARC
  8
0
  6
CONTINUOUS
 62
256
 10
-464.613401000000010
 20
-204.706547000000000
 40
5.000000000000002
 50
276.032049000000030
 51
0.000000000000000
  0
ARC
  8
0
  6
CONTINUOUS
 62
256
 10
-526.613400999999950
 20
-204.706547000000000
 40
5.000000000000000
 50
180.000000000000000
 51
263.967951000000650
  0
LINE
  8
0
  6
CONTINUOUS
 62
256
 10
-498.113401000000010
 20
-211.839881999999990
 11
-498.113401000000010
 21
-211.329465000000000
  0
LINE
  8
0
  6
CONTINUOUS
 62
256
 10
-498.113401000000010
 20
-211.839881999999990
 11
-493.113401000000010
 21
-211.839881999999990
  0
LINE
  8
0
  6
CONTINUOUS
 62
256
 10
-493.113401000000010
 20
-211.839881999999990
 11
-493.113401000000010
 21
-211.329465000000000
  0
LINE
  8
0
  6
CONTINUOUS
 62
256
 10
-531.613400999999950
 20
-177.339881999999990
 11
-531.613400999999950
 21
-204.706547000000000
  0
LINE
  8
0
  6
CONTINUOUS
 62
256
 10
-459.613401000000010
 20
-177.339881999999990
 11
-459.613401000000010
 21
-204.706547000000000
  0
LINE
  8
0
  6
DASHDOT
 62
256
 10
-557.337131000000000
 20
-119.839882000000000
 11
-432.119171999999990
 21
-119.839882000000000
  0
LINE
  8
0
  6
DASHDOT
 62
256
 10
-495.613401000000010
 20
-37.470630000000000
 11
-495.613401000000010
 21
-214.344275000000010
  0
TEXT
  8
0
  6
CONTINUOUS
 62
256
 10
524.392272949218750
 20
-240.764953613281250
 40
3.299999952316284
  1
1/1
 50
0.000002504478167
 41
0.850909097352304
  7
STANDARD1
  0
TEXT
  8
0
  6
CONTINUOUS
 62
256
 10
521.974304199218750
 20
-240.764953613281250
 40
3.299999952316284
  1
 
 50
0.000002504478167
 41
1.733333298293026
  7
STANDARD1
  0
TEXT
  8
0
  6
CONTINUOUS
 62
256
 10
508.923675537109370
 20
-240.764953613281250
 40
3.299999952316284
  1
SCALE
 50
0.000002504478167
 41
0.821052645401140
  7
STANDARD1
  0
TEXT
  8
0
  6
CONTINUOUS
 62
256
 10
505.672302246093750
 20
-240.764953613281250
 40
3.299999952316284
  1
 
 50
0.000002504478167
 41
1.733333298293026
  7
STANDARD1
  0
TEXT
  8
0
  6
CONTINUOUS
 62
256
 10
520.526489257812500
 20
-235.464950561523440
 40
3.299999952316284
  1
1/240
 50
0.000002504478167
 41
0.821052645401140
  7
STANDARD1
  0
TEXT
  8
0
  6
CONTINUOUS
 62
256
 10
516.744445800781250
 20
-235.464950561523440
 40
3.299999952316284
  1
ü`
 50
0.000002504478167
 41
1.176000019651471
  7
STANDARD1
  0
TEXT
  8
0
  6
CONTINUOUS
 62
256
 10
505.672302246093750
 20
-235.464950561523440
 40
3.299999952316284
  1
1/80
 50
0.000002504478167
 41
0.832000075658163
  7
STANDARD1
  0
TEXT
  8
0
  6
CONTINUOUS
 62
256
 10
505.672302246093750
 20
-230.164947509765620
 40
3.299999952316284
  1
GM-SHYFB-RH
 50
0.000002504478167
 41
0.798139564113939
  7
STANDARD1
  0
TEXT
  8
0
  6
CONTINUOUS
 62
256
 10
511.497680664062500
 20
-224.864959716796870
 40
3.299999952316284
  1
0.2kW
 50
0.000002504478167
 41
0.821052645401140
  7
STANDARD1
  0
TEXT
  8
0
  6
CONTINUOUS
 62
256
 10
505.672302246093750
 20
-224.864959716796870
 40
3.299999952316284
  1
  
 50
0.000002504478167
 41
1.485714400175845
  7
STANDARD1
  0
TEXT
  8
0
  6
CONTINUOUS
 62
256
 10
511.491790771484370
 20
-219.564956665039060
 40
3.299999952316284
  1
SHY063
 50
0.000002504478167
 41
0.813913121261144
  7
STANDARD1
  0
TEXT
  8
0
  6
CONTINUOUS
 62
256
 10
505.672302246093750
 20
-219.564956665039060
 40
3.299999952316284
  1
  
 50
0.000002504478167
 41
1.485714400175845
  7
STANDARD1
  0
LINE
  8
0
  6
DASHDOT
 62
256
 10
5.879505000000000
 20
-56.839882000000003
 11
-18.665807999999998
 21
-56.839882000000003
  0
LINE
  8
0
  6
DASHDOT
 62
256
 10
-7.620495000000000
 20
-43.339882000000003
 11
-7.620495000000000
 21
-69.107789999999994
  0
LINE
  8
0
  6
DASHDOT
 62
256
 10
306.720574000000000
 20
-104.839882000000000
 11
255.653331000000010
 21
-104.839882000000000
  0
LINE
  8
0
  6
DASHDOT
 62
256
 10
281.434723000000020
 20
-77.386527999999998
 11
281.434723000000020
 21
-131.662184000000000
  0
LINE
  8
0
  6
CONTINUOUS
 62
256
 10
285.434723000000020
 20
-86.539882000000006
 11
285.434723000000020
 21
-90.383049999999997
  0
ARC
  8
0
  6
CONTINUOUS
 62
256
 10
281.434723000000020
 20
-104.839882000000000
 40
15.000000000000002
 50
105.466009999999980
 51
74.533990000000031
  0
CIRCLE
  8
0
  6
CONTINUOUS
 62
256
 10
281.434723000000020
 20
-104.839882000000000
 40
22.000000000000000
  0
LINE
  8
0
  6
CONTINUOUS
 62
256
 10
285.434723000000020
 20
-86.539882000000006
 11
277.434723000000020
 21
-86.539882000000006
  0
LINE
  8
0
  6
CONTINUOUS
 62
256
 10
277.434723000000020
 20
-86.539882000000006
 11
277.434723000000020
 21
-90.383049999999997
  0
ARC
  8
0
  6
CONTINUOUS
 62
256
 10
189.081514000000000
 20
-126.439823000000000
 40
0.400000000000006
 50
270.000000000000000
 51
0.000000000000000
  0
ARC
  8
0
  6
CONTINUOUS
 62
256
 10
187.481514000000000
 20
-121.839823000000000
 40
2.000000000000000
 50
0.000000000000000
 51
90.000000000000000
  0
LINE
  8
0
  6
CONTINUOUS
 62
256
 10
173.872851999999990
 20
-126.839823000000000
 11
189.081514000000000
 21
-126.839823000000000
  0
LINE
  8
0
  6
CONTINUOUS
 62
256
 10
187.481514000000000
 20
-119.839823000000000
 11
169.481514000000000
 21
-119.839823000000000
  0
LINE
  8
0
  6
CONTINUOUS
 62
256
 10
189.481514000000000
 20
-126.439823000000000
 11
189.481514000000000
 21
-82.839822999999996
  0
ARC
  8
0
  6
CONTINUOUS
 62
256
 10
187.481514000000000
 20
-87.839822999999996
 40
2.000000000000000
 50
270.000000000000000
 51
0.000000000000000
  0
LINE
  8
0
  6
CONTINUOUS
 62
256
 10
187.481514000000000
 20
-89.839822999999996
 11
169.481514000000000
 21
-89.839822999999996
  0
ARC
  8
0
  6
CONTINUOUS
 62
256
 10
173.872851999999990
 20
-82.439823000000004
 40
0.399999999999991
 50
189.594067999999960
 51
270.000000000000000
  0
LINE
  8
0
  6
CONTINUOUS
 62
256
 10
173.872851999999990
 20
-82.839822999999996
 11
189.481514000000000
 21
-82.839822999999996
  0
ARC
  8
0
  6
CONTINUOUS
 62
256
 10
173.281243999999990
 20
-82.539822999999998
 40
0.199999999999996
 50
9.594067999999961
 51
90.000000000000000
  0
LINE
  8
0
  6
CONTINUOUS
 62
256
 10
158.881245000000010
 20
-82.339822999999996
 11
173.281243999999990
 21
-82.339822999999996
  0
ARC
  8
0
  6
CONTINUOUS
 62
256
 10
173.872851999999990
 20
-127.239823000000000
 40
0.400000000000006
 50
90.000000000000000
 51
170.405932000000040
  0
ARC
  8
0
  6
CONTINUOUS
 62
256
 10
173.281243999999990
 20
-127.139823000000010
 40
0.200000000000003
 50
270.000000000000000
 51
350.405932000000010
  0
LINE
  8
0
  6
DASHDOT
 62
256
 10
193.047052000000010
 20
-104.839882000000000
 11
71.579237000000006
 21
-104.839882000000000
  0
LINE
  8
0
  6
CONTINUOUS
 62
256
 10
158.881245000000010
 20
-127.339823000000000
 11
173.281243999999990
 21
-127.339823000000000
  0
LINE
  8
0
  6
CONTINUOUS
 62
256
 10
158.481245000000000
 20
-127.739823000000000
 11
158.481247999999990
 21
-130.239881999999990
  0
ARC
  8
0
  6
CONTINUOUS
 62
256
 10
158.881245000000010
 20
-127.739823000000000
 40
0.400000000000006
 50
90.000000000000000
 51
180.000072999999450
  0
LINE
  8
0
  6
CONTINUOUS
 62
256
 10
140.981798000000000
 20
-130.239881999999990
 11
158.481261999999990
 21
-130.239881999999990
  0
LINE
  8
0
  6
CONTINUOUS
 62
256
 10
169.481514000000000
 20
-88.589882000000003
 11
169.481514000000000
 21
-121.089882000000000
  0
LINE
  8
0
  6
CONTINUOUS
 62
256
 10
169.481514000000000
 20
-121.089882000000000
 11
167.481514000000000
 21
-121.089882000000000
  0
LINE
  8
0
  6
CONTINUOUS
 62
256
 10
167.481514000000000
 20
-121.089882000000000
 11
167.481514000000000
 21
-104.839823000000000
  0
LINE
  8
0
  6
CONTINUOUS
 62
256
 10
167.481514000000000
 20
-119.839823000000000
 11
143.481514000000000
 21
-119.839823000000000
  0
LINE
  8
0
  6
CONTINUOUS
 62
256
 10
167.481514000000000
 20
-88.589882000000003
 11
167.481514000000000
 21
-104.839823000000000
  0
LINE
  8
0
  6
CONTINUOUS
 62
256
 10
169.481514000000000
 20
-88.589882000000003
 11
167.481514000000000
 21
-88.589882000000003
  0
ARC
  8
0
  6
CONTINUOUS
 62
256
 10
158.881245000000010
 20
-81.939823000000004
 40
0.399999999999989
 50
179.999927000000550
 51
270.000000000000000
  0
ARC
  8
0
  6
CONTINUOUS
 62
256
 10
158.881245000000010
 20
-81.939881999999997
 40
0.399999999999989
 50
179.999927000000550
 51
270.000000000000000
  0
LINE
  8
0
  6
CONTINUOUS
 62
256
 10
158.481245000000000
 20
-81.939881999999997
 11
158.481247000000000
 21
-79.839883000000000
  0
LINE
  8
0
  6
CONTINUOUS
 62
256
 10
167.481514000000000
 20
-89.839822999999996
 11
143.481514000000000
 21
-89.839822999999996
  0
LINE
  8
0
  6
CONTINUOUS
 62
256
 10
75.481514000000004
 20
-86.539882000000006
 11
189.481514000000000
 21
-86.539882000000006
  0
ARC
  8
0
  6
CONTINUOUS
 62
256
 10
122.081798000000010
 20
-81.939823000000004
 40
0.400000000000006
 50
270.000000000000000
 51
0.000000000000000
  0
LINE
  8
0
  6
CONTINUOUS
 62
256
 10
91.673393000000004
 20
-82.339822999999996
 11
122.081798000000010
 21
-82.339822999999996
  0
LINE
  8
0
  6
CONTINUOUS
 62
256
 10
121.481514000000000
 20
-89.639823000000007
 11
121.481514000000000
 21
-104.839823000000000
  0
LINE
  8
0
  6
CONTINUOUS
 62
256
 10
121.481514000000000
 20
-89.839822999999996
 11
97.481514000000004
 21
-89.839822999999996
  0
LINE
  8
0
  6
CONTINUOUS
 62
256
 10
143.481514000000000
 20
-89.639823000000007
 11
143.481514000000000
 21
-104.839823000000000
  0
LINE
  8
0
  6
CONTINUOUS
 62
256
 10
121.481514000000000
 20
-89.639823000000007
 11
143.481514000000000
 21
-89.639823000000007
  0
LINE
  8
0
  6
CONTINUOUS
 62
256
 10
143.481514000000000
 20
-119.822427000000000
 11
143.481514000000000
 21
-104.839823000000000
  0
LINE
  8
0
  6
CONTINUOUS
 62
256
 10
140.981798000000000
 20
-130.239881999999990
 11
140.981798000000000
 21
-129.339881999999990
  0
LINE
  8
0
  6
CONTINUOUS
 62
256
 10
122.481798000000000
 20
-129.339881999999990
 11
122.481798000000000
 21
-127.739823000000000
  0
ARC
  8
0
  6
CONTINUOUS
 62
256
 10
122.081798000000010
 20
-127.739823000000000
 40
0.400000000000006
 50
0.000000000000000
 51
90.000000000000000
  0
LINE
  8
0
  6
CONTINUOUS
 62
256
 10
91.673393000000004
 20
-127.339823000000000
 11
122.081798000000010
 21
-127.339823000000000
  0
LINE
  8
0
  6
CONTINUOUS
 62
256
 10
122.481798000000000
 20
-129.339881999999990
 11
140.981798000000000
 21
-129.339881999999990
  0
LINE
  8
0
  6
CONTINUOUS
 62
256
 10
121.481514000000000
 20
-120.039823000000000
 11
143.481514000000000
 21
-120.039823000000000
  0
LINE
  8
0
  6
CONTINUOUS
 62
256
 10
121.481514000000000
 20
-120.139823000000010
 11
121.481514000000000
 21
-104.839823000000000
  0
LINE
  8
0
  6
CONTINUOUS
 62
256
 10
121.481514000000000
 20
-119.839823000000000
 11
97.481514000000004
 21
-119.839823000000000
  0
LINE
  8
0
  6
CONTINUOUS
 62
256
 10
97.481514000000004
 20
-121.089882000000000
 11
95.481514000000004
 21
-121.089882000000000
  0
LINE
  8
0
  6
CONTINUOUS
 62
256
 10
104.981840000000010
 20
-127.339825000000000
 11
91.981840000000005
 21
-127.339840000000000
  0
ARC
  8
0
  6
CONTINUOUS
 62
256
 10
91.673393000000004
 20
-127.139823000000010
 40
0.199999999999996
 50
189.594067999999960
 51
270.000000000000000
  0
ARC
  8
0
  6
CONTINUOUS
 62
256
 10
91.081784999999996
 20
-127.239823000000000
 40
0.400000000000005
 50
9.594067999999622
 51
90.000000000000000
  0
LINE
  8
0
  6
CONTINUOUS
 62
256
 10
97.481514000000004
 20
-121.089882000000000
 11
97.481514000000004
 21
-104.839823000000000
  0
LINE
  8
0
  6
CONTINUOUS
 62
256
 10
95.481514000000004
 20
-119.839823000000000
 11
77.481514000000004
 21
-119.839823000000000
  0
ARC
  8
0
  6
CONTINUOUS
 62
256
 10
77.481514000000004
 20
-121.839823000000000
 40
2.000000000000000
 50
90.000000000000000
 51
180.000000000000000
  0
ARC
  8
0
  6
CONTINUOUS
 62
256
 10
75.881513999999996
 20
-126.439823000000000
 40
0.400000000000006
 50
180.000000000000000
 51
270.000000000000000
  0
LINE
  8
0
  6
CONTINUOUS
 62
256
 10
91.081784999999996
 20
-126.839823000000000
 11
75.881513999999996
 21
-126.839823000000000
  0
LINE
  8
0
  6
CONTINUOUS
 62
256
 10
97.481514000000004
 20
-88.589882000000003
 11
95.481514000000004
 21
-88.589882000000003
  0
LINE
  8
0
  6
CONTINUOUS
 62
256
 10
95.481514000000004
 20
-88.589882000000003
 11
95.481514000000004
 21
-121.089882000000000
  0
LINE
  8
0
  6
CONTINUOUS
 62
256
 10
97.481514000000004
 20
-88.589882000000003
 11
97.481514000000004
 21
-104.839823000000000
  0
LINE
  8
0
  6
CONTINUOUS
 62
256
 10
95.481514000000004
 20
-89.839822999999996
 11
77.481514000000004
 21
-89.839822999999996
  0
ARC
  8
0
  6
CONTINUOUS
 62
256
 10
91.081784999999996
 20
-82.439823000000004
 40
0.400000000000006
 50
270.000000000000000
 51
350.405932000000400
  0
LINE
  8
0
  6
CONTINUOUS
 62
256
 10
91.081784999999996
 20
-82.839822999999996
 11
75.881513999999996
 21
-82.839822999999996
  0
LINE
  8
0
  6
CONTINUOUS
 62
256
 10
75.481514000000004
 20
-126.439823000000000
 11
75.481514000000004
 21
-83.239823000000001
  0
ARC
  8
0
  6
CONTINUOUS
 62
256
 10
75.881513999999996
 20
-83.239823000000001
 40
0.400000000000006
 50
90.000000000000000
 51
180.000000000000000
  0
ARC
  8
0
  6
CONTINUOUS
 62
256
 10
77.481514000000004
 20
-87.839822999999996
 40
2.000000000000000
 50
180.000000000000000
 51
270.000000000000000
  0
LINE
  8
0
  6
CONTINUOUS
 62
256
 10
104.981787000000000
 20
-82.339839999999995
 11
91.981786999999997
 21
-82.339855000000000
  0
ARC
  8
0
  6
CONTINUOUS
 62
256
 10
91.673393000000004
 20
-82.539822999999998
 40
0.200000000000003
 50
90.000000000000000
 51
170.405932000000040
  0
LINE
  8
0
  6
DASHDOT
 62
256
 10
-55.620494999999998
 20
-40.927101999999998
 11
-55.620494999999998
 21
-200.861068999999990
  0
LINE
  8
0
  6
DASHDOT
 62
256
 10
10.597789000000001
 20
-104.839882000000000
 11
-115.118818000000000
 21
-104.839882000000000
  0
CIRCLE
  8
0
  6
CONTINUOUS
 62
256
 10
-55.620494999999998
 20
-104.839882000000000
 40
22.000000000000000
  0
CIRCLE
  8
0
  6
CONTINUOUS
 62
256
 10
-55.620494999999998
 20
-104.839882000000000
 40
42.500000000000000
  0
CIRCLE
  8
0
  6
CONTINUOUS
 62
256
 10
-55.620494999999998
 20
-104.839882000000000
 40
47.000000000000000
  0
LINE
  8
0
  6
CONTINUOUS
 62
256
 10
-35.949812000000001
 20
-55.339882000000003
 11
-113.291179000000000
 21
-55.339882000000003
  0
LINE
  8
0
  6
CONTINUOUS
 62
256
 10
-35.949812000000001
 20
-52.339882000000003
 11
-113.291179000000000
 21
-52.339882000000003
  0
ARC
  8
0
  6
CONTINUOUS
 62
256
 10
-35.949812000000001
 20
-58.339882000000003
 40
5.999999999999999
 50
26.847213000000004
 51
90.000000000000000
  0
ARC
  8
0
  6
CONTINUOUS
 62
256
 10
-35.949812000000001
 20
-58.339882000000003
 40
3.000000000000000
 50
26.847213000000004
 51
90.000000000000000
  0
ARC
  8
0
  6
CONTINUOUS
 62
256
 10
-22.120494999999998
 20
-51.339882000000003
 40
12.500000000000002
 50
206.847213000000010
 51
263.651414999999990
  0
LINE
  8
0
  6
CONTINUOUS
 62
256
 10
-27.629299000000000
 20
-44.839882000000003
 11
-121.611692000000010
 21
-44.839882000000003
  0
LINE
  8
0
  6
CONTINUOUS
 62
256
 10
-145.620495000000010
 20
-43.839882000000003
 11
-3.620495000000000
 21
-43.839882000000003
  0
LINE
  8
0
  6
CONTINUOUS
 62
256
 10
-51.620494999999998
 20
-90.383049999999997
 11
-51.620494999999998
 21
-86.539882000000006
  0
LINE
  8
0
  6
CONTINUOUS
 62
256
 10
-59.620494999999998
 20
-86.539882000000006
 11
-51.620494999999998
 21
-86.539882000000006
  0
LINE
  8
0
  6
CONTINUOUS
 62
256
 10
-59.620494999999998
 20
-90.383049999999997
 11
-59.620494999999998
 21
-86.539882000000006
  0
ARC
  8
0
  6
CONTINUOUS
 62
256
 10
-55.620494999999998
 20
-104.839882000000000
 40
15.000000000000004
 50
105.466010000000000
 51
74.533990000000003
  0
ARC
  8
0
  6
CONTINUOUS
 62
256
 10
-157.620495000000010
 20
-176.820356000000000
 40
3.000000000000000
 50
0.000000000000000
 51
88.999999999999858
  0
ARC
  8
0
  6
CONTINUOUS
 62
256
 10
-157.620495000000010
 20
-62.894317999999998
 40
2.999999999999997
 50
271.000000000000110
 51
0.000000000000000
  0
LINE
  8
0
  6
CONTINUOUS
 62
256
 10
-183.120495000000010
 20
-66.339879999999994
 11
-157.568138000000000
 21
-65.893861999999999
  0
LINE
  8
0
  6
CONTINUOUS
 62
256
 10
-183.120495000000010
 20
-173.374795000000010
 11
-157.568138000000000
 21
-173.820812999999990
  0
ARC
  8
0
  6
CONTINUOUS
 62
256
 10
-23.834441000000002
 20
-66.744828999999996
 40
5.999999999999998
 50
31.420365999999994
 51
83.651414999999986
  0
ARC
  8
0
  6
CONTINUOUS
 62
256
 10
-22.120494999999998
 20
-51.339882000000003
 40
9.500000000000000
 50
206.847212999999950
 51
263.651414999999990
  0
ARC
  8
0
  6
CONTINUOUS
 62
256
 10
-7.620495000000000
 20
-56.839882000000003
 40
13.000000000000002
 50
211.420365999999970
 51
256.164776000000020
  0
ARC
  8
0
  6
CONTINUOUS
 62
256
 10
-127.120495000000010
 20
-51.339882000000003
 40
9.499999999999996
 50
276.348585000000010
 51
333.152786999999990
  0
ARC
  8
0
  6
CONTINUOUS
 62
256
 10
-125.406550000000000
 20
-66.744828999999996
 40
5.999999999999997
 50
96.348585000000028
 51
148.579633999999970
  0
ARC
  8
0
  6
CONTINUOUS
 62
256
 10
-141.620495000000010
 20
-56.839882000000003
 40
13.000000000000002
 50
283.835223999999980
 51
328.579633999999940
  0
LINE
  8
0
  6
DASHDOT
 62
256
 10
-141.620495000000010
 20
-46.272373999999999
 11
-141.620495000000010
 21
-68.717607000000001
  0
LINE
  8
0
  6
DASHDOT
 62
256
 10
-127.120495000000010
 20
-43.162294000000003
 11
-127.120495000000010
 21
-59.280406999999997
  0
LINE
  8
0
  6
DASHDOT
 62
256
 10
-22.120494999999998
 20
-42.839882000000003
 11
-22.120494999999998
 21
-60.291679000000002
  0
LINE
  8
0
  6
DASHDOT
 62
256
 10
-14.877635000000000
 20
-51.339882000000003
 11
-29.479320999999999
 21
-51.339882000000003
  0
ARC
  8
0
  6
CONTINUOUS
 62
256
 10
-3.620495000000000
 20
-52.839882000000003
 40
9.000000000000000
 50
0.000000000000000
 51
90.000000000000000
  0
ARC
  8
0
  6
CONTINUOUS
 62
256
 10
-145.620495000000010
 20
-52.839882000000003
 40
9.000000000000000
 50
90.000000000000000
 51
180.000000000000000
  0
LINE
  8
0
  6
CONTINUOUS
 62
256
 10
5.379505000000000
 20
-52.839882000000003
 11
5.379505000000000
 21
-182.839881999999990
  0
LINE
  8
0
  6
CONTINUOUS
 62
256
 10
-154.620495000000010
 20
-182.839881999999990
 11
-154.620495000000010
 21
-52.839882000000003
  0
ARC
  8
0
  6
CONTINUOUS
 62
256
 10
-7.620495000000000
 20
-178.839881999999990
 40
13.000000000000002
 50
103.835224000000000
 51
148.579634000000060
  0
ARC
  8
0
  6
CONTINUOUS
 62
256
 10
-23.834441000000002
 20
-168.934935000000000
 40
6.000000000000004
 50
276.348585000000010
 51
328.579633999999880
  0
ARC
  8
0
  6
CONTINUOUS
 62
256
 10
-22.120494999999998
 20
-184.339881999999990
 40
9.499999999999996
 50
96.348584999999986
 51
153.152787000000050
  0
ARC
  8
0
  6
CONTINUOUS
 62
256
 10
-125.406550000000000
 20
-168.934935000000000
 40
5.999999999999996
 50
211.420366000000140
 51
263.651414999999990
  0
ARC
  8
0
  6
CONTINUOUS
 62
256
 10
-127.120495000000010
 20
-184.339881999999990
 40
9.500000000000000
 50
26.847212999999975
 51
83.651414999999972
  0
ARC
  8
0
  6
CONTINUOUS
 62
256
 10
-141.620495000000010
 20
-178.839881999999990
 40
12.999999999999988
 50
31.420365999999984
 51
76.164776000000032
  0
LINE
  8
0
  6
DASHDOT
 62
256
 10
3.284301000000000
 20
-178.839881999999990
 11
-18.197921999999998
 21
-178.839881999999990
  0
LINE
  8
0
  6
DASHDOT
 62
256
 10
-14.438533000000000
 20
-184.339881999999990
 11
-30.013145000000002
 21
-184.339881999999990
  0
ARC
  8
0
  6
CONTINUOUS
 62
256
 10
-3.620495000000000
 20
-182.839881999999990
 40
9.000000000000000
 50
270.000000000000000
 51
0.000000000000000
  0
ARC
  8
0
  6
CONTINUOUS
 62
256
 10
-145.620495000000010
 20
-182.839881999999990
 40
9.000000000000000
 50
180.000000000000000
 51
270.000000000000000
  0
LINE
  8
0
  6
CONTINUOUS
 62
256
 10
-3.620495000000000
 20
-191.839881999999990
 11
-145.620495000000010
 21
-191.839881999999990
  0
LINE
  8
0
  6
DASHDOT
 62
256
 10
-131.158614000000000
 20
-178.839881999999990
 11
-152.282800000000010
 21
-178.839881999999990
  0
LINE
  8
0
  6
DASHDOT
 62
256
 10
-22.120494999999998
 20
-175.757161000000000
 11
-22.120494999999998
 21
-193.391039000000010
  0
LINE
  8
0
  6
DASHDOT
 62
256
 10
-7.620495000000000
 20
-167.343290000000000
 11
-7.620495000000000
 21
-193.391039000000010
  0
LINE
  8
0
  6
DASHDOT
 62
256
 10
-141.620495000000010
 20
-168.238383000000000
 11
-141.620495000000010
 21
-189.183550999999990
  0
LINE
  8
0
  6
DASHDOT
 62
256
 10
-129.809711999999990
 20
-56.839882000000003
 11
-156.038601000000000
 21
-56.839882000000003
  0
LINE
  8
0
  6
DASHDOT
 62
256
 10
-127.120495000000010
 20
-177.547346000000000
 11
-127.120495000000010
 21
-193.121958000000010
  0
LINE
  8
0
  6
DASHDOT
 62
256
 10
-119.862393000000000
 20
-51.339882000000003
 11
-134.348914000000010
 21
-51.339882000000003
  0
LINE
  8
0
  6
DASHDOT
 62
256
 10
-120.238484000000000
 20
-184.339881999999990
 11
-134.559966000000000
 21
-184.339881999999990
  0
INSERT
  8
0
  2
ZU_SYM_1
 10
-127.120495000000010
 20
-184.339881999999990
  0
INSERT
  8
0
  2
ZU_SYM_2
 10
-22.120494999999998
 20
-184.339881999999990
  0
LINE
  8
0
  6
CONTINUOUS
 62
256
 10
-132.629299000000000
 20
-44.839882000000003
 11
-145.620495000000010
 21
-44.839882000000003
  0
ARC
  8
0
  6
CONTINUOUS
 62
256
 10
-23.834441000000002
 20
-66.744828999999996
 40
3.000000000000004
 50
31.420366000000090
 51
83.651415000000000
  0
ARC
  8
0
  6
CONTINUOUS
 62
256
 10
-7.620495000000000
 20
-56.839882000000003
 40
15.999999999999998
 50
211.420365999999970
 51
256.164776000000020
  0
ARC
  8
0
  6
CONTINUOUS
 62
256
 10
-13.120495000000000
 20
-79.172594000000004
 40
10.000000000000000
 50
0.000000000000000
 51
76.164776000000018
  0
ARC
  8
0
  6
CONTINUOUS
 62
256
 10
-13.120495000000000
 20
-79.172594000000004
 40
7.000000000000000
 50
0.000000000000000
 51
76.164775999999989
  0
LINE
  8
0
  6
CONTINUOUS
 62
256
 10
-3.120495000000000
 20
-156.507171000000000
 11
-3.120495000000000
 21
-79.172594000000004
  0
LINE
  8
0
  6
CONTINUOUS
 62
256
 10
-6.120495000000000
 20
-156.507171000000000
 11
-6.120495000000000
 21
-79.172594000000004
  0
ARC
  8
0
  6
CONTINUOUS
 62
256
 10
-13.120495000000000
 20
-156.507171000000000
 40
10.000000000000005
 50
283.835223999999980
 51
0.000000000000000
  0
ARC
  8
0
  6
CONTINUOUS
 62
256
 10
-13.120495000000000
 20
-156.507171000000000
 40
7.000000000000010
 50
283.835223999999930
 51
0.000000000000000
  0
ARC
  8
0
  6
CONTINUOUS
 62
256
 10
-7.620495000000000
 20
-178.839881999999990
 40
15.999999999999998
 50
103.835224000000000
 51
148.579634000000030
  0
ARC
  8
0
  6
CONTINUOUS
 62
256
 10
-141.620495000000010
 20
-178.839881999999990
 40
16.000000000000004
 50
31.420365999999976
 51
76.164775999999975
  0
ARC
  8
0
  6
CONTINUOUS
 62
256
 10
-136.120495000000010
 20
-156.507171000000000
 40
10.000000000000000
 50
180.000000000000000
 51
256.164775999999960
  0
ARC
  8
0
  6
CONTINUOUS
 62
256
 10
-136.120495000000010
 20
-156.507171000000000
 40
7.000000000000000
 50
180.000000000000000
 51
256.164776000000020
  0
ARC
  8
0
  6
CONTINUOUS
 62
256
 10
-136.120495000000010
 20
-79.172594000000004
 40
10.000000000000009
 50
103.835224000000070
 51
180.000000000000000
  0
LINE
  8
0
  6
CONTINUOUS
 62
256
 10
-146.120495000000010
 20
-79.172594000000004
 11
-146.120495000000010
 21
-156.507171000000000
  0
ARC
  8
0
  6
CONTINUOUS
 62
256
 10
-136.120495000000010
 20
-79.172594000000004
 40
6.999999999999996
 50
103.835224000000010
 51
180.000000000000000
  0
LINE
  8
0
  6
CONTINUOUS
 62
256
 10
-143.120495000000010
 20
-79.172594000000004
 11
-143.120495000000010
 21
-156.507171000000000
  0
ARC
  8
0
  6
CONTINUOUS
 62
256
 10
-125.406550000000000
 20
-66.744828999999996
 40
3.000000000000002
 50
96.348585000000014
 51
148.579633999999910
  0
ARC
  8
0
  6
CONTINUOUS
 62
256
 10
-141.620495000000010
 20
-56.839882000000003
 40
16.000000000000000
 50
283.835223999999980
 51
328.579633999999940
  0
ARC
  8
0
  6
CONTINUOUS
 62
256
 10
-113.291179000000000
 20
-58.339882000000003
 40
6.000000000000000
 50
90.000000000000000
 51
153.152786999999990
  0
ARC
  8
0
  6
CONTINUOUS
 62
256
 10
-113.291179000000000
 20
-58.339882000000003
 40
3.000000000000000
 50
90.000000000000000
 51
153.152787000000070
  0
ARC
  8
0
  6
CONTINUOUS
 62
256
 10
-127.120495000000010
 20
-51.339882000000003
 40
12.499999999999998
 50
276.348585000000010
 51
333.152786999999990
  0
LINE
  8
0
  6
CONTINUOUS
 62
256
 10
-153.620495000000010
 20
-52.839882000000003
 11
-153.620495000000010
 21
-182.839881999999990
  0
ARC
  8
0
  6
CONTINUOUS
 62
256
 10
-145.620495000000010
 20
-52.839882000000003
 40
8.000000000000000
 50
90.000000000000000
 51
180.000000000000000
  0
LINE
  8
0
  6
CONTINUOUS
 62
256
 10
-3.620495000000000
 20
-44.839882000000003
 11
-16.611692000000001
 21
-44.839882000000003
  0
ARC
  8
0
  6
CONTINUOUS
 62
256
 10
-3.620495000000000
 20
-52.839882000000003
 40
8.000000000000000
 50
0.000000000000000
 51
90.000000000000000
  0
LINE
  8
0
  6
CONTINUOUS
 62
256
 10
4.379505000000000
 20
-182.839881999999990
 11
4.379505000000000
 21
-52.839882000000003
  0
CIRCLE
  8
0
  6
CONTINUOUS
 62
256
 10
-127.120495000000010
 20
-51.339882000000003
 40
5.500000000000000
  0
CIRCLE
  8
0
  6
CONTINUOUS
 62
256
 10
-22.120494999999998
 20
-51.339882000000003
 40
5.500000000000000
  0
LINE
  8
0
  6
CONTINUOUS
 62
256
 10
-16.611692000000001
 20
-190.839881999999990
 11
-3.620495000000000
 21
-190.839881999999990
  0
LINE
  8
0
  6
CONTINUOUS
 62
256
 10
-121.611692000000010
 20
-190.839881999999990
 11
-27.629299000000000
 21
-190.839881999999990
  0
ARC
  8
0
  6
CONTINUOUS
 62
256
 10
-23.834441000000002
 20
-168.934935000000000
 40
2.999999999999989
 50
276.348585000000010
 51
328.579633999999830
  0
ARC
  8
0
  6
CONTINUOUS
 62
256
 10
-35.949812000000001
 20
-177.339881999999990
 40
6.000000000000000
 50
270.000000000000000
 51
333.152786999999880
  0
ARC
  8
0
  6
CONTINUOUS
 62
256
 10
-35.949812000000001
 20
-177.339881999999990
 40
3.000000000000000
 50
270.000000000000000
 51
333.152787000000100
  0
ARC
  8
0
  6
CONTINUOUS
 62
256
 10
-22.120494999999998
 20
-184.339881999999990
 40
12.500000000000012
 50
96.348584999999986
 51
153.152787000000050
  0
LINE
  8
0
  6
CONTINUOUS
 62
256
 10
-113.291178000000000
 20
-183.339881999999990
 11
-35.949812000000001
 21
-183.339881999999990
  0
ARC
  8
0
  6
CONTINUOUS
 62
256
 10
-113.291178000000000
 20
-177.339881999999990
 40
5.999999999999992
 50
206.847212999999870
 51
270.000000000000000
  0
ARC
  8
0
  6
CONTINUOUS
 62
256
 10
-113.291178000000000
 20
-177.339881999999990
 40
3.000000000000002
 50
206.847212999999810
 51
270.000000000000000
  0
LINE
  8
0
  6
CONTINUOUS
 62
256
 10
-113.291178000000000
 20
-180.339881999999990
 11
-35.949812000000001
 21
-180.339881999999990
  0
ARC
  8
0
  6
CONTINUOUS
 62
256
 10
-125.406550000000000
 20
-168.934935000000000
 40
3.000000000000004
 50
211.420366000000090
 51
263.651414999999990
  0
ARC
  8
0
  6
CONTINUOUS
 62
256
 10
-127.120495000000010
 20
-184.339881999999990
 40
12.499999999999989
 50
26.847212999999968
 51
83.651414999999986
  0
LINE
  8
0
  6
CONTINUOUS
 62
256
 10
-145.620495000000010
 20
-190.839881999999990
 11
-132.629299000000000
 21
-190.839881999999990
  0
ARC
  8
0
  6
CONTINUOUS
 62
256
 10
-145.620495000000010
 20
-182.839881999999990
 40
8.000000000000000
 50
180.000000000000000
 51
270.000000000000000
  0
ARC
  8
0
  6
CONTINUOUS
 62
256
 10
-3.620495000000000
 20
-182.839881999999990
 40
8.000000000000000
 50
270.000000000000000
 51
0.000000000000000
  0
CIRCLE
  8
0
  6
CONTINUOUS
 62
256
 10
-22.120494999999998
 20
-184.339881999999990
 40
5.500000000000000
  0
CIRCLE
  8
0
  6
CONTINUOUS
 62
256
 10
-127.120495000000010
 20
-184.339881999999990
 40
5.500000000000000
  0
LINE
  8
0
  6
CONTINUOUS
 62
256
 10
-165.120495000000010
 20
-69.130876000000001
 11
-165.120495000000010
 21
-170.583799000000000
  0
ARC
  8
0
  6
CONTINUOUS
 62
256
 10
-168.120495000000010
 20
-69.130876000000001
 40
3.000000000000000
 50
0.000000000000000
 51
91.000000000000156
  0
ARC
  8
0
  6
CONTINUOUS
 62
256
 10
-168.120495000000010
 20
-170.583799000000000
 40
3.000000000000011
 50
268.999999999999830
 51
0.000000000000000
  0
ARC
  8
0
  6
CONTINUOUS
 62
256
 10
-168.120495000000010
 20
-158.286989000000010
 40
3.000000000000000
 50
270.000000000000000
 51
0.000000000000000
  0
ARC
  8
0
  6
CONTINUOUS
 62
256
 10
-168.120495000000010
 20
-161.357337000000000
 40
3.000000000000000
 50
270.000000000000000
 51
0.000000000000000
  0
ARC
  8
0
  6
CONTINUOUS
 62
256
 10
-168.120495000000010
 20
-81.427685999999994
 40
3.000000000000000
 50
0.000000000000000
 51
90.000000000000000
  0
ARC
  8
0
  6
CONTINUOUS
 62
256
 10
-168.120495000000010
 20
-78.357337000000001
 40
3.000000000000000
 50
0.000000000000000
 51
90.000000000000000
  0
LINE
  8
0
  6
CONTINUOUS
 62
256
 10
-175.120495000000010
 20
-164.357337000000000
 11
-168.120495000000010
 21
-164.357337000000000
  0
LINE
  8
0
  6
CONTINUOUS
 62
256
 10
-176.120495000000010
 20
-161.286989000000010
 11
-168.120495000000010
 21
-161.286989000000010
  0
LINE
  8
0
  6
CONTINUOUS
 62
256
 10
-176.120495000000010
 20
-78.427685999999994
 11
-168.120495000000010
 21
-78.427685999999994
  0
LINE
  8
0
  6
CONTINUOUS
 62
256
 10
-175.120495000000010
 20
-75.357337000000001
 11
-168.120495000000010
 21
-75.357337000000001
  0
ARC
  8
0
  6
CONTINUOUS
 62
256
 10
-180.120495000000010
 20
-171.409398000000010
 40
1.999999999999998
 50
268.999999999999830
 51
0.000000000000000
  0
LINE
  8
0
  6
CONTINUOUS
 62
256
 10
-178.120495000000010
 20
-167.357337000000000
 11
-178.120495000000010
 21
-171.409398000000010
  0
ARC
  8
0
  6
CONTINUOUS
 62
256
 10
-175.120495000000010
 20
-150.749503000000000
 40
3.000000000000000
 50
180.000000000000000
 51
270.000000000000000
  0
ARC
  8
0
  6
CONTINUOUS
 62
256
 10
-176.120495000000010
 20
-159.286989000000010
 40
2.000000000000000
 50
180.000000000000000
 51
270.000000000000000
  0
LINE
  8
0
  6
CONTINUOUS
 62
256
 10
-169.815813999999990
 20
-153.749503000000000
 11
-175.120495000000010
 21
-153.749503000000000
  0
ARC
  8
0
  6
CONTINUOUS
 62
256
 10
-175.120495000000010
 20
-167.357337000000000
 40
3.000000000000000
 50
90.000000000000000
 51
180.000000000000000
  0
LINE
  8
0
  6
CONTINUOUS
 62
256
 10
-178.120495000000010
 20
-139.857337000000000
 11
-183.120495000000010
 21
-139.857337000000000
  0
LINE
  8
0
  6
CONTINUOUS
 62
256
 10
-178.120495000000010
 20
-119.857337000000000
 11
-178.120495000000010
 21
-159.286989000000010
  0
LINE
  8
0
  6
CONTINUOUS
 62
256
 10
-178.120495000000010
 20
-99.857337000000001
 11
-183.120495000000010
 21
-99.857337000000001
  0
LINE
  8
0
  6
CONTINUOUS
 62
256
 10
-170.055484000000010
 20
-85.965170999999998
 11
-175.120495000000010
 21
-85.965170999999998
  0
ARC
  8
0
  6
CONTINUOUS
 62
256
 10
-175.120495000000010
 20
-88.965170999999998
 40
3.000000000000000
 50
90.000000000000000
 51
180.000000000000000
  0
ARC
  8
0
  6
CONTINUOUS
 62
256
 10
-176.120495000000010
 20
-80.427685999999994
 40
2.000000000000000
 50
90.000000000000000
 51
180.000000000000000
  0
LINE
  8
0
  6
CONTINUOUS
 62
256
 10
-178.120495000000010
 20
-119.857337000000000
 11
-178.120495000000010
 21
-80.427685999999994
  0
ARC
  8
0
  6
CONTINUOUS
 62
256
 10
-175.120495000000010
 20
-72.357337000000001
 40
3.000000000000000
 50
180.000000000000000
 51
270.000000000000000
  0
ARC
  8
0
  6
CONTINUOUS
 62
256
 10
-180.120495000000010
 20
-68.305277000000004
 40
2.000000000000000
 50
0.000000000000000
 51
91.000000000000156
  0
LINE
  8
0
  6
CONTINUOUS
 62
256
 10
-178.120495000000010
 20
-72.357337000000001
 11
-178.120495000000010
 21
-68.305277000000004
  0
LINE
  8
0
  6
CONTINUOUS
 62
256
 10
-17.111615000000000
 20
-44.348607999999999
 11
-17.120494999999998
 21
-43.839882000000003
  0
ARC
  8
0
  6
CONTINUOUS
 62
256
 10
-16.611692000000001
 20
-44.339882000000003
 40
0.499999999999999
 50
181.000000000000140
 51
270.000000000000000
  0
LINE
  8
0
  6
CONTINUOUS
 62
256
 10
-27.129375000000000
 20
-44.348607999999999
 11
-27.120494999999998
 21
-43.839882000000003
  0
ARC
  8
0
  6
CONTINUOUS
 62
256
 10
-27.629299000000000
 20
-44.339882000000003
 40
0.500000000000000
 50
270.000000000000000
 51
358.999999999999830
  0
ARC
  8
0
  6
CONTINUOUS
 62
256
 10
-121.611692000000010
 20
-44.339882000000003
 40
0.500000000000007
 50
181.000000000000110
 51
270.000000000000000
  0
LINE
  8
0
  6
CONTINUOUS
 62
256
 10
-122.111615000000000
 20
-44.348607999999999
 11
-122.120495000000010
 21
-43.839882000000003
  0
ARC
  8
0
  6
CONTINUOUS
 62
256
 10
-132.629299000000000
 20
-44.339882000000003
 40
0.500000000000000
 50
270.000000000000000
 51
358.999999999999830
  0
LINE
  8
0
  6
CONTINUOUS
 62
256
 10
-132.129375000000010
 20
-44.348607999999999
 11
-132.120495000000010
 21
-43.839882000000003
  0
LINE
  8
0
  6
CONTINUOUS
 62
256
 10
-132.129375000000010
 20
-191.331155999999990
 11
-132.120495000000010
 21
-191.839881999999990
  0
ARC
  8
0
  6
CONTINUOUS
 62
256
 10
-132.629299000000000
 20
-191.339881999999990
 40
0.500000000000006
 50
0.999999999998505
 51
90.000000000000000
  0
LINE
  8
0
  6
CONTINUOUS
 62
256
 10
-122.111615000000000
 20
-191.331155999999990
 11
-122.120495000000010
 21
-191.839881999999990
  0
ARC
  8
0
  6
CONTINUOUS
 62
256
 10
-121.611692000000010
 20
-191.339881999999990
 40
0.500000000000000
 50
90.000000000000000
 51
179.000000000001510
  0
LINE
  8
0
  6
CONTINUOUS
 62
256
 10
-17.111615000000000
 20
-191.331155999999990
 11
-17.120494999999998
 21
-191.839881999999990
  0
ARC
  8
0
  6
CONTINUOUS
 62
256
 10
-16.611692000000001
 20
-191.339881999999990
 40
0.500000000000000
 50
90.000000000000000
 51
179.000000000001480
  0
LINE
  8
0
  6
CONTINUOUS
 62
256
 10
-27.129375000000000
 20
-191.331155999999990
 11
-27.120494999999998
 21
-191.839881999999990
  0
ARC
  8
0
  6
CONTINUOUS
 62
256
 10
-27.629299000000000
 20
-191.339881999999990
 40
0.499999999999999
 50
0.999999999998520
 51
90.000000000000000
  0
LINE
  8
0
  6
DASHED
 62
256
 10
-153.620450000000010
 20
-119.839882000000000
 11
-153.620450000000010
 21
-107.239881999999990
  0
LINE
  8
0
  6
DASHED
 62
256
 10
-153.620450000000010
 20
-119.839882000000000
 11
-153.620450000000010
 21
-132.439882000000010
  0
LINE
  8
0
  6
CONTINUOUS
 62
256
 10
-183.120495000000010
 20
-119.857337000000000
 11
-183.120495000000010
 21
-173.357337000000000
  0
LINE
  8
0
  6
CONTINUOUS
 62
256
 10
-183.120495000000010
 20
-119.857337000000000
 11
-183.120495000000010
 21
-66.357337000000001
  0
INSERT
  8
0
  2
ZU_SYM_3
 10
-127.120495000000010
 20
-51.339882000000003
  0
INSERT
  8
0
  2
ZU_SYM_4
 10
-22.120494999999998
 20
-51.339882000000003
  0
LINE
  8
0
  6
DASHDOT
 62
256
 10
484.718960999999980
 20
-104.839882000000000
 11
359.239116000000020
 21
-104.839882000000000
  0
LINE
  8
0
  6
CONTINUOUS
 62
256
 10
370.530379999999980
 20
-100.322427000000000
 11
370.530379999999980
 21
-139.322427000000000
  0
LINE
  8
0
  6
CONTINUOUS
 62
256
 10
476.530379999999980
 20
-139.322427000000000
 11
476.530379999999980
 21
-100.322427000000000
  0
ARC
  8
0
  6
CONTINUOUS
 62
256
 10
450.530379999999980
 20
-147.339881999999990
 40
25.000000000000000
 50
331.642362999999990
 51
354.269824999999970
  0
ARC
  8
0
  6
CONTINUOUS
 62
256
 10
396.530379999999980
 20
-147.339881999999990
 40
24.999999999999979
 50
185.730174999999970
 51
208.357637000000040
  0
ARC
  8
0
  6
CONTINUOUS
 62
256
 10
771.530380000000040
 20
-139.839881999999990
 40
400.000000000000000
 50
181.076859999999980
 51
181.431983999999970
  0
ARC
  8
0
  6
CONTINUOUS
 62
256
 10
75.530379999999994
 20
-139.839881999999990
 40
400.000000000000000
 50
358.568016000000060
 51
358.849005999999970
  0
ARC
  8
0
  6
CONTINUOUS
 62
256
 10
476.030379999999980
 20
-139.339881999999990
 40
0.500000000000000
 50
270.000000000000000
 51
0.000000000000000
  0
ARC
  8
0
  6
DASHED
 62
256
 10
75.530379999999994
 20
-139.839881999999990
 40
400.000000000000000
 50
358.849005999999970
 51
359.928470000000000
  0
ARC
  8
0
  6
DASHED
 62
256
 10
450.530379999999980
 20
-147.339881999999990
 40
25.000000000000011
 50
275.730175000000030
 51
331.642362999999990
  0
ARC
  8
0
  6
DASHED
 62
256
 10
396.530379999999980
 20
-147.339881999999990
 40
25.000000000000000
 50
208.357637000000040
 51
264.269825000000080
  0
LINE
  8
0
  6
DASHED
 62
256
 10
443.030379999999980
 20
-66.339882000000003
 11
404.030379999999980
 21
-66.339882000000003
  0
ARC
  8
0
  6
DASHED
 62
256
 10
443.030379999999980
 20
-467.339881999999990
 40
400.000000000000000
 50
89.140459000000007
 51
89.928470000000004
  0
ARC
  8
0
  6
DASHED
 62
256
 10
450.530379999999980
 20
-92.339882000000003
 40
24.999999999999979
 50
5.730175000000014
 51
93.438649999999981
  0
ARC
  8
0
  6
DASHED
 62
256
 10
443.030379999999980
 20
-66.839882000000003
 40
0.500000000000000
 50
0.000000000000000
 51
90.000000000000000
  0
ARC
  8
0
  6
DASHED
 62
256
 10
444.030379999999980
 20
-66.839882000000003
 40
0.500000000000000
 50
180.000000000000000
 51
270.000000000000000
  0
ARC
  8
0
  6
DASHED
 62
256
 10
75.530379999999994
 20
-99.839882000000003
 40
399.999999999999940
 50
0.053000000000000
 51
1.431984000000000
  0
ARC
  8
0
  6
DASHED
 62
256
 10
476.030379999999980
 20
-99.339882000000003
 40
0.500000000000000
 50
180.000000000000000
 51
270.000000000000000
  0
ARC
  8
0
  6
DASHED
 62
256
 10
476.030379999999980
 20
-140.339881999999990
 40
0.500000000000000
 50
90.000000000000000
 51
180.000000000000000
  0
ARC
  8
0
  6
DASHED
 62
256
 10
443.030379999999980
 20
227.660118000000010
 40
400.000000000000000
 50
270.071530000000000
 51
271.431984000000000
  0
ARC
  8
0
  6
DASHED
 62
256
 10
444.030379999999980
 20
-172.839881999999990
 40
0.500000000000000
 50
90.000000000000000
 51
180.000000000000000
  0
LINE
  8
0
  6
DASHED
 62
256
 10
404.030379999999980
 20
-173.339881999999990
 11
443.030379999999980
 21
-173.339881999999990
  0
ARC
  8
0
  6
DASHED
 62
256
 10
443.030379999999980
 20
-172.839881999999990
 40
0.500000000000000
 50
270.000000000000000
 51
0.000000000000000
  0
ARC
  8
0
  6
DASHED
 62
256
 10
404.030379999999980
 20
227.660118000000010
 40
400.000000000000000
 50
268.568016000000060
 51
269.928470000000000
  0
ARC
  8
0
  6
DASHED
 62
256
 10
403.030379999999980
 20
-172.839881999999990
 40
0.500000000000000
 50
0.000000000000000
 51
90.000000000000000
  0
ARC
  8
0
  6
DASHED
 62
256
 10
404.030379999999980
 20
-172.839881999999990
 40
0.500000000000000
 50
180.000000000000000
 51
270.000000000000000
  0
ARC
  8
0
  6
DASHED
 62
256
 10
371.030379999999980
 20
-139.339881999999990
 40
0.500000000000000
 50
180.000000000000000
 51
270.000000000000000
  0
ARC
  8
0
  6
DASHED
 62
256
 10
371.030379999999980
 20
-140.339881999999990
 40
0.500000000000000
 50
0.000000000000000
 51
90.000000000000000
  0
ARC
  8
0
  6
DASHED
 62
256
 10
771.530380000000040
 20
-99.839882000000003
 40
400.000000000000000
 50
178.568016000000000
 51
179.928470000000000
  0
ARC
  8
0
  6
DASHED
 62
256
 10
371.030379999999980
 20
-100.339882000000000
 40
0.500000000000000
 50
90.000000000000000
 51
180.000000000000000
  0
ARC
  8
0
  6
DASHED
 62
256
 10
371.030379999999980
 20
-99.339882000000003
 40
0.500000000000000
 50
270.000000000000000
 51
0.000000000000000
  0
ARC
  8
0
  6
DASHED
 62
256
 10
396.530379999999980
 20
-92.339882000000003
 40
24.999999999999993
 50
86.561350000000019
 51
174.269825000000000
  0
ARC
  8
0
  6
DASHED
 62
256
 10
404.030379999999980
 20
-467.339881999999990
 40
400.000000000000000
 50
90.071529999999996
 51
90.859540999999993
  0
ARC
  8
0
  6
DASHED
 62
256
 10
403.030379999999980
 20
-66.839882000000003
 40
0.500000000000000
 50
270.000000000000000
 51
0.000000000000000
  0
ARC
  8
0
  6
DASHED
 62
256
 10
404.030379999999980
 20
-66.839882000000003
 40
0.500000000000000
 50
90.000000000000000
 51
180.000000000000000
  0
LINE
  8
0
  6
DASHDOT
 62
256
 10
423.530379999999980
 20
-217.225986000000010
 11
423.530379999999980
 21
-39.887832000000003
  0
LINE
  8
0
  6
DASHDOT
 62
256
 10
432.528229000000010
 20
-119.839882000000000
 11
412.540288999999970
 21
-119.839882000000000
  0
LINE
  8
0
  6
CONTINUOUS
 62
256
 10
386.530379999999980
 20
-43.813699999999997
 11
386.530379999999980
 21
-191.831155000000000
  0
LINE
  8
0
  6
CONTINUOUS
 62
256
 10
370.530379999999980
 20
-147.339881999999990
 11
374.530379999999980
 21
-147.339881999999990
  0
LINE
  8
0
  6
CONTINUOUS
 62
256
 10
374.530379999999980
 20
-159.196768999999990
 11
374.530379999999980
 21
-44.049343000000000
  0
LINE
  8
0
  6
CONTINUOUS
 62
256
 10
472.530379999999980
 20
-159.196768999999990
 11
472.530379999999980
 21
-45.157739999999997
  0
LINE
  8
0
  6
CONTINUOUS
 62
256
 10
374.530379999999980
 20
-191.630421000000010
 11
374.530379999999980
 21
-159.196768999999990
  0
LINE
  8
0
  6
CONTINUOUS
 62
256
 10
370.530379999999980
 20
-62.339882000000003
 11
370.530379999999980
 21
-147.339881999999990
  0
LINE
  8
0
  6
CONTINUOUS
 62
256
 10
472.530379999999980
 20
-190.487114999999990
 11
472.530379999999980
 21
-159.196768999999990
  0
LINE
  8
0
  6
CONTINUOUS
 62
256
 10
386.530379999999980
 20
-191.831155000000000
 11
462.530379999999980
 21
-190.487114999999990
  0
LINE
  8
0
  6
CONTINUOUS
 62
256
 10
462.530379999999980
 20
-190.487114999999990
 11
472.530379999999980
 21
-190.487114999999990
  0
LINE
  8
0
  6
CONTINUOUS
 62
256
 10
462.530379999999980
 20
-45.157739999999997
 11
472.530379999999980
 21
-45.157739999999997
  0
LINE
  8
0
  6
CONTINUOUS
 62
256
 10
374.530379999999980
 20
-44.049343000000000
 11
386.530379999999980
 21
-43.839882000000003
  0
LINE
  8
0
  6
CONTINUOUS
 62
256
 10
386.530379999999980
 20
-43.813699999999997
 11
462.530379999999980
 21
-45.157739999999997
  0
LINE
  8
0
  6
CONTINUOUS
 62
256
 10
370.530379999999980
 20
-62.339882000000003
 11
374.530379999999980
 21
-62.339882000000003
  0
LINE
  8
0
  6
CONTINUOUS
 62
256
 10
386.530379999999980
 20
-191.839881999999990
 11
374.530379999999980
 21
-191.630421000000010
  0
LINE
  8
0
  6
CONTINUOUS
 62
256
 10
476.530379999999980
 20
-147.339881999999990
 11
476.530379999999980
 21
-62.339882000000003
  0
LINE
  8
0
  6
CONTINUOUS
 62
256
 10
472.530379999999980
 20
-62.339882000000003
 11
476.530379999999980
 21
-62.339882000000003
  0
LINE
  8
0
  6
CONTINUOUS
 62
256
 10
472.530379999999980
 20
-147.339881999999990
 11
476.530379999999980
 21
-147.339881999999990
  0
ARC
  8
0
  6
DASHED
 62
256
 10
771.530380000000040
 20
-139.839881999999990
 40
400.000000000000000
 50
180.071529999999970
 51
181.150993999999970
  0
LINE
  8
0
  6
CONTINUOUS
 62
256
 10
370.530379999999980
 20
-82.839882000000003
 11
367.530379999999980
 21
-82.839882000000003
  0
ARC
  8
0
  6
CONTINUOUS
 62
256
 10
367.530379999999980
 20
-83.839882000000003
 40
1.000000000000000
 50
90.000000000000000
 51
180.000000000000000
  0
LINE
  8
0
  6
CONTINUOUS
 62
256
 10
366.530379999999980
 20
-83.839882000000003
 11
366.530379999999980
 21
-104.839882000000000
  0
LINE
  8
0
  6
CONTINUOUS
 62
256
 10
370.530379999999980
 20
-126.839882000000000
 11
367.530379999999980
 21
-126.839882000000000
  0
ARC
  8
0
  6
CONTINUOUS
 62
256
 10
367.530379999999980
 20
-125.839882000000000
 40
1.000000000000000
 50
180.000000000000000
 51
270.000000000000000
  0
LINE
  8
0
  6
CONTINUOUS
 62
256
 10
366.530379999999980
 20
-125.839882000000000
 11
366.530379999999980
 21
-104.839882000000000
  0
LINE
  8
0
  6
CONTINUOUS
 62
256
 10
476.530379999999980
 20
-82.839882000000003
 11
479.530379999999980
 21
-82.839882000000003
  0
ARC
  8
0
  6
CONTINUOUS
 62
256
 10
479.530379999999980
 20
-83.839882000000003
 40
1.000000000000000
 50
0.000000000000000
 51
90.000000000000000
  0
LINE
  8
0
  6
CONTINUOUS
 62
256
 10
480.530379999999980
 20
-83.839882000000003
 11
480.530379999999980
 21
-104.839882000000000
  0
LINE
  8
0
  6
CONTINUOUS
 62
256
 10
476.530379999999980
 20
-126.839882000000000
 11
479.530379999999980
 21
-126.839882000000000
  0
ARC
  8
0
  6
CONTINUOUS
 62
256
 10
479.530379999999980
 20
-125.839882000000000
 40
1.000000000000000
 50
270.000000000000000
 51
0.000000000000000
  0
LINE
  8
0
  6
CONTINUOUS
 62
256
 10
480.530379999999980
 20
-125.839882000000000
 11
480.530379999999980
 21
-104.839882000000000
  0
ARC
  8
0
  6
CONTINUOUS
 62
256
 10
-344.625339999999990
 20
-158.239881999999990
 40
20.599999999999991
 50
235.000000000000000
 51
270.000000000000000
  0
ARC
  8
0
  6
CONTINUOUS
 62
256
 10
-362.520494999999980
 20
-167.683502000000000
 40
2.600000000000023
 50
180.000000000000000
 51
234.999999999999770
  0
LINE
  8
0
  6
CONTINUOUS
 62
256
 10
-356.441014999999990
 20
-175.114414000000010
 11
-364.011794000000010
 21
-169.813298000000000
  0
LINE
  8
0
  6
CONTINUOUS
 62
256
 10
-365.120495000000010
 20
-167.683502000000000
 11
-365.120495000000010
 21
-119.839882000000000
  0
LINE
  8
0
  6
CONTINUOUS
 62
256
 10
-267.120495000000010
 20
-160.881796000000010
 11
-183.120495000000010
 21
-160.881796000000010
  0
LINE
  8
0
  6
CONTINUOUS
 62
256
 10
-267.120495000000010
 20
-165.972964999999990
 11
-183.120495000000010
 21
-165.972964999999990
  0
LINE
  8
0
  6
CONTINUOUS
 62
256
 10
-267.120495000000010
 20
-170.339881999999990
 11
-183.120495000000010
 21
-170.339881999999990
  0
LINE
  8
0
  6
CONTINUOUS
 62
256
 10
-267.120495000000010
 20
-170.839881999999990
 11
-183.120495000000010
 21
-170.839881999999990
  0
LINE
  8
0
  6
CONTINUOUS
 62
256
 10
-183.120495000000010
 20
-173.339881999999990
 11
-184.920494999999990
 21
-173.339881999999990
  0
LINE
  8
0
  6
CONTINUOUS
 62
256
 10
-184.920494999999990
 20
-172.339881999999990
 11
-184.920494999999990
 21
-210.339881999999990
  0
ARC
  8
0
  6
CONTINUOUS
 62
256
 10
-185.920494999999990
 20
-210.339881999999990
 40
1.000000000000000
 50
270.000000000000000
 51
0.000000000000000
  0
LINE
  8
0
  6
CONTINUOUS
 62
256
 10
-273.920495000000020
 20
-211.339881999999990
 11
-185.920494999999990
 21
-211.339881999999990
  0
ARC
  8
0
  6
CONTINUOUS
 62
256
 10
-273.920495000000020
 20
-210.339881999999990
 40
1.000000000000000
 50
180.000000000000000
 51
270.000000000000000
  0
LINE
  8
0
  6
CONTINUOUS
 62
256
 10
-267.920495000000020
 20
-211.839881999999990
 11
-259.920495000000020
 21
-211.839881999999990
  0
LINE
  8
0
  6
CONTINUOUS
 62
256
 10
-199.920494999999990
 20
-211.839881999999990
 11
-191.920494999999990
 21
-211.839881999999990
  0
LINE
  8
0
  6
CONTINUOUS
 62
256
 10
-199.920494999999990
 20
-211.339881999999990
 11
-199.920494999999990
 21
-211.839881999999990
  0
LINE
  8
0
  6
CONTINUOUS
 62
256
 10
-191.920494999999990
 20
-211.339881999999990
 11
-191.920494999999990
 21
-211.839881999999990
  0
LINE
  8
0
  6
CONTINUOUS
 62
256
 10
-259.920495000000020
 20
-211.339881999999990
 11
-259.920495000000020
 21
-211.839881999999990
  0
LINE
  8
0
  6
CONTINUOUS
 62
256
 10
-267.920495000000020
 20
-211.339881999999990
 11
-267.920495000000020
 21
-211.839881999999990
  0
LINE
  8
0
  6
CONTINUOUS
 62
256
 10
-184.920494999999990
 20
-172.339881999999990
 11
-267.120495000000010
 21
-172.339881999999990
  0
POLYLINE
  8
0
  6
CONTINUOUS
 62
256
 66
1
 70
1
  0
VERTEX
  8
0
  6
CONTINUOUS
 62
256
 10
-273.420495000000020
 20
-167.167213000000000
  0
VERTEX
  8
0
  6
CONTINUOUS
 62
256
 10
-273.510804182104830
 20
-166.464256489441820
  0
VERTEX
  8
0
  6
CONTINUOUS
 62
256
 10
-273.778261197196970
 20
-165.788314203361860
  0
VERTEX
  8
0
  6
CONTINUOUS
 62
256
 10
-274.212587822178080
 20
-165.165362224741330
  0
VERTEX
  8
0
  6
CONTINUOUS
 62
256
 10
-274.797093128423230
 20
-164.619340248763170
  0
VERTEX
  8
0
  6
CONTINUOUS
 62
256
 10
-275.509314904807870
 20
-164.171231593751510
  0
VERTEX
  8
0
  6
CONTINUOUS
 62
256
 10
-276.321882867884090
 20
-163.838256824016270
  0
VERTEX
  8
0
  6
CONTINUOUS
 62
256
 10
-277.203570486524200
 20
-163.633211973223920
  0
VERTEX
  8
0
  6
CONTINUOUS
 62
256
 10
-278.120495000000010
 20
-163.563976800000010
  0
VERTEX
  8
0
  6
CONTINUOUS
 62
256
 10
-279.037419513475810
 20
-163.633211973223920
  0
VERTEX
  8
0
  6
CONTINUOUS
 62
256
 10
-279.919107132115930
 20
-163.838256824016270
  0
VERTEX
  8
0
  6
CONTINUOUS
 62
256
 10
-280.731675095192140
 20
-164.171231593751510
  0
VERTEX
  8
0
  6
CONTINUOUS
 62
256
 10
-281.443896871576780
 20
-164.619340248763170
  0
VERTEX
  8
0
  6
CONTINUOUS
 62
256
 10
-282.028402177821930
 20
-165.165362224741330
  0
VERTEX
  8
0
  6
CONTINUOUS
 62
256
 10
-282.462728802803040
 20
-165.788314203361860
  0
VERTEX
  8
0
  6
CONTINUOUS
 62
256
 10
-282.730185817895180
 20
-166.464256489441820
  0
VERTEX
  8
0
  6
CONTINUOUS
 62
256
 10
-282.820494999999990
 20
-167.167213000000000
  0
VERTEX
  8
0
  6
CONTINUOUS
 62
256
 10
-282.730185817895180
 20
-167.870169510558180
  0
VERTEX
  8
0
  6
CONTINUOUS
 62
256
 10
-282.462728802803040
 20
-168.546111796638140
  0
VERTEX
  8
0
  6
CONTINUOUS
 62
256
 10
-282.028402177821930
 20
-169.169063775258680
  0
VERTEX
  8
0
  6
CONTINUOUS
 62
256
 10
-281.443896871576780
 20
-169.715085751236840
  0
VERTEX
  8
0
  6
CONTINUOUS
 62
256
 10
-280.731675095192140
 20
-170.163194406248490
  0
VERTEX
  8
0
  6
CONTINUOUS
 62
256
 10
-279.919107132115930
 20
-170.496169175983740
  0
VERTEX
  8
0
  6
CONTINUOUS
 62
256
 10
-279.037419513475810
 20
-170.701214026776060
  0
VERTEX
  8
0
  6
CONTINUOUS
 62
256
 10
-278.120495000000010
 20
-170.770449200000000
  0
VERTEX
  8
0
  6
CONTINUOUS
 62
256
 10
-277.203570486524200
 20
-170.701214026776060
  0
VERTEX
  8
0
  6
CONTINUOUS
 62
256
 10
-276.321882867884090
 20
-170.496169175983740
  0
VERTEX
  8
0
  6
CONTINUOUS
 62
256
 10
-275.509314904807870
 20
-170.163194406248490
  0
VERTEX
  8
0
  6
CONTINUOUS
 62
256
 10
-274.797093128423230
 20
-169.715085751236840
  0
VERTEX
  8
0
  6
CONTINUOUS
 62
256
 10
-274.212587822178080
 20
-169.169063775258680
  0
VERTEX
  8
0
  6
CONTINUOUS
 62
256
 10
-273.778261197196970
 20
-168.546111796638140
  0
VERTEX
  8
0
  6
CONTINUOUS
 62
256
 10
-273.510804182104830
 20
-167.870169510558180
  0
SEQEND
  8
0
  6
CONTINUOUS
 62
256
  0
LINE
  8
0
  6
CONTINUOUS
 62
256
 10
-280.120495000000010
 20
-170.159589000000010
 11
-278.120495000000010
 21
-168.983802999999990
  0
LINE
  8
0
  6
CONTINUOUS
 62
256
 10
-278.120495000000010
 20
-168.983802999999990
 11
-276.120495000000010
 21
-167.331162000000010
  0
LINE
  8
0
  6
CONTINUOUS
 62
256
 10
-276.120495000000010
 20
-170.159589000000010
 11
-278.120495000000010
 21
-168.983802999999990
  0
LINE
  8
0
  6
CONTINUOUS
 62
256
 10
-278.120495000000010
 20
-168.983802999999990
 11
-280.120495000000010
 21
-167.331162000000010
  0
LINE
  8
0
  6
CONTINUOUS
 62
256
 10
-267.120495000000010
 20
-171.179578999999990
 11
-267.120495000000010
 21
-119.839882000000000
  0
ARC
  8
0
  6
CONTINUOUS
 62
256
 10
-270.120495000000010
 20
-171.179578999999990
 40
3.000000000000000
 50
270.000000000000000
 51
0.000000000000000
  0
LINE
  8
0
  6
CONTINUOUS
 62
256
 10
-274.120495000000010
 20
-174.179578999999990
 11
-270.120495000000010
 21
-174.179578999999990
  0
ARC
  8
0
  6
CONTINUOUS
 62
256
 10
-274.120495000000010
 20
-177.179578999999990
 40
3.000000000000000
 50
90.000000000000000
 51
180.000000000000000
  0
LINE
  8
0
  6
CONTINUOUS
 62
256
 10
-277.120495000000010
 20
-178.839881999999990
 11
-344.625339999999990
 21
-178.839881999999990
  0
LINE
  8
0
  6
CONTINUOUS
 62
256
 10
-277.120495000000010
 20
-178.839881999999990
 11
-277.120495000000010
 21
-177.179578999999990
  0
LINE
  8
0
  6
CONTINUOUS
 62
256
 10
-274.920495000000020
 20
-174.288211999999990
 11
-274.920495000000020
 21
-210.339881999999990
  0
LINE
  8
0
  6
CONTINUOUS
 62
256
 10
-274.920495000000020
 20
-177.339881999999990
 11
-184.920494999999990
 21
-177.339881999999990
  0
POLYLINE
  8
0
  6
CONTINUOUS
 62
256
 66
1
 70
1
  0
VERTEX
  8
0
  6
CONTINUOUS
 62
256
 10
-273.420495000000020
 20
-72.512551000000002
  0
VERTEX
  8
0
  6
CONTINUOUS
 62
256
 10
-273.510804182104830
 20
-71.809594489441835
  0
VERTEX
  8
0
  6
CONTINUOUS
 62
256
 10
-273.778261197196970
 20
-71.133652203361862
  0
VERTEX
  8
0
  6
CONTINUOUS
 62
256
 10
-274.212587822178080
 20
-70.510700224741342
  0
VERTEX
  8
0
  6
CONTINUOUS
 62
256
 10
-274.797093128423230
 20
-69.964678248763164
  0
VERTEX
  8
0
  6
CONTINUOUS
 62
256
 10
-275.509314904807870
 20
-69.516569593751512
  0
VERTEX
  8
0
  6
CONTINUOUS
 62
256
 10
-276.321882867884090
 20
-69.183594824016254
  0
VERTEX
  8
0
  6
CONTINUOUS
 62
256
 10
-277.203570486524200
 20
-68.978549973223934
  0
VERTEX
  8
0
  6
CONTINUOUS
 62
256
 10
-278.120495000000010
 20
-68.909314800000004
  0
VERTEX
  8
0
  6
CONTINUOUS
 62
256
 10
-279.037419513475810
 20
-68.978549973223934
  0
VERTEX
  8
0
  6
CONTINUOUS
 62
256
 10
-279.919107132115930
 20
-69.183594824016254
  0
VERTEX
  8
0
  6
CONTINUOUS
 62
256
 10
-280.731675095192140
 20
-69.516569593751512
  0
VERTEX
  8
0
  6
CONTINUOUS
 62
256
 10
-281.443896871576780
 20
-69.964678248763164
  0
VERTEX
  8
0
  6
CONTINUOUS
 62
256
 10
-282.028402177821930
 20
-70.510700224741342
  0
VERTEX
  8
0
  6
CONTINUOUS
 62
256
 10
-282.462728802803040
 20
-71.133652203361862
  0
VERTEX
  8
0
  6
CONTINUOUS
 62
256
 10
-282.730185817895180
 20
-71.809594489441835
  0
VERTEX
  8
0
  6
CONTINUOUS
 62
256
 10
-282.820494999999990
 20
-72.512551000000002
  0
VERTEX
  8
0
  6
CONTINUOUS
 62
256
 10
-282.730185817895180
 20
-73.215507510558169
  0
VERTEX
  8
0
  6
CONTINUOUS
 62
256
 10
-282.462728802803040
 20
-73.891449796638142
  0
VERTEX
  8
0
  6
CONTINUOUS
 62
256
 10
-282.028402177821930
 20
-74.514401775258662
  0
VERTEX
  8
0
  6
CONTINUOUS
 62
256
 10
-281.443896871576780
 20
-75.060423751236840
  0
VERTEX
  8
0
  6
CONTINUOUS
 62
256
 10
-280.731675095192140
 20
-75.508532406248491
  0
VERTEX
  8
0
  6
CONTINUOUS
 62
256
 10
-279.919107132115930
 20
-75.841507175983736
  0
VERTEX
  8
0
  6
CONTINUOUS
 62
256
 10
-279.037419513475810
 20
-76.046552026776070
  0
VERTEX
  8
0
  6
CONTINUOUS
 62
256
 10
-278.120495000000010
 20
-76.115787200000000
  0
VERTEX
  8
0
  6
CONTINUOUS
 62
256
 10
-277.203570486524200
 20
-76.046552026776070
  0
VERTEX
  8
0
  6
CONTINUOUS
 62
256
 10
-276.321882867884090
 20
-75.841507175983750
  0
VERTEX
  8
0
  6
CONTINUOUS
 62
256
 10
-275.509314904807870
 20
-75.508532406248491
  0
VERTEX
  8
0
  6
CONTINUOUS
 62
256
 10
-274.797093128423230
 20
-75.060423751236840
  0
VERTEX
  8
0
  6
CONTINUOUS
 62
256
 10
-274.212587822178080
 20
-74.514401775258662
  0
VERTEX
  8
0
  6
CONTINUOUS
 62
256
 10
-273.778261197196970
 20
-73.891449796638142
  0
VERTEX
  8
0
  6
CONTINUOUS
 62
256
 10
-273.510804182104830
 20
-73.215507510558169
  0
SEQEND
  8
0
  6
CONTINUOUS
 62
256
  0
LINE
  8
0
  6
CONTINUOUS
 62
256
 10
-280.120495000000010
 20
-69.520176000000006
 11
-278.120495000000010
 21
-70.695960999999997
  0
LINE
  8
0
  6
CONTINUOUS
 62
256
 10
-278.120495000000010
 20
-70.695960999999997
 11
-276.120495000000010
 21
-72.348602999999997
  0
LINE
  8
0
  6
CONTINUOUS
 62
256
 10
-276.120495000000010
 20
-69.520176000000006
 11
-278.120495000000010
 21
-70.695960999999997
  0
LINE
  8
0
  6
CONTINUOUS
 62
256
 10
-278.120495000000010
 20
-70.695960999999997
 11
-280.120495000000010
 21
-72.348602999999997
  0
LINE
  8
0
  6
CONTINUOUS
 62
256
 10
-267.120495000000010
 20
-60.839882000000003
 11
-267.120495000000010
 21
-119.839882000000000
  0
ARC
  8
0
  6
CONTINUOUS
 62
256
 10
-344.625339999999990
 20
-81.439881999999997
 40
20.600000000000001
 50
90.000000000000000
 51
124.999999999999990
  0
ARC
  8
0
  6
CONTINUOUS
 62
256
 10
-362.520494999999980
 20
-71.996262000000002
 40
2.600000000000007
 50
125.000000000000040
 51
180.000000000000000
  0
LINE
  8
0
  6
CONTINUOUS
 62
256
 10
-365.120495000000010
 20
-71.996262000000002
 11
-365.120495000000010
 21
-119.839882000000000
  0
LINE
  8
0
  6
CONTINUOUS
 62
256
 10
-356.441014999999990
 20
-64.565349999999995
 11
-364.011794000000010
 21
-69.866467000000000
  0
LINE
  8
0
  6
CONTINUOUS
 62
256
 10
-267.120495000000010
 20
-60.839882000000003
 11
-344.625339999999990
 21
-60.839882000000003
  0
LINE
  8
0
  6
CONTINUOUS
 62
256
 10
-183.120495000000010
 20
-173.339881999999990
 11
-183.120495000000010
 21
-119.839882000000000
  0
LINE
  8
0
  6
DASHDOT
 62
256
 10
-142.002431000000000
 20
-119.839882000000000
 11
-373.438459000000020
 21
-119.839882000000000
  0
LINE
  8
0
  6
CONTINUOUS
 62
256
 10
-267.120495000000010
 20
-133.839881999999990
 11
-183.120495000000010
 21
-133.839881999999990
  0
LINE
  8
0
  6
CONTINUOUS
 62
256
 10
-267.120495000000010
 20
-138.225997000000010
 11
-183.120495000000010
 21
-138.225997000000010
  0
LINE
  8
0
  6
CONTINUOUS
 62
256
 10
-267.120495000000010
 20
-139.467917000000000
 11
-183.120495000000010
 21
-139.467917000000000
  0
LINE
  8
0
  6
CONTINUOUS
 62
256
 10
-267.120495000000010
 20
-142.678122000000000
 11
-183.120495000000010
 21
-142.678122000000000
  0
LINE
  8
0
  6
CONTINUOUS
 62
256
 10
-267.120495000000010
 20
-144.024524000000010
 11
-183.120495000000010
 21
-144.024524000000010
  0
LINE
  8
0
  6
CONTINUOUS
 62
256
 10
-267.120495000000010
 20
-147.117255000000000
 11
-183.120495000000010
 21
-147.117255000000000
  0
LINE
  8
0
  6
CONTINUOUS
 62
256
 10
-267.120495000000010
 20
-148.596278000000010
 11
-183.120495000000010
 21
-148.596278000000010
  0
LINE
  8
0
  6
CONTINUOUS
 62
256
 10
-267.120495000000010
 20
-151.554272999999990
 11
-183.120495000000010
 21
-151.554272999999990
  0
LINE
  8
0
  6
CONTINUOUS
 62
256
 10
-267.120495000000010
 20
-153.143483000000000
 11
-183.120495000000010
 21
-153.143483000000000
  0
LINE
  8
0
  6
CONTINUOUS
 62
256
 10
-183.120495000000010
 20
-66.339882000000003
 11
-183.120495000000010
 21
-119.839882000000000
  0
LINE
  8
0
  6
CONTINUOUS
 62
256
 10
-267.120495000000010
 20
-68.839882000000003
 11
-183.120495000000010
 21
-68.839882000000003
  0
LINE
  8
0
  6
CONTINUOUS
 62
256
 10
-267.120495000000010
 20
-69.339882000000003
 11
-183.120495000000010
 21
-69.339882000000003
  0
LINE
  8
0
  6
CONTINUOUS
 62
256
 10
-267.120495000000010
 20
-73.706800000000001
 11
-183.120495000000010
 21
-73.706800000000001
  0
LINE
  8
0
  6
CONTINUOUS
 62
256
 10
-267.120495000000010
 20
-78.797967999999997
 11
-183.120495000000010
 21
-78.797967999999997
  0
LINE
  8
0
  6
CONTINUOUS
 62
256
 10
-267.120495000000010
 20
-86.536281000000002
 11
-183.120495000000010
 21
-86.536281000000002
  0
LINE
  8
0
  6
CONTINUOUS
 62
256
 10
-267.120495000000010
 20
-88.125490999999997
 11
-183.120495000000010
 21
-88.125490999999997
  0
LINE
  8
0
  6
CONTINUOUS
 62
256
 10
-267.120495000000010
 20
-91.083487000000005
 11
-183.120495000000010
 21
-91.083487000000005
  0
LINE
  8
0
  6
CONTINUOUS
 62
256
 10
-267.120495000000010
 20
-92.562510000000003
 11
-183.120495000000010
 21
-92.562510000000003
  0
LINE
  8
0
  6
CONTINUOUS
 62
256
 10
-267.120495000000010
 20
-95.655241000000004
 11
-183.120495000000010
 21
-95.655241000000004
  0
LINE
  8
0
  6
CONTINUOUS
 62
256
 10
-267.120495000000010
 20
-97.001643000000001
 11
-183.120495000000010
 21
-97.001643000000001
  0
LINE
  8
0
  6
CONTINUOUS
 62
256
 10
-267.120495000000010
 20
-101.453767000000000
 11
-183.120495000000010
 21
-101.453767000000000
  0
LINE
  8
0
  6
CONTINUOUS
 62
256
 10
-267.120495000000010
 20
-100.211848000000000
 11
-183.120495000000010
 21
-100.211848000000000
  0
LINE
  8
0
  6
CONTINUOUS
 62
256
 10
-267.120495000000010
 20
-105.839882000000000
 11
-183.120495000000010
 21
-105.839882000000000
  0
LINE
  8
0
  6
CONTINUOUS
 62
256
 10
-183.120495000000010
 20
-66.339882000000003
 11
-267.120495000000010
 21
-66.339882000000003
  0
ARC
  8
0
  6
CONTINUOUS
 62
256
 10
76.930380000000000
 20
-119.839882000000000
 40
400.600000000000020
 50
354.256318000000020
 51
358.996278000000020
  0
ARC
  8
0
  6
CONTINUOUS
 62
256
 10
468.952327000000030
 20
-159.270749000000000
 40
6.600000000000017
 50
315.000000000000170
 51
354.256318000000020
  0
LINE
  8
0
  6
CONTINUOUS
 62
256
 10
472.530379999999980
 20
-165.026504999999990
 11
473.619231000000010
 21
-163.937654000000010
  0
LINE
  8
0
  6
CONTINUOUS
 62
256
 10
459.530379999999980
 20
-190.557624000000000
 11
459.530379999999980
 21
-204.706547000000000
  0
LINE
  8
0
  6
CONTINUOUS
 62
256
 10
387.530379999999980
 20
-191.830925000000010
 11
387.530379999999980
 21
-204.706547000000000
  0
LINE
  8
0
  6
CONTINUOUS
 62
256
 10
426.030379999999980
 20
-211.839881999999990
 11
426.030379999999980
 21
-211.329465000000000
  0
LINE
  8
0
  6
CONTINUOUS
 62
256
 10
421.030379999999980
 20
-211.839881999999990
 11
426.030379999999980
 21
-211.839881999999990
  0
LINE
  8
0
  6
CONTINUOUS
 62
256
 10
421.030379999999980
 20
-211.839881999999990
 11
421.030379999999980
 21
-211.329465000000000
  0
ARC
  8
0
  6
CONTINUOUS
 62
256
 10
392.530379999999980
 20
-204.706547000000000
 40
5.000000000000000
 50
180.000000000000000
 51
263.967950999999970
  0
ARC
  8
0
  6
CONTINUOUS
 62
256
 10
454.530379999999980
 20
-204.706547000000000
 40
5.000000000000002
 50
276.032049000000030
 51
0.000000000000000
  0
ARC
  8
0
  6
CONTINUOUS
 62
256
 10
423.530379999999980
 20
88.660117999999997
 40
300.000000000000000
 50
263.967951000000030
 51
276.032048999999970
  0
LINE
  8
0
  6
CONTINUOUS
 62
256
 10
374.530379999999980
 20
-165.026504999999990
 11
373.441528000000010
 21
-163.937654000000010
  0
ARC
  8
0
  6
CONTINUOUS
 62
256
 10
770.130379999999950
 20
-119.839882000000000
 40
400.600000000000080
 50
181.003722000000010
 51
185.743681999999980
  0
ARC
  8
0
  6
CONTINUOUS
 62
256
 10
378.108432999999990
 20
-159.270749000000000
 40
6.599999999999971
 50
185.743681999999920
 51
224.999999999999830
  0
LINE
  8
0
  6
DASHDOT
 62
256
 10
473.976464000000020
 20
-56.839882000000003
 11
372.893250000000020
 21
-56.839882000000003
  0
LINE
  8
0
  6
DASHDOT
 62
256
 10
473.976464000000020
 20
-178.839881999999990
 11
372.893250000000020
 21
-178.839881999999990
  0
LINE
  8
0
  6
CONTINUOUS
 62
256
 10
122.481798000000000
 20
-80.339882000000003
 11
140.981798000000000
 21
-80.339882000000003
  0
LINE
  8
0
  6
CONTINUOUS
 62
256
 10
122.481798000000000
 20
-80.339882000000003
 11
122.481798000000000
 21
-81.939942000000002
  0
LINE
  8
0
  6
CONTINUOUS
 62
256
 10
140.981798000000000
 20
-79.439881999999997
 11
140.981798000000000
 21
-80.339882000000003
  0
LINE
  8
0
  6
CONTINUOUS
 62
256
 10
140.981798000000000
 20
-79.439881999999997
 11
158.481261999999990
 21
-79.439881999999997
  0
LINE
  8
0
  6
CONTINUOUS
 62
256
 10
158.481245000000000
 20
-81.939941000000005
 11
158.481247999999990
 21
-79.439881999999997
  0
LINE
  8
0
  6
CONTINUOUS
 62
256
 10
-178.120495000000010
 20
121.228615000000000
 11
-183.120495000000010
 21
121.228615000000000
  0
ENDSEC
  0
EOF
