  0
SECTION
  2
HEADER
  9
$TEXTSIZE
 40
2.5
  9
$ACADVER
  1
AC1009
  9
$DIMASZ
 40
3.863703297614046
  9
$DIMEXE
 40
2.000000000000000
  9
$DIMEXO
 40
1.000000000000000
  9
$DIMLFAC
 40
1.000000000000000
  9
$DIMSCALE
 40
1.000000000000000
  9
$DIMTAD
 70
1
  9
$DIMTFAC
 40
0.625000000000000
  9
$DIMTXT
 40
3.200000047683716
  9
$LUPREC
 70
3
  9
$REGENMODE
 70
1
  9
$TEXTSTYLE
  7
STANDARD1
  0
ENDSEC
  0
SECTION
  2
TABLES
  0
TABLE
  2
LTYPE
 70
4
  0
LTYPE
  2
CONTINUOUS
 70
64
  3
Solid line
 72
65
 73
0
 40
0.0
  0
LTYPE
  2
DASHED
 70
64
  3
-- -- -- -- -- -- -- -- -- -- -- -- -- -- --
 72
65
 73
2
 40
0.75
 49
0.5
 49
-0.25
  0
LTYPE
  2
DASHDOT
 70
64
  3
__ . __ . __ . __ . __ . __ . __ . __ . __ . __
 72
65
 73
4
 40
1.0
 49
0.5
 49
-0.25
 49
0.0
 49
-0.25
  0
LTYPE
  2
DIVIDE
 70
64
  3
__ . . __ . . __ . . __ . . __ . . __ . . __
 72
65
 73
6
 40
1.25
 49
0.5
 49
-0.25
 49
0.0
 49
-0.25
 49
0.0
 49
-0.25
  0
ENDTAB
  0
TABLE
  2
LAYER
 70
3
  0
LAYER
  2
0
 70
64
 62
53
  6
CONTINUOUS
  0
LAYER
  2
1
 70
64
 62
102
  6
CONTINUOUS
  0
LAYER
  2
2
 70
64
 62
102
  6
CONTINUOUS
  0
ENDTAB
  0
TABLE
  2
STYLE
 70
4
  0
STYLE
  2
STANDARD1
 70
64
 40
0.0
 41
1.0
 50
0.0
 71
0
 42
3.200000047683716
  3
MONOTXT
  4
BIGFONT
  0
STYLE
  2
STANDARD2
 70
68
 40
0.0
 41
1.0
 50
0.0
 71
0
 42
3.200000047683716
  3
MONOTXT
  4
BIGFONT
  0
STYLE
  2
STANDARD3
 70
64
 40
0.0
 41
1.0
 50
0.0
 71
0
 42
3.200000047683716
  3
MONOTXT
  4

  0
STYLE
  2
STANDARD4
 70
68
 40
0.0
 41
1.0
 50
0.0
 71
0
 42
3.200000047683716
  3
MONOTXT
  4

  0
ENDTAB
  0
TABLE
  2
VIEW
 70
0
  0
ENDTAB
  0
ENDSEC
  0
SECTION
  2
BLOCKS
  0
BLOCK
  8
0
  2
ZU_SYM_1
 70
64
 10
0.000000000000000
 20
0.000000000000000
  0
LINE
  8
0
  6
CONTINUOUS
 62
256
 10
2.499999000000000
 20
-1.443374000000000
 11
-0.000005000000000
 21
-2.886748000000000
  0
LINE
  8
0
  6
CONTINUOUS
 62
256
 10
0.000005000000000
 20
2.886748000000000
 11
-2.500000000000000
 21
1.443377000000000
  0
LINE
  8
0
  6
CONTINUOUS
 62
256
 10
-0.000006000000000
 20
-2.886747000000000
 11
-2.499998000000000
 21
-1.443372000000000
  0
LINE
  8
0
  6
CONTINUOUS
 62
256
 10
0.000005000000000
 20
2.886749000000000
 11
2.499999000000000
 21
1.443372000000000
  0
LINE
  8
0
  6
CONTINUOUS
 62
256
 10
2.499998000000000
 20
1.443372000000000
 11
2.499999000000000
 21
-1.443374000000000
  0
LINE
  8
0
  6
CONTINUOUS
 62
256
 10
-2.499998000000000
 20
-1.443372000000000
 11
-2.499999000000000
 21
1.443378000000000
  0
POINT
  8
0
  6
CONTINUOUS
 62
256
 10
0.000000000000000
 20
0.000000000000000
  0
CIRCLE
  8
0
  6
CONTINUOUS
 62
256
 10
0.000000000000000
 20
0.000000000000000
 40
5.000000000000000
  0
ENDBLK
  8
0
  0
BLOCK
  8
0
  2
ZU_SYM_2
 70
64
 10
0.000000000000000
 20
0.000000000000000
  0
LINE
  8
0
  6
CONTINUOUS
 62
256
 10
2.499999000000000
 20
-1.443374000000000
 11
-0.000005000000000
 21
-2.886748000000000
  0
LINE
  8
0
  6
CONTINUOUS
 62
256
 10
0.000005000000000
 20
2.886748000000000
 11
-2.500000000000000
 21
1.443377000000000
  0
LINE
  8
0
  6
CONTINUOUS
 62
256
 10
-0.000006000000000
 20
-2.886747000000000
 11
-2.499998000000000
 21
-1.443372000000000
  0
LINE
  8
0
  6
CONTINUOUS
 62
256
 10
0.000005000000000
 20
2.886749000000000
 11
2.499999000000000
 21
1.443372000000000
  0
LINE
  8
0
  6
CONTINUOUS
 62
256
 10
2.499998000000000
 20
1.443372000000000
 11
2.499999000000000
 21
-1.443374000000000
  0
LINE
  8
0
  6
CONTINUOUS
 62
256
 10
-2.499998000000000
 20
-1.443372000000000
 11
-2.499999000000000
 21
1.443378000000000
  0
POINT
  8
0
  6
CONTINUOUS
 62
256
 10
0.000000000000000
 20
0.000000000000000
  0
CIRCLE
  8
0
  6
CONTINUOUS
 62
256
 10
0.000000000000000
 20
0.000000000000000
 40
5.000000000000000
  0
ENDBLK
  8
0
  0
BLOCK
  8
0
  2
ZU_SYM_3
 70
64
 10
0.000000000000000
 20
0.000000000000000
  0
LINE
  8
0
  6
CONTINUOUS
 62
256
 10
2.499999000000000
 20
-1.443374000000000
 11
-0.000005000000000
 21
-2.886748000000000
  0
LINE
  8
0
  6
CONTINUOUS
 62
256
 10
0.000005000000000
 20
2.886748000000000
 11
-2.500000000000000
 21
1.443377000000000
  0
LINE
  8
0
  6
CONTINUOUS
 62
256
 10
-0.000006000000000
 20
-2.886747000000000
 11
-2.499998000000000
 21
-1.443372000000000
  0
LINE
  8
0
  6
CONTINUOUS
 62
256
 10
0.000005000000000
 20
2.886749000000000
 11
2.499999000000000
 21
1.443372000000000
  0
LINE
  8
0
  6
CONTINUOUS
 62
256
 10
2.499998000000000
 20
1.443372000000000
 11
2.499999000000000
 21
-1.443374000000000
  0
LINE
  8
0
  6
CONTINUOUS
 62
256
 10
-2.499998000000000
 20
-1.443372000000000
 11
-2.499999000000000
 21
1.443378000000000
  0
POINT
  8
0
  6
CONTINUOUS
 62
256
 10
0.000000000000000
 20
0.000000000000000
  0
CIRCLE
  8
0
  6
CONTINUOUS
 62
256
 10
0.000000000000000
 20
0.000000000000000
 40
5.000000000000000
  0
ENDBLK
  8
0
  0
BLOCK
  8
0
  2
ZU_SYM_4
 70
64
 10
0.000000000000000
 20
0.000000000000000
  0
LINE
  8
0
  6
CONTINUOUS
 62
256
 10
2.499999000000000
 20
-1.443374000000000
 11
-0.000005000000000
 21
-2.886748000000000
  0
LINE
  8
0
  6
CONTINUOUS
 62
256
 10
0.000005000000000
 20
2.886748000000000
 11
-2.500000000000000
 21
1.443377000000000
  0
LINE
  8
0
  6
CONTINUOUS
 62
256
 10
-0.000006000000000
 20
-2.886747000000000
 11
-2.499998000000000
 21
-1.443372000000000
  0
LINE
  8
0
  6
CONTINUOUS
 62
256
 10
0.000005000000000
 20
2.886749000000000
 11
2.499999000000000
 21
1.443372000000000
  0
LINE
  8
0
  6
CONTINUOUS
 62
256
 10
2.499998000000000
 20
1.443372000000000
 11
2.499999000000000
 21
-1.443374000000000
  0
LINE
  8
0
  6
CONTINUOUS
 62
256
 10
-2.499998000000000
 20
-1.443372000000000
 11
-2.499999000000000
 21
1.443378000000000
  0
POINT
  8
0
  6
CONTINUOUS
 62
256
 10
0.000000000000000
 20
0.000000000000000
  0
CIRCLE
  8
0
  6
CONTINUOUS
 62
256
 10
0.000000000000000
 20
0.000000000000000
 40
5.000000000000000
  0
ENDBLK
  8
0
  0
ENDSEC
  0
SECTION
  2
ENTITIES
  0
TEXT
  8
0
  6
CONTINUOUS
 62
256
 10
-70.375488281250000
 20
-13.156250000000000
 40
2.799999952316284
  1
ü@
 50
0.000002504478167
 41
0.996000017370497
  7
STANDARD1
  0
TEXT
  8
0
  6
CONTINUOUS
 62
256
 10
1.624511957168579
 20
-253.406250000000000
 40
2.799999952316284
  1
ü@
 50
0.000002504478167
 41
0.996000017370497
  7
STANDARD1
  0
CIRCLE
  8
0
  6
CONTINUOUS
 62
256
 10
-115.116514000000000
 20
-22.926005000000000
 40
8.500000000000000
  0
CIRCLE
  8
0
  6
CONTINUOUS
 62
256
 10
18.883486000000001
 20
-22.926005000000000
 40
8.500000000000000
  0
CIRCLE
  8
0
  6
CONTINUOUS
 62
256
 10
18.883486000000001
 20
-144.926005000000000
 40
8.500000000000000
  0
CIRCLE
  8
0
  6
CONTINUOUS
 62
256
 10
-115.116514000000000
 20
-144.926005000000000
 40
8.500000000000000
  0
LINE
  8
0
  6
DASHED
 62
256
 10
506.034360999999990
 20
-139.426005000000000
 11
434.034360999999990
 21
-139.426005000000000
  0
LINE
  8
0
  6
DASHED
 62
256
 10
434.034360999999990
 20
-136.426005000000000
 11
434.034360999999990
 21
-153.426005000000000
  0
LINE
  8
0
  6
DASHED
 62
256
 10
434.034360999999990
 20
-136.426005000000000
 11
421.034360999999990
 21
-136.426005000000000
  0
LINE
  8
0
  6
DASHED
 62
256
 10
506.034360999999990
 20
-150.426005000000000
 11
434.034360999999990
 21
-150.426005000000000
  0
LINE
  8
0
  6
DASHED
 62
256
 10
434.034360999999990
 20
-153.426005000000000
 11
421.034360999999990
 21
-153.426005000000000
  0
LINE
  8
0
  6
DASHED
 62
256
 10
506.034360999999990
 20
-136.426005000000000
 11
506.034360999999990
 21
-153.426005000000000
  0
LINE
  8
0
  6
DASHED
 62
256
 10
519.034360999999990
 20
-136.426005000000000
 11
506.034360999999990
 21
-136.426005000000000
  0
LINE
  8
0
  6
DASHED
 62
256
 10
519.034360999999990
 20
-153.426005000000000
 11
506.034360999999990
 21
-153.426005000000000
  0
LINE
  8
0
  6
DASHED
 62
256
 10
434.034360999999990
 20
-14.426005000000000
 11
434.034360999999990
 21
-31.426005000000000
  0
LINE
  8
0
  6
DASHED
 62
256
 10
434.034360999999990
 20
-14.426005000000000
 11
421.034360999999990
 21
-14.426005000000000
  0
LINE
  8
0
  6
DASHED
 62
256
 10
506.034360999999990
 20
-17.426005000000000
 11
434.034360999999990
 21
-17.426005000000000
  0
LINE
  8
0
  6
DASHED
 62
256
 10
434.034360999999990
 20
-31.426005000000000
 11
421.034360999999990
 21
-31.426005000000000
  0
LINE
  8
0
  6
DASHED
 62
256
 10
506.034360999999990
 20
-28.426005000000000
 11
434.034360999999990
 21
-28.426005000000000
  0
LINE
  8
0
  6
DASHED
 62
256
 10
519.034360999999990
 20
-14.426005000000000
 11
506.034360999999990
 21
-14.426005000000000
  0
LINE
  8
0
  6
DASHED
 62
256
 10
506.034360999999990
 20
-14.426005000000000
 11
506.034360999999990
 21
-31.426005000000000
  0
LINE
  8
0
  6
DASHED
 62
256
 10
519.034360999999990
 20
-31.426005000000000
 11
506.034360999999990
 21
-31.426005000000000
  0
LINE
  8
0
  6
DASHDOT
 62
256
 10
-29.116513999999999
 20
203.159953000000000
 11
-29.116513999999999
 21
64.782944999999998
  0
LINE
  8
0
  6
CONTINUOUS
 62
256
 10
-50.116514000000002
 20
194.724813000000010
 11
-29.116513999999999
 21
194.724813000000010
  0
ARC
  8
0
  6
CONTINUOUS
 62
256
 10
-50.116514000000002
 20
193.724813000000010
 40
1.000000000000000
 50
90.000000000000000
 51
180.000000000000000
  0
LINE
  8
0
  6
CONTINUOUS
 62
256
 10
-51.116514000000002
 20
190.724813000000010
 11
-51.116514000000002
 21
193.724813000000010
  0
LINE
  8
0
  6
CONTINUOUS
 62
256
 10
-8.116514000000001
 20
194.724813000000010
 11
-29.116513999999999
 21
194.724813000000010
  0
ARC
  8
0
  6
CONTINUOUS
 62
256
 10
-8.116514000000001
 20
193.724813000000010
 40
1.000000000000000
 50
0.000000000000000
 51
90.000000000000000
  0
LINE
  8
0
  6
CONTINUOUS
 62
256
 10
-7.116514000000000
 20
190.724813000000010
 11
-7.116514000000000
 21
193.724813000000010
  0
LINE
  8
0
  6
CONTINUOUS
 62
256
 10
-50.116514000000002
 20
80.724812999999997
 11
-29.116513999999999
 21
80.724812999999997
  0
ARC
  8
0
  6
CONTINUOUS
 62
256
 10
-50.116514000000002
 20
81.724812999999997
 40
1.000000000000000
 50
180.000000000000000
 51
270.000000000000000
  0
LINE
  8
0
  6
CONTINUOUS
 62
256
 10
-51.116514000000002
 20
84.724812999999997
 11
-51.116514000000002
 21
81.724812999999997
  0
LINE
  8
0
  6
CONTINUOUS
 62
256
 10
-8.116514000000001
 20
80.724812999999997
 11
-29.116513999999999
 21
80.724812999999997
  0
ARC
  8
0
  6
CONTINUOUS
 62
256
 10
-8.116514000000001
 20
81.724812999999997
 40
1.000000000000000
 50
270.000000000000000
 51
0.000000000000000
  0
LINE
  8
0
  6
CONTINUOUS
 62
256
 10
-7.116514000000000
 20
84.724812999999997
 11
-7.116514000000000
 21
81.724812999999997
  0
ARC
  8
0
  6
CONTINUOUS
 62
256
 10
-146.116514000000000
 20
97.540081999999998
 40
5.000000000000000
 50
270.000000000000000
 51
0.000000000000000
  0
ARC
  8
0
  6
CONTINUOUS
 62
256
 10
-146.116514000000000
 20
90.628506000000002
 40
5.000000000000000
 50
270.000000000000000
 51
0.000000000000000
  0
ARC
  8
0
  6
CONTINUOUS
 62
256
 10
-136.116514000000000
 20
97.176025999999993
 40
5.000000000000003
 50
107.457602999999910
 51
180.000000000000000
  0
ARC
  8
0
  6
CONTINUOUS
 62
256
 10
-136.116514000000000
 20
90.628506000000002
 40
5.000000000000003
 50
107.457602999999910
 51
180.000000000000000
  0
LINE
  8
0
  6
CONTINUOUS
 62
256
 10
-151.116514000000000
 20
92.540081999999998
 11
-146.116514000000000
 21
92.540081999999998
  0
LINE
  8
0
  6
CONTINUOUS
 62
256
 10
-151.116514000000000
 20
85.628506000000002
 11
-146.116514000000000
 21
85.628506000000002
  0
LINE
  8
0
  6
CONTINUOUS
 62
256
 10
-154.116514000000000
 20
95.540081999999998
 11
-154.116514000000000
 21
137.724813000000010
  0
LINE
  8
0
  6
CONTINUOUS
 62
256
 10
-151.116514000000000
 20
98.723545999999999
 11
-146.116514000000000
 21
98.723545999999999
  0
LINE
  8
0
  6
CONTINUOUS
 62
256
 10
-154.116514000000000
 20
82.224812999999997
 11
-154.116514000000000
 21
82.628506000000002
  0
LINE
  8
0
  6
CONTINUOUS
 62
256
 10
-154.116514000000000
 20
82.224812999999997
 11
-154.116514000000000
 21
82.628506000000002
  0
LINE
  8
0
  6
CONTINUOUS
 62
256
 10
-154.116514000000000
 20
82.224812999999997
 11
-154.116514000000000
 21
81.224812999999997
  0
ARC
  8
0
  6
CONTINUOUS
 62
256
 10
-151.116514000000000
 20
101.723546000000000
 40
3.000000000000000
 50
180.000000000000000
 51
270.000000000000000
  0
ARC
  8
0
  6
CONTINUOUS
 62
256
 10
-151.116514000000000
 20
82.628506000000002
 40
3.000000000000000
 50
90.000000000000000
 51
180.000000000000000
  0
ARC
  8
0
  6
CONTINUOUS
 62
256
 10
-151.116514000000000
 20
95.540081999999998
 40
3.000000000000000
 50
180.000000000000000
 51
270.000000000000000
  0
ARC
  8
0
  6
CONTINUOUS
 62
256
 10
-157.116514000000000
 20
81.224812999999997
 40
3.000000000000000
 50
270.000000000000000
 51
0.000000000000000
  0
ARC
  8
0
  6
CONTINUOUS
 62
256
 10
-146.116514000000000
 20
184.821121000000010
 40
5.000000000000000
 50
0.000000000000000
 51
90.000000000000000
  0
ARC
  8
0
  6
CONTINUOUS
 62
256
 10
-146.116514000000000
 20
177.909544000000010
 40
5.000000000000000
 50
0.000000000000000
 51
90.000000000000000
  0
ARC
  8
0
  6
CONTINUOUS
 62
256
 10
-136.116514000000000
 20
184.821121000000010
 40
5.000000000000000
 50
180.000000000000000
 51
252.542397000000110
  0
ARC
  8
0
  6
CONTINUOUS
 62
256
 10
-136.116514000000000
 20
178.273599999999990
 40
5.000000000000000
 50
180.000000000000000
 51
252.542397000000110
  0
LINE
  8
0
  6
CONTINUOUS
 62
256
 10
-151.116514000000000
 20
182.909544000000010
 11
-146.116514000000000
 21
182.909544000000010
  0
LINE
  8
0
  6
CONTINUOUS
 62
256
 10
-151.116514000000000
 20
189.821121000000010
 11
-146.116514000000000
 21
189.821121000000010
  0
LINE
  8
0
  6
CONTINUOUS
 62
256
 10
-154.116514000000000
 20
193.224813000000010
 11
-154.116514000000000
 21
192.821121000000010
  0
LINE
  8
0
  6
CONTINUOUS
 62
256
 10
-154.116514000000000
 20
179.909544000000010
 11
-154.116514000000000
 21
137.724813000000010
  0
LINE
  8
0
  6
CONTINUOUS
 62
256
 10
-151.116514000000000
 20
176.726080000000000
 11
-146.116514000000000
 21
176.726080000000000
  0
LINE
  8
0
  6
CONTINUOUS
 62
256
 10
-154.116514000000000
 20
193.224813000000010
 11
-154.116514000000000
 21
194.224813000000010
  0
ARC
  8
0
  6
CONTINUOUS
 62
256
 10
-151.116514000000000
 20
173.726080000000000
 40
3.000000000000000
 50
90.000000000000000
 51
180.000000000000000
  0
ARC
  8
0
  6
CONTINUOUS
 62
256
 10
-151.116514000000000
 20
179.909544000000010
 40
3.000000000000000
 50
90.000000000000000
 51
180.000000000000000
  0
ARC
  8
0
  6
CONTINUOUS
 62
256
 10
-157.116514000000000
 20
194.224813000000010
 40
3.000000000000000
 50
0.000000000000000
 51
90.000000000000000
  0
LINE
  8
0
  6
CONTINUOUS
 62
256
 10
-128.116514000000000
 20
88.724812999999997
 11
-128.325975000000000
 21
100.724813000000000
  0
LINE
  8
0
  6
CONTINUOUS
 62
256
 10
-71.616513999999995
 20
84.724812999999997
 11
-71.616513999999995
 21
88.724812999999997
  0
LINE
  8
0
  6
CONTINUOUS
 62
256
 10
31.883486000000001
 20
88.724812999999997
 11
13.956098000000001
 21
88.724812999999997
  0
LINE
  8
0
  6
CONTINUOUS
 62
256
 10
13.383486000000000
 20
84.724812999999997
 11
13.383486000000000
 21
88.724812999999997
  0
LINE
  8
0
  6
CONTINUOUS
 62
256
 10
-71.616513999999995
 20
84.724812999999997
 11
-6.116514000000000
 21
84.724812999999997
  0
LINE
  8
0
  6
CONTINUOUS
 62
256
 10
13.383486000000000
 20
84.724812999999997
 11
-6.116514000000000
 21
84.724812999999997
  0
LINE
  8
0
  6
CONTINUOUS
 62
256
 10
-6.116514000000000
 20
190.724813000000010
 11
13.383486000000000
 21
190.724813000000010
  0
LINE
  8
0
  6
CONTINUOUS
 62
256
 10
13.383486000000000
 20
186.724813000000010
 11
13.383486000000000
 21
190.724813000000010
  0
LINE
  8
0
  6
CONTINUOUS
 62
256
 10
-128.334701999999990
 20
100.724813000000000
 11
-126.990662000000000
 21
176.724813000000010
  0
LINE
  8
0
  6
CONTINUOUS
 62
256
 10
-126.990662000000000
 20
176.724813000000010
 11
-126.990662000000000
 21
186.724813000000010
  0
LINE
  8
0
  6
CONTINUOUS
 62
256
 10
-71.616513999999995
 20
186.724813000000010
 11
-71.616513999999995
 21
190.724813000000010
  0
LINE
  8
0
  6
CONTINUOUS
 62
256
 10
-6.116514000000000
 20
190.724813000000010
 11
-71.616513999999995
 21
190.724813000000010
  0
LINE
  8
0
  6
CONTINUOUS
 62
256
 10
32.092947000000002
 20
100.724813000000000
 11
31.883486000000001
 21
88.724812999999997
  0
LINE
  8
0
  6
CONTINUOUS
 62
256
 10
30.757633999999999
 20
186.724813000000010
 11
13.956098000000001
 21
186.724813000000010
  0
LINE
  8
0
  6
CONTINUOUS
 62
256
 10
30.757633999999999
 20
176.724813000000010
 11
30.757633999999999
 21
186.724813000000010
  0
LINE
  8
0
  6
CONTINUOUS
 62
256
 10
32.101674000000003
 20
100.724813000000000
 11
30.757633999999999
 21
176.724813000000010
  0
LINE
  8
0
  6
CONTINUOUS
 62
256
 10
13.956098000000001
 20
88.724812999999997
 11
-128.116514000000000
 21
88.724812999999997
  0
LINE
  8
0
  6
CONTINUOUS
 62
256
 10
13.956098000000001
 20
186.724813000000010
 11
-126.990662000000000
 21
186.724813000000010
  0
LINE
  8
0
  6
CONTINUOUS
 62
256
 10
-128.325975000000000
 20
100.724813000000000
 11
-31.907053000000001
 21
100.724813000000000
  0
LINE
  8
0
  6
CONTINUOUS
 62
256
 10
-31.907053000000001
 20
100.724813000000000
 11
32.101674000000003
 21
100.724813000000000
  0
ARC
  8
0
  6
CONTINUOUS
 62
256
 10
-128.990661999999990
 20
177.724813000000010
 40
2.000000000000000
 50
270.000000000000000
 51
0.000000000000000
  0
ARC
  8
0
  6
CONTINUOUS
 62
256
 10
-131.116514000000000
 20
99.724812999999997
 40
2.999999999999995
 50
19.471220999999893
 51
90.000000000000000
  0
ARC
  8
0
  6
CONTINUOUS
 62
256
 10
-134.616514000000000
 20
178.724813000000010
 40
3.000000000000000
 50
180.000000000000000
 51
270.000000000000000
  0
LINE
  8
0
  6
CONTINUOUS
 62
256
 10
-128.990661999999990
 20
175.724813000000010
 11
-134.616514000000000
 21
175.724813000000010
  0
ARC
  8
0
  6
CONTINUOUS
 62
256
 10
-134.616514000000000
 20
99.724812999999997
 40
3.000000000000000
 50
90.000000000000000
 51
180.000000000000000
  0
LINE
  8
0
  6
CONTINUOUS
 62
256
 10
-134.616514000000000
 20
102.724813000000000
 11
-131.116514000000000
 21
102.724813000000000
  0
LINE
  8
0
  6
CONTINUOUS
 62
256
 10
-137.616514000000000
 20
194.224813000000010
 11
-137.616514000000000
 21
81.224812999999997
  0
LINE
  8
0
  6
DASHED
 62
256
 10
-137.616514000000000
 20
157.185363000000000
 11
-137.616514000000000
 21
137.724813000000010
  0
LINE
  8
0
  6
DASHED
 62
256
 10
-137.616514000000000
 20
157.185363000000000
 11
-137.616514000000000
 21
137.724813000000010
  0
LINE
  8
0
  6
CONTINUOUS
 62
256
 10
-140.616514000000000
 20
78.224812999999997
 11
-161.116514000000000
 21
78.224812999999997
  0
ARC
  8
0
  6
CONTINUOUS
 62
256
 10
-140.616514000000000
 20
81.224812999999997
 40
3.000000000000000
 50
270.000000000000000
 51
0.000000000000000
  0
LINE
  8
0
  6
CONTINUOUS
 62
256
 10
-154.116514000000000
 20
117.724813000000000
 11
-161.116514000000000
 21
117.724813000000000
  0
ARC
  8
0
  6
CONTINUOUS
 62
256
 10
-140.616514000000000
 20
194.224813000000010
 40
3.000000000000000
 50
0.000000000000000
 51
90.000000000000000
  0
LINE
  8
0
  6
CONTINUOUS
 62
256
 10
-140.616514000000000
 20
197.224813000000010
 11
-161.116514000000000
 21
197.224813000000010
  0
ARC
  8
0
  6
CONTINUOUS
 62
256
 10
-151.116514000000000
 20
192.821121000000010
 40
3.000000000000000
 50
180.000000000000000
 51
270.000000000000000
  0
POLYLINE
  8
0
  6
CONTINUOUS
 62
256
 66
1
 70
1
  0
VERTEX
  8
0
  6
CONTINUOUS
 62
256
 10
-264.416514000000010
 20
85.801288000000000
  0
VERTEX
  8
0
  6
CONTINUOUS
 62
256
 10
-264.506823182104820
 20
86.504244510558166
  0
VERTEX
  8
0
  6
CONTINUOUS
 62
256
 10
-264.774280197196960
 20
87.180186796638139
  0
VERTEX
  8
0
  6
CONTINUOUS
 62
256
 10
-265.208606822178070
 20
87.803138775258660
  0
VERTEX
  8
0
  6
CONTINUOUS
 62
256
 10
-265.793112128423220
 20
88.349160751236838
  0
VERTEX
  8
0
  6
CONTINUOUS
 62
256
 10
-266.505333904807860
 20
88.797269406248489
  0
VERTEX
  8
0
  6
CONTINUOUS
 62
256
 10
-267.317901867884070
 20
89.130244175983748
  0
VERTEX
  8
0
  6
CONTINUOUS
 62
256
 10
-268.199589486524190
 20
89.335289026776067
  0
VERTEX
  8
0
  6
CONTINUOUS
 62
256
 10
-269.116514000000000
 20
89.404524199999997
  0
VERTEX
  8
0
  6
CONTINUOUS
 62
256
 10
-270.033438513475800
 20
89.335289026776067
  0
VERTEX
  8
0
  6
CONTINUOUS
 62
256
 10
-270.915126132115920
 20
89.130244175983748
  0
VERTEX
  8
0
  6
CONTINUOUS
 62
256
 10
-271.727694095192130
 20
88.797269406248489
  0
VERTEX
  8
0
  6
CONTINUOUS
 62
256
 10
-272.439915871576770
 20
88.349160751236838
  0
VERTEX
  8
0
  6
CONTINUOUS
 62
256
 10
-273.024421177821920
 20
87.803138775258660
  0
VERTEX
  8
0
  6
CONTINUOUS
 62
256
 10
-273.458747802803030
 20
87.180186796638139
  0
VERTEX
  8
0
  6
CONTINUOUS
 62
256
 10
-273.726204817895170
 20
86.504244510558166
  0
VERTEX
  8
0
  6
CONTINUOUS
 62
256
 10
-273.816513999999980
 20
85.801288000000000
  0
VERTEX
  8
0
  6
CONTINUOUS
 62
256
 10
-273.726204817895170
 20
85.098331489441833
  0
VERTEX
  8
0
  6
CONTINUOUS
 62
256
 10
-273.458747802803030
 20
84.422389203361860
  0
VERTEX
  8
0
  6
CONTINUOUS
 62
256
 10
-273.024421177821920
 20
83.799437224741339
  0
VERTEX
  8
0
  6
CONTINUOUS
 62
256
 10
-272.439915871576770
 20
83.253415248763162
  0
VERTEX
  8
0
  6
CONTINUOUS
 62
256
 10
-271.727694095192130
 20
82.805306593751510
  0
VERTEX
  8
0
  6
CONTINUOUS
 62
256
 10
-270.915126132115920
 20
82.472331824016266
  0
VERTEX
  8
0
  6
CONTINUOUS
 62
256
 10
-270.033438513475800
 20
82.267286973223932
  0
VERTEX
  8
0
  6
CONTINUOUS
 62
256
 10
-269.116514000000000
 20
82.198051800000002
  0
VERTEX
  8
0
  6
CONTINUOUS
 62
256
 10
-268.199589486524190
 20
82.267286973223932
  0
VERTEX
  8
0
  6
CONTINUOUS
 62
256
 10
-267.317901867884070
 20
82.472331824016251
  0
VERTEX
  8
0
  6
CONTINUOUS
 62
256
 10
-266.505333904807860
 20
82.805306593751510
  0
VERTEX
  8
0
  6
CONTINUOUS
 62
256
 10
-265.793112128423220
 20
83.253415248763162
  0
VERTEX
  8
0
  6
CONTINUOUS
 62
256
 10
-265.208606822178070
 20
83.799437224741339
  0
VERTEX
  8
0
  6
CONTINUOUS
 62
256
 10
-264.774280197196960
 20
84.422389203361860
  0
VERTEX
  8
0
  6
CONTINUOUS
 62
256
 10
-264.506823182104820
 20
85.098331489441833
  0
SEQEND
  8
0
  6
CONTINUOUS
 62
256
  0
LINE
  8
0
  6
CONTINUOUS
 62
256
 10
-271.116514000000000
 20
82.808913000000004
 11
-269.116514000000000
 21
83.984697999999995
  0
LINE
  8
0
  6
CONTINUOUS
 62
256
 10
-269.116514000000000
 20
83.984697999999995
 11
-267.116514000000000
 21
85.637339999999995
  0
LINE
  8
0
  6
CONTINUOUS
 62
256
 10
-267.116514000000000
 20
82.808913000000004
 11
-269.116514000000000
 21
83.984697999999995
  0
LINE
  8
0
  6
CONTINUOUS
 62
256
 10
-269.116514000000000
 20
83.984697999999995
 11
-271.116514000000000
 21
85.637339999999995
  0
LINE
  8
0
  6
CONTINUOUS
 62
256
 10
-258.116514000000000
 20
77.724812999999997
 11
-338.810538000000010
 21
77.724812999999997
  0
LINE
  8
0
  6
CONTINUOUS
 62
256
 10
-361.116514000000000
 20
137.724813000000010
 11
-361.116514000000000
 21
90.281608000000006
  0
ARC
  8
0
  6
CONTINUOUS
 62
256
 10
-338.810538000000010
 20
97.724812999999997
 40
20.000000000000007
 50
234.999999999999940
 51
270.000000000000000
  0
LINE
  8
0
  6
CONTINUOUS
 62
256
 10
-350.282066999999980
 20
81.341772000000006
 11
-360.007813000000000
 21
88.151813000000004
  0
ARC
  8
0
  6
CONTINUOUS
 62
256
 10
-358.516513999999970
 20
90.281608000000006
 40
2.600000000000023
 50
180.000000000000000
 51
234.999999999999940
  0
LINE
  8
0
  6
CONTINUOUS
 62
256
 10
-258.116514000000000
 20
137.828385999999990
 11
-258.116514000000000
 21
77.724812999999997
  0
LINE
  8
0
  6
CONTINUOUS
 62
256
 10
-258.116514000000000
 20
87.409278999999998
 11
-161.116514000000000
 21
87.409278999999998
  0
LINE
  8
0
  6
CONTINUOUS
 62
256
 10
-258.116514000000000
 20
92.359026999999998
 11
-161.116514000000000
 21
92.359026999999998
  0
LINE
  8
0
  6
CONTINUOUS
 62
256
 10
-258.116514000000000
 20
100.405627999999990
 11
-161.116514000000000
 21
100.405627999999990
  0
LINE
  8
0
  6
CONTINUOUS
 62
256
 10
-258.116514000000000
 20
105.974022000000010
 11
-161.116514000000000
 21
105.974022000000010
  0
LINE
  8
0
  6
CONTINUOUS
 62
256
 10
-258.116514000000000
 20
168.007248000000000
 11
-161.116514000000000
 21
168.007248000000000
  0
LINE
  8
0
  6
CONTINUOUS
 62
256
 10
-258.116514000000000
 20
112.894760000000010
 11
-161.116514000000000
 21
112.894760000000010
  0
LINE
  8
0
  6
CONTINUOUS
 62
256
 10
-258.116514000000000
 20
107.442379000000000
 11
-161.116514000000000
 21
107.442379000000000
  0
LINE
  8
0
  6
CONTINUOUS
 62
256
 10
-258.116514000000000
 20
162.554867000000000
 11
-161.116514000000000
 21
162.554867000000000
  0
LINE
  8
0
  6
CONTINUOUS
 62
256
 10
-258.116514000000000
 20
117.724813000000000
 11
-161.116514000000000
 21
117.724813000000000
  0
LINE
  8
0
  6
CONTINUOUS
 62
256
 10
-258.116514000000000
 20
111.532878999999990
 11
-161.116514000000000
 21
111.532878999999990
  0
LINE
  8
0
  6
CONTINUOUS
 62
256
 10
-258.116514000000000
 20
163.916746999999990
 11
-161.116514000000000
 21
163.916746999999990
  0
LINE
  8
0
  6
CONTINUOUS
 62
256
 10
-258.116514000000000
 20
157.724813000000010
 11
-161.116514000000000
 21
157.724813000000010
  0
LINE
  8
0
  6
CONTINUOUS
 62
256
 10
-258.116514000000000
 20
194.724813000000010
 11
-161.116514000000000
 21
194.724813000000010
  0
LINE
  8
0
  6
CONTINUOUS
 62
256
 10
-258.116514000000000
 20
195.224813000000010
 11
-161.116514000000000
 21
195.224813000000010
  0
LINE
  8
0
  6
CONTINUOUS
 62
256
 10
-258.116514000000000
 20
193.724813000000010
 11
-161.116514000000000
 21
193.724813000000010
  0
LINE
  8
0
  6
CONTINUOUS
 62
256
 10
-258.116514000000000
 20
192.724813000000010
 11
-161.116514000000000
 21
192.724813000000010
  0
LINE
  8
0
  6
CONTINUOUS
 62
256
 10
-258.116514000000000
 20
188.040347000000000
 11
-161.116514000000000
 21
188.040347000000000
  0
LINE
  8
0
  6
CONTINUOUS
 62
256
 10
-258.116514000000000
 20
183.090599999999990
 11
-161.116514000000000
 21
183.090599999999990
  0
LINE
  8
0
  6
CONTINUOUS
 62
256
 10
-258.116514000000000
 20
175.043997999999990
 11
-161.116514000000000
 21
175.043997999999990
  0
LINE
  8
0
  6
CONTINUOUS
 62
256
 10
-258.116514000000000
 20
137.828385999999990
 11
-258.116514000000000
 21
197.724813000000010
  0
LINE
  8
0
  6
CONTINUOUS
 62
256
 10
-161.116514000000000
 20
196.224813000000010
 11
-258.116514000000000
 21
196.224813000000010
  0
LINE
  8
0
  6
CONTINUOUS
 62
256
 10
-161.116514000000000
 20
197.224813000000010
 11
-161.116514000000000
 21
137.724813000000010
  0
LINE
  8
0
  6
CONTINUOUS
 62
256
 10
-258.116514000000000
 20
197.724813000000010
 11
-338.810538000000010
 21
197.724813000000010
  0
LINE
  8
0
  6
CONTINUOUS
 62
256
 10
-361.116514000000000
 20
137.724813000000010
 11
-361.116514000000000
 21
185.168017999999990
  0
ARC
  8
0
  6
CONTINUOUS
 62
256
 10
-338.810538000000010
 20
177.724813000000010
 40
20.000000000000000
 50
90.000000000000000
 51
125.000000000000060
  0
LINE
  8
0
  6
CONTINUOUS
 62
256
 10
-350.282066999999980
 20
194.107854000000000
 11
-360.007813000000000
 21
187.297813999999990
  0
ARC
  8
0
  6
CONTINUOUS
 62
256
 10
-358.516513999999970
 20
185.168017999999990
 40
2.599999999999996
 50
125.000000000000210
 51
180.000000000000000
  0
LINE
  8
0
  6
CONTINUOUS
 62
256
 10
-258.116514000000000
 20
80.224812999999997
 11
-161.116514000000000
 21
80.224812999999997
  0
LINE
  8
0
  6
CONTINUOUS
 62
256
 10
-258.116514000000000
 20
80.724812999999997
 11
-161.116514000000000
 21
80.724812999999997
  0
LINE
  8
0
  6
CONTINUOUS
 62
256
 10
-258.116514000000000
 20
81.724812999999997
 11
-161.116514000000000
 21
81.724812999999997
  0
LINE
  8
0
  6
CONTINUOUS
 62
256
 10
-258.116514000000000
 20
82.724812999999997
 11
-161.116514000000000
 21
82.724812999999997
  0
POLYLINE
  8
0
  6
CONTINUOUS
 62
256
 66
1
 70
1
  0
VERTEX
  8
0
  6
CONTINUOUS
 62
256
 10
-264.416514000000010
 20
189.648338000000000
  0
VERTEX
  8
0
  6
CONTINUOUS
 62
256
 10
-264.506823182104820
 20
190.351294510558180
  0
VERTEX
  8
0
  6
CONTINUOUS
 62
256
 10
-264.774280197196960
 20
191.027236796638140
  0
VERTEX
  8
0
  6
CONTINUOUS
 62
256
 10
-265.208606822178070
 20
191.650188775258670
  0
VERTEX
  8
0
  6
CONTINUOUS
 62
256
 10
-265.793112128423220
 20
192.196210751236830
  0
VERTEX
  8
0
  6
CONTINUOUS
 62
256
 10
-266.505333904807860
 20
192.644319406248480
  0
VERTEX
  8
0
  6
CONTINUOUS
 62
256
 10
-267.317901867884070
 20
192.977294175983730
  0
VERTEX
  8
0
  6
CONTINUOUS
 62
256
 10
-268.199589486524190
 20
193.182339026776080
  0
VERTEX
  8
0
  6
CONTINUOUS
 62
256
 10
-269.116514000000000
 20
193.251574199999990
  0
VERTEX
  8
0
  6
CONTINUOUS
 62
256
 10
-270.033438513475800
 20
193.182339026776080
  0
VERTEX
  8
0
  6
CONTINUOUS
 62
256
 10
-270.915126132115920
 20
192.977294175983730
  0
VERTEX
  8
0
  6
CONTINUOUS
 62
256
 10
-271.727694095192130
 20
192.644319406248480
  0
VERTEX
  8
0
  6
CONTINUOUS
 62
256
 10
-272.439915871576770
 20
192.196210751236830
  0
VERTEX
  8
0
  6
CONTINUOUS
 62
256
 10
-273.024421177821920
 20
191.650188775258670
  0
VERTEX
  8
0
  6
CONTINUOUS
 62
256
 10
-273.458747802803030
 20
191.027236796638140
  0
VERTEX
  8
0
  6
CONTINUOUS
 62
256
 10
-273.726204817895170
 20
190.351294510558180
  0
VERTEX
  8
0
  6
CONTINUOUS
 62
256
 10
-273.816513999999980
 20
189.648338000000000
  0
VERTEX
  8
0
  6
CONTINUOUS
 62
256
 10
-273.726204817895170
 20
188.945381489441810
  0
VERTEX
  8
0
  6
CONTINUOUS
 62
256
 10
-273.458747802803030
 20
188.269439203361860
  0
VERTEX
  8
0
  6
CONTINUOUS
 62
256
 10
-273.024421177821920
 20
187.646487224741320
  0
VERTEX
  8
0
  6
CONTINUOUS
 62
256
 10
-272.439915871576770
 20
187.100465248763160
  0
VERTEX
  8
0
  6
CONTINUOUS
 62
256
 10
-271.727694095192130
 20
186.652356593751510
  0
VERTEX
  8
0
  6
CONTINUOUS
 62
256
 10
-270.915126132115920
 20
186.319381824016260
  0
VERTEX
  8
0
  6
CONTINUOUS
 62
256
 10
-270.033438513475800
 20
186.114336973223940
  0
VERTEX
  8
0
  6
CONTINUOUS
 62
256
 10
-269.116514000000000
 20
186.045101800000000
  0
VERTEX
  8
0
  6
CONTINUOUS
 62
256
 10
-268.199589486524190
 20
186.114336973223940
  0
VERTEX
  8
0
  6
CONTINUOUS
 62
256
 10
-267.317901867884070
 20
186.319381824016260
  0
VERTEX
  8
0
  6
CONTINUOUS
 62
256
 10
-266.505333904807860
 20
186.652356593751510
  0
VERTEX
  8
0
  6
CONTINUOUS
 62
256
 10
-265.793112128423220
 20
187.100465248763160
  0
VERTEX
  8
0
  6
CONTINUOUS
 62
256
 10
-265.208606822178070
 20
187.646487224741320
  0
VERTEX
  8
0
  6
CONTINUOUS
 62
256
 10
-264.774280197196960
 20
188.269439203361860
  0
VERTEX
  8
0
  6
CONTINUOUS
 62
256
 10
-264.506823182104820
 20
188.945381489441810
  0
SEQEND
  8
0
  6
CONTINUOUS
 62
256
  0
LINE
  8
0
  6
CONTINUOUS
 62
256
 10
-271.116514000000000
 20
192.640714000000000
 11
-269.116514000000000
 21
191.464927999999990
  0
LINE
  8
0
  6
CONTINUOUS
 62
256
 10
-269.116514000000000
 20
191.464927999999990
 11
-267.116514000000000
 21
189.812287000000000
  0
LINE
  8
0
  6
CONTINUOUS
 62
256
 10
-267.116514000000000
 20
192.640714000000000
 11
-269.116514000000000
 21
191.464927999999990
  0
LINE
  8
0
  6
CONTINUOUS
 62
256
 10
-269.116514000000000
 20
191.464927999999990
 11
-271.116514000000000
 21
189.812287000000000
  0
LINE
  8
0
  6
DASHDOT
 62
256
 10
38.569481000000003
 20
137.724813000000010
 11
-371.045727000000000
 21
137.724813000000010
  0
LINE
  8
0
  6
CONTINUOUS
 62
256
 10
-161.116514000000000
 20
79.224812999999997
 11
-258.116514000000000
 21
79.224812999999997
  0
LINE
  8
0
  6
CONTINUOUS
 62
256
 10
-161.116514000000000
 20
78.224812999999997
 11
-161.116514000000000
 21
137.724813000000010
  0
LINE
  8
0
  6
CONTINUOUS
 62
256
 10
-258.116514000000000
 20
169.475605000000000
 11
-161.116514000000000
 21
169.475605000000000
  0
LINE
  8
0
  6
CONTINUOUS
 62
256
 10
-258.116514000000000
 20
173.439349999999990
 11
-161.116514000000000
 21
173.439349999999990
  0
LINE
  8
0
  6
CONTINUOUS
 62
256
 10
-258.116514000000000
 20
102.010276000000000
 11
-161.116514000000000
 21
102.010276000000000
  0
LINE
  8
0
  6
CONTINUOUS
 62
256
 10
-459.862149999999990
 20
-157.934732000000000
 11
-460.862149999999990
 21
-157.917047999999990
  0
LINE
  8
0
  6
CONTINUOUS
 62
256
 10
-459.862149999999990
 20
-156.131808000000010
 11
-459.862149999999990
 21
-157.934732000000000
  0
LINE
  8
0
  6
CONTINUOUS
 62
256
 10
-535.862150000000040
 20
-156.590691999999990
 11
-545.862150000000040
 21
-156.590691999999990
  0
LINE
  8
0
  6
CONTINUOUS
 62
256
 10
-532.862150000000040
 20
-156.643745999999990
 11
-535.862150000000040
 21
-156.590691999999990
  0
LINE
  8
0
  6
CONTINUOUS
 62
256
 10
-545.862150000000040
 20
-156.590691999999990
 11
-545.862150000000040
 21
-148.305015999999990
  0
LINE
  8
0
  6
CONTINUOUS
 62
256
 10
-447.862149999999990
 20
-157.716544000000000
 11
-447.862149999999990
 21
-148.305015999999990
  0
LINE
  8
0
  6
CONTINUOUS
 62
256
 10
-459.862149999999990
 20
-157.926005000000000
 11
-447.862149999999990
 21
-157.716544000000000
  0
LINE
  8
0
  6
CONTINUOUS
 62
256
 10
-443.862149999999990
 20
-28.426005000000000
 11
-443.862149999999990
 21
-43.546993000000001
  0
LINE
  8
0
  6
CONTINUOUS
 62
256
 10
-447.862149999999990
 20
-39.546993000000001
 11
-447.862149999999990
 21
-10.135465999999999
  0
LINE
  8
0
  6
CONTINUOUS
 62
256
 10
-459.862149999999990
 20
-9.917277000000000
 11
-459.862149999999990
 21
-31.720202000000000
  0
LINE
  8
0
  6
CONTINUOUS
 62
256
 10
-447.862149999999990
 20
-10.135465999999999
 11
-459.862149999999990
 21
-9.926005000000000
  0
LINE
  8
0
  6
CONTINUOUS
 62
256
 10
-443.862149999999990
 20
-28.426005000000000
 11
-447.862149999999990
 21
-28.426005000000000
  0
LINE
  8
0
  6
CONTINUOUS
 62
256
 10
-459.862149999999990
 20
-9.917277000000000
 11
-535.862150000000040
 21
-11.261317000000000
  0
LINE
  8
0
  6
CONTINUOUS
 62
256
 10
-545.862150000000040
 20
-39.546993000000001
 11
-545.862150000000040
 21
-11.261317000000000
  0
LINE
  8
0
  6
CONTINUOUS
 62
256
 10
-549.862150000000040
 20
-43.546993000000001
 11
-549.862150000000040
 21
-28.426005000000000
  0
LINE
  8
0
  6
CONTINUOUS
 62
256
 10
-535.862150000000040
 20
-11.261317000000000
 11
-545.862150000000040
 21
-11.261317000000000
  0
LINE
  8
0
  6
CONTINUOUS
 62
256
 10
-545.862150000000040
 20
-28.426005000000000
 11
-549.862150000000040
 21
-28.426005000000000
  0
LINE
  8
0
  6
DASHDOT
 62
256
 10
-496.862149999999990
 20
-1.779801000000000
 11
-496.862149999999990
 21
-202.139823000000010
  0
LINE
  8
0
  6
DASHDOT
 62
256
 10
-562.867433000000010
 20
-93.926005000000004
 11
-432.032921999999990
 21
-93.926005000000004
  0
ARC
  8
0
  6
CONTINUOUS
 62
256
 10
-496.862149999999990
 20
108.573995000000000
 40
300.000000000000000
 50
263.967951000000030
 51
276.032048999999970
  0
LINE
  8
0
  6
CONTINUOUS
 62
256
 10
-499.362149999999990
 20
-191.415588000000010
 11
-499.362149999999990
 21
-191.926005000000000
  0
LINE
  8
0
  6
CONTINUOUS
 62
256
 10
-494.362149999999990
 20
-191.426003000000010
 11
-494.362149999999990
 21
-191.926005000000000
  0
LINE
  8
0
  6
CONTINUOUS
 62
256
 10
-499.362149999999990
 20
-191.926005000000000
 11
-494.362149999999990
 21
-191.926005000000000
  0
ARC
  8
0
  6
CONTINUOUS
 62
256
 10
-527.862150000000040
 20
-184.792669999999990
 40
5.000000000000000
 50
180.000000000000000
 51
263.967951000000650
  0
LINE
  8
0
  6
CONTINUOUS
 62
256
 10
-532.862150000000040
 20
-156.430523999999990
 11
-532.862150000000040
 21
-184.792669999999990
  0
LINE
  8
0
  6
CONTINUOUS
 62
256
 10
-460.862149999999990
 20
-156.430523999999990
 11
-460.862149999999990
 21
-184.792669999999990
  0
ARC
  8
0
  6
CONTINUOUS
 62
256
 10
-465.862149999999990
 20
-184.792669999999990
 40
5.000000000000002
 50
276.032049000000030
 51
0.000000000000000
  0
LINE
  8
0
  6
CONTINUOUS
 62
256
 10
-526.854648999999990
 20
-157.426005000000000
 11
-532.862150000000040
 21
-157.426005000000000
  0
LINE
  8
0
  6
CONTINUOUS
 62
256
 10
-466.869649999999980
 20
-157.426005000000000
 11
-460.862149999999990
 21
-157.426005000000000
  0
ARC
  8
0
  6
CONTINUOUS
 62
256
 10
-496.862149999999990
 20
-329.526005000000000
 40
289.396999999999990
 50
90.000000000000000
 51
96.051985000000002
  0
ARC
  8
0
  6
CONTINUOUS
 62
256
 10
-525.750179000000000
 20
-57.053103999999998
 40
15.396999999999993
 50
96.051984999999931
 51
135.000000000000060
  0
LINE
  8
0
  6
CONTINUOUS
 62
256
 10
-541.213568000000010
 20
-50.741846000000002
 11
-536.637502000000040
 21
-46.165781000000003
  0
ARC
  8
0
  6
CONTINUOUS
 62
256
 10
-536.970926999999960
 20
-54.984487000000001
 40
6.000000000000024
 50
135.000000000000260
 51
172.102011000000000
  0
ARC
  8
0
  6
CONTINUOUS
 62
256
 10
-256.262150000000020
 20
-93.926005000000004
 40
289.396999999999990
 50
172.102011000000030
 51
180.000000000000000
  0
ARC
  8
0
  6
CONTINUOUS
 62
256
 10
-496.862149999999990
 20
141.673994999999990
 40
289.397000000000050
 50
263.948015000000000
 51
270.000000000000000
  0
ARC
  8
0
  6
CONTINUOUS
 62
256
 10
-525.750179000000000
 20
-130.798905999999990
 40
15.397000000000016
 50
224.999999999999910
 51
263.948015000000110
  0
LINE
  8
0
  6
CONTINUOUS
 62
256
 10
-541.213568000000010
 20
-137.110163000000000
 11
-536.637502000000040
 21
-141.686229000000000
  0
ARC
  8
0
  6
CONTINUOUS
 62
256
 10
-536.970926999999960
 20
-132.867523000000010
 40
5.999999999999990
 50
187.897989000000000
 51
224.999999999999800
  0
ARC
  8
0
  6
CONTINUOUS
 62
256
 10
-256.262150000000020
 20
-93.926005000000004
 40
289.396999999999930
 50
180.000000000000000
 51
187.897989000000000
  0
ARC
  8
0
  6
CONTINUOUS
 62
256
 10
-496.862149999999990
 20
141.673994999999990
 40
289.396999999999990
 50
270.000000000000000
 51
276.051985000000000
  0
ARC
  8
0
  6
CONTINUOUS
 62
256
 10
-467.974120000000030
 20
-130.798905999999990
 40
15.397000000000000
 50
276.051984999999890
 51
314.999999999999940
  0
LINE
  8
0
  6
CONTINUOUS
 62
256
 10
-452.510731000000020
 20
-137.110163000000000
 11
-457.086796999999990
 21
-141.686229000000000
  0
ARC
  8
0
  6
CONTINUOUS
 62
256
 10
-456.753372000000010
 20
-132.867523000000010
 40
5.999999999999989
 50
314.999999999999770
 51
352.102010999999950
  0
ARC
  8
0
  6
CONTINUOUS
 62
256
 10
-737.462149999999950
 20
-93.926005000000004
 40
289.396999999999990
 50
352.102011000000000
 51
360.000000000000000
  0
ARC
  8
0
  6
CONTINUOUS
 62
256
 10
-496.862149999999990
 20
-329.526005000000000
 40
289.396999999999990
 50
83.948014999999998
 51
90.000000000000000
  0
LINE
  8
0
  6
CONTINUOUS
 62
256
 10
-452.510731000000020
 20
-50.741846000000002
 11
-457.086796999999990
 21
-46.165781000000003
  0
ARC
  8
0
  6
CONTINUOUS
 62
256
 10
-467.974120000000030
 20
-57.053103999999998
 40
15.397000000000016
 50
44.999999999999929
 51
83.948015000000069
  0
ARC
  8
0
  6
CONTINUOUS
 62
256
 10
-525.750179000000000
 20
-130.798905999999990
 40
26.599999999999977
 50
225.000000000000030
 51
263.948015000000050
  0
LINE
  8
0
  6
CONTINUOUS
 62
256
 10
-551.625669000000020
 20
-142.541496999999990
 11
-544.559219999999980
 21
-149.607946000000000
  0
ARC
  8
0
  6
CONTINUOUS
 62
256
 10
-496.862149999999990
 20
141.673994999999990
 40
300.600000000000020
 50
263.948015000000000
 51
276.051985000000000
  0
ARC
  8
0
  6
CONTINUOUS
 62
256
 10
-525.750179000000000
 20
-57.053103999999998
 40
26.599999999999998
 50
96.051984999999959
 51
134.999999999999940
  0
ARC
  8
0
  6
CONTINUOUS
 62
256
 10
-496.862149999999990
 20
-329.526005000000000
 40
300.600000000000020
 50
83.948014999999998
 51
96.051985000000002
  0
LINE
  8
0
  6
CONTINUOUS
 62
256
 10
-551.625669000000020
 20
-45.310513000000000
 11
-544.559219999999980
 21
-38.244062999999997
  0
ARC
  8
0
  6
CONTINUOUS
 62
256
 10
-467.974120000000030
 20
-57.053103999999998
 40
26.600000000000023
 50
44.999999999999964
 51
83.948015000000026
  0
LINE
  8
0
  6
CONTINUOUS
 62
256
 10
-442.098630000000010
 20
-45.310513000000000
 11
-449.165078999999990
 21
-38.244062999999997
  0
ARC
  8
0
  6
CONTINUOUS
 62
256
 10
-467.974120000000030
 20
-130.798905999999990
 40
26.600000000000009
 50
276.051984999999950
 51
315.000000000000060
  0
LINE
  8
0
  6
CONTINUOUS
 62
256
 10
-442.098630000000010
 20
-142.541496999999990
 11
-449.165078999999990
 21
-149.607946000000000
  0
ARC
  8
0
  6
CONTINUOUS
 62
256
 10
-546.958763999999970
 20
-49.977417000000003
 40
6.599999999999977
 50
134.999999999999830
 51
171.402918000000030
  0
ARC
  8
0
  6
CONTINUOUS
 62
256
 10
-256.262150000000020
 20
-93.926005000000004
 40
300.600000000000020
 50
171.402918000000000
 51
180.000000000000000
  0
ARC
  8
0
  6
CONTINUOUS
 62
256
 10
-546.958763999999970
 20
-137.874592000000010
 40
6.600000000000022
 50
188.597082000000030
 51
225.000000000000170
  0
ARC
  8
0
  6
CONTINUOUS
 62
256
 10
-737.462149999999950
 20
-93.926005000000004
 40
300.600000000000020
 50
351.402918000000000
 51
0.000000000000000
  0
ARC
  8
0
  6
CONTINUOUS
 62
256
 10
-446.765535000000000
 20
-137.874592000000010
 40
6.600000000000017
 50
315.000000000000170
 51
351.402917999999940
  0
ARC
  8
0
  6
CONTINUOUS
 62
256
 10
-256.262150000000020
 20
-93.926005000000004
 40
300.600000000000020
 50
180.000000000000000
 51
188.597082000000000
  0
ARC
  8
0
  6
CONTINUOUS
 62
256
 10
-737.462149999999950
 20
-93.926005000000004
 40
300.600000000000020
 50
0.000000000000000
 51
8.597082000000000
  0
ARC
  8
0
  6
CONTINUOUS
 62
256
 10
-455.555369999999980
 20
-97.926005000000004
 40
1.499999999999979
 50
354.468927999999720
 51
90.000000000000000
  0
ARC
  8
0
  6
CONTINUOUS
 62
256
 10
-455.555369999999980
 20
-89.926005000000004
 40
1.500000000000000
 50
270.000000000000000
 51
5.531072000000276
  0
ARC
  8
0
  6
CONTINUOUS
 62
256
 10
-496.862149999999990
 20
-93.926005000000004
 40
17.999999999999989
 50
311.837003999999920
 51
348.162995999999960
  0
ARC
  8
0
  6
CONTINUOUS
 62
256
 10
-496.862149999999990
 20
-93.926005000000004
 40
27.499999999999986
 50
7.928141999999994
 51
52.071858000000006
  0
LINE
  8
0
  6
CONTINUOUS
 62
256
 10
-455.555369999999980
 20
-96.426005000000004
 11
-458.570506000000020
 21
-96.426005000000004
  0
LINE
  8
0
  6
CONTINUOUS
 62
256
 10
-475.551264000000000
 20
-125.837541000000000
 11
-474.043696000000010
 21
-128.448725000000000
  0
LINE
  8
0
  6
CONTINUOUS
 62
256
 10
-465.113134000000000
 20
-96.426005000000004
 11
-468.139336000000010
 21
-96.426005000000004
  0
ARC
  8
0
  6
CONTINUOUS
 62
256
 10
-465.113134000000000
 20
-97.926005000000004
 40
1.500000000000028
 50
352.819243999999910
 51
90.000000000000000
  0
ARC
  8
0
  6
CONTINUOUS
 62
256
 10
-458.570506000000020
 20
-97.926005000000004
 40
1.500000000000000
 50
90.000000000000000
 51
174.036430000000220
  0
ARC
  8
0
  6
CONTINUOUS
 62
256
 10
-472.744658000000020
 20
-127.698725000000000
 40
1.499999999999975
 50
210.000000000000510
 51
305.531071999999480
  0
ARC
  8
0
  6
CONTINUOUS
 62
256
 10
-496.862149999999990
 20
-93.926005000000004
 40
43.000000000000021
 50
305.531071999999990
 51
354.468928000000010
  0
ARC
  8
0
  6
CONTINUOUS
 62
256
 10
-479.672862000000010
 20
-131.698725000000000
 40
1.499999999999989
 50
294.468928000000010
 51
29.999999999999456
  0
LINE
  8
0
  6
CONTINUOUS
 62
256
 10
-479.881391000000010
 20
-128.337540999999990
 11
-478.373823000000020
 21
-130.948725000000000
  0
ARC
  8
0
  6
CONTINUOUS
 62
256
 10
-481.180429000000000
 20
-129.087540999999990
 40
1.500000000000025
 50
29.999999999999456
 51
114.036429999999640
  0
ARC
  8
0
  6
CONTINUOUS
 62
256
 10
-496.862149999999990
 20
-93.926005000000004
 40
37.000000000000014
 50
245.963569999999950
 51
294.036429999999940
  0
ARC
  8
0
  6
CONTINUOUS
 62
256
 10
-496.862149999999990
 20
-93.926005000000004
 40
42.999999999999972
 50
245.531072000000020
 51
294.468927999999950
  0
ARC
  8
0
  6
CONTINUOUS
 62
256
 10
-514.051436999999960
 20
-131.698725000000000
 40
1.500000000000025
 50
150.000000000000540
 51
245.531072000000020
  0
LINE
  8
0
  6
CONTINUOUS
 62
256
 10
-515.350475999999960
 20
-130.948725000000000
 11
-513.842907999999970
 21
-128.337540999999990
  0
ARC
  8
0
  6
CONTINUOUS
 62
256
 10
-512.543869999999970
 20
-129.087540999999990
 40
1.499999999999999
 50
65.963570000000374
 51
150.000000000000540
  0
ARC
  8
0
  6
CONTINUOUS
 62
256
 10
-520.979641000000020
 20
-127.698725000000000
 40
1.500000000000022
 50
234.468927999998730
 51
330.000000000000570
  0
LINE
  8
0
  6
CONTINUOUS
 62
256
 10
-519.680603000000020
 20
-128.448725000000000
 11
-518.173035000000030
 21
-125.837541000000000
  0
LINE
  8
0
  6
CONTINUOUS
 62
256
 10
-455.555369999999980
 20
-91.426005000000004
 11
-458.570506000000020
 21
-91.426005000000004
  0
ARC
  8
0
  6
CONTINUOUS
 62
256
 10
-458.570506000000020
 20
-89.926005000000004
 40
1.500000000000012
 50
185.963569999999780
 51
270.000000000000000
  0
LINE
  8
0
  6
CONTINUOUS
 62
256
 10
-465.113134000000000
 20
-91.426005000000004
 11
-468.139336000000010
 21
-91.426005000000004
  0
ARC
  8
0
  6
CONTINUOUS
 62
256
 10
-465.113134000000000
 20
-89.926005000000004
 40
1.500000000000000
 50
270.000000000000000
 51
7.180756000000089
  0
ARC
  8
0
  6
CONTINUOUS
 62
256
 10
-496.862149999999990
 20
-93.926005000000004
 40
23.999999999999993
 50
10.240347999999988
 51
49.759652000000010
  0
ARC
  8
0
  6
CONTINUOUS
 62
256
 10
-482.327252999999980
 20
-76.750825000000006
 40
1.499999999999991
 50
49.759652000000230
 51
149.999999999999460
  0
LINE
  8
0
  6
CONTINUOUS
 62
256
 10
-485.154419000000020
 20
-78.647620000000003
 11
-483.626290999999980
 21
-76.000825000000006
  0
ARC
  8
0
  6
CONTINUOUS
 62
256
 10
-483.855381000000020
 20
-79.397620000000003
 40
1.499999999999975
 50
149.999999999999460
 51
228.162996000000190
  0
ARC
  8
0
  6
CONTINUOUS
 62
256
 10
-496.862149999999990
 20
-93.926005000000004
 40
17.999999999999975
 50
11.837004000000027
 51
48.162996000000071
  0
ARC
  8
0
  6
CONTINUOUS
 62
256
 10
-477.776815000000000
 20
-89.926005000000004
 40
1.499999999999997
 50
191.837003999999810
 51
270.000000000000000
  0
LINE
  8
0
  6
CONTINUOUS
 62
256
 10
-474.720559999999980
 20
-91.426005000000004
 11
-477.776815000000000
 21
-91.426005000000004
  0
ARC
  8
0
  6
CONTINUOUS
 62
256
 10
-474.720559999999980
 20
-89.926005000000004
 40
1.500000000000000
 50
270.000000000000000
 51
10.240347999999715
  0
ARC
  8
0
  6
CONTINUOUS
 62
256
 10
-496.862149999999990
 20
-93.926005000000004
 40
14.500000000000014
 50
17.920213000000000
 51
42.079786999999946
  0
ARC
  8
0
  6
CONTINUOUS
 62
256
 10
-487.213389000000010
 20
-85.213862000000006
 40
1.499999999999994
 50
42.079787000000181
 51
150.000000000000540
  0
LINE
  8
0
  6
CONTINUOUS
 62
256
 10
-490.114510000000000
 20
-87.238750999999993
 11
-488.512428000000000
 21
-84.463862000000006
  0
ARC
  8
0
  6
CONTINUOUS
 62
256
 10
-488.815472000000000
 20
-87.988750999999993
 40
1.500000000000025
 50
150.000000000000540
 51
216.421821999999960
  0
ARC
  8
0
  6
CONTINUOUS
 62
256
 10
-496.862149999999990
 20
-93.926005000000004
 40
8.499999999999991
 50
23.578178000000058
 51
36.421822000000063
  0
ARC
  8
0
  6
CONTINUOUS
 62
256
 10
-487.696998000000010
 20
-89.926005000000004
 40
1.499999999999984
 50
203.578178000000380
 51
270.000000000000000
  0
LINE
  8
0
  6
CONTINUOUS
 62
256
 10
-484.492833000000020
 20
-91.426005000000004
 11
-487.696998000000010
 21
-91.426005000000004
  0
ARC
  8
0
  6
CONTINUOUS
 62
256
 10
-484.492833000000020
 20
-89.926005000000004
 40
1.500000000000000
 50
270.000000000000000
 51
17.920212999999450
  0
ARC
  8
0
  6
CONTINUOUS
 62
256
 10
-496.862149999999990
 20
-93.926005000000004
 40
23.999999999999996
 50
190.240348000000040
 51
229.759652000000020
  0
ARC
  8
0
  6
CONTINUOUS
 62
256
 10
-519.003739000000000
 20
-97.926005000000004
 40
1.500000000000000
 50
90.000000000000000
 51
190.240348000000100
  0
LINE
  8
0
  6
CONTINUOUS
 62
256
 10
-515.947484000000030
 20
-96.426005000000004
 11
-519.003739000000000
 21
-96.426005000000004
  0
ARC
  8
0
  6
CONTINUOUS
 62
256
 10
-515.947484000000030
 20
-97.926005000000004
 40
1.500000000000053
 50
11.837003999999359
 51
90.000000000000000
  0
ARC
  8
0
  6
CONTINUOUS
 62
256
 10
-496.862149999999990
 20
-93.926005000000004
 40
18.000000000000032
 50
191.837003999999980
 51
228.162996000000020
  0
ARC
  8
0
  6
CONTINUOUS
 62
256
 10
-509.868918000000010
 20
-108.454389000000010
 40
1.499999999999975
 50
329.999999999999490
 51
48.162996000000220
  0
LINE
  8
0
  6
CONTINUOUS
 62
256
 10
-510.098007999999990
 20
-111.851184000000000
 11
-508.569880000000010
 21
-109.204389000000010
  0
ARC
  8
0
  6
CONTINUOUS
 62
256
 10
-511.397045999999990
 20
-111.101184000000000
 40
1.499999999999991
 50
229.759652000000220
 51
329.999999999999490
  0
ARC
  8
0
  6
CONTINUOUS
 62
256
 10
-496.862149999999990
 20
-93.926005000000004
 40
14.500000000000011
 50
197.920212999999930
 51
222.079786999999930
  0
ARC
  8
0
  6
CONTINUOUS
 62
256
 10
-509.231466000000010
 20
-97.926005000000004
 40
1.500000000000000
 50
90.000000000000000
 51
197.920212999999450
  0
LINE
  8
0
  6
CONTINUOUS
 62
256
 10
-506.027301000000020
 20
-96.426005000000004
 11
-509.231466000000010
 21
-96.426005000000004
  0
ARC
  8
0
  6
CONTINUOUS
 62
256
 10
-506.027301000000020
 20
-97.926005000000004
 40
1.499999999999984
 50
23.578178000000403
 51
90.000000000000000
  0
ARC
  8
0
  6
CONTINUOUS
 62
256
 10
-496.862149999999990
 20
-93.926005000000004
 40
8.499999999999991
 50
203.578178000000070
 51
216.421822000000050
  0
ARC
  8
0
  6
CONTINUOUS
 62
256
 10
-504.908826999999970
 20
-99.863258999999999
 40
1.499999999999975
 50
329.999999999999490
 51
36.421821999999963
  0
LINE
  8
0
  6
CONTINUOUS
 62
256
 10
-505.211870999999970
 20
-103.388147000000000
 11
-503.609788999999980
 21
-100.613259000000000
  0
ARC
  8
0
  6
CONTINUOUS
 62
256
 10
-506.510910000000020
 20
-102.638147000000000
 40
1.499999999999994
 50
222.079787000000180
 51
329.999999999999490
  0
ARC
  8
0
  6
CONTINUOUS
 62
256
 10
-496.862149999999990
 20
-93.926005000000004
 40
24.000000000000004
 50
130.240347999999980
 51
169.759651999999960
  0
ARC
  8
0
  6
CONTINUOUS
 62
256
 10
-519.003739000000000
 20
-89.926005000000004
 40
1.499999999999953
 50
169.759651999999900
 51
270.000000000000000
  0
LINE
  8
0
  6
CONTINUOUS
 62
256
 10
-515.947484000000030
 20
-91.426005000000004
 11
-519.003739000000000
 21
-91.426005000000004
  0
ARC
  8
0
  6
CONTINUOUS
 62
256
 10
-515.947484000000030
 20
-89.926005000000004
 40
1.500000000000000
 50
270.000000000000000
 51
348.162996000000650
  0
ARC
  8
0
  6
CONTINUOUS
 62
256
 10
-496.862149999999990
 20
-93.926005000000004
 40
17.999999999999989
 50
131.837003999999920
 51
168.162996000000020
  0
ARC
  8
0
  6
CONTINUOUS
 62
256
 10
-509.868918000000010
 20
-79.397620000000003
 40
1.499999999999989
 50
311.837003999999810
 51
29.999999999999456
  0
LINE
  8
0
  6
CONTINUOUS
 62
256
 10
-510.098007999999990
 20
-76.000825000000006
 11
-508.569880000000010
 21
-78.647620000000003
  0
ARC
  8
0
  6
CONTINUOUS
 62
256
 10
-511.397045999999990
 20
-76.750825000000006
 40
1.499999999999975
 50
30.000000000000544
 51
130.240347999999780
  0
ARC
  8
0
  6
CONTINUOUS
 62
256
 10
-496.862149999999990
 20
-93.926005000000004
 40
14.500000000000012
 50
137.920213000000070
 51
162.079787000000070
  0
ARC
  8
0
  6
CONTINUOUS
 62
256
 10
-509.231466000000010
 20
-89.926005000000004
 40
1.500000000000024
 50
162.079787000000550
 51
270.000000000000000
  0
LINE
  8
0
  6
CONTINUOUS
 62
256
 10
-506.027301000000020
 20
-91.426005000000004
 11
-509.231466000000010
 21
-91.426005000000004
  0
ARC
  8
0
  6
CONTINUOUS
 62
256
 10
-506.027301000000020
 20
-89.926005000000004
 40
1.500000000000000
 50
270.000000000000000
 51
336.421821999999620
  0
ARC
  8
0
  6
CONTINUOUS
 62
256
 10
-496.862149999999990
 20
-93.926005000000004
 40
8.499999999999989
 50
143.578177999999950
 51
156.421821999999930
  0
ARC
  8
0
  6
CONTINUOUS
 62
256
 10
-504.908826999999970
 20
-87.988750999999993
 40
1.500000000000000
 50
323.578178000000040
 51
29.999999999999456
  0
LINE
  8
0
  6
CONTINUOUS
 62
256
 10
-505.211870999999970
 20
-84.463862000000006
 11
-503.609788999999980
 21
-87.238750999999993
  0
ARC
  8
0
  6
CONTINUOUS
 62
256
 10
-506.510910000000020
 20
-85.213862000000006
 40
1.499999999999975
 50
30.000000000000544
 51
137.920212999999820
  0
ARC
  8
0
  6
CONTINUOUS
 62
256
 10
-496.862149999999990
 20
-93.926005000000004
 40
23.999999999999993
 50
70.240348000000012
 51
109.759651999999990
  0
ARC
  8
0
  6
CONTINUOUS
 62
256
 10
-489.255455999999980
 20
-72.750825000000006
 40
1.499999999999975
 50
329.999999999999490
 51
70.240347999999329
  0
LINE
  8
0
  6
CONTINUOUS
 62
256
 10
-489.484546000000020
 20
-76.147620000000003
 11
-487.956417999999990
 21
-73.500825000000006
  0
ARC
  8
0
  6
CONTINUOUS
 62
256
 10
-490.783584000000020
 20
-75.397620000000003
 40
1.500000000000007
 50
251.837003999999720
 51
329.999999999999490
  0
ARC
  8
0
  6
CONTINUOUS
 62
256
 10
-496.862149999999990
 20
-93.926005000000004
 40
17.999999999999996
 50
71.837004000000007
 51
108.162996000000010
  0
ARC
  8
0
  6
CONTINUOUS
 62
256
 10
-502.940715000000010
 20
-75.397620000000003
 40
1.499999999999975
 50
210.000000000000510
 51
288.162996000000310
  0
LINE
  8
0
  6
CONTINUOUS
 62
256
 10
-505.767880999999990
 20
-73.500825000000006
 11
-504.239753000000010
 21
-76.147620000000003
  0
ARC
  8
0
  6
CONTINUOUS
 62
256
 10
-504.468842999999990
 20
-72.750825000000006
 40
1.500000000000012
 50
109.759652000000680
 51
210.000000000000510
  0
ARC
  8
0
  6
CONTINUOUS
 62
256
 10
-496.862149999999990
 20
-93.926005000000004
 40
14.500000000000002
 50
77.920213000000032
 51
102.079786999999980
  0
ARC
  8
0
  6
CONTINUOUS
 62
256
 10
-494.141593000000000
 20
-81.213862000000006
 40
1.499999999999975
 50
329.999999999999490
 51
77.920213000000771
  0
LINE
  8
0
  6
CONTINUOUS
 62
256
 10
-494.444637000000000
 20
-84.738750999999993
 11
-492.842555000000000
 21
-81.963862000000006
  0
ARC
  8
0
  6
CONTINUOUS
 62
256
 10
-495.743675000000000
 20
-83.988750999999993
 40
1.500000000000001
 50
263.578178000000780
 51
329.999999999999490
  0
ARC
  8
0
  6
CONTINUOUS
 62
256
 10
-496.862149999999990
 20
-93.926005000000004
 40
8.500000000000007
 50
83.578177999999994
 51
96.421822000000020
  0
ARC
  8
0
  6
CONTINUOUS
 62
256
 10
-497.980623999999980
 20
-83.988750999999993
 40
1.499999999999975
 50
210.000000000000510
 51
276.421821999999220
  0
LINE
  8
0
  6
CONTINUOUS
 62
256
 10
-500.881744000000030
 20
-81.963862000000006
 11
-499.279661999999970
 21
-84.738750999999993
  0
ARC
  8
0
  6
CONTINUOUS
 62
256
 10
-499.582705999999970
 20
-81.213862000000006
 40
1.499999999999989
 50
102.079786999999230
 51
210.000000000000510
  0
ARC
  8
0
  6
CONTINUOUS
 62
256
 10
-496.862149999999990
 20
-93.926005000000004
 40
23.999999999999993
 50
250.240348000000010
 51
289.759652000000020
  0
ARC
  8
0
  6
CONTINUOUS
 62
256
 10
-489.255455999999980
 20
-115.101184000000000
 40
1.500000000000012
 50
289.759652000000640
 51
29.999999999999456
  0
LINE
  8
0
  6
CONTINUOUS
 62
256
 10
-489.484546000000020
 20
-111.704389000000010
 11
-487.956417999999990
 21
-114.351184000000000
  0
ARC
  8
0
  6
CONTINUOUS
 62
256
 10
-490.783584000000020
 20
-112.454389000000010
 40
1.500000000000025
 50
29.999999999999456
 51
108.162996000000290
  0
ARC
  8
0
  6
CONTINUOUS
 62
256
 10
-496.862149999999990
 20
-93.926005000000004
 40
17.999999999999996
 50
251.837003999999980
 51
288.162995999999960
  0
ARC
  8
0
  6
CONTINUOUS
 62
256
 10
-502.940715000000010
 20
-112.454389000000010
 40
1.500000000000007
 50
71.837003999999709
 51
149.999999999999460
  0
LINE
  8
0
  6
CONTINUOUS
 62
256
 10
-505.767880999999990
 20
-114.351184000000000
 11
-504.239753000000010
 21
-111.704389000000010
  0
ARC
  8
0
  6
CONTINUOUS
 62
256
 10
-504.468842999999990
 20
-115.101184000000000
 40
1.500000000000025
 50
150.000000000000540
 51
250.240347999999300
  0
ARC
  8
0
  6
CONTINUOUS
 62
256
 10
-496.862149999999990
 20
-93.926005000000004
 40
14.500000000000002
 50
257.920213000000050
 51
282.079786999999950
  0
ARC
  8
0
  6
CONTINUOUS
 62
256
 10
-494.141593000000000
 20
-106.638147000000000
 40
1.499999999999989
 50
282.079786999999270
 51
30.000000000000544
  0
LINE
  8
0
  6
CONTINUOUS
 62
256
 10
-494.444637000000000
 20
-103.113259000000000
 11
-492.842555000000000
 21
-105.888147000000000
  0
ARC
  8
0
  6
CONTINUOUS
 62
256
 10
-495.743675000000000
 20
-103.863259000000000
 40
1.499999999999975
 50
30.000000000000544
 51
96.421821999999253
  0
ARC
  8
0
  6
CONTINUOUS
 62
256
 10
-496.862149999999990
 20
-93.926005000000004
 40
8.500000000000007
 50
263.578177999999980
 51
276.421822000000020
  0
ARC
  8
0
  6
CONTINUOUS
 62
256
 10
-497.980623999999980
 20
-103.863259000000000
 40
1.500000000000001
 50
83.578178000000747
 51
149.999999999999460
  0
LINE
  8
0
  6
CONTINUOUS
 62
256
 10
-500.881744000000030
 20
-105.888147000000000
 11
-499.279661999999970
 21
-103.113259000000000
  0
ARC
  8
0
  6
CONTINUOUS
 62
256
 10
-499.582705999999970
 20
-106.638147000000000
 40
1.499999999999975
 50
149.999999999999460
 51
257.920213000000730
  0
ARC
  8
0
  6
CONTINUOUS
 62
256
 10
-496.862149999999990
 20
-93.926005000000004
 40
8.499999999999989
 50
323.578177999999920
 51
336.421821999999910
  0
ARC
  8
0
  6
CONTINUOUS
 62
256
 10
-496.862149999999990
 20
-93.926005000000004
 40
24.000000000000004
 50
310.240347999999980
 51
349.759652000000020
  0
LINE
  8
0
  6
CONTINUOUS
 62
256
 10
-490.114510000000000
 20
-100.613259000000000
 11
-488.512428000000000
 21
-103.388147000000000
  0
LINE
  8
0
  6
CONTINUOUS
 62
256
 10
-474.720559999999980
 20
-96.426005000000004
 11
-477.776815000000000
 21
-96.426005000000004
  0
LINE
  8
0
  6
CONTINUOUS
 62
256
 10
-484.492833000000020
 20
-96.426005000000004
 11
-487.696998000000010
 21
-96.426005000000004
  0
ARC
  8
0
  6
CONTINUOUS
 62
256
 10
-496.862149999999990
 20
-93.926005000000004
 40
14.500000000000021
 50
317.920213000000050
 51
342.079787000000010
  0
LINE
  8
0
  6
CONTINUOUS
 62
256
 10
-485.154419000000020
 20
-109.204389000000010
 11
-483.626290999999980
 21
-111.851184000000000
  0
ARC
  8
0
  6
CONTINUOUS
 62
256
 10
-487.213389000000010
 20
-102.638147000000000
 40
1.499999999999975
 50
210.000000000000510
 51
317.920212999999820
  0
ARC
  8
0
  6
CONTINUOUS
 62
256
 10
-474.720559999999980
 20
-97.926005000000004
 40
1.500000000000009
 50
349.759652000000300
 51
90.000000000000000
  0
ARC
  8
0
  6
CONTINUOUS
 62
256
 10
-483.855381000000020
 20
-108.454389000000010
 40
1.499999999999989
 50
131.837003999999810
 51
210.000000000000510
  0
ARC
  8
0
  6
CONTINUOUS
 62
256
 10
-477.776815000000000
 20
-97.926005000000004
 40
1.500000000000000
 50
90.000000000000000
 51
168.162996000000190
  0
ARC
  8
0
  6
CONTINUOUS
 62
256
 10
-484.492833000000020
 20
-97.926005000000004
 40
1.500000000000024
 50
342.079787000000580
 51
90.000000000000000
  0
ARC
  8
0
  6
CONTINUOUS
 62
256
 10
-482.327252999999980
 20
-111.101184000000000
 40
1.499999999999975
 50
210.000000000000510
 51
310.240347999999810
  0
ARC
  8
0
  6
CONTINUOUS
 62
256
 10
-487.696998000000010
 20
-97.926005000000004
 40
1.500000000000000
 50
90.000000000000000
 51
156.421821999999620
  0
ARC
  8
0
  6
CONTINUOUS
 62
256
 10
-488.815472000000000
 20
-99.863258999999999
 40
1.500000000000000
 50
143.578178000000040
 51
210.000000000000510
  0
CIRCLE
  8
0
  6
CONTINUOUS
 62
256
 10
-496.862149999999990
 20
-93.926005000000004
 40
5.000000000000000
  0
ARC
  8
0
  6
CONTINUOUS
 62
256
 10
-479.036640999999970
 20
-116.800691000000000
 40
1.500000000000018
 50
127.928142000000730
 51
210.000000000000510
  0
LINE
  8
0
  6
CONTINUOUS
 62
256
 10
-480.335679000000030
 20
-117.550691000000000
 11
-478.822578000000020
 21
-120.171459000000000
  0
ARC
  8
0
  6
CONTINUOUS
 62
256
 10
-468.139336000000010
 20
-97.926005000000004
 40
1.500000000000000
 50
90.000000000000000
 51
172.071857999999850
  0
ARC
  8
0
  6
CONTINUOUS
 62
256
 10
-496.862149999999990
 20
-93.926005000000004
 40
27.500000000000004
 50
307.928141999999980
 51
352.071858000000020
  0
ARC
  8
0
  6
CONTINUOUS
 62
256
 10
-477.523540000000030
 20
-119.421459000000000
 40
1.499999999999975
 50
210.000000000000510
 51
307.180756000000090
  0
ARC
  8
0
  6
CONTINUOUS
 62
256
 10
-474.252226000000010
 20
-125.087541000000000
 40
1.500000000000018
 50
125.963570000000500
 51
210.000000000000510
  0
ARC
  8
0
  6
CONTINUOUS
 62
256
 10
-496.862149999999990
 20
-93.926005000000004
 40
36.999999999999993
 50
305.963570000000000
 51
354.036429999999940
  0
ARC
  8
0
  6
CONTINUOUS
 62
256
 10
-496.862149999999990
 20
-93.926005000000004
 40
33.499999999999986
 50
307.180755999999920
 51
352.819244000000030
  0
LINE
  8
0
  6
CONTINUOUS
 62
256
 10
-484.665805999999980
 20
-120.050691000000000
 11
-483.152705000000030
 21
-122.671459000000000
  0
ARC
  8
0
  6
CONTINUOUS
 62
256
 10
-484.451743000000020
 20
-123.421459000000000
 40
1.499999999999989
 50
292.819243999999060
 51
30.000000000000544
  0
ARC
  8
0
  6
CONTINUOUS
 62
256
 10
-485.964845000000030
 20
-120.800691000000000
 40
1.499999999999975
 50
30.000000000000544
 51
112.071857999999120
  0
ARC
  8
0
  6
CONTINUOUS
 62
256
 10
-496.862149999999990
 20
-93.926005000000004
 40
27.500000000000004
 50
247.928142000000040
 51
292.071857999999960
  0
ARC
  8
0
  6
CONTINUOUS
 62
256
 10
-496.862149999999990
 20
-93.926005000000004
 40
33.500000000000007
 50
247.180756000000030
 51
292.819243999999970
  0
ARC
  8
0
  6
CONTINUOUS
 62
256
 10
-507.759455000000000
 20
-120.800691000000000
 40
1.499999999999998
 50
67.928142000000889
 51
150.000000000000540
  0
LINE
  8
0
  6
CONTINUOUS
 62
256
 10
-510.571594000000000
 20
-122.671459000000000
 11
-509.058493000000000
 21
-120.050691000000000
  0
ARC
  8
0
  6
CONTINUOUS
 62
256
 10
-509.272556000000010
 20
-123.421459000000000
 40
1.500000000000025
 50
150.000000000000540
 51
247.180756000000940
  0
ARC
  8
0
  6
CONTINUOUS
 62
256
 10
-538.168929000000050
 20
-97.926005000000004
 40
1.500000000000000
 50
90.000000000000000
 51
185.531072000000050
  0
LINE
  8
0
  6
CONTINUOUS
 62
256
 10
-535.153793999999950
 20
-96.426005000000004
 11
-538.168929000000050
 21
-96.426005000000004
  0
LINE
  8
0
  6
CONTINUOUS
 62
256
 10
-525.584963000000020
 20
-96.426005000000004
 11
-528.611165000000030
 21
-96.426005000000004
  0
ARC
  8
0
  6
CONTINUOUS
 62
256
 10
-535.153793999999950
 20
-97.926005000000004
 40
1.499999999999955
 50
5.963570000000017
 51
90.000000000000000
  0
ARC
  8
0
  6
CONTINUOUS
 62
256
 10
-528.611165000000030
 20
-97.926005000000004
 40
1.500000000000000
 50
90.000000000000000
 51
187.180756000000340
  0
ARC
  8
0
  6
CONTINUOUS
 62
256
 10
-525.584963000000020
 20
-97.926005000000004
 40
1.500000000000004
 50
7.928142000000149
 51
90.000000000000000
  0
ARC
  8
0
  6
CONTINUOUS
 62
256
 10
-496.862149999999990
 20
-93.926005000000004
 40
27.500000000000043
 50
187.928142000000010
 51
232.071858000000050
  0
ARC
  8
0
  6
CONTINUOUS
 62
256
 10
-496.862149999999990
 20
-93.926005000000004
 40
36.999999999999979
 50
185.963570000000000
 51
234.036429999999940
  0
ARC
  8
0
  6
CONTINUOUS
 62
256
 10
-496.862149999999990
 20
-93.926005000000004
 40
43.000000000000028
 50
185.531071999999970
 51
234.468927999999950
  0
ARC
  8
0
  6
CONTINUOUS
 62
256
 10
-496.862149999999990
 20
-93.926005000000004
 40
33.500000000000007
 50
187.180756000000000
 51
232.819243999999940
  0
ARC
  8
0
  6
CONTINUOUS
 62
256
 10
-514.687658000000060
 20
-116.800691000000000
 40
1.500000000000025
 50
330.000000000000570
 51
52.071857999999288
  0
ARC
  8
0
  6
CONTINUOUS
 62
256
 10
-519.472073000000020
 20
-125.087541000000000
 40
1.500000000000025
 50
330.000000000000570
 51
54.036429999999186
  0
LINE
  8
0
  6
CONTINUOUS
 62
256
 10
-514.901720999999950
 20
-120.171459000000000
 11
-513.388619999999950
 21
-117.550691000000000
  0
ARC
  8
0
  6
CONTINUOUS
 62
256
 10
-516.200758999999950
 20
-119.421459000000000
 40
1.499999999999994
 50
232.819243999999940
 51
330.000000000000570
  0
ARC
  8
0
  6
CONTINUOUS
 62
256
 10
-538.168929000000050
 20
-89.926005000000004
 40
1.500000000000035
 50
174.468927999999950
 51
270.000000000000000
  0
LINE
  8
0
  6
CONTINUOUS
 62
256
 10
-535.153793999999950
 20
-91.426005000000004
 11
-538.168929000000050
 21
-91.426005000000004
  0
LINE
  8
0
  6
CONTINUOUS
 62
256
 10
-525.584963000000020
 20
-91.426005000000004
 11
-528.611165000000030
 21
-91.426005000000004
  0
ARC
  8
0
  6
CONTINUOUS
 62
256
 10
-535.153793999999950
 20
-89.926005000000004
 40
1.500000000000000
 50
270.000000000000000
 51
354.036430000000000
  0
ARC
  8
0
  6
CONTINUOUS
 62
256
 10
-528.611165000000030
 20
-89.926005000000004
 40
1.499999999999972
 50
172.819243999999660
 51
270.000000000000000
  0
ARC
  8
0
  6
CONTINUOUS
 62
256
 10
-525.584963000000020
 20
-89.926005000000004
 40
1.500000000000000
 50
270.000000000000000
 51
352.071857999999850
  0
ARC
  8
0
  6
CONTINUOUS
 62
256
 10
-496.862149999999990
 20
-93.926005000000004
 40
27.500000000000004
 50
127.928141999999990
 51
172.071858000000020
  0
ARC
  8
0
  6
CONTINUOUS
 62
256
 10
-496.862149999999990
 20
-93.926005000000004
 40
36.999999999999972
 50
125.963569999999920
 51
174.036430000000000
  0
ARC
  8
0
  6
CONTINUOUS
 62
256
 10
-496.862149999999990
 20
-93.926005000000004
 40
43.000000000000014
 50
125.531072000000020
 51
174.468928000000010
  0
ARC
  8
0
  6
CONTINUOUS
 62
256
 10
-496.862149999999990
 20
-93.926005000000004
 40
33.500000000000007
 50
127.180756000000020
 51
172.819244000000000
  0
ARC
  8
0
  6
CONTINUOUS
 62
256
 10
-514.687658000000060
 20
-71.051319000000007
 40
1.500000000000018
 50
307.928142000000720
 51
29.999999999999456
  0
ARC
  8
0
  6
CONTINUOUS
 62
256
 10
-520.979641000000020
 20
-60.153284999999997
 40
1.500000000000025
 50
29.999999999999456
 51
125.531072000001260
  0
LINE
  8
0
  6
CONTINUOUS
 62
256
 10
-519.680603000000020
 20
-59.403284999999997
 11
-518.173035000000030
 21
-62.014468000000001
  0
ARC
  8
0
  6
CONTINUOUS
 62
256
 10
-519.472073000000020
 20
-62.764468000000001
 40
1.500000000000013
 50
305.963570000000630
 51
29.999999999999456
  0
LINE
  8
0
  6
CONTINUOUS
 62
256
 10
-514.901720999999950
 20
-67.680550999999994
 11
-513.388619999999950
 21
-70.301319000000007
  0
ARC
  8
0
  6
CONTINUOUS
 62
256
 10
-516.200758999999950
 20
-68.430550999999994
 40
1.500000000000025
 50
29.999999999999456
 51
127.180756000000090
  0
ARC
  8
0
  6
CONTINUOUS
 62
256
 10
-479.672862000000010
 20
-56.153284999999997
 40
1.499999999999975
 50
329.999999999999490
 51
65.531072000000108
  0
LINE
  8
0
  6
CONTINUOUS
 62
256
 10
-479.881391000000010
 20
-59.514468000000001
 11
-478.373823000000020
 21
-56.903284999999997
  0
LINE
  8
0
  6
CONTINUOUS
 62
256
 10
-484.665805999999980
 20
-67.801319000000007
 11
-483.152705000000030
 21
-65.180550999999994
  0
ARC
  8
0
  6
CONTINUOUS
 62
256
 10
-481.180429000000000
 20
-58.764468000000001
 40
1.499999999999999
 50
245.963570000000350
 51
329.999999999999490
  0
ARC
  8
0
  6
CONTINUOUS
 62
256
 10
-484.451743000000020
 20
-64.430550999999994
 40
1.499999999999975
 50
329.999999999999490
 51
67.180756000000954
  0
ARC
  8
0
  6
CONTINUOUS
 62
256
 10
-485.964845000000030
 20
-67.051319000000007
 40
1.499999999999998
 50
247.928142000000830
 51
329.999999999999490
  0
ARC
  8
0
  6
CONTINUOUS
 62
256
 10
-496.862149999999990
 20
-93.926005000000004
 40
27.499999999999989
 50
67.928142000000008
 51
112.071857999999980
  0
ARC
  8
0
  6
CONTINUOUS
 62
256
 10
-496.862149999999990
 20
-93.926005000000004
 40
36.999999999999993
 50
65.963570000000033
 51
114.036429999999970
  0
ARC
  8
0
  6
CONTINUOUS
 62
256
 10
-496.862149999999990
 20
-93.926005000000004
 40
43.000000000000007
 50
65.531071999999980
 51
114.468927999999950
  0
ARC
  8
0
  6
CONTINUOUS
 62
256
 10
-496.862149999999990
 20
-93.926005000000004
 40
33.500000000000000
 50
67.180756000000002
 51
112.819244000000000
  0
ARC
  8
0
  6
CONTINUOUS
 62
256
 10
-507.759455000000000
 20
-67.051319000000007
 40
1.499999999999975
 50
210.000000000000510
 51
292.071857999999110
  0
ARC
  8
0
  6
CONTINUOUS
 62
256
 10
-514.051436999999960
 20
-56.153284999999997
 40
1.499999999999995
 50
114.468927999999890
 51
209.999999999999460
  0
LINE
  8
0
  6
CONTINUOUS
 62
256
 10
-515.350475999999960
 20
-56.903284999999997
 11
-513.842907999999970
 21
-59.514468000000001
  0
ARC
  8
0
  6
CONTINUOUS
 62
256
 10
-512.543869999999970
 20
-58.764468000000001
 40
1.500000000000025
 50
209.999999999999460
 51
294.036429999999600
  0
LINE
  8
0
  6
CONTINUOUS
 62
256
 10
-510.571594000000000
 20
-65.180550999999994
 11
-509.058493000000000
 21
-67.801319000000007
  0
ARC
  8
0
  6
CONTINUOUS
 62
256
 10
-509.272556000000010
 20
-64.430550999999994
 40
1.499999999999989
 50
112.819243999999050
 51
210.000000000000510
  0
ARC
  8
0
  6
CONTINUOUS
 62
256
 10
-472.744658000000020
 20
-60.153284999999997
 40
1.499999999999989
 50
54.468928000000517
 51
149.999999999999460
  0
LINE
  8
0
  6
CONTINUOUS
 62
256
 10
-475.551264000000000
 20
-62.014468000000001
 11
-474.043696000000010
 21
-59.403284999999997
  0
LINE
  8
0
  6
CONTINUOUS
 62
256
 10
-480.335679000000030
 20
-70.301319000000007
 11
-478.822578000000020
 21
-67.680550999999994
  0
ARC
  8
0
  6
CONTINUOUS
 62
256
 10
-474.252226000000010
 20
-62.764468000000001
 40
1.499999999999975
 50
149.999999999999460
 51
234.036429999999370
  0
ARC
  8
0
  6
CONTINUOUS
 62
256
 10
-477.523540000000030
 20
-68.430550999999994
 40
1.499999999999994
 50
52.819243999999927
 51
150.000000000000540
  0
ARC
  8
0
  6
CONTINUOUS
 62
256
 10
-479.036640999999970
 20
-71.051319000000007
 40
1.499999999999975
 50
149.999999999999460
 51
232.071857999999280
  0
ARC
  8
0
  6
CONTINUOUS
 62
256
 10
-496.862149999999990
 20
-93.926005000000004
 40
36.999999999999979
 50
5.963570000000011
 51
54.036430000000010
  0
ARC
  8
0
  6
CONTINUOUS
 62
256
 10
-496.862149999999990
 20
-93.926005000000004
 40
42.999999999999979
 50
5.531071999999997
 51
54.468927999999984
  0
ARC
  8
0
  6
CONTINUOUS
 62
256
 10
-496.862149999999990
 20
-93.926005000000004
 40
33.500000000000007
 50
7.180755999999994
 51
52.819243999999983
  0
ARC
  8
0
  6
CONTINUOUS
 62
256
 10
-468.139336000000010
 20
-89.926005000000004
 40
1.500000000000004
 50
187.928142000000150
 51
270.000000000000000
  0
ARC
  8
0
  6
CONTINUOUS
 62
256
 10
-446.765535000000000
 20
-49.977417000000003
 40
6.600000000000021
 50
8.597081999999979
 51
44.999999999999829
  0
ARC
  8
0
  6
CONTINUOUS
 62
256
 10
-456.753372000000010
 20
-54.984487000000001
 40
5.999999999999990
 50
7.897989000000010
 51
45.000000000000149
  0
ARC
  8
0
  6
CONTINUOUS
 62
256
 10
-737.462149999999950
 20
-93.926005000000004
 40
289.396999999999990
 50
0.000000000000000
 51
7.897989000000000
  0
TEXT
  8
0
  6
CONTINUOUS
 62
256
 10
581.299133300781250
 20
-227.142715454101560
 40
3.299999952316284
  1
1/1
 50
0.000002504478167
 41
0.850909097352304
  7
STANDARD1
  0
TEXT
  8
0
  6
CONTINUOUS
 62
256
 10
578.881164550781250
 20
-227.142715454101560
 40
3.299999952316284
  1
 
 50
0.000002504478167
 41
1.733333298293026
  7
STANDARD1
  0
TEXT
  8
0
  6
CONTINUOUS
 62
256
 10
565.830505371093750
 20
-227.142715454101560
 40
3.299999952316284
  1
SCALE
 50
0.000002504478167
 41
0.821052645401140
  7
STANDARD1
  0
TEXT
  8
0
  6
CONTINUOUS
 62
256
 10
562.579162597656250
 20
-227.142715454101560
 40
3.299999952316284
  1
 
 50
0.000002504478167
 41
1.733333298293026
  7
STANDARD1
  0
TEXT
  8
0
  6
CONTINUOUS
 62
256
 10
577.442382812500000
 20
-221.842712402343750
 40
3.299999952316284
  1
1/60
 50
0.000002504478167
 41
0.832000075658163
  7
STANDARD1
  0
TEXT
  8
0
  6
CONTINUOUS
 62
256
 10
573.651306152343750
 20
-221.842712402343750
 40
3.299999952316284
  1
ü`
 50
0.000002504478167
 41
1.176000019651471
  7
STANDARD1
  0
TEXT
  8
0
  6
CONTINUOUS
 62
256
 10
565.855163574218750
 20
-221.842712402343750
 40
3.299999952316284
  1
1/5
 50
0.000002504478167
 41
0.850909097352304
  7
STANDARD1
  0
TEXT
  8
0
  6
CONTINUOUS
 62
256
 10
562.579162597656250
 20
-221.842712402343750
 40
3.299999952316284
  1
 
 50
0.000002504478167
 41
1.733333298293026
  7
STANDARD1
  0
TEXT
  8
0
  6
CONTINUOUS
 62
256
 10
562.579162597656250
 20
-216.542709350585940
 40
3.299999952316284
  1
GM-SHYFB-RH
 50
0.000002504478167
 41
0.798139564113939
  7
STANDARD1
  0
TEXT
  8
0
  6
CONTINUOUS
 62
256
 10
568.404541015625000
 20
-211.242721557617190
 40
3.299999952316284
  1
0.4kW
 50
0.000002504478167
 41
0.821052645401140
  7
STANDARD1
  0
TEXT
  8
0
  6
CONTINUOUS
 62
256
 10
562.579162597656250
 20
-211.242721557617190
 40
3.299999952316284
  1
  
 50
0.000002504478167
 41
1.485714400175845
  7
STANDARD1
  0
TEXT
  8
0
  6
CONTINUOUS
 62
256
 10
568.398620605468750
 20
-205.942718505859370
 40
3.299999952316284
  1
SHY064
 50
0.000002504478167
 41
0.813913121261144
  7
STANDARD1
  0
TEXT
  8
0
  6
CONTINUOUS
 62
256
 10
562.579162597656250
 20
-205.942718505859370
 40
3.299999952316284
  1
  
 50
0.000002504478167
 41
1.485714400175845
  7
STANDARD1
  0
LINE
  8
0
  6
CONTINUOUS
 62
256
 10
323.938703999999970
 20
-52.626004999999999
 11
323.938703999999970
 21
-56.469172000000000
  0
LINE
  8
0
  6
CONTINUOUS
 62
256
 10
331.938703999999970
 20
-52.626004999999999
 11
331.938703999999970
 21
-56.469172000000000
  0
LINE
  8
0
  6
CONTINUOUS
 62
256
 10
331.938703999999970
 20
-52.626004999999999
 11
323.938703999999970
 21
-52.626004999999999
  0
LINE
  8
0
  6
DASHDOT
 62
256
 10
353.224556000000010
 20
-70.926005000000004
 11
302.157312999999990
 21
-70.926005000000004
  0
ARC
  8
0
  6
CONTINUOUS
 62
256
 10
327.938703999999970
 20
-70.926005000000004
 40
15.000000000000002
 50
105.466009999999980
 51
74.533990000000031
  0
CIRCLE
  8
0
  6
CONTINUOUS
 62
256
 10
327.938703999999970
 20
-70.926005000000004
 40
22.000000000000000
  0
LINE
  8
0
  6
DASHDOT
 62
256
 10
327.938703999999970
 20
-43.472650000000002
 11
327.938703999999970
 21
-97.748305999999999
  0
ARC
  8
0
  6
CONTINUOUS
 62
256
 10
203.752269000000010
 20
-48.625945000000002
 40
0.199999999999996
 50
9.594067999999961
 51
90.000000000000000
  0
LINE
  8
0
  6
CONTINUOUS
 62
256
 10
189.352270000000000
 20
-48.425944999999999
 11
203.752269000000010
 21
-48.425944999999999
  0
LINE
  8
0
  6
CONTINUOUS
 62
256
 10
204.343876999999990
 20
-48.925944999999999
 11
219.952540000000000
 21
-48.925944999999999
  0
ARC
  8
0
  6
CONTINUOUS
 62
256
 10
204.343876999999990
 20
-48.525945000000000
 40
0.399999999999991
 50
189.594067999999960
 51
270.000000000000000
  0
LINE
  8
0
  6
CONTINUOUS
 62
256
 10
199.952540000000000
 20
-54.676005000000004
 11
197.952540000000000
 21
-54.676005000000004
  0
LINE
  8
0
  6
DASHDOT
 62
256
 10
223.518077000000010
 20
-70.926005000000004
 11
102.050263000000000
 21
-70.926005000000004
  0
LINE
  8
0
  6
CONTINUOUS
 62
256
 10
197.952540000000000
 20
-87.176005000000004
 11
197.952540000000000
 21
-70.925944999999999
  0
LINE
  8
0
  6
CONTINUOUS
 62
256
 10
197.952540000000000
 20
-54.676005000000004
 11
197.952540000000000
 21
-70.925944999999999
  0
LINE
  8
0
  6
CONTINUOUS
 62
256
 10
217.952540000000000
 20
-55.925944999999999
 11
199.952540000000000
 21
-55.925944999999999
  0
LINE
  8
0
  6
CONTINUOUS
 62
256
 10
197.952540000000000
 20
-55.925944999999999
 11
173.952540000000000
 21
-55.925944999999999
  0
LINE
  8
0
  6
CONTINUOUS
 62
256
 10
199.952540000000000
 20
-54.676005000000004
 11
199.952540000000000
 21
-87.176005000000004
  0
ARC
  8
0
  6
CONTINUOUS
 62
256
 10
217.952540000000000
 20
-87.925944999999999
 40
2.000000000000000
 50
0.000000000000000
 51
90.000000000000000
  0
LINE
  8
0
  6
CONTINUOUS
 62
256
 10
219.952540000000000
 20
-92.525944999999993
 11
219.952540000000000
 21
-48.925944999999999
  0
ARC
  8
0
  6
CONTINUOUS
 62
256
 10
219.552539999999990
 20
-92.525944999999993
 40
0.400000000000006
 50
270.000000000000000
 51
0.000000000000000
  0
LINE
  8
0
  6
CONTINUOUS
 62
256
 10
204.343876999999990
 20
-92.925944999999999
 11
219.552539999999990
 21
-92.925944999999999
  0
ARC
  8
0
  6
CONTINUOUS
 62
256
 10
203.752269000000010
 20
-93.225944999999996
 40
0.200000000000003
 50
270.000000000000000
 51
350.405932000000010
  0
ARC
  8
0
  6
CONTINUOUS
 62
256
 10
204.343876999999990
 20
-93.325945000000004
 40
0.400000000000006
 50
90.000000000000000
 51
170.405932000000040
  0
LINE
  8
0
  6
CONTINUOUS
 62
256
 10
197.952540000000000
 20
-85.925944999999999
 11
173.952540000000000
 21
-85.925944999999999
  0
LINE
  8
0
  6
CONTINUOUS
 62
256
 10
217.952540000000000
 20
-85.925944999999999
 11
199.952540000000000
 21
-85.925944999999999
  0
LINE
  8
0
  6
CONTINUOUS
 62
256
 10
199.952540000000000
 20
-87.176005000000004
 11
197.952540000000000
 21
-87.176005000000004
  0
LINE
  8
0
  6
CONTINUOUS
 62
256
 10
189.352270000000000
 20
-93.425944999999999
 11
203.752269000000010
 21
-93.425944999999999
  0
LINE
  8
0
  6
CONTINUOUS
 62
256
 10
171.452823000000000
 20
-96.326004999999995
 11
171.452823000000000
 21
-95.426005000000004
  0
LINE
  8
0
  6
CONTINUOUS
 62
256
 10
152.952823000000000
 20
-95.426005000000004
 11
171.452823000000000
 21
-95.426005000000004
  0
LINE
  8
0
  6
CONTINUOUS
 62
256
 10
171.452823000000000
 20
-96.326004999999995
 11
188.952287000000010
 21
-96.326004999999995
  0
ARC
  8
0
  6
CONTINUOUS
 62
256
 10
189.352270000000000
 20
-93.825945000000004
 40
0.400000000000006
 50
90.000000000000000
 51
180.000072999999450
  0
LINE
  8
0
  6
CONTINUOUS
 62
256
 10
188.952270000000000
 20
-93.825946000000002
 11
188.952272999999990
 21
-96.326004999999995
  0
LINE
  8
0
  6
CONTINUOUS
 62
256
 10
173.952540000000000
 20
-86.225944999999996
 11
173.952540000000000
 21
-70.925944999999999
  0
LINE
  8
0
  6
CONTINUOUS
 62
256
 10
151.952540000000000
 20
-86.125945000000002
 11
173.952540000000000
 21
-86.125945000000002
  0
LINE
  8
0
  6
CONTINUOUS
 62
256
 10
173.952540000000000
 20
-55.625945000000002
 11
173.952540000000000
 21
-70.925944999999999
  0
LINE
  8
0
  6
CONTINUOUS
 62
256
 10
188.952270000000000
 20
-48.026004000000000
 11
188.952272999999990
 21
-45.926005000000004
  0
ARC
  8
0
  6
CONTINUOUS
 62
256
 10
189.352270000000000
 20
-48.026004999999998
 40
0.399999999999989
 50
179.999926999999530
 51
270.000000000000000
  0
ARC
  8
0
  6
CONTINUOUS
 62
256
 10
189.352270000000000
 20
-48.025945000000000
 40
0.399999999999989
 50
179.999926999999530
 51
270.000000000000000
  0
LINE
  8
0
  6
CONTINUOUS
 62
256
 10
151.952540000000000
 20
-55.725945000000003
 11
173.952540000000000
 21
-55.725945000000003
  0
LINE
  8
0
  6
CONTINUOUS
 62
256
 10
105.952540000000000
 20
-52.626004999999999
 11
219.952540000000000
 21
-52.626004999999999
  0
ARC
  8
0
  6
CONTINUOUS
 62
256
 10
152.552822999999990
 20
-48.025945000000000
 40
0.399999999999999
 50
270.000000000000000
 51
0.000000000000000
  0
LINE
  8
0
  6
CONTINUOUS
 62
256
 10
151.952540000000000
 20
-55.725945000000003
 11
151.952540000000000
 21
-70.925944999999999
  0
LINE
  8
0
  6
CONTINUOUS
 62
256
 10
151.952540000000000
 20
-55.925944999999999
 11
127.952540000000000
 21
-55.925944999999999
  0
LINE
  8
0
  6
CONTINUOUS
 62
256
 10
122.144418000000000
 20
-48.425944999999999
 11
152.552822999999990
 21
-48.425944999999999
  0
LINE
  8
0
  6
CONTINUOUS
 62
256
 10
151.952540000000000
 20
-86.225944999999996
 11
151.952540000000000
 21
-70.925944999999999
  0
ARC
  8
0
  6
CONTINUOUS
 62
256
 10
152.552822999999990
 20
-93.825945000000004
 40
0.400000000000006
 50
0.000000000000000
 51
90.000000000000000
  0
LINE
  8
0
  6
CONTINUOUS
 62
256
 10
152.952823000000000
 20
-95.426005000000004
 11
152.952823000000000
 21
-93.825945000000004
  0
LINE
  8
0
  6
CONTINUOUS
 62
256
 10
127.952540000000000
 20
-87.176005000000004
 11
127.952540000000000
 21
-70.925944999999999
  0
LINE
  8
0
  6
CONTINUOUS
 62
256
 10
151.952540000000000
 20
-85.925944999999999
 11
127.952540000000000
 21
-85.925944999999999
  0
LINE
  8
0
  6
CONTINUOUS
 62
256
 10
121.552809999999990
 20
-92.925944999999999
 11
106.352540000000000
 21
-92.925944999999999
  0
LINE
  8
0
  6
CONTINUOUS
 62
256
 10
125.952540000000000
 20
-85.925944999999999
 11
107.952540000000000
 21
-85.925944999999999
  0
ARC
  8
0
  6
CONTINUOUS
 62
256
 10
121.552809999999990
 20
-93.325945000000004
 40
0.400000000000005
 50
9.594067999999622
 51
90.000000000000000
  0
ARC
  8
0
  6
CONTINUOUS
 62
256
 10
122.144418000000000
 20
-93.225944999999996
 40
0.199999999999996
 50
189.594067999999960
 51
270.000000000000000
  0
LINE
  8
0
  6
CONTINUOUS
 62
256
 10
122.144418000000000
 20
-93.425944999999999
 11
152.552822999999990
 21
-93.425944999999999
  0
LINE
  8
0
  6
CONTINUOUS
 62
256
 10
135.452866000000000
 20
-93.425946999999994
 11
122.452866000000000
 21
-93.425961999999998
  0
LINE
  8
0
  6
CONTINUOUS
 62
256
 10
127.952540000000000
 20
-87.176005000000004
 11
125.952540000000000
 21
-87.176005000000004
  0
LINE
  8
0
  6
CONTINUOUS
 62
256
 10
125.952540000000000
 20
-54.676005000000004
 11
125.952540000000000
 21
-87.176005000000004
  0
ARC
  8
0
  6
CONTINUOUS
 62
256
 10
122.144418000000000
 20
-48.625945000000002
 40
0.200000000000003
 50
90.000000000000000
 51
170.405932000000040
  0
LINE
  8
0
  6
CONTINUOUS
 62
256
 10
135.452811999999990
 20
-48.425961999999998
 11
122.452811999999990
 21
-48.425978000000001
  0
ARC
  8
0
  6
CONTINUOUS
 62
256
 10
107.952540000000000
 20
-53.925944999999999
 40
2.000000000000000
 50
180.000000000000000
 51
270.000000000000000
  0
ARC
  8
0
  6
CONTINUOUS
 62
256
 10
106.352540000000000
 20
-49.325944999999997
 40
0.399999999999999
 50
90.000000000000000
 51
180.000000000000000
  0
LINE
  8
0
  6
CONTINUOUS
 62
256
 10
121.552809999999990
 20
-48.925944999999999
 11
106.352540000000000
 21
-48.925944999999999
  0
ARC
  8
0
  6
CONTINUOUS
 62
256
 10
121.552809999999990
 20
-48.525945000000000
 40
0.399999999999999
 50
270.000000000000000
 51
350.405932000000400
  0
LINE
  8
0
  6
CONTINUOUS
 62
256
 10
125.952540000000000
 20
-55.925944999999999
 11
107.952540000000000
 21
-55.925944999999999
  0
LINE
  8
0
  6
CONTINUOUS
 62
256
 10
127.952540000000000
 20
-54.676005000000004
 11
127.952540000000000
 21
-70.925944999999999
  0
LINE
  8
0
  6
CONTINUOUS
 62
256
 10
127.952540000000000
 20
-54.676005000000004
 11
125.952540000000000
 21
-54.676005000000004
  0
LINE
  8
0
  6
CONTINUOUS
 62
256
 10
105.952540000000000
 20
-92.525944999999993
 11
105.952540000000000
 21
-49.325944999999997
  0
ARC
  8
0
  6
CONTINUOUS
 62
256
 10
106.352540000000000
 20
-92.525944999999993
 40
0.400000000000006
 50
180.000000000000000
 51
270.000000000000000
  0
ARC
  8
0
  6
CONTINUOUS
 62
256
 10
107.952540000000000
 20
-87.925944999999999
 40
2.000000000000000
 50
90.000000000000000
 51
180.000000000000000
  0
LINE
  8
0
  6
DASHDOT
 62
256
 10
35.627710999999998
 20
-70.926005000000004
 11
-85.870712999999995
 21
-70.926005000000004
  0
CIRCLE
  8
0
  6
CONTINUOUS
 62
256
 10
-29.116513999999999
 20
-70.926005000000004
 40
22.000000000000000
  0
CIRCLE
  8
0
  6
CONTINUOUS
 62
256
 10
-29.116513999999999
 20
-70.926005000000004
 40
47.000000000000000
  0
CIRCLE
  8
0
  6
CONTINUOUS
 62
256
 10
-29.116513999999999
 20
-70.926005000000004
 40
42.500000000000000
  0
LINE
  8
0
  6
DASHDOT
 62
256
 10
-29.116513999999999
 20
-3.837800000000000
 11
-29.116513999999999
 21
-132.350654999999990
  0
LINE
  8
0
  6
CONTINUOUS
 62
256
 10
-119.116514000000000
 20
-9.926005000000000
 11
22.883486000000001
 21
-9.926005000000000
  0
LINE
  8
0
  6
CONTINUOUS
 62
256
 10
-1.116514000000000
 20
-10.926005000000000
 11
-95.116513999999995
 21
-10.926005000000000
  0
LINE
  8
0
  6
CONTINUOUS
 62
256
 10
-9.445831000000000
 20
-18.426005000000000
 11
-86.787197000000006
 21
-18.426005000000000
  0
LINE
  8
0
  6
CONTINUOUS
 62
256
 10
-9.445831000000000
 20
-21.426005000000000
 11
-86.787197000000006
 21
-21.426005000000000
  0
ARC
  8
0
  6
CONTINUOUS
 62
256
 10
-9.445831000000000
 20
-24.426005000000000
 40
3.000000000000000
 50
26.847213000000004
 51
90.000000000000000
  0
ARC
  8
0
  6
CONTINUOUS
 62
256
 10
4.383486000000000
 20
-17.426005000000000
 40
12.499999999999998
 50
206.847212999999980
 51
263.651414999999990
  0
ARC
  8
0
  6
CONTINUOUS
 62
256
 10
-9.445831000000000
 20
-24.426005000000000
 40
5.999999999999999
 50
26.847213000000000
 51
90.000000000000000
  0
LINE
  8
0
  6
CONTINUOUS
 62
256
 10
-25.116513999999999
 20
-56.469172000000000
 11
-25.116513999999999
 21
-52.626004999999999
  0
LINE
  8
0
  6
CONTINUOUS
 62
256
 10
-33.116514000000002
 20
-52.626004999999999
 11
-25.116513999999999
 21
-52.626004999999999
  0
LINE
  8
0
  6
CONTINUOUS
 62
256
 10
-33.116514000000002
 20
-56.469172000000000
 11
-33.116514000000002
 21
-52.626004999999999
  0
ARC
  8
0
  6
CONTINUOUS
 62
256
 10
-29.116513999999999
 20
-70.926005000000004
 40
15.000000000000005
 50
105.466010000000010
 51
74.533990000000017
  0
LINE
  8
0
  6
CONTINUOUS
 62
256
 10
-154.116514000000000
 20
-149.426005000000000
 11
-154.116514000000000
 21
-150.426005000000000
  0
ARC
  8
0
  6
CONTINUOUS
 62
256
 10
-157.116514000000000
 20
-150.426005000000000
 40
3.000000000000000
 50
270.000000000000000
 51
0.000000000000000
  0
LINE
  8
0
  6
CONTINUOUS
 62
256
 10
-154.116514000000000
 20
-113.926005000000000
 11
-161.116514000000000
 21
-113.926005000000000
  0
LINE
  8
0
  6
CONTINUOUS
 62
256
 10
-154.116514000000000
 20
-73.926005000000004
 11
-161.116514000000000
 21
-73.926005000000004
  0
ARC
  8
0
  6
CONTINUOUS
 62
256
 10
-140.616514000000000
 20
-150.426005000000000
 40
3.000000000000000
 50
270.000000000000000
 51
0.000000000000000
  0
LINE
  8
0
  6
DASHED
 62
256
 10
-137.616514000000000
 20
-113.386554000000000
 11
-137.616514000000000
 21
-93.926005000000004
  0
LINE
  8
0
  6
DASHED
 62
256
 10
-128.116514000000000
 20
-82.991641000000001
 11
-128.116514000000000
 21
-93.926005000000004
  0
LINE
  8
0
  6
DASHED
 62
256
 10
-137.616514000000000
 20
-74.465455000000006
 11
-137.616514000000000
 21
-93.926005000000004
  0
LINE
  8
0
  6
CONTINUOUS
 62
256
 10
-161.116514000000000
 20
-93.926005000000004
 11
-161.116514000000000
 21
-153.426005000000000
  0
LINE
  8
0
  6
CONTINUOUS
 62
256
 10
-161.116514000000000
 20
-93.926005000000004
 11
-161.116514000000000
 21
-34.426005000000004
  0
LINE
  8
0
  6
CONTINUOUS
 62
256
 10
-131.116514000000000
 20
-34.426005000000004
 11
-161.116514000000000
 21
-34.426005000000004
  0
LINE
  8
0
  6
CONTINUOUS
 62
256
 10
-128.484011000000010
 20
-153.426005000000000
 11
-161.116514000000000
 21
-153.426005000000000
  0
LINE
  8
0
  6
DASHED
 62
256
 10
-137.616514000000000
 20
-74.465455000000006
 11
-137.616514000000000
 21
-93.926005000000004
  0
LINE
  8
0
  6
DASHED
 62
256
 10
-137.616514000000000
 20
-113.386554000000000
 11
-137.616514000000000
 21
-93.926005000000004
  0
LINE
  8
0
  6
CONTINUOUS
 62
256
 10
-137.616514000000000
 20
-37.426005000000004
 11
-137.616514000000000
 21
-150.426005000000000
  0
ARC
  8
0
  6
CONTINUOUS
 62
256
 10
-128.484011000000010
 20
-156.426005000000000
 40
2.999999999999993
 50
38.682186999999864
 51
90.000000000000000
  0
ARC
  8
0
  6
CONTINUOUS
 62
256
 10
-131.116514000000000
 20
-31.426005000000000
 40
3.000000000000004
 50
270.000000000000000
 51
0.000000000000000
  0
ARC
  8
0
  6
CONTINUOUS
 62
256
 10
-140.616514000000000
 20
-37.426005000000004
 40
3.000000000000000
 50
0.000000000000000
 51
90.000000000000000
  0
LINE
  8
0
  6
DASHDOT
 62
256
 10
12.883486000000000
 20
-150.426005000000000
 11
-3.164211000000000
 21
-150.426005000000000
  0
LINE
  8
0
  6
DASHDOT
 62
256
 10
-115.116514000000000
 20
-9.426005000000000
 11
-115.116514000000000
 21
-33.693882000000002
  0
LINE
  8
0
  6
DASHDOT
 62
256
 10
-100.616514000000000
 20
-8.926005000000000
 11
-100.616514000000000
 21
-25.147857999999999
  0
LINE
  8
0
  6
DASHDOT
 62
256
 10
4.383486000000000
 20
-8.926005000000000
 11
4.383486000000000
 21
-25.392029999999998
  0
LINE
  8
0
  6
DASHDOT
 62
256
 10
10.997771999999999
 20
-17.426005000000000
 11
-2.675867000000000
 21
-17.426005000000000
  0
LINE
  8
0
  6
DASHDOT
 62
256
 10
32.383485999999998
 20
-144.926005000000000
 11
8.311878999999999
 21
-144.926005000000000
  0
CIRCLE
  8
0
  6
CONTINUOUS
 62
256
 10
-100.616514000000000
 20
-17.426005000000000
 40
5.500000000000000
  0
CIRCLE
  8
0
  6
CONTINUOUS
 62
256
 10
-100.616514000000000
 20
-150.426005000000000
 40
5.500000000000000
  0
CIRCLE
  8
0
  6
CONTINUOUS
 62
256
 10
4.383486000000000
 20
-17.426005000000000
 40
5.500000000000001
  0
LINE
  8
0
  6
CONTINUOUS
 62
256
 10
20.383486000000001
 20
-122.593293000000000
 11
20.383486000000001
 21
-45.258716000000000
  0
ARC
  8
0
  6
CONTINUOUS
 62
256
 10
13.383486000000000
 20
-45.258716000000000
 40
6.999999999999998
 50
0.000000000000000
 51
76.164776000000018
  0
ARC
  8
0
  6
CONTINUOUS
 62
256
 10
18.883486000000001
 20
-22.926005000000000
 40
16.000000000000000
 50
211.420366000000000
 51
256.164776000000020
  0
ARC
  8
0
  6
CONTINUOUS
 62
256
 10
2.669541000000000
 20
-32.830952000000003
 40
3.000000000000000
 50
31.420365999999991
 51
83.651415000000000
  0
ARC
  8
0
  6
CONTINUOUS
 62
256
 10
13.383486000000000
 20
-45.258716000000000
 40
9.999999999999998
 50
0.000000000000000
 51
76.164776000000003
  0
ARC
  8
0
  6
CONTINUOUS
 62
256
 10
13.383486000000000
 20
-122.593293000000000
 40
9.999999999999993
 50
283.835223999999980
 51
0.000000000000000
  0
ARC
  8
0
  6
CONTINUOUS
 62
256
 10
-86.787197000000006
 20
-24.426005000000000
 40
3.000000000000000
 50
90.000000000000000
 51
153.152787000000070
  0
CIRCLE
  8
0
  6
CONTINUOUS
 62
256
 10
4.383486000000000
 20
-150.426005000000000
 40
5.500000000000001
  0
ARC
  8
0
  6
CONTINUOUS
 62
256
 10
-100.616514000000000
 20
-17.426005000000000
 40
12.499999999999998
 50
276.348585000000010
 51
333.152786999999990
  0
ARC
  8
0
  6
CONTINUOUS
 62
256
 10
-9.445831000000000
 20
-143.426005000000000
 40
6.000000000000000
 50
270.000000000000000
 51
333.152786999999880
  0
ARC
  8
0
  6
CONTINUOUS
 62
256
 10
-98.902569000000000
 20
-32.830952000000003
 40
2.999999999999999
 50
96.348585000000028
 51
148.579634000000030
  0
ARC
  8
0
  6
CONTINUOUS
 62
256
 10
-115.116514000000000
 20
-22.926005000000000
 40
16.000000000000000
 50
283.835223999999980
 51
328.579633999999940
  0
ARC
  8
0
  6
CONTINUOUS
 62
256
 10
-86.787197000000006
 20
-143.426005000000000
 40
6.000000000000005
 50
206.847213000000100
 51
270.000000000000000
  0
LINE
  8
0
  6
CONTINUOUS
 62
256
 10
23.383486000000001
 20
-122.593293000000000
 11
23.383486000000001
 21
-45.258716000000000
  0
ARC
  8
0
  6
CONTINUOUS
 62
256
 10
22.883486000000001
 20
-148.926005000000000
 40
8.000000000000000
 50
270.000000000000000
 51
0.000000000000000
  0
LINE
  8
0
  6
CONTINUOUS
 62
256
 10
30.883486000000001
 20
-148.926005000000000
 11
30.883486000000001
 21
-18.926005000000000
  0
LINE
  8
0
  6
CONTINUOUS
 62
256
 10
-86.787197000000006
 20
-149.426005000000000
 11
-9.445831000000000
 21
-149.426005000000000
  0
LINE
  8
0
  6
CONTINUOUS
 62
256
 10
-119.616514000000000
 20
-45.258716000000000
 11
-119.616514000000000
 21
-122.593293000000000
  0
ARC
  8
0
  6
CONTINUOUS
 62
256
 10
-109.616514000000000
 20
-45.258716000000000
 40
7.000000000000003
 50
103.835224000000000
 51
180.000000000000000
  0
LINE
  8
0
  6
CONTINUOUS
 62
256
 10
-116.616514000000000
 20
-45.258716000000000
 11
-116.616514000000000
 21
-122.593293000000000
  0
ARC
  8
0
  6
CONTINUOUS
 62
256
 10
22.883486000000001
 20
-18.926005000000000
 40
8.000000000000000
 50
0.000000000000000
 51
90.000000000000000
  0
ARC
  8
0
  6
CONTINUOUS
 62
256
 10
-86.787197000000006
 20
-24.426005000000000
 40
6.000000000000000
 50
90.000000000000000
 51
153.152786999999990
  0
LINE
  8
0
  6
CONTINUOUS
 62
256
 10
22.883486000000001
 20
-10.926005000000000
 11
9.883486000000000
 21
-10.926005000000000
  0
ARC
  8
0
  6
CONTINUOUS
 62
256
 10
-119.116514000000000
 20
-18.926005000000000
 40
8.000000000000000
 50
90.000000000000000
 51
180.000000000000000
  0
LINE
  8
0
  6
CONTINUOUS
 62
256
 10
-127.116514000000000
 20
-18.926005000000000
 11
-127.116514000000000
 21
-148.926005000000000
  0
ARC
  8
0
  6
CONTINUOUS
 62
256
 10
-109.616514000000000
 20
-122.593293000000000
 40
10.000000000000000
 50
180.000000000000000
 51
256.164776000000020
  0
ARC
  8
0
  6
CONTINUOUS
 62
256
 10
-109.616514000000000
 20
-122.593293000000000
 40
7.000000000000000
 50
180.000000000000000
 51
256.164776000000020
  0
ARC
  8
0
  6
CONTINUOUS
 62
256
 10
-119.116514000000000
 20
-148.926005000000000
 40
8.000000000000000
 50
180.000000000000000
 51
270.000000000000000
  0
LINE
  8
0
  6
CONTINUOUS
 62
256
 10
-119.116514000000000
 20
-156.926005000000000
 11
-106.116514000000000
 21
-156.926005000000000
  0
ARC
  8
0
  6
CONTINUOUS
 62
256
 10
-109.616514000000000
 20
-45.258716000000000
 40
9.999999999999998
 50
103.835224000000000
 51
180.000000000000000
  0
ARC
  8
0
  6
CONTINUOUS
 62
256
 10
-115.116514000000000
 20
-144.926005000000000
 40
16.000000000000004
 50
31.420365999999976
 51
76.164776000000032
  0
ARC
  8
0
  6
CONTINUOUS
 62
256
 10
-98.902569000000000
 20
-135.021058000000010
 40
3.000000000000004
 50
211.420366000000090
 51
263.651414999999990
  0
ARC
  8
0
  6
CONTINUOUS
 62
256
 10
-100.616514000000000
 20
-150.426005000000000
 40
12.499999999999989
 50
26.847212999999968
 51
83.651414999999986
  0
ARC
  8
0
  6
CONTINUOUS
 62
256
 10
-86.787197000000006
 20
-143.426005000000000
 40
3.000000000000002
 50
206.847212999999810
 51
270.000000000000000
  0
LINE
  8
0
  6
CONTINUOUS
 62
256
 10
-86.787197000000006
 20
-146.426005000000000
 11
-9.445831000000000
 21
-146.426005000000000
  0
ARC
  8
0
  6
CONTINUOUS
 62
256
 10
-9.445831000000000
 20
-143.426005000000000
 40
3.000000000000000
 50
270.000000000000000
 51
333.152787000000100
  0
ARC
  8
0
  6
CONTINUOUS
 62
256
 10
4.383486000000000
 20
-150.426005000000000
 40
12.500000000000012
 50
96.348584999999986
 51
153.152786999999930
  0
ARC
  8
0
  6
CONTINUOUS
 62
256
 10
2.669541000000000
 20
-135.021058000000010
 40
2.999999999999989
 50
276.348585000000010
 51
328.579633999999880
  0
ARC
  8
0
  6
CONTINUOUS
 62
256
 10
18.883486000000001
 20
-144.926005000000000
 40
15.999999999999998
 50
103.835224000000000
 51
148.579634000000030
  0
ARC
  8
0
  6
CONTINUOUS
 62
256
 10
13.383486000000000
 20
-122.593293000000000
 40
6.999999999999996
 50
283.835223999999980
 51
0.000000000000000
  0
LINE
  8
0
  6
CONTINUOUS
 62
256
 10
-106.116514000000000
 20
-10.926005000000000
 11
-119.116514000000000
 21
-10.926005000000000
  0
LINE
  8
0
  6
CONTINUOUS
 62
256
 10
-95.116513999999995
 20
-156.926005000000000
 11
-1.116514000000000
 21
-156.926005000000000
  0
LINE
  8
0
  6
CONTINUOUS
 62
256
 10
9.883486000000000
 20
-156.926005000000000
 11
22.883486000000001
 21
-156.926005000000000
  0
ARC
  8
0
  6
CONTINUOUS
 62
256
 10
-100.616514000000000
 20
-150.426005000000000
 40
9.500000000000000
 50
26.847212999999975
 51
83.651414999999972
  0
ARC
  8
0
  6
CONTINUOUS
 62
256
 10
-98.902569000000000
 20
-135.021058000000010
 40
6.000000000000008
 50
211.420366000000090
 51
263.651414999999990
  0
ARC
  8
0
  6
CONTINUOUS
 62
256
 10
4.383486000000000
 20
-150.426005000000000
 40
9.499999999999996
 50
96.348585000000000
 51
153.152787000000020
  0
ARC
  8
0
  6
CONTINUOUS
 62
256
 10
18.883486000000001
 20
-144.926005000000000
 40
13.000000000000002
 50
103.835224000000000
 51
148.579634000000060
  0
ARC
  8
0
  6
CONTINUOUS
 62
256
 10
2.669541000000000
 20
-135.021058000000010
 40
6.000000000000005
 50
276.348585000000010
 51
328.579633999999880
  0
ARC
  8
0
  6
CONTINUOUS
 62
256
 10
4.383486000000000
 20
-17.426005000000000
 40
9.500000000000000
 50
206.847212999999980
 51
263.651414999999990
  0
ARC
  8
0
  6
CONTINUOUS
 62
256
 10
2.669541000000000
 20
-32.830952000000003
 40
5.999999999999998
 50
31.420365999999994
 51
83.651415000000000
  0
ARC
  8
0
  6
CONTINUOUS
 62
256
 10
18.883486000000001
 20
-22.926005000000000
 40
13.000000000000002
 50
211.420366000000000
 51
256.164776000000020
  0
ARC
  8
0
  6
CONTINUOUS
 62
256
 10
-115.116514000000000
 20
-22.926005000000000
 40
12.999999999999998
 50
283.835223999999980
 51
328.579633999999940
  0
ARC
  8
0
  6
CONTINUOUS
 62
256
 10
-98.902569000000000
 20
-32.830952000000003
 40
5.999999999999997
 50
96.348585000000028
 51
148.579634000000000
  0
ARC
  8
0
  6
CONTINUOUS
 62
256
 10
-100.616514000000000
 20
-17.426005000000000
 40
9.500000000000000
 50
276.348585000000010
 51
333.152786999999990
  0
ARC
  8
0
  6
CONTINUOUS
 62
256
 10
-115.116514000000000
 20
-144.926005000000000
 40
12.999999999999998
 50
31.420365999999952
 51
76.164776000000032
  0
ARC
  8
0
  6
CONTINUOUS
 62
256
 10
22.883486000000001
 20
-18.926005000000000
 40
9.000000000000000
 50
0.000000000000000
 51
90.000000000000000
  0
ARC
  8
0
  6
CONTINUOUS
 62
256
 10
22.883486000000001
 20
-148.926005000000000
 40
9.000000000000000
 50
270.000000000000000
 51
0.000000000000000
  0
ARC
  8
0
  6
CONTINUOUS
 62
256
 10
-119.116514000000000
 20
-148.926005000000000
 40
9.000000000000000
 50
180.000000000000000
 51
270.000000000000000
  0
ARC
  8
0
  6
CONTINUOUS
 62
256
 10
-119.116514000000000
 20
-18.926005000000000
 40
9.000000000000000
 50
90.000000000000000
 51
180.000000000000000
  0
LINE
  8
0
  6
CONTINUOUS
 62
256
 10
31.883486000000001
 20
-18.926005000000000
 11
31.883486000000001
 21
-148.926005000000000
  0
LINE
  8
0
  6
CONTINUOUS
 62
256
 10
22.883486000000001
 20
-157.926005000000000
 11
-119.116514000000000
 21
-157.926005000000000
  0
LINE
  8
0
  6
CONTINUOUS
 62
256
 10
-128.116514000000000
 20
-148.926005000000000
 11
-128.116514000000000
 21
-18.926005000000000
  0
LINE
  8
0
  6
DASHDOT
 62
256
 10
-115.116514000000000
 20
-133.560280000000010
 11
-115.116514000000000
 21
-159.167390000000010
  0
LINE
  8
0
  6
DASHDOT
 62
256
 10
18.883486000000001
 20
-134.292797000000010
 11
18.883486000000001
 21
-159.167390000000010
  0
LINE
  8
0
  6
DASHDOT
 62
256
 10
-103.763126000000000
 20
-144.926005000000000
 11
-129.152548000000000
 21
-144.926005000000000
  0
LINE
  8
0
  6
DASHDOT
 62
256
 10
-104.251470000000000
 20
-22.926005000000000
 11
-129.152548000000000
 21
-22.926005000000000
  0
LINE
  8
0
  6
DASHDOT
 62
256
 10
4.383486000000000
 20
-143.082992999999990
 11
4.383486000000000
 21
-159.710244999999990
  0
LINE
  8
0
  6
DASHDOT
 62
256
 10
-100.616514000000000
 20
-143.327165000000010
 11
-100.616514000000000
 21
-159.167390000000010
  0
LINE
  8
0
  6
DASHDOT
 62
256
 10
-94.240413000000004
 20
-17.426005000000000
 11
-108.343109000000000
 21
-17.426005000000000
  0
LINE
  8
0
  6
DASHDOT
 62
256
 10
-93.263723999999996
 20
-150.426005000000000
 11
-107.076448000000000
 21
-150.426005000000000
  0
ARC
  8
0
  6
CONTINUOUS
 62
256
 10
-106.116514000000000
 20
-10.426005000000000
 40
0.500000000000000
 50
270.000000000000000
 51
0.000000000000000
  0
ARC
  8
0
  6
CONTINUOUS
 62
256
 10
-95.116513999999995
 20
-10.426005000000000
 40
0.500000000000000
 50
180.000000000000000
 51
270.000000000000000
  0
LINE
  8
0
  6
CONTINUOUS
 62
256
 10
-95.616513999999995
 20
-10.426005000000000
 11
-95.616513999999995
 21
-9.926005000000000
  0
LINE
  8
0
  6
CONTINUOUS
 62
256
 10
-105.616514000000000
 20
-10.426005000000000
 11
-105.616514000000000
 21
-9.926005000000000
  0
ARC
  8
0
  6
CONTINUOUS
 62
256
 10
-1.116514000000000
 20
-10.426005000000000
 40
0.500000000000000
 50
270.000000000000000
 51
0.000000000000000
  0
LINE
  8
0
  6
CONTINUOUS
 62
256
 10
-0.616514000000000
 20
-10.426005000000000
 11
-0.616514000000000
 21
-9.926005000000000
  0
ARC
  8
0
  6
CONTINUOUS
 62
256
 10
9.883486000000000
 20
-10.426005000000000
 40
0.500000000000000
 50
180.000000000000000
 51
270.000000000000000
  0
LINE
  8
0
  6
CONTINUOUS
 62
256
 10
9.383486000000000
 20
-10.426005000000000
 11
9.383486000000000
 21
-9.926005000000000
  0
LINE
  8
0
  6
CONTINUOUS
 62
256
 10
9.383486000000000
 20
-157.426005000000000
 11
9.383486000000000
 21
-157.926005000000000
  0
ARC
  8
0
  6
CONTINUOUS
 62
256
 10
9.883486000000000
 20
-157.426005000000000
 40
0.500000000000000
 50
90.000000000000000
 51
180.000000000000000
  0
ARC
  8
0
  6
CONTINUOUS
 62
256
 10
-1.116514000000000
 20
-157.426005000000000
 40
0.500000000000000
 50
0.000000000000000
 51
90.000000000000000
  0
LINE
  8
0
  6
CONTINUOUS
 62
256
 10
-0.616514000000000
 20
-157.426005000000000
 11
-0.616514000000000
 21
-157.926005000000000
  0
ARC
  8
0
  6
CONTINUOUS
 62
256
 10
-95.116513999999995
 20
-157.426005000000000
 40
0.500000000000000
 50
90.000000000000000
 51
180.000000000000000
  0
LINE
  8
0
  6
CONTINUOUS
 62
256
 10
-95.616513999999995
 20
-157.426005000000000
 11
-95.616513999999995
 21
-157.926005000000000
  0
ARC
  8
0
  6
CONTINUOUS
 62
256
 10
-106.116514000000000
 20
-157.426005000000000
 40
0.500000000000000
 50
0.000000000000000
 51
90.000000000000000
  0
LINE
  8
0
  6
CONTINUOUS
 62
256
 10
-105.616514000000000
 20
-157.426005000000000
 11
-105.616514000000000
 21
-157.926005000000000
  0
INSERT
  8
0
  2
ZU_SYM_1
 10
-100.616514000000000
 20
-150.426005000000000
  0
INSERT
  8
0
  2
ZU_SYM_2
 10
4.383486000000000
 20
-150.426005000000000
  0
INSERT
  8
0
  2
ZU_SYM_3
 10
4.383486000000000
 20
-17.426005000000000
  0
INSERT
  8
0
  2
ZU_SYM_4
 10
-100.616514000000000
 20
-17.426005000000000
  0
ARC
  8
0
  6
CONTINUOUS
 62
256
 10
-157.116514000000000
 20
-37.426005000000004
 40
3.000000000000000
 50
0.000000000000000
 51
90.000000000000000
  0
ARC
  8
0
  6
CONTINUOUS
 62
256
 10
-151.116514000000000
 20
-38.829697000000003
 40
3.000000000000000
 50
180.000000000000000
 51
270.000000000000000
  0
ARC
  8
0
  6
CONTINUOUS
 62
256
 10
-151.116514000000000
 20
-51.741273999999997
 40
3.000000000000000
 50
90.000000000000000
 51
180.000000000000000
  0
ARC
  8
0
  6
CONTINUOUS
 62
256
 10
-151.116514000000000
 20
-57.924737999999998
 40
3.000000000000000
 50
90.000000000000000
 51
180.000000000000000
  0
ARC
  8
0
  6
CONTINUOUS
 62
256
 10
-151.116514000000000
 20
-136.110736000000000
 40
3.000000000000000
 50
180.000000000000000
 51
270.000000000000000
  0
ARC
  8
0
  6
CONTINUOUS
 62
256
 10
-151.116514000000000
 20
-149.022312000000000
 40
3.000000000000000
 50
90.000000000000000
 51
180.000000000000000
  0
ARC
  8
0
  6
CONTINUOUS
 62
256
 10
-151.116514000000000
 20
-129.927271999999990
 40
3.000000000000000
 50
180.000000000000000
 51
270.000000000000000
  0
LINE
  8
0
  6
CONTINUOUS
 62
256
 10
-154.116514000000000
 20
-38.426005000000004
 11
-154.116514000000000
 21
-37.426005000000004
  0
LINE
  8
0
  6
CONTINUOUS
 62
256
 10
-151.116514000000000
 20
-54.924737999999998
 11
-146.116514000000000
 21
-54.924737999999998
  0
LINE
  8
0
  6
CONTINUOUS
 62
256
 10
-154.116514000000000
 20
-51.741273999999997
 11
-154.116514000000000
 21
-93.926005000000004
  0
LINE
  8
0
  6
CONTINUOUS
 62
256
 10
-154.116514000000000
 20
-38.426005000000004
 11
-154.116514000000000
 21
-38.829697000000003
  0
LINE
  8
0
  6
CONTINUOUS
 62
256
 10
-154.116514000000000
 20
-149.426005000000000
 11
-154.116514000000000
 21
-150.426005000000000
  0
LINE
  8
0
  6
CONTINUOUS
 62
256
 10
-154.116514000000000
 20
-149.426005000000000
 11
-154.116514000000000
 21
-149.022312000000000
  0
LINE
  8
0
  6
CONTINUOUS
 62
256
 10
-154.116514000000000
 20
-149.426005000000000
 11
-154.116514000000000
 21
-149.022312000000000
  0
LINE
  8
0
  6
CONTINUOUS
 62
256
 10
-151.116514000000000
 20
-132.927271999999990
 11
-146.116514000000000
 21
-132.927271999999990
  0
LINE
  8
0
  6
CONTINUOUS
 62
256
 10
-154.116514000000000
 20
-136.110736000000000
 11
-154.116514000000000
 21
-93.926005000000004
  0
LINE
  8
0
  6
CONTINUOUS
 62
256
 10
-151.116514000000000
 20
-146.022312000000000
 11
-146.116514000000000
 21
-146.022312000000000
  0
LINE
  8
0
  6
CONTINUOUS
 62
256
 10
-151.116514000000000
 20
-139.110736000000000
 11
-146.116514000000000
 21
-139.110736000000000
  0
LINE
  8
0
  6
CONTINUOUS
 62
256
 10
-151.116514000000000
 20
-41.829697000000003
 11
-146.116514000000000
 21
-41.829697000000003
  0
LINE
  8
0
  6
CONTINUOUS
 62
256
 10
-151.116514000000000
 20
-48.741273999999997
 11
-146.116514000000000
 21
-48.741273999999997
  0
ARC
  8
0
  6
CONTINUOUS
 62
256
 10
-136.116514000000000
 20
-141.022312000000000
 40
5.000000000000003
 50
107.457602999999910
 51
180.000000000000000
  0
ARC
  8
0
  6
CONTINUOUS
 62
256
 10
-136.116514000000000
 20
-134.474792000000010
 40
5.000000000000003
 50
107.457602999999910
 51
180.000000000000000
  0
ARC
  8
0
  6
CONTINUOUS
 62
256
 10
-136.116514000000000
 20
-53.377217999999999
 40
5.000000000000000
 50
180.000000000000000
 51
252.542397000000050
  0
ARC
  8
0
  6
CONTINUOUS
 62
256
 10
-136.116514000000000
 20
-46.829697000000003
 40
5.000000000000000
 50
180.000000000000000
 51
252.542397000000050
  0
ARC
  8
0
  6
CONTINUOUS
 62
256
 10
-146.116514000000000
 20
-141.022312000000000
 40
5.000000000000000
 50
270.000000000000000
 51
0.000000000000000
  0
ARC
  8
0
  6
CONTINUOUS
 62
256
 10
-146.116514000000000
 20
-134.110736000000000
 40
5.000000000000000
 50
270.000000000000000
 51
0.000000000000000
  0
ARC
  8
0
  6
CONTINUOUS
 62
256
 10
-146.116514000000000
 20
-53.741273999999997
 40
5.000000000000000
 50
0.000000000000000
 51
90.000000000000000
  0
ARC
  8
0
  6
CONTINUOUS
 62
256
 10
-146.116514000000000
 20
-46.829697000000003
 40
5.000000000000000
 50
0.000000000000000
 51
90.000000000000000
  0
LINE
  8
0
  6
DASHDOT
 62
256
 10
533.867752999999990
 20
-70.926005000000004
 11
406.289940000000000
 21
-70.926005000000004
  0
LINE
  8
0
  6
DASHED
 62
256
 10
519.297121999999940
 20
-135.203485000000000
 11
519.034360999999990
 21
-134.940722999999990
  0
LINE
  8
0
  6
DASHDOT
 62
256
 10
459.115129000000020
 20
-93.926005000000004
 11
479.049162000000020
 21
-93.926005000000004
  0
LINE
  8
0
  6
CONTINUOUS
 62
256
 10
529.034360999999990
 20
-93.926005000000004
 11
529.034360999999990
 21
-74.426005000000004
  0
LINE
  8
0
  6
CONTINUOUS
 62
256
 10
529.034360999999990
 20
-93.926005000000004
 11
529.034360999999990
 21
-113.426005000000000
  0
LINE
  8
0
  6
CONTINUOUS
 62
256
 10
528.534360999999990
 20
-113.926005000000000
 11
527.009360000000020
 21
-113.926005000000000
  0
LINE
  8
0
  6
CONTINUOUS
 62
256
 10
411.034360999999990
 20
-93.926005000000004
 11
411.034360999999990
 21
-113.426005000000000
  0
LINE
  8
0
  6
CONTINUOUS
 62
256
 10
411.534360999999990
 20
-113.926005000000000
 11
413.059362000000020
 21
-113.926005000000000
  0
LINE
  8
0
  6
CONTINUOUS
 62
256
 10
411.034360999999990
 20
-93.926005000000004
 11
411.034360999999990
 21
-74.426005000000004
  0
LINE
  8
0
  6
CONTINUOUS
 62
256
 10
411.534360999999990
 20
-73.926005000000004
 11
413.059362000000020
 21
-73.926005000000004
  0
LINE
  8
0
  6
DASHDOT
 62
256
 10
470.034360999999990
 20
-7.151559000000000
 11
470.034360999999990
 21
-195.847412999999990
  0
LINE
  8
0
  6
DASHED
 62
256
 10
420.771599999999980
 20
-135.203485000000000
 11
421.034360999999990
 21
-134.940722999999990
  0
ARC
  8
0
  6
CONTINUOUS
 62
256
 10
528.534360999999990
 20
-74.426005000000004
 40
0.500000000000000
 50
0.000000000000000
 51
90.000000000000000
  0
ARC
  8
0
  6
CONTINUOUS
 62
256
 10
528.534360999999990
 20
-113.426005000000000
 40
0.500000000000000
 50
270.000000000000000
 51
0.000000000000000
  0
ARC
  8
0
  6
CONTINUOUS
 62
256
 10
127.034361000000000
 20
-93.926005000000004
 40
400.000000000000060
 50
355.885654999999990
 51
357.065974999999980
  0
ARC
  8
0
  6
CONTINUOUS
 62
256
 10
527.009360000000020
 20
-114.426005000000000
 40
0.500000000000000
 50
90.000000000000000
 51
177.065974999999950
  0
ARC
  8
0
  6
CONTINUOUS
 62
256
 10
496.080816000000030
 20
-120.472459000000000
 40
29.999999999999993
 50
319.917507000000000
 51
355.885654999999990
  0
ARC
  8
0
  6
CONTINUOUS
 62
256
 10
443.987906000000010
 20
-120.472459000000000
 40
30.000000000000018
 50
184.114344999999960
 51
220.082493000000000
  0
ARC
  8
0
  6
CONTINUOUS
 62
256
 10
813.034360999999990
 20
-93.926005000000004
 40
400.000000000000000
 50
182.934024999999990
 51
184.114344999999960
  0
ARC
  8
0
  6
CONTINUOUS
 62
256
 10
411.534360999999990
 20
-113.426005000000000
 40
0.500000000000000
 50
180.000000000000000
 51
270.000000000000000
  0
ARC
  8
0
  6
CONTINUOUS
 62
256
 10
413.059362000000020
 20
-114.426005000000000
 40
0.500000000000028
 50
2.934025000000031
 51
90.000000000000000
  0
ARC
  8
0
  6
CONTINUOUS
 62
256
 10
413.059362000000020
 20
-114.426005000000000
 40
0.500000000000028
 50
2.934025000000031
 51
90.000000000000000
  0
ARC
  8
0
  6
CONTINUOUS
 62
256
 10
411.534360999999990
 20
-74.426005000000004
 40
0.500000000000000
 50
90.000000000000000
 51
180.000000000000000
  0
ARC
  8
0
  6
CONTINUOUS
 62
256
 10
411.534360999999990
 20
-74.426005000000004
 40
0.500000000000000
 50
90.000000000000000
 51
180.000000000000000
  0
ARC
  8
0
  6
CONTINUOUS
 62
256
 10
422.892920000000000
 20
-137.324805000000000
 40
3.000000000000004
 50
135.000000000000370
 51
218.620629999999860
  0
ARC
  8
0
  6
CONTINUOUS
 62
256
 10
517.175801999999980
 20
-137.324805000000000
 40
3.000000000000037
 50
321.379370000000850
 51
44.999999999999616
  0
LINE
  8
0
  6
CONTINUOUS
 62
256
 10
421.034360999999990
 20
-139.789155999999990
 11
421.034360999999990
 21
-10.135465999999999
  0
LINE
  8
0
  6
CONTINUOUS
 62
256
 10
421.034360999999990
 20
-157.716544000000000
 11
421.034360999999990
 21
-139.789155999999990
  0
LINE
  8
0
  6
CONTINUOUS
 62
256
 10
417.034360999999990
 20
-28.426005000000000
 11
417.034360999999990
 21
-93.926005000000004
  0
LINE
  8
0
  6
CONTINUOUS
 62
256
 10
417.034360999999990
 20
-28.426005000000000
 11
421.034360999999990
 21
-28.426005000000000
  0
LINE
  8
0
  6
CONTINUOUS
 62
256
 10
421.034360999999990
 20
-10.135465999999999
 11
433.034360999999990
 21
-9.926005000000000
  0
LINE
  8
0
  6
CONTINUOUS
 62
256
 10
417.034360999999990
 20
-113.426005000000000
 11
421.034360999999990
 21
-113.426005000000000
  0
LINE
  8
0
  6
CONTINUOUS
 62
256
 10
523.034360999999990
 20
-93.926005000000004
 11
523.034360999999990
 21
-113.426005000000000
  0
LINE
  8
0
  6
CONTINUOUS
 62
256
 10
417.034360999999990
 20
-113.426005000000000
 11
417.034360999999990
 21
-93.926005000000004
  0
LINE
  8
0
  6
CONTINUOUS
 62
256
 10
519.034360999999990
 20
-113.426005000000000
 11
523.034360999999990
 21
-113.426005000000000
  0
LINE
  8
0
  6
CONTINUOUS
 62
256
 10
433.034360999999990
 20
-9.917277000000000
 11
509.034360999999990
 21
-11.261317000000000
  0
LINE
  8
0
  6
CONTINUOUS
 62
256
 10
433.034360999999990
 20
-9.917277000000000
 11
433.034360999999990
 21
-93.926005000000004
  0
LINE
  8
0
  6
CONTINUOUS
 62
256
 10
519.034360999999990
 20
-139.789155999999990
 11
519.034360999999990
 21
-11.261317000000000
  0
LINE
  8
0
  6
CONTINUOUS
 62
256
 10
523.034360999999990
 20
-93.926005000000004
 11
523.034360999999990
 21
-28.426005000000000
  0
LINE
  8
0
  6
CONTINUOUS
 62
256
 10
519.034360999999990
 20
-28.426005000000000
 11
523.034360999999990
 21
-28.426005000000000
  0
LINE
  8
0
  6
CONTINUOUS
 62
256
 10
509.034360999999990
 20
-11.261317000000000
 11
519.034360999999990
 21
-11.261317000000000
  0
LINE
  8
0
  6
CONTINUOUS
 62
256
 10
433.034360999999990
 20
-157.934732000000000
 11
509.034360999999990
 21
-156.590691999999990
  0
LINE
  8
0
  6
CONTINUOUS
 62
256
 10
509.034360999999990
 20
-156.590691999999990
 11
519.034360999999990
 21
-156.590691999999990
  0
LINE
  8
0
  6
CONTINUOUS
 62
256
 10
519.034360999999990
 20
-156.590691999999990
 11
519.034360999999990
 21
-139.789155999999990
  0
LINE
  8
0
  6
CONTINUOUS
 62
256
 10
433.034360999999990
 20
-157.926005000000000
 11
421.034360999999990
 21
-157.716544000000000
  0
LINE
  8
0
  6
CONTINUOUS
 62
256
 10
433.034360999999990
 20
-93.926005000000004
 11
433.034360999999990
 21
-157.934732000000000
  0
LINE
  8
0
  6
CONTINUOUS
 62
256
 10
417.034360999999990
 20
-92.926005000000004
 11
414.034360999999990
 21
-92.926005000000004
  0
ARC
  8
0
  6
CONTINUOUS
 62
256
 10
414.034360999999990
 20
-91.926005000000004
 40
1.000000000000000
 50
180.000000000000000
 51
270.000000000000000
  0
LINE
  8
0
  6
CONTINUOUS
 62
256
 10
413.034360999999990
 20
-91.926005000000004
 11
413.034360999999990
 21
-70.926005000000004
  0
LINE
  8
0
  6
CONTINUOUS
 62
256
 10
417.034360999999990
 20
-48.926005000000004
 11
414.034360999999990
 21
-48.926005000000004
  0
ARC
  8
0
  6
CONTINUOUS
 62
256
 10
414.034360999999990
 20
-49.926005000000004
 40
1.000000000000000
 50
90.000000000000000
 51
180.000000000000000
  0
LINE
  8
0
  6
CONTINUOUS
 62
256
 10
413.034360999999990
 20
-49.926005000000004
 11
413.034360999999990
 21
-70.926005000000004
  0
LINE
  8
0
  6
CONTINUOUS
 62
256
 10
523.034360999999990
 20
-92.926005000000004
 11
526.034360999999990
 21
-92.926005000000004
  0
ARC
  8
0
  6
CONTINUOUS
 62
256
 10
526.034360999999990
 20
-91.926005000000004
 40
1.000000000000000
 50
270.000000000000000
 51
0.000000000000000
  0
LINE
  8
0
  6
CONTINUOUS
 62
256
 10
527.034360999999990
 20
-91.926005000000004
 11
527.034360999999990
 21
-70.926005000000004
  0
LINE
  8
0
  6
CONTINUOUS
 62
256
 10
523.034360999999990
 20
-48.926005000000004
 11
526.034360999999990
 21
-48.926005000000004
  0
ARC
  8
0
  6
CONTINUOUS
 62
256
 10
526.034360999999990
 20
-49.926005000000004
 40
1.000000000000000
 50
0.000000000000000
 51
90.000000000000000
  0
LINE
  8
0
  6
CONTINUOUS
 62
256
 10
527.034360999999990
 20
-49.926005000000004
 11
527.034360999999990
 21
-70.926005000000004
  0
LINE
  8
0
  6
CONTINUOUS
 62
256
 10
528.534360999999990
 20
-73.926005000000004
 11
527.034360999999990
 21
-73.926005000000004
  0
ARC
  8
0
  6
CONTINUOUS
 62
256
 10
469.534360999999990
 20
-93.926005000000004
 40
58.499999999999993
 50
327.795772000000000
 51
10.609142999999984
  0
ARC
  8
0
  6
CONTINUOUS
 62
256
 10
470.534360999999990
 20
-93.926005000000004
 40
58.500000000000000
 50
169.390857000000010
 51
212.204228000000000
  0
LINE
  8
0
  6
CONTINUOUS
 62
256
 10
-265.916514000000010
 20
-157.426005000000000
 11
-265.916514000000010
 21
-155.653859000000010
  0
LINE
  8
0
  6
CONTINUOUS
 62
256
 10
-175.916514000000010
 20
-157.426005000000000
 11
-265.916514000000010
 21
-157.426005000000000
  0
LINE
  8
0
  6
CONTINUOUS
 62
256
 10
-175.916514000000010
 20
-157.426005000000000
 11
-175.916514000000010
 21
-152.426005000000000
  0
LINE
  8
0
  6
CONTINUOUS
 62
256
 10
-175.916514000000010
 20
-152.426005000000000
 11
-258.116514000000000
 21
-152.426005000000000
  0
LINE
  8
0
  6
CONTINUOUS
 62
256
 10
-264.916514000000010
 20
-191.426005000000000
 11
-176.916514000000010
 21
-191.426005000000000
  0
LINE
  8
0
  6
CONTINUOUS
 62
256
 10
-265.916514000000010
 20
-157.426005000000000
 11
-265.916514000000010
 21
-190.426005000000000
  0
ARC
  8
0
  6
CONTINUOUS
 62
256
 10
-264.916514000000010
 20
-190.426005000000000
 40
1.000000000000000
 50
180.000000000000000
 51
270.000000000000000
  0
LINE
  8
0
  6
CONTINUOUS
 62
256
 10
-265.916514000000010
 20
-157.426005000000000
 11
-175.916514000000010
 21
-157.426005000000000
  0
LINE
  8
0
  6
CONTINUOUS
 62
256
 10
-175.916514000000010
 20
-157.426005000000000
 11
-175.916514000000010
 21
-190.426005000000000
  0
ARC
  8
0
  6
CONTINUOUS
 62
256
 10
-176.916514000000010
 20
-190.426005000000000
 40
1.000000000000000
 50
270.000000000000000
 51
0.000000000000000
  0
LINE
  8
0
  6
CONTINUOUS
 62
256
 10
-190.916514000000010
 20
-191.926005000000000
 11
-182.916514000000010
 21
-191.926005000000000
  0
LINE
  8
0
  6
CONTINUOUS
 62
256
 10
-258.916514000000010
 20
-191.926005000000000
 11
-250.916514000000010
 21
-191.926005000000000
  0
LINE
  8
0
  6
CONTINUOUS
 62
256
 10
-182.916514000000010
 20
-191.426005000000000
 11
-182.916514000000010
 21
-191.926005000000000
  0
LINE
  8
0
  6
CONTINUOUS
 62
256
 10
-190.916514000000010
 20
-191.426005000000000
 11
-190.916514000000010
 21
-191.926005000000000
  0
LINE
  8
0
  6
CONTINUOUS
 62
256
 10
-250.916514000000010
 20
-191.426005000000000
 11
-250.916514000000010
 21
-191.926005000000000
  0
LINE
  8
0
  6
CONTINUOUS
 62
256
 10
-258.916514000000010
 20
-191.426005000000000
 11
-258.916514000000010
 21
-191.926005000000000
  0
LINE
  8
0
  6
CONTINUOUS
 62
256
 10
-256.416514000000010
 20
-191.426005000000000
 11
-256.416514000000010
 21
-191.926005000000000
  0
LINE
  8
0
  6
CONTINUOUS
 62
256
 10
-185.416514000000010
 20
-191.426005000000000
 11
-185.416514000000010
 21
-191.926005000000000
  0
LINE
  8
0
  6
CONTINUOUS
 62
256
 10
-265.116514000000000
 20
-155.545226000000010
 11
-261.116514000000000
 21
-155.545226000000010
  0
LINE
  8
0
  6
CONTINUOUS
 62
256
 10
-361.116514000000000
 20
-93.926005000000004
 11
-361.116514000000000
 21
-146.369210000000010
  0
LINE
  8
0
  6
CONTINUOUS
 62
256
 10
-161.116514000000000
 20
-153.426005000000000
 11
-161.116514000000000
 21
-93.926005000000004
  0
LINE
  8
0
  6
CONTINUOUS
 62
256
 10
-258.116514000000000
 20
-93.926005000000004
 11
-258.116514000000000
 21
-152.545226000000010
  0
ARC
  8
0
  6
CONTINUOUS
 62
256
 10
-265.116514000000000
 20
-158.545226000000010
 40
3.000000000000000
 50
90.000000000000000
 51
180.000000000000000
  0
ARC
  8
0
  6
CONTINUOUS
 62
256
 10
-261.116514000000000
 20
-152.545226000000010
 40
3.000000000000000
 50
270.000000000000000
 51
0.000000000000000
  0
ARC
  8
0
  6
CONTINUOUS
 62
256
 10
-358.516513999999970
 20
-41.482799999999997
 40
2.600000000000001
 50
125.000000000000110
 51
180.000000000000000
  0
LINE
  8
0
  6
CONTINUOUS
 62
256
 10
-350.282066999999980
 20
-32.542963999999998
 11
-360.007813000000000
 21
-39.353003999999999
  0
ARC
  8
0
  6
CONTINUOUS
 62
256
 10
-338.810538000000010
 20
-48.926005000000004
 40
20.000000000000000
 50
90.000000000000000
 51
125.000000000000040
  0
LINE
  8
0
  6
CONTINUOUS
 62
256
 10
-361.116514000000000
 20
-93.926005000000004
 11
-361.116514000000000
 21
-41.482799999999997
  0
LINE
  8
0
  6
CONTINUOUS
 62
256
 10
-258.116514000000000
 20
-28.926005000000000
 11
-338.810538000000010
 21
-28.926005000000000
  0
LINE
  8
0
  6
CONTINUOUS
 62
256
 10
-161.116514000000000
 20
-34.426005000000004
 11
-161.116514000000000
 21
-93.926005000000004
  0
LINE
  8
0
  6
CONTINUOUS
 62
256
 10
-191.116514000000000
 20
-34.426005000000004
 11
-161.116514000000000
 21
-34.426005000000004
  0
LINE
  8
0
  6
CONTINUOUS
 62
256
 10
-258.116514000000000
 20
-36.926005000000004
 11
-161.116514000000000
 21
-36.926005000000004
  0
LINE
  8
0
  6
CONTINUOUS
 62
256
 10
-258.116514000000000
 20
-37.926005000000004
 11
-161.116514000000000
 21
-37.926005000000004
  0
LINE
  8
0
  6
CONTINUOUS
 62
256
 10
-258.116514000000000
 20
-38.926005000000004
 11
-161.116514000000000
 21
-38.926005000000004
  0
LINE
  8
0
  6
CONTINUOUS
 62
256
 10
-258.116514000000000
 20
-93.926005000000004
 11
-258.116514000000000
 21
-28.926005000000000
  0
LINE
  8
0
  6
CONTINUOUS
 62
256
 10
-258.116514000000000
 20
-43.610470999999997
 11
-161.116514000000000
 21
-43.610470999999997
  0
LINE
  8
0
  6
CONTINUOUS
 62
256
 10
-258.116514000000000
 20
-48.560217999999999
 11
-161.116514000000000
 21
-48.560217999999999
  0
LINE
  8
0
  6
CONTINUOUS
 62
256
 10
-258.116514000000000
 20
-78.926005000000004
 11
-161.116514000000000
 21
-78.926005000000004
  0
LINE
  8
0
  6
CONTINUOUS
 62
256
 10
-258.116514000000000
 20
-74.552743000000007
 11
-161.116514000000000
 21
-74.552743000000007
  0
LINE
  8
0
  6
CONTINUOUS
 62
256
 10
-258.116514000000000
 20
-73.286505000000005
 11
-161.116514000000000
 21
-73.286505000000005
  0
LINE
  8
0
  6
CONTINUOUS
 62
256
 10
-258.116514000000000
 20
-69.095950999999999
 11
-161.116514000000000
 21
-69.095950999999999
  0
LINE
  8
0
  6
CONTINUOUS
 62
256
 10
-258.116514000000000
 20
-67.734071000000000
 11
-161.116514000000000
 21
-67.734071000000000
  0
LINE
  8
0
  6
CONTINUOUS
 62
256
 10
-258.116514000000000
 20
-63.643569999999997
 11
-161.116514000000000
 21
-63.643569999999997
  0
LINE
  8
0
  6
CONTINUOUS
 62
256
 10
-258.116514000000000
 20
-62.175212999999999
 11
-161.116514000000000
 21
-62.175212999999999
  0
LINE
  8
0
  6
CONTINUOUS
 62
256
 10
-258.116514000000000
 20
-58.211468000000004
 11
-161.116514000000000
 21
-58.211468000000004
  0
LINE
  8
0
  6
CONTINUOUS
 62
256
 10
-258.116514000000000
 20
-56.606819999999999
 11
-161.116514000000000
 21
-56.606819999999999
  0
LINE
  8
0
  6
CONTINUOUS
 62
256
 10
-258.116514000000000
 20
-108.926005000000000
 11
-161.116514000000000
 21
-108.926005000000000
  0
LINE
  8
0
  6
CONTINUOUS
 62
256
 10
-258.116514000000000
 20
-113.299267000000000
 11
-161.116514000000000
 21
-113.299267000000000
  0
LINE
  8
0
  6
CONTINUOUS
 62
256
 10
-258.116514000000000
 20
-114.565504000000000
 11
-161.116514000000000
 21
-114.565504000000000
  0
LINE
  8
0
  6
CONTINUOUS
 62
256
 10
-258.116514000000000
 20
-118.756058000000000
 11
-161.116514000000000
 21
-118.756058000000000
  0
LINE
  8
0
  6
CONTINUOUS
 62
256
 10
-258.116514000000000
 20
-120.117939000000010
 11
-161.116514000000000
 21
-120.117939000000010
  0
LINE
  8
0
  6
CONTINUOUS
 62
256
 10
-258.116514000000000
 20
-124.208439000000000
 11
-161.116514000000000
 21
-124.208439000000000
  0
LINE
  8
0
  6
CONTINUOUS
 62
256
 10
-258.116514000000000
 20
-125.676796000000000
 11
-161.116514000000000
 21
-125.676796000000000
  0
LINE
  8
0
  6
CONTINUOUS
 62
256
 10
-258.116514000000000
 20
-129.640542000000010
 11
-161.116514000000000
 21
-129.640542000000010
  0
LINE
  8
0
  6
CONTINUOUS
 62
256
 10
-258.116514000000000
 20
-131.245190000000010
 11
-161.116514000000000
 21
-131.245190000000010
  0
LINE
  8
0
  6
CONTINUOUS
 62
256
 10
-258.116514000000000
 20
-139.291790999999990
 11
-161.116514000000000
 21
-139.291790999999990
  0
LINE
  8
0
  6
CONTINUOUS
 62
256
 10
-258.116514000000000
 20
-148.926005000000000
 11
-161.116514000000000
 21
-148.926005000000000
  0
LINE
  8
0
  6
CONTINUOUS
 62
256
 10
-258.116514000000000
 20
-149.926005000000000
 11
-161.116514000000000
 21
-149.926005000000000
  0
LINE
  8
0
  6
CONTINUOUS
 62
256
 10
-258.116514000000000
 20
-150.926005000000000
 11
-161.116514000000000
 21
-150.926005000000000
  0
LINE
  8
0
  6
CONTINUOUS
 62
256
 10
-269.116514000000000
 20
-40.185890000000001
 11
-271.116514000000000
 21
-41.838531000000003
  0
LINE
  8
0
  6
CONTINUOUS
 62
256
 10
-267.116514000000000
 20
-39.010103999999998
 11
-269.116514000000000
 21
-40.185890000000001
  0
LINE
  8
0
  6
CONTINUOUS
 62
256
 10
-269.116514000000000
 20
-40.185890000000001
 11
-267.116514000000000
 21
-41.838531000000003
  0
LINE
  8
0
  6
CONTINUOUS
 62
256
 10
-271.116514000000000
 20
-39.010103999999998
 11
-269.116514000000000
 21
-40.185890000000001
  0
POLYLINE
  8
0
  6
CONTINUOUS
 62
256
 66
1
 70
1
  0
VERTEX
  8
0
  6
CONTINUOUS
 62
256
 10
-264.416514000000010
 20
-42.002479999999998
  0
VERTEX
  8
0
  6
CONTINUOUS
 62
256
 10
-264.506823182104820
 20
-41.299523489441832
  0
VERTEX
  8
0
  6
CONTINUOUS
 62
256
 10
-264.774280197196960
 20
-40.623581203361859
  0
VERTEX
  8
0
  6
CONTINUOUS
 62
256
 10
-265.208606822178070
 20
-40.000629224741338
  0
VERTEX
  8
0
  6
CONTINUOUS
 62
256
 10
-265.793112128423220
 20
-39.454607248763160
  0
VERTEX
  8
0
  6
CONTINUOUS
 62
256
 10
-266.505333904807860
 20
-39.006498593751509
  0
VERTEX
  8
0
  6
CONTINUOUS
 62
256
 10
-267.317901867884070
 20
-38.673523824016264
  0
VERTEX
  8
0
  6
CONTINUOUS
 62
256
 10
-268.199589486524190
 20
-38.468478973223938
  0
VERTEX
  8
0
  6
CONTINUOUS
 62
256
 10
-269.116514000000000
 20
-38.399243800000008
  0
VERTEX
  8
0
  6
CONTINUOUS
 62
256
 10
-270.033438513475800
 20
-38.468478973223938
  0
VERTEX
  8
0
  6
CONTINUOUS
 62
256
 10
-270.915126132115920
 20
-38.673523824016264
  0
VERTEX
  8
0
  6
CONTINUOUS
 62
256
 10
-271.727694095192130
 20
-39.006498593751509
  0
VERTEX
  8
0
  6
CONTINUOUS
 62
256
 10
-272.439915871576770
 20
-39.454607248763160
  0
VERTEX
  8
0
  6
CONTINUOUS
 62
256
 10
-273.024421177821920
 20
-40.000629224741338
  0
VERTEX
  8
0
  6
CONTINUOUS
 62
256
 10
-273.458747802803030
 20
-40.623581203361859
  0
VERTEX
  8
0
  6
CONTINUOUS
 62
256
 10
-273.726204817895170
 20
-41.299523489441832
  0
VERTEX
  8
0
  6
CONTINUOUS
 62
256
 10
-273.816513999999980
 20
-42.002479999999998
  0
VERTEX
  8
0
  6
CONTINUOUS
 62
256
 10
-273.726204817895170
 20
-42.705436510558165
  0
VERTEX
  8
0
  6
CONTINUOUS
 62
256
 10
-273.458747802803030
 20
-43.381378796638138
  0
VERTEX
  8
0
  6
CONTINUOUS
 62
256
 10
-273.024421177821920
 20
-44.004330775258659
  0
VERTEX
  8
0
  6
CONTINUOUS
 62
256
 10
-272.439915871576770
 20
-44.550352751236836
  0
VERTEX
  8
0
  6
CONTINUOUS
 62
256
 10
-271.727694095192130
 20
-44.998461406248488
  0
VERTEX
  8
0
  6
CONTINUOUS
 62
256
 10
-270.915126132115920
 20
-45.331436175983733
  0
VERTEX
  8
0
  6
CONTINUOUS
 62
256
 10
-270.033438513475800
 20
-45.536481026776059
  0
VERTEX
  8
0
  6
CONTINUOUS
 62
256
 10
-269.116514000000000
 20
-45.605716199999989
  0
VERTEX
  8
0
  6
CONTINUOUS
 62
256
 10
-268.199589486524190
 20
-45.536481026776059
  0
VERTEX
  8
0
  6
CONTINUOUS
 62
256
 10
-267.317901867884070
 20
-45.331436175983733
  0
VERTEX
  8
0
  6
CONTINUOUS
 62
256
 10
-266.505333904807860
 20
-44.998461406248488
  0
VERTEX
  8
0
  6
CONTINUOUS
 62
256
 10
-265.793112128423220
 20
-44.550352751236836
  0
VERTEX
  8
0
  6
CONTINUOUS
 62
256
 10
-265.208606822178070
 20
-44.004330775258659
  0
VERTEX
  8
0
  6
CONTINUOUS
 62
256
 10
-264.774280197196960
 20
-43.381378796638138
  0
VERTEX
  8
0
  6
CONTINUOUS
 62
256
 10
-264.506823182104820
 20
-42.705436510558165
  0
SEQEND
  8
0
  6
CONTINUOUS
 62
256
  0
LINE
  8
0
  6
CONTINUOUS
 62
256
 10
-269.116514000000000
 20
-147.666120000000010
 11
-271.116514000000000
 21
-146.013477999999990
  0
LINE
  8
0
  6
CONTINUOUS
 62
256
 10
-267.116514000000000
 20
-148.841905000000000
 11
-269.116514000000000
 21
-147.666120000000010
  0
LINE
  8
0
  6
CONTINUOUS
 62
256
 10
-175.916514000000010
 20
-153.426005000000000
 11
-161.116514000000000
 21
-153.426005000000000
  0
ARC
  8
0
  6
CONTINUOUS
 62
256
 10
-338.810538000000010
 20
-138.926005000000000
 40
19.999999999999996
 50
234.999999999999940
 51
270.000000000000000
  0
LINE
  8
0
  6
CONTINUOUS
 62
256
 10
-269.116514000000000
 20
-147.666120000000010
 11
-267.116514000000000
 21
-146.013477999999990
  0
LINE
  8
0
  6
CONTINUOUS
 62
256
 10
-271.116514000000000
 20
-148.841905000000000
 11
-269.116514000000000
 21
-147.666120000000010
  0
POLYLINE
  8
0
  6
CONTINUOUS
 62
256
 66
1
 70
1
  0
VERTEX
  8
0
  6
CONTINUOUS
 62
256
 10
-264.416514000000010
 20
-145.849529999999990
  0
VERTEX
  8
0
  6
CONTINUOUS
 62
256
 10
-264.506823182104820
 20
-145.146573489441810
  0
VERTEX
  8
0
  6
CONTINUOUS
 62
256
 10
-264.774280197196960
 20
-144.470631203361850
  0
VERTEX
  8
0
  6
CONTINUOUS
 62
256
 10
-265.208606822178070
 20
-143.847679224741310
  0
VERTEX
  8
0
  6
CONTINUOUS
 62
256
 10
-265.793112128423220
 20
-143.301657248763150
  0
VERTEX
  8
0
  6
CONTINUOUS
 62
256
 10
-266.505333904807860
 20
-142.853548593751500
  0
VERTEX
  8
0
  6
CONTINUOUS
 62
256
 10
-267.317901867884070
 20
-142.520573824016250
  0
VERTEX
  8
0
  6
CONTINUOUS
 62
256
 10
-268.199589486524190
 20
-142.315528973223910
  0
VERTEX
  8
0
  6
CONTINUOUS
 62
256
 10
-269.116514000000000
 20
-142.246293799999990
  0
VERTEX
  8
0
  6
CONTINUOUS
 62
256
 10
-270.033438513475800
 20
-142.315528973223910
  0
VERTEX
  8
0
  6
CONTINUOUS
 62
256
 10
-270.915126132115920
 20
-142.520573824016250
  0
VERTEX
  8
0
  6
CONTINUOUS
 62
256
 10
-271.727694095192130
 20
-142.853548593751500
  0
VERTEX
  8
0
  6
CONTINUOUS
 62
256
 10
-272.439915871576770
 20
-143.301657248763150
  0
VERTEX
  8
0
  6
CONTINUOUS
 62
256
 10
-273.024421177821920
 20
-143.847679224741310
  0
VERTEX
  8
0
  6
CONTINUOUS
 62
256
 10
-273.458747802803030
 20
-144.470631203361850
  0
VERTEX
  8
0
  6
CONTINUOUS
 62
256
 10
-273.726204817895170
 20
-145.146573489441810
  0
VERTEX
  8
0
  6
CONTINUOUS
 62
256
 10
-273.816513999999980
 20
-145.849529999999990
  0
VERTEX
  8
0
  6
CONTINUOUS
 62
256
 10
-273.726204817895170
 20
-146.552486510558170
  0
VERTEX
  8
0
  6
CONTINUOUS
 62
256
 10
-273.458747802803030
 20
-147.228428796638130
  0
VERTEX
  8
0
  6
CONTINUOUS
 62
256
 10
-273.024421177821920
 20
-147.851380775258660
  0
VERTEX
  8
0
  6
CONTINUOUS
 62
256
 10
-272.439915871576770
 20
-148.397402751236830
  0
VERTEX
  8
0
  6
CONTINUOUS
 62
256
 10
-271.727694095192130
 20
-148.845511406248480
  0
VERTEX
  8
0
  6
CONTINUOUS
 62
256
 10
-270.915126132115920
 20
-149.178486175983720
  0
VERTEX
  8
0
  6
CONTINUOUS
 62
256
 10
-270.033438513475800
 20
-149.383531026776040
  0
VERTEX
  8
0
  6
CONTINUOUS
 62
256
 10
-269.116514000000000
 20
-149.452766199999990
  0
VERTEX
  8
0
  6
CONTINUOUS
 62
256
 10
-268.199589486524190
 20
-149.383531026776040
  0
VERTEX
  8
0
  6
CONTINUOUS
 62
256
 10
-267.317901867884070
 20
-149.178486175983720
  0
VERTEX
  8
0
  6
CONTINUOUS
 62
256
 10
-266.505333904807860
 20
-148.845511406248480
  0
VERTEX
  8
0
  6
CONTINUOUS
 62
256
 10
-265.793112128423220
 20
-148.397402751236830
  0
VERTEX
  8
0
  6
CONTINUOUS
 62
256
 10
-265.208606822178070
 20
-147.851380775258660
  0
VERTEX
  8
0
  6
CONTINUOUS
 62
256
 10
-264.774280197196960
 20
-147.228428796638130
  0
VERTEX
  8
0
  6
CONTINUOUS
 62
256
 10
-264.506823182104820
 20
-146.552486510558170
  0
SEQEND
  8
0
  6
CONTINUOUS
 62
256
  0
LINE
  8
0
  6
CONTINUOUS
 62
256
 10
-268.116514000000000
 20
-158.926005000000000
 11
-338.810538000000010
 21
-158.926005000000000
  0
LINE
  8
0
  6
DASHDOT
 62
256
 10
-112.164556000000000
 20
-93.926005000000004
 11
-371.045727000000000
 21
-93.926005000000004
  0
ARC
  8
0
  6
CONTINUOUS
 62
256
 10
-358.516513999999970
 20
-146.369210000000010
 40
2.600000000000023
 50
180.000000000000000
 51
234.999999999999770
  0
LINE
  8
0
  6
CONTINUOUS
 62
256
 10
-350.282066999999980
 20
-155.309046000000000
 11
-360.007813000000000
 21
-148.499005000000010
  0
LINE
  8
0
  6
CONTINUOUS
 62
256
 10
-258.116514000000000
 20
-34.426005000000004
 11
-161.116514000000000
 21
-34.426005000000004
  0
LINE
  8
0
  6
CONTINUOUS
 62
256
 10
-268.116514000000000
 20
-158.926005000000000
 11
-268.116514000000000
 21
-158.545226000000010
  0
LINE
  8
0
  6
CONTINUOUS
 62
256
 10
-258.116514000000000
 20
-144.241538999999990
 11
-161.116514000000000
 21
-144.241538999999990
  0
ARC
  8
0
  6
CONTINUOUS
 62
256
 10
520.130976000000030
 20
-49.977417000000003
 40
6.600000000000021
 50
8.597081999999979
 51
45.000000000000178
  0
ARC
  8
0
  6
CONTINUOUS
 62
256
 10
229.434361000000000
 20
-93.926005000000004
 40
300.600000000000020
 50
0.000000000000000
 51
8.101502999999998
  0
ARC
  8
0
  6
CONTINUOUS
 62
256
 10
520.130976000000030
 20
-137.874592000000010
 40
6.599999999999977
 50
314.999999999999830
 51
351.402917999999940
  0
ARC
  8
0
  6
CONTINUOUS
 62
256
 10
229.434361000000000
 20
-93.926005000000004
 40
300.600000000000020
 50
351.402918000000000
 51
0.000000000000000
  0
LINE
  8
0
  6
CONTINUOUS
 62
256
 10
524.797879999999960
 20
-142.541496999999990
 11
519.034360999999990
 21
-148.305015999999990
  0
LINE
  8
0
  6
CONTINUOUS
 62
256
 10
524.797879999999960
 20
-45.310513000000000
 11
523.034360999999990
 21
-43.546993000000001
  0
ARC
  8
0
  6
CONTINUOUS
 62
256
 10
501.034360999999990
 20
-184.792669999999990
 40
5.000000000000002
 50
276.032049000000030
 51
0.000000000000000
  0
LINE
  8
0
  6
CONTINUOUS
 62
256
 10
506.034360999999990
 20
-156.590691999999990
 11
506.034360999999990
 21
-184.792669999999990
  0
LINE
  8
0
  6
CONTINUOUS
 62
256
 10
434.034360999999990
 20
-157.943459999999990
 11
434.034360999999990
 21
-184.792669999999990
  0
ARC
  8
0
  6
CONTINUOUS
 62
256
 10
439.034360999999990
 20
-184.792669999999990
 40
5.000000000000000
 50
180.000000000000000
 51
263.967950999999970
  0
LINE
  8
0
  6
CONTINUOUS
 62
256
 10
467.534360999999990
 20
-191.926005000000000
 11
472.534360999999990
 21
-191.926005000000000
  0
LINE
  8
0
  6
CONTINUOUS
 62
256
 10
472.534360999999990
 20
-191.426003000000010
 11
472.534360999999990
 21
-191.926005000000000
  0
LINE
  8
0
  6
CONTINUOUS
 62
256
 10
467.534360999999990
 20
-191.415588000000010
 11
467.534360999999990
 21
-191.926005000000000
  0
ARC
  8
0
  6
CONTINUOUS
 62
256
 10
470.034360999999990
 20
108.573995000000000
 40
300.000000000000000
 50
263.967951000000030
 51
276.032048999999970
  0
ARC
  8
0
  6
CONTINUOUS
 62
256
 10
710.634361000000010
 20
-93.926005000000004
 40
300.600000000000020
 50
180.000000000000000
 51
188.597082000000000
  0
ARC
  8
0
  6
CONTINUOUS
 62
256
 10
419.937747000000000
 20
-137.874592000000010
 40
6.600000000000022
 50
188.597082000000030
 51
224.999999999999830
  0
ARC
  8
0
  6
CONTINUOUS
 62
256
 10
710.634361000000010
 20
-93.926005000000004
 40
300.600000000000020
 50
171.402918000000000
 51
171.436491999999990
  0
ARC
  8
0
  6
CONTINUOUS
 62
256
 10
419.937747000000000
 20
-49.977417000000003
 40
6.600000000000017
 50
135.000000000000170
 51
171.402918000000030
  0
LINE
  8
0
  6
CONTINUOUS
 62
256
 10
415.270842000000020
 20
-45.310513000000000
 11
417.034360999999990
 21
-43.546993000000001
  0
LINE
  8
0
  6
CONTINUOUS
 62
256
 10
415.270842000000020
 20
-142.541496999999990
 11
421.034360999999990
 21
-148.305015999999990
  0
LINE
  8
0
  6
DASHDOT
 62
256
 10
520.480446000000030
 20
-22.926005000000000
 11
419.397230999999980
 21
-22.926005000000000
  0
LINE
  8
0
  6
DASHDOT
 62
256
 10
520.480446000000030
 20
-144.926005000000000
 11
419.397230999999980
 21
-144.926005000000000
  0
LINE
  8
0
  6
DASHDOT
 62
256
 10
10.626658000000001
 20
-22.926005000000000
 11
32.835842999999997
 21
-22.926005000000000
  0
LINE
  8
0
  6
DASHDOT
 62
256
 10
18.883486000000001
 20
-14.416123000000001
 11
18.883486000000001
 21
-30.250136999999999
  0
ARC
  8
0
  6
CONTINUOUS
 62
256
 10
217.952540000000000
 20
-53.926063999999997
 40
2.000000000000000
 50
270.000000000000000
 51
0.000000000000000
  0
LINE
  8
0
  6
CONTINUOUS
 62
256
 10
152.952823000000000
 20
-46.426005000000004
 11
152.952823000000000
 21
-48.026063999999998
  0
LINE
  8
0
  6
CONTINUOUS
 62
256
 10
171.452823000000000
 20
-45.526004999999998
 11
188.952287000000010
 21
-45.526004999999998
  0
LINE
  8
0
  6
CONTINUOUS
 62
256
 10
152.952823000000000
 20
-46.426005000000004
 11
171.452823000000000
 21
-46.426005000000004
  0
LINE
  8
0
  6
CONTINUOUS
 62
256
 10
171.452823000000000
 20
-45.526004999999998
 11
171.452823000000000
 21
-46.426005000000004
  0
LINE
  8
0
  6
CONTINUOUS
 62
256
 10
188.952270000000000
 20
-48.026063999999998
 11
188.952272999999990
 21
-45.526004999999998
  0
ARC
  8
0
  6
CONTINUOUS
 62
256
 10
710.634361000000010
 20
-93.926005000000004
 40
300.600000000000020
 50
171.898496999999990
 51
180.000000000000000
  0
ARC
  8
0
  6
CONTINUOUS
 62
256
 10
229.434361000000000
 20
-93.926005000000004
 40
300.600000000000020
 50
8.563508000000001
 51
8.597082000000000
  0
LINE
  8
0
  6
CONTINUOUS
 62
256
 10
-154.116514000000000
 20
157.724813000000010
 11
-161.116514000000000
 21
157.724813000000010
  0
ENDSEC
  0
EOF
