  0
SECTION
  2
HEADER
  9
$TEXTSIZE
 40
2.5
  9
$ACADVER
  1
AC1009
  9
$DIMASZ
 40
1.931851648807023
  9
$DIMEXE
 40
2.000000000000000
  9
$DIMEXO
 40
1.000000000000000
  9
$DIMLFAC
 40
1.000000000000000
  9
$DIMSCALE
 40
1.000000000000000
  9
$DIMTAD
 70
1
  9
$DIMTFAC
 40
0.625000000000000
  9
$DIMTXT
 40
2.799999952316284
  9
$LUPREC
 70
3
  9
$REGENMODE
 70
1
  9
$TEXTSTYLE
  7
STANDARD1
  0
ENDSEC
  0
SECTION
  2
TABLES
  0
TABLE
  2
LTYPE
 70
4
  0
LTYPE
  2
CONTINUOUS
 70
64
  3
Solid line
 72
65
 73
0
 40
0.0
  0
LTYPE
  2
DASHED
 70
64
  3
-- -- -- -- -- -- -- -- -- -- -- -- -- -- --
 72
65
 73
2
 40
0.75
 49
0.5
 49
-0.25
  0
LTYPE
  2
DASHDOT
 70
64
  3
__ . __ . __ . __ . __ . __ . __ . __ . __ . __
 72
65
 73
4
 40
1.0
 49
0.5
 49
-0.25
 49
0.0
 49
-0.25
  0
LTYPE
  2
DIVIDE
 70
64
  3
__ . . __ . . __ . . __ . . __ . . __ . . __
 72
65
 73
6
 40
1.25
 49
0.5
 49
-0.25
 49
0.0
 49
-0.25
 49
0.0
 49
-0.25
  0
ENDTAB
  0
TABLE
  2
LAYER
 70
3
  0
LAYER
  2
0
 70
64
 62
53
  6
CONTINUOUS
  0
LAYER
  2
1
 70
64
 62
102
  6
CONTINUOUS
  0
LAYER
  2
2
 70
64
 62
102
  6
CONTINUOUS
  0
ENDTAB
  0
TABLE
  2
STYLE
 70
4
  0
STYLE
  2
STANDARD1
 70
64
 40
0.0
 41
1.0
 50
0.0
 71
0
 42
3.200000047683716
  3
MONOTXT
  4
BIGFONT
  0
STYLE
  2
STANDARD2
 70
68
 40
0.0
 41
1.0
 50
0.0
 71
0
 42
3.200000047683716
  3
MONOTXT
  4
BIGFONT
  0
STYLE
  2
STANDARD3
 70
64
 40
0.0
 41
1.0
 50
0.0
 71
0
 42
3.200000047683716
  3
MONOTXT
  4

  0
STYLE
  2
STANDARD4
 70
68
 40
0.0
 41
1.0
 50
0.0
 71
0
 42
3.200000047683716
  3
MONOTXT
  4

  0
ENDTAB
  0
TABLE
  2
VIEW
 70
0
  0
ENDTAB
  0
ENDSEC
  0
SECTION
  2
BLOCKS
  0
BLOCK
  8
0
  2
ZU_SYM_1
 70
64
 10
0.000000000000000
 20
0.000000000000000
  0
LINE
  8
0
  6
CONTINUOUS
 62
256
 10
2.499999000000000
 20
-1.443374000000000
 11
-0.000005000000000
 21
-2.886748000000000
  0
LINE
  8
0
  6
CONTINUOUS
 62
256
 10
0.000005000000000
 20
2.886748000000000
 11
-2.500000000000000
 21
1.443377000000000
  0
LINE
  8
0
  6
CONTINUOUS
 62
256
 10
-0.000006000000000
 20
-2.886747000000000
 11
-2.499998000000000
 21
-1.443372000000000
  0
LINE
  8
0
  6
CONTINUOUS
 62
256
 10
0.000005000000000
 20
2.886749000000000
 11
2.499999000000000
 21
1.443372000000000
  0
LINE
  8
0
  6
CONTINUOUS
 62
256
 10
2.499998000000000
 20
1.443372000000000
 11
2.499999000000000
 21
-1.443374000000000
  0
LINE
  8
0
  6
CONTINUOUS
 62
256
 10
-2.499998000000000
 20
-1.443372000000000
 11
-2.499999000000000
 21
1.443378000000000
  0
POINT
  8
0
  6
CONTINUOUS
 62
256
 10
0.000000000000000
 20
0.000000000000000
  0
CIRCLE
  8
0
  6
CONTINUOUS
 62
256
 10
0.000000000000000
 20
0.000000000000000
 40
5.000000000000000
  0
ENDBLK
  8
0
  0
BLOCK
  8
0
  2
ZU_SYM_2
 70
64
 10
0.000000000000000
 20
0.000000000000000
  0
LINE
  8
0
  6
CONTINUOUS
 62
256
 10
2.499999000000000
 20
-1.443374000000000
 11
-0.000005000000000
 21
-2.886748000000000
  0
LINE
  8
0
  6
CONTINUOUS
 62
256
 10
0.000005000000000
 20
2.886748000000000
 11
-2.500000000000000
 21
1.443377000000000
  0
LINE
  8
0
  6
CONTINUOUS
 62
256
 10
-0.000006000000000
 20
-2.886747000000000
 11
-2.499998000000000
 21
-1.443372000000000
  0
LINE
  8
0
  6
CONTINUOUS
 62
256
 10
0.000005000000000
 20
2.886749000000000
 11
2.499999000000000
 21
1.443372000000000
  0
LINE
  8
0
  6
CONTINUOUS
 62
256
 10
2.499998000000000
 20
1.443372000000000
 11
2.499999000000000
 21
-1.443374000000000
  0
LINE
  8
0
  6
CONTINUOUS
 62
256
 10
-2.499998000000000
 20
-1.443372000000000
 11
-2.499999000000000
 21
1.443378000000000
  0
POINT
  8
0
  6
CONTINUOUS
 62
256
 10
0.000000000000000
 20
0.000000000000000
  0
CIRCLE
  8
0
  6
CONTINUOUS
 62
256
 10
0.000000000000000
 20
0.000000000000000
 40
5.000000000000000
  0
ENDBLK
  8
0
  0
BLOCK
  8
0
  2
ZU_SYM_3
 70
64
 10
0.000000000000000
 20
0.000000000000000
  0
LINE
  8
0
  6
CONTINUOUS
 62
256
 10
2.499999000000000
 20
-1.443374000000000
 11
-0.000005000000000
 21
-2.886748000000000
  0
LINE
  8
0
  6
CONTINUOUS
 62
256
 10
0.000005000000000
 20
2.886748000000000
 11
-2.500000000000000
 21
1.443377000000000
  0
LINE
  8
0
  6
CONTINUOUS
 62
256
 10
-0.000006000000000
 20
-2.886747000000000
 11
-2.499998000000000
 21
-1.443372000000000
  0
LINE
  8
0
  6
CONTINUOUS
 62
256
 10
0.000005000000000
 20
2.886749000000000
 11
2.499999000000000
 21
1.443372000000000
  0
LINE
  8
0
  6
CONTINUOUS
 62
256
 10
2.499998000000000
 20
1.443372000000000
 11
2.499999000000000
 21
-1.443374000000000
  0
LINE
  8
0
  6
CONTINUOUS
 62
256
 10
-2.499998000000000
 20
-1.443372000000000
 11
-2.499999000000000
 21
1.443378000000000
  0
POINT
  8
0
  6
CONTINUOUS
 62
256
 10
0.000000000000000
 20
0.000000000000000
  0
CIRCLE
  8
0
  6
CONTINUOUS
 62
256
 10
0.000000000000000
 20
0.000000000000000
 40
5.000000000000000
  0
ENDBLK
  8
0
  0
BLOCK
  8
0
  2
ZU_SYM_4
 70
64
 10
0.000000000000000
 20
0.000000000000000
  0
LINE
  8
0
  6
CONTINUOUS
 62
256
 10
2.499999000000000
 20
-1.443374000000000
 11
-0.000005000000000
 21
-2.886748000000000
  0
LINE
  8
0
  6
CONTINUOUS
 62
256
 10
0.000005000000000
 20
2.886748000000000
 11
-2.500000000000000
 21
1.443377000000000
  0
LINE
  8
0
  6
CONTINUOUS
 62
256
 10
-0.000006000000000
 20
-2.886747000000000
 11
-2.499998000000000
 21
-1.443372000000000
  0
LINE
  8
0
  6
CONTINUOUS
 62
256
 10
0.000005000000000
 20
2.886749000000000
 11
2.499999000000000
 21
1.443372000000000
  0
LINE
  8
0
  6
CONTINUOUS
 62
256
 10
2.499998000000000
 20
1.443372000000000
 11
2.499999000000000
 21
-1.443374000000000
  0
LINE
  8
0
  6
CONTINUOUS
 62
256
 10
-2.499998000000000
 20
-1.443372000000000
 11
-2.499999000000000
 21
1.443378000000000
  0
POINT
  8
0
  6
CONTINUOUS
 62
256
 10
0.000000000000000
 20
0.000000000000000
  0
CIRCLE
  8
0
  6
CONTINUOUS
 62
256
 10
0.000000000000000
 20
0.000000000000000
 40
5.000000000000000
  0
ENDBLK
  8
0
  0
ENDSEC
  0
SECTION
  2
ENTITIES
  0
TEXT
  8
0
  6
CONTINUOUS
 62
256
 10
-70.375488281250000
 20
-13.156250000000000
 40
2.799999952316284
  1
ü@
 50
0.000002504478167
 41
0.996000017370497
  7
STANDARD1
  0
TEXT
  8
0
  6
CONTINUOUS
 62
256
 10
1.624511957168579
 20
-253.406250000000000
 40
2.799999952316284
  1
ü@
 50
0.000002504478167
 41
0.996000017370497
  7
STANDARD1
  0
CIRCLE
  8
0
  6
CONTINUOUS
 62
256
 10
-134.906617000000010
 20
-8.022501999999999
 40
10.000000000000000
  0
CIRCLE
  8
0
  6
CONTINUOUS
 62
256
 10
24.093382999999999
 20
-8.022501999999999
 40
10.000000000000004
  0
CIRCLE
  8
0
  6
CONTINUOUS
 62
256
 10
24.093382999999999
 20
-154.022502000000000
 40
10.000000000000004
  0
CIRCLE
  8
0
  6
CONTINUOUS
 62
256
 10
-134.906617000000010
 20
-154.022502000000000
 40
10.000000000000000
  0
LINE
  8
0
  6
DASHED
 62
256
 10
407.628481000000020
 20
-144.022502000000000
 11
423.628481000000020
 21
-144.022502000000000
  0
LINE
  8
0
  6
DASHED
 62
256
 10
423.628481000000020
 20
-154.022502000000000
 11
423.628481000000020
 21
-144.022502000000000
  0
LINE
  8
0
  6
DASHED
 62
256
 10
423.628481000000020
 20
-147.022502000000000
 11
507.628481000000020
 21
-147.022502000000000
  0
LINE
  8
0
  6
DASHED
 62
256
 10
407.628481000000020
 20
-164.022502000000000
 11
423.628481000000020
 21
-164.022502000000000
  0
LINE
  8
0
  6
DASHED
 62
256
 10
423.628481000000020
 20
-154.022502000000000
 11
423.628481000000020
 21
-164.022502000000000
  0
LINE
  8
0
  6
DASHED
 62
256
 10
423.628481000000020
 20
-161.022502000000000
 11
507.628481000000020
 21
-161.022502000000000
  0
LINE
  8
0
  6
DASHED
 62
256
 10
507.628481000000020
 20
-144.022502000000000
 11
523.628480999999970
 21
-144.022502000000000
  0
LINE
  8
0
  6
DASHED
 62
256
 10
507.628481000000020
 20
-154.022502000000000
 11
507.628481000000020
 21
-144.022502000000000
  0
LINE
  8
0
  6
DASHED
 62
256
 10
507.628481000000020
 20
-154.022502000000000
 11
507.628481000000020
 21
-164.022502000000000
  0
LINE
  8
0
  6
DASHED
 62
256
 10
507.628481000000020
 20
-164.022502000000000
 11
523.628480999999970
 21
-164.022502000000000
  0
LINE
  8
0
  6
DASHED
 62
256
 10
423.628481000000020
 20
-8.022501999999999
 11
423.628481000000020
 21
1.977498000000000
  0
LINE
  8
0
  6
DASHED
 62
256
 10
407.628481000000020
 20
1.977498000000000
 11
423.628481000000020
 21
1.977498000000000
  0
LINE
  8
0
  6
DASHED
 62
256
 10
423.628481000000020
 20
-1.022502000000000
 11
507.628481000000020
 21
-1.022502000000000
  0
LINE
  8
0
  6
DASHED
 62
256
 10
423.628481000000020
 20
-15.022501999999999
 11
507.628481000000020
 21
-15.022501999999999
  0
LINE
  8
0
  6
DASHED
 62
256
 10
423.628481000000020
 20
-8.022501999999999
 11
423.628481000000020
 21
-18.022501999999999
  0
LINE
  8
0
  6
DASHED
 62
256
 10
407.628481000000020
 20
-18.022501999999999
 11
423.628481000000020
 21
-18.022501999999999
  0
LINE
  8
0
  6
DASHED
 62
256
 10
507.628481000000020
 20
1.977498000000000
 11
523.628480999999970
 21
1.977498000000000
  0
LINE
  8
0
  6
DASHED
 62
256
 10
507.628481000000020
 20
-8.022501999999999
 11
507.628481000000020
 21
1.977498000000000
  0
LINE
  8
0
  6
DASHED
 62
256
 10
507.628481000000020
 20
-18.022501999999999
 11
523.628480999999970
 21
-18.022501999999999
  0
LINE
  8
0
  6
DASHED
 62
256
 10
507.628481000000020
 20
-8.022501999999999
 11
507.628481000000020
 21
-18.022501999999999
  0
LINE
  8
0
  6
DASHDOT
 62
256
 10
-32.906851000000003
 20
60.095058999999999
 11
-32.906851000000003
 21
217.476210000000010
  0
ARC
  8
0
  6
CONTINUOUS
 62
256
 10
-10.135524000000000
 20
202.810802999999990
 40
1.000000000000000
 50
0.000000000000000
 51
90.000000000000000
  0
LINE
  8
0
  6
CONTINUOUS
 62
256
 10
-10.135524000000000
 20
203.810802999999990
 11
-33.135523999999997
 21
203.810802999999990
  0
LINE
  8
0
  6
CONTINUOUS
 62
256
 10
-9.135524000000000
 20
202.810802999999990
 11
-9.135524000000000
 21
199.810802999999990
  0
ARC
  8
0
  6
CONTINUOUS
 62
256
 10
-56.135523999999997
 20
202.810802999999990
 40
1.000000000000000
 50
90.000000000000000
 51
180.000000000000000
  0
LINE
  8
0
  6
CONTINUOUS
 62
256
 10
-56.135523999999997
 20
203.810802999999990
 11
-33.135523999999997
 21
203.810802999999990
  0
LINE
  8
0
  6
CONTINUOUS
 62
256
 10
-57.135523999999997
 20
202.810802999999990
 11
-57.135523999999997
 21
199.810802999999990
  0
ARC
  8
0
  6
CONTINUOUS
 62
256
 10
-56.135523999999997
 20
70.810803000000007
 40
1.000000000000000
 50
180.000000000000000
 51
270.000000000000000
  0
LINE
  8
0
  6
CONTINUOUS
 62
256
 10
-56.135523999999997
 20
69.810803000000007
 11
-33.135523999999997
 21
69.810803000000007
  0
LINE
  8
0
  6
CONTINUOUS
 62
256
 10
-57.135523999999997
 20
70.810803000000007
 11
-57.135523999999997
 21
73.810803000000007
  0
ARC
  8
0
  6
CONTINUOUS
 62
256
 10
-10.135524000000000
 20
70.810803000000007
 40
1.000000000000000
 50
270.000000000000000
 51
0.000000000000000
  0
LINE
  8
0
  6
CONTINUOUS
 62
256
 10
-10.135524000000000
 20
69.810803000000007
 11
-33.135523999999997
 21
69.810803000000007
  0
LINE
  8
0
  6
CONTINUOUS
 62
256
 10
-9.135524000000000
 20
70.810803000000007
 11
-9.135524000000000
 21
73.810803000000007
  0
LINE
  8
0
  6
CONTINUOUS
 62
256
 10
38.174289999999999
 20
78.810405000000003
 11
38.682938999999998
 21
79.310253000000003
  0
LINE
  8
0
  6
CONTINUOUS
 62
256
 10
-32.906851000000003
 20
73.810405000000003
 11
-80.406851000000003
 21
73.810405000000003
  0
LINE
  8
0
  6
CONTINUOUS
 62
256
 10
-149.906850999999990
 20
78.810405000000003
 11
-150.116318000000010
 21
90.810803000000007
  0
LINE
  8
0
  6
CONTINUOUS
 62
256
 10
-148.466815000000000
 20
185.310802999999990
 11
-148.466815000000000
 21
194.810802999999990
  0
LINE
  8
0
  6
CONTINUOUS
 62
256
 10
-150.116318000000010
 20
90.810803000000007
 11
-148.466815000000000
 21
185.310802999999990
  0
LINE
  8
0
  6
CONTINUOUS
 62
256
 10
38.682938999999998
 20
79.310253000000003
 11
38.883682000000000
 21
90.810803000000007
  0
LINE
  8
0
  6
CONTINUOUS
 62
256
 10
37.234178000000000
 20
185.310802999999990
 11
37.234178000000000
 21
194.810802999999990
  0
LINE
  8
0
  6
CONTINUOUS
 62
256
 10
38.883682000000000
 20
90.810803000000007
 11
37.234178000000000
 21
185.310802999999990
  0
LINE
  8
0
  6
CONTINUOUS
 62
256
 10
-148.466815000000000
 20
194.810802999999990
 11
-49.107747000000003
 21
194.810802999999990
  0
LINE
  8
0
  6
CONTINUOUS
 62
256
 10
-150.116318000000010
 20
90.810803000000007
 11
-49.107747000000003
 21
90.810803000000007
  0
LINE
  8
0
  6
CONTINUOUS
 62
256
 10
-49.107747000000003
 20
78.810405000000003
 11
-149.906850999999990
 21
78.810405000000003
  0
LINE
  8
0
  6
CONTINUOUS
 62
256
 10
-49.107747000000003
 20
78.810405000000003
 11
38.174289999999999
 21
78.810405000000003
  0
LINE
  8
0
  6
CONTINUOUS
 62
256
 10
-49.107747000000003
 20
90.810803000000007
 11
38.883682000000000
 21
90.810803000000007
  0
LINE
  8
0
  6
CONTINUOUS
 62
256
 10
-49.107747000000003
 20
194.810802999999990
 11
37.234178000000000
 21
194.810802999999990
  0
LINE
  8
0
  6
CONTINUOUS
 62
256
 10
-160.406850999999990
 20
80.071802000000005
 11
-160.406850999999990
 21
193.549803000000000
  0
ARC
  8
0
  6
CONTINUOUS
 62
256
 10
-157.406850999999990
 20
183.810802999999990
 40
3.000000000000000
 50
180.000000000000000
 51
270.000000000000000
  0
LINE
  8
0
  6
CONTINUOUS
 62
256
 10
-150.510757000000010
 20
180.810802999999990
 11
-157.406850999999990
 21
180.810802999999990
  0
ARC
  8
0
  6
CONTINUOUS
 62
256
 10
-157.406850999999990
 20
89.811199999999999
 40
3.000000000000000
 50
90.000000000000000
 51
180.000000000000000
  0
ARC
  8
0
  6
CONTINUOUS
 62
256
 10
-163.406850999999990
 20
178.995533999999990
 40
3.000000000000000
 50
0.000000000000000
 51
90.000000000000000
  0
ARC
  8
0
  6
CONTINUOUS
 62
256
 10
-163.406850999999990
 20
185.907109999999990
 40
3.000000000000000
 50
0.000000000000000
 51
90.000000000000000
  0
ARC
  8
0
  6
CONTINUOUS
 62
256
 10
-163.406850999999990
 20
94.626071999999994
 40
3.000000000000000
 50
270.000000000000000
 51
0.000000000000000
  0
ARC
  8
0
  6
CONTINUOUS
 62
256
 10
-163.406850999999990
 20
87.714494999999999
 40
3.000000000000000
 50
270.000000000000000
 51
0.000000000000000
  0
ARC
  8
0
  6
CONTINUOUS
 62
256
 10
-163.406850999999990
 20
80.071802000000005
 40
3.000000000000006
 50
269.018827000000040
 51
0.000000000000000
  0
ARC
  8
0
  6
CONTINUOUS
 62
256
 10
-163.406850999999990
 20
193.549803000000000
 40
3.000000000000000
 50
0.000000000000000
 51
90.981172999999970
  0
ARC
  8
0
  6
CONTINUOUS
 62
256
 10
-168.406850999999990
 20
100.809535999999990
 40
3.000000000000000
 50
180.000000000000000
 51
270.000000000000000
  0
ARC
  8
0
  6
CONTINUOUS
 62
256
 10
-168.406850999999990
 20
81.714494999999999
 40
3.000000000000000
 50
90.000000000000000
 51
180.000000000000000
  0
ARC
  8
0
  6
CONTINUOUS
 62
256
 10
-168.406850999999990
 20
94.626071999999994
 40
3.000000000000000
 50
180.000000000000000
 51
270.000000000000000
  0
ARC
  8
0
  6
CONTINUOUS
 62
256
 10
-174.406850999999990
 20
80.310803000000007
 40
3.000000000000000
 50
270.000000000000000
 51
0.000000000000000
  0
ARC
  8
0
  6
CONTINUOUS
 62
256
 10
-174.406850999999990
 20
193.310802999999990
 40
3.000000000000000
 50
0.000000000000000
 51
90.000000000000000
  0
ARC
  8
0
  6
CONTINUOUS
 62
256
 10
-168.406850999999990
 20
172.812070000000010
 40
3.000000000000000
 50
90.000000000000000
 51
180.000000000000000
  0
ARC
  8
0
  6
CONTINUOUS
 62
256
 10
-168.406850999999990
 20
178.995533999999990
 40
3.000000000000000
 50
90.000000000000000
 51
180.000000000000000
  0
ARC
  8
0
  6
CONTINUOUS
 62
256
 10
-168.406850999999990
 20
191.907109999999990
 40
3.000000000000000
 50
180.000000000000000
 51
270.000000000000000
  0
LINE
  8
0
  6
CONTINUOUS
 62
256
 10
-171.406850999999990
 20
94.626071999999994
 11
-171.406850999999990
 21
136.810802999999990
  0
LINE
  8
0
  6
CONTINUOUS
 62
256
 10
-168.406850999999990
 20
97.809535999999994
 11
-163.406850999999990
 21
97.809535999999994
  0
LINE
  8
0
  6
CONTINUOUS
 62
256
 10
-171.406850999999990
 20
81.310803000000007
 11
-171.406850999999990
 21
81.714494999999999
  0
LINE
  8
0
  6
CONTINUOUS
 62
256
 10
-171.406850999999990
 20
81.310803000000007
 11
-171.406850999999990
 21
81.714494999999999
  0
LINE
  8
0
  6
CONTINUOUS
 62
256
 10
-171.406850999999990
 20
81.310803000000007
 11
-171.406850999999990
 21
80.310803000000007
  0
LINE
  8
0
  6
CONTINUOUS
 62
256
 10
-171.406850999999990
 20
192.310802999999990
 11
-171.406850999999990
 21
191.907109999999990
  0
LINE
  8
0
  6
CONTINUOUS
 62
256
 10
-171.406850999999990
 20
178.995533999999990
 11
-171.406850999999990
 21
136.810802999999990
  0
LINE
  8
0
  6
CONTINUOUS
 62
256
 10
-168.406850999999990
 20
175.812070000000010
 11
-163.406850999999990
 21
175.812070000000010
  0
LINE
  8
0
  6
CONTINUOUS
 62
256
 10
-171.406850999999990
 20
192.310802999999990
 11
-171.406850999999990
 21
193.310802999999990
  0
LINE
  8
0
  6
CONTINUOUS
 62
256
 10
-168.406850999999990
 20
188.907109999999990
 11
-163.406850999999990
 21
188.907109999999990
  0
LINE
  8
0
  6
CONTINUOUS
 62
256
 10
-168.406850999999990
 20
181.995533999999990
 11
-163.406850999999990
 21
181.995533999999990
  0
LINE
  8
0
  6
CONTINUOUS
 62
256
 10
-168.406850999999990
 20
91.626071999999994
 11
-163.406850999999990
 21
91.626071999999994
  0
LINE
  8
0
  6
CONTINUOUS
 62
256
 10
-168.406850999999990
 20
84.714494999999999
 11
-163.406850999999990
 21
84.714494999999999
  0
LINE
  8
0
  6
CONTINUOUS
 62
256
 10
-178.406850999999990
 20
156.810802999999990
 11
-171.406850999999990
 21
156.810802999999990
  0
LINE
  8
0
  6
CONTINUOUS
 62
256
 10
-178.406850999999990
 20
116.810803000000010
 11
-171.406850999999990
 21
116.810803000000010
  0
ARC
  8
0
  6
CONTINUOUS
 62
256
 10
-152.116615999999990
 20
90.811199999999999
 40
1.999999999999998
 50
358.999999999999830
 51
90.000000000000000
  0
ARC
  8
0
  6
CONTINUOUS
 62
256
 10
-150.510757000000010
 20
182.810802999999990
 40
2.000000000000000
 50
270.000000000000000
 51
358.999999999999830
  0
LINE
  8
0
  6
CONTINUOUS
 62
256
 10
-178.406850999999990
 20
196.293348000000010
 11
-163.458222000000010
 21
196.549363000000000
  0
LINE
  8
0
  6
CONTINUOUS
 62
256
 10
-178.406850999999990
 20
77.328258000000005
 11
-163.458222000000010
 21
77.072242000000003
  0
LINE
  8
0
  6
CONTINUOUS
 62
256
 10
-157.406850999999990
 20
92.811199999999999
 11
-152.116615999999990
 21
92.811199999999999
  0
LINE
  8
0
  6
CONTINUOUS
 62
256
 10
14.593149000000000
 20
199.811200000000010
 11
14.593149000000000
 21
194.810802999999990
  0
LINE
  8
0
  6
CONTINUOUS
 62
256
 10
-32.678178000000003
 20
199.811200000000010
 11
14.593149000000000
 21
199.811200000000010
  0
LINE
  8
0
  6
CONTINUOUS
 62
256
 10
-80.406851000000003
 20
199.811200000000010
 11
-80.406851000000003
 21
194.810802999999990
  0
LINE
  8
0
  6
CONTINUOUS
 62
256
 10
-32.678178000000003
 20
199.811200000000010
 11
-80.406851000000003
 21
199.811200000000010
  0
LINE
  8
0
  6
CONTINUOUS
 62
256
 10
14.593149000000000
 20
73.810803000000007
 11
-80.406851000000003
 21
73.810803000000007
  0
LINE
  8
0
  6
CONTINUOUS
 62
256
 10
14.593149000000000
 20
73.810803000000007
 11
14.593149000000000
 21
78.810803000000007
  0
LINE
  8
0
  6
CONTINUOUS
 62
256
 10
-80.406851000000003
 20
73.810803000000007
 11
-80.406851000000003
 21
78.810803000000007
  0
POLYLINE
  8
0
  6
CONTINUOUS
 62
256
 66
1
 70
1
  0
VERTEX
  8
0
  6
CONTINUOUS
 62
256
 10
-281.706851000000030
 20
84.887277999999995
  0
VERTEX
  8
0
  6
CONTINUOUS
 62
256
 10
-281.797160182104850
 20
85.590234510558162
  0
VERTEX
  8
0
  6
CONTINUOUS
 62
256
 10
-282.064617197196980
 20
86.266176796638135
  0
VERTEX
  8
0
  6
CONTINUOUS
 62
256
 10
-282.498943822178090
 20
86.889128775258655
  0
VERTEX
  8
0
  6
CONTINUOUS
 62
256
 10
-283.083449128423240
 20
87.435150751236847
  0
VERTEX
  8
0
  6
CONTINUOUS
 62
256
 10
-283.795670904807880
 20
87.883259406248484
  0
VERTEX
  8
0
  6
CONTINUOUS
 62
256
 10
-284.608238867884100
 20
88.216234175983743
  0
VERTEX
  8
0
  6
CONTINUOUS
 62
256
 10
-285.489926486524210
 20
88.421279026776062
  0
VERTEX
  8
0
  6
CONTINUOUS
 62
256
 10
-286.406851000000020
 20
88.490514199999993
  0
VERTEX
  8
0
  6
CONTINUOUS
 62
256
 10
-287.323775513475820
 20
88.421279026776062
  0
VERTEX
  8
0
  6
CONTINUOUS
 62
256
 10
-288.205463132115940
 20
88.216234175983743
  0
VERTEX
  8
0
  6
CONTINUOUS
 62
256
 10
-289.018031095192160
 20
87.883259406248484
  0
VERTEX
  8
0
  6
CONTINUOUS
 62
256
 10
-289.730252871576790
 20
87.435150751236847
  0
VERTEX
  8
0
  6
CONTINUOUS
 62
256
 10
-290.314758177821940
 20
86.889128775258655
  0
VERTEX
  8
0
  6
CONTINUOUS
 62
256
 10
-290.749084802803050
 20
86.266176796638135
  0
VERTEX
  8
0
  6
CONTINUOUS
 62
256
 10
-291.016541817895190
 20
85.590234510558162
  0
VERTEX
  8
0
  6
CONTINUOUS
 62
256
 10
-291.106851000000010
 20
84.887277999999995
  0
VERTEX
  8
0
  6
CONTINUOUS
 62
256
 10
-291.016541817895190
 20
84.184321489441828
  0
VERTEX
  8
0
  6
CONTINUOUS
 62
256
 10
-290.749084802803050
 20
83.508379203361855
  0
VERTEX
  8
0
  6
CONTINUOUS
 62
256
 10
-290.314758177821940
 20
82.885427224741335
  0
VERTEX
  8
0
  6
CONTINUOUS
 62
256
 10
-289.730252871576790
 20
82.339405248763157
  0
VERTEX
  8
0
  6
CONTINUOUS
 62
256
 10
-289.018031095192160
 20
81.891296593751505
  0
VERTEX
  8
0
  6
CONTINUOUS
 62
256
 10
-288.205463132115940
 20
81.558321824016247
  0
VERTEX
  8
0
  6
CONTINUOUS
 62
256
 10
-287.323775513475820
 20
81.353276973223927
  0
VERTEX
  8
0
  6
CONTINUOUS
 62
256
 10
-286.406851000000020
 20
81.284041799999997
  0
VERTEX
  8
0
  6
CONTINUOUS
 62
256
 10
-285.489926486524210
 20
81.353276973223927
  0
VERTEX
  8
0
  6
CONTINUOUS
 62
256
 10
-284.608238867884100
 20
81.558321824016247
  0
VERTEX
  8
0
  6
CONTINUOUS
 62
256
 10
-283.795670904807880
 20
81.891296593751505
  0
VERTEX
  8
0
  6
CONTINUOUS
 62
256
 10
-283.083449128423240
 20
82.339405248763143
  0
VERTEX
  8
0
  6
CONTINUOUS
 62
256
 10
-282.498943822178090
 20
82.885427224741335
  0
VERTEX
  8
0
  6
CONTINUOUS
 62
256
 10
-282.064617197196980
 20
83.508379203361855
  0
VERTEX
  8
0
  6
CONTINUOUS
 62
256
 10
-281.797160182104850
 20
84.184321489441828
  0
SEQEND
  8
0
  6
CONTINUOUS
 62
256
  0
LINE
  8
0
  6
CONTINUOUS
 62
256
 10
-288.406851000000020
 20
81.894902000000002
 11
-286.406851000000020
 21
83.070688000000004
  0
LINE
  8
0
  6
CONTINUOUS
 62
256
 10
-286.406851000000020
 20
83.070688000000004
 11
-284.406851000000020
 21
84.723329000000007
  0
LINE
  8
0
  6
CONTINUOUS
 62
256
 10
-284.406851000000020
 20
81.894902000000002
 11
-286.406851000000020
 21
83.070688000000004
  0
LINE
  8
0
  6
CONTINUOUS
 62
256
 10
-286.406851000000020
 20
83.070688000000004
 11
-288.406851000000020
 21
84.723329000000007
  0
LINE
  8
0
  6
CONTINUOUS
 62
256
 10
-275.406851000000020
 20
76.810803000000007
 11
-356.100874999999970
 21
76.810803000000007
  0
LINE
  8
0
  6
CONTINUOUS
 62
256
 10
-378.406851000000020
 20
136.810802999999990
 11
-378.406851000000020
 21
89.367598000000001
  0
ARC
  8
0
  6
CONTINUOUS
 62
256
 10
-356.100874999999970
 20
96.810803000000007
 40
20.000000000000007
 50
234.999999999999940
 51
270.000000000000000
  0
LINE
  8
0
  6
CONTINUOUS
 62
256
 10
-367.572404000000010
 20
80.427762000000001
 11
-377.298149000000020
 21
87.237802000000002
  0
ARC
  8
0
  6
CONTINUOUS
 62
256
 10
-375.806850999999990
 20
89.367598000000001
 40
2.600000000000023
 50
180.000000000000000
 51
234.999999999999940
  0
LINE
  8
0
  6
CONTINUOUS
 62
256
 10
-275.406851000000020
 20
136.810802999999990
 11
-275.406851000000020
 21
76.810803000000007
  0
LINE
  8
0
  6
CONTINUOUS
 62
256
 10
-275.406851000000020
 20
86.495268999999993
 11
-178.406850999999990
 21
86.495268999999993
  0
LINE
  8
0
  6
CONTINUOUS
 62
256
 10
-275.406851000000020
 20
91.445015999999995
 11
-178.406850999999990
 21
91.445015999999995
  0
LINE
  8
0
  6
CONTINUOUS
 62
256
 10
-275.406851000000020
 20
99.491618000000003
 11
-178.406850999999990
 21
99.491618000000003
  0
LINE
  8
0
  6
CONTINUOUS
 62
256
 10
-275.406851000000020
 20
105.060011000000000
 11
-178.406850999999990
 21
105.060011000000000
  0
LINE
  8
0
  6
CONTINUOUS
 62
256
 10
-275.406851000000020
 20
167.093236999999990
 11
-178.406850999999990
 21
167.093236999999990
  0
LINE
  8
0
  6
CONTINUOUS
 62
256
 10
-275.406851000000020
 20
111.980749000000000
 11
-178.406850999999990
 21
111.980749000000000
  0
LINE
  8
0
  6
CONTINUOUS
 62
256
 10
-275.406851000000020
 20
106.528368000000000
 11
-178.406850999999990
 21
106.528368000000000
  0
LINE
  8
0
  6
CONTINUOUS
 62
256
 10
-275.406851000000020
 20
161.640856000000010
 11
-178.406850999999990
 21
161.640856000000010
  0
LINE
  8
0
  6
CONTINUOUS
 62
256
 10
-275.406851000000020
 20
116.810803000000010
 11
-178.406850999999990
 21
116.810803000000010
  0
LINE
  8
0
  6
CONTINUOUS
 62
256
 10
-275.406851000000020
 20
110.618869000000000
 11
-178.406850999999990
 21
110.618869000000000
  0
LINE
  8
0
  6
CONTINUOUS
 62
256
 10
-275.406851000000020
 20
163.002736000000000
 11
-178.406850999999990
 21
163.002736000000000
  0
LINE
  8
0
  6
CONTINUOUS
 62
256
 10
-275.406851000000020
 20
156.810802999999990
 11
-178.406850999999990
 21
156.810802999999990
  0
LINE
  8
0
  6
CONTINUOUS
 62
256
 10
-275.406851000000020
 20
193.810802999999990
 11
-178.406850999999990
 21
193.810802999999990
  0
LINE
  8
0
  6
CONTINUOUS
 62
256
 10
-275.406851000000020
 20
194.310802999999990
 11
-178.406850999999990
 21
194.310802999999990
  0
LINE
  8
0
  6
CONTINUOUS
 62
256
 10
-275.406851000000020
 20
192.810802999999990
 11
-178.406850999999990
 21
192.810802999999990
  0
LINE
  8
0
  6
CONTINUOUS
 62
256
 10
-275.406851000000020
 20
191.810802999999990
 11
-178.406850999999990
 21
191.810802999999990
  0
LINE
  8
0
  6
CONTINUOUS
 62
256
 10
-275.406851000000020
 20
187.126337000000010
 11
-178.406850999999990
 21
187.126337000000010
  0
LINE
  8
0
  6
CONTINUOUS
 62
256
 10
-275.406851000000020
 20
182.176589000000010
 11
-178.406850999999990
 21
182.176589000000010
  0
LINE
  8
0
  6
CONTINUOUS
 62
256
 10
-275.406851000000020
 20
174.129988000000000
 11
-178.406850999999990
 21
174.129988000000000
  0
LINE
  8
0
  6
CONTINUOUS
 62
256
 10
-275.406851000000020
 20
136.810802999999990
 11
-275.406851000000020
 21
196.810802999999990
  0
LINE
  8
0
  6
CONTINUOUS
 62
256
 10
-178.406850999999990
 20
195.310802999999990
 11
-275.406851000000020
 21
195.310802999999990
  0
LINE
  8
0
  6
CONTINUOUS
 62
256
 10
-178.406850999999990
 20
196.293348000000010
 11
-178.406850999999990
 21
136.810802999999990
  0
LINE
  8
0
  6
CONTINUOUS
 62
256
 10
-275.406851000000020
 20
196.810802999999990
 11
-356.100874999999970
 21
196.810802999999990
  0
LINE
  8
0
  6
CONTINUOUS
 62
256
 10
-378.406851000000020
 20
136.810802999999990
 11
-378.406851000000020
 21
184.254008000000000
  0
ARC
  8
0
  6
CONTINUOUS
 62
256
 10
-356.100874999999970
 20
176.810802999999990
 40
20.000000000000000
 50
90.000000000000000
 51
125.000000000000060
  0
LINE
  8
0
  6
CONTINUOUS
 62
256
 10
-367.572404000000010
 20
193.193844000000010
 11
-377.298149000000020
 21
186.383803000000000
  0
ARC
  8
0
  6
CONTINUOUS
 62
256
 10
-375.806850999999990
 20
184.254008000000000
 40
2.599999999999996
 50
125.000000000000210
 51
180.000000000000000
  0
LINE
  8
0
  6
CONTINUOUS
 62
256
 10
-275.406851000000020
 20
79.310803000000007
 11
-178.406850999999990
 21
79.310803000000007
  0
LINE
  8
0
  6
CONTINUOUS
 62
256
 10
-275.406851000000020
 20
79.810803000000007
 11
-178.406850999999990
 21
79.810803000000007
  0
LINE
  8
0
  6
CONTINUOUS
 62
256
 10
-275.406851000000020
 20
80.810803000000007
 11
-178.406850999999990
 21
80.810803000000007
  0
LINE
  8
0
  6
CONTINUOUS
 62
256
 10
-275.406851000000020
 20
81.810803000000007
 11
-178.406850999999990
 21
81.810803000000007
  0
POLYLINE
  8
0
  6
CONTINUOUS
 62
256
 66
1
 70
1
  0
VERTEX
  8
0
  6
CONTINUOUS
 62
256
 10
-281.706851000000030
 20
188.734328000000000
  0
VERTEX
  8
0
  6
CONTINUOUS
 62
256
 10
-281.797160182104850
 20
189.437284510558190
  0
VERTEX
  8
0
  6
CONTINUOUS
 62
256
 10
-282.064617197196980
 20
190.113226796638140
  0
VERTEX
  8
0
  6
CONTINUOUS
 62
256
 10
-282.498943822178090
 20
190.736178775258680
  0
VERTEX
  8
0
  6
CONTINUOUS
 62
256
 10
-283.083449128423240
 20
191.282200751236840
  0
VERTEX
  8
0
  6
CONTINUOUS
 62
256
 10
-283.795670904807880
 20
191.730309406248490
  0
VERTEX
  8
0
  6
CONTINUOUS
 62
256
 10
-284.608238867884100
 20
192.063284175983740
  0
VERTEX
  8
0
  6
CONTINUOUS
 62
256
 10
-285.489926486524210
 20
192.268329026776090
  0
VERTEX
  8
0
  6
CONTINUOUS
 62
256
 10
-286.406851000000020
 20
192.337564200000000
  0
VERTEX
  8
0
  6
CONTINUOUS
 62
256
 10
-287.323775513475820
 20
192.268329026776090
  0
VERTEX
  8
0
  6
CONTINUOUS
 62
256
 10
-288.205463132115940
 20
192.063284175983740
  0
VERTEX
  8
0
  6
CONTINUOUS
 62
256
 10
-289.018031095192160
 20
191.730309406248490
  0
VERTEX
  8
0
  6
CONTINUOUS
 62
256
 10
-289.730252871576790
 20
191.282200751236840
  0
VERTEX
  8
0
  6
CONTINUOUS
 62
256
 10
-290.314758177821940
 20
190.736178775258680
  0
VERTEX
  8
0
  6
CONTINUOUS
 62
256
 10
-290.749084802803050
 20
190.113226796638140
  0
VERTEX
  8
0
  6
CONTINUOUS
 62
256
 10
-291.016541817895190
 20
189.437284510558190
  0
VERTEX
  8
0
  6
CONTINUOUS
 62
256
 10
-291.106851000000010
 20
188.734328000000000
  0
VERTEX
  8
0
  6
CONTINUOUS
 62
256
 10
-291.016541817895190
 20
188.031371489441820
  0
VERTEX
  8
0
  6
CONTINUOUS
 62
256
 10
-290.749084802803050
 20
187.355429203361870
  0
VERTEX
  8
0
  6
CONTINUOUS
 62
256
 10
-290.314758177821940
 20
186.732477224741330
  0
VERTEX
  8
0
  6
CONTINUOUS
 62
256
 10
-289.730252871576790
 20
186.186455248763170
  0
VERTEX
  8
0
  6
CONTINUOUS
 62
256
 10
-289.018031095192160
 20
185.738346593751520
  0
VERTEX
  8
0
  6
CONTINUOUS
 62
256
 10
-288.205463132115940
 20
185.405371824016270
  0
VERTEX
  8
0
  6
CONTINUOUS
 62
256
 10
-287.323775513475820
 20
185.200326973223950
  0
VERTEX
  8
0
  6
CONTINUOUS
 62
256
 10
-286.406851000000020
 20
185.131091800000010
  0
VERTEX
  8
0
  6
CONTINUOUS
 62
256
 10
-285.489926486524210
 20
185.200326973223950
  0
VERTEX
  8
0
  6
CONTINUOUS
 62
256
 10
-284.608238867884100
 20
185.405371824016270
  0
VERTEX
  8
0
  6
CONTINUOUS
 62
256
 10
-283.795670904807880
 20
185.738346593751520
  0
VERTEX
  8
0
  6
CONTINUOUS
 62
256
 10
-283.083449128423240
 20
186.186455248763170
  0
VERTEX
  8
0
  6
CONTINUOUS
 62
256
 10
-282.498943822178090
 20
186.732477224741330
  0
VERTEX
  8
0
  6
CONTINUOUS
 62
256
 10
-282.064617197196980
 20
187.355429203361870
  0
VERTEX
  8
0
  6
CONTINUOUS
 62
256
 10
-281.797160182104850
 20
188.031371489441820
  0
SEQEND
  8
0
  6
CONTINUOUS
 62
256
  0
LINE
  8
0
  6
CONTINUOUS
 62
256
 10
-288.406851000000020
 20
191.726702999999990
 11
-286.406851000000020
 21
190.550918000000000
  0
LINE
  8
0
  6
CONTINUOUS
 62
256
 10
-286.406851000000020
 20
190.550918000000000
 11
-284.406851000000020
 21
188.898276000000010
  0
LINE
  8
0
  6
CONTINUOUS
 62
256
 10
-284.406851000000020
 20
191.726702999999990
 11
-286.406851000000020
 21
190.550918000000000
  0
LINE
  8
0
  6
CONTINUOUS
 62
256
 10
-286.406851000000020
 20
190.550918000000000
 11
-288.406851000000020
 21
188.898276000000010
  0
LINE
  8
0
  6
DASHDOT
 62
256
 10
42.533084000000002
 20
136.810802999999990
 11
-388.336063000000020
 21
136.810802999999990
  0
LINE
  8
0
  6
CONTINUOUS
 62
256
 10
-178.406850999999990
 20
78.310803000000007
 11
-275.406851000000020
 21
78.310803000000007
  0
LINE
  8
0
  6
CONTINUOUS
 62
256
 10
-178.406850999999990
 20
77.328258000000005
 11
-178.406850999999990
 21
136.810802999999990
  0
LINE
  8
0
  6
CONTINUOUS
 62
256
 10
-275.406851000000020
 20
168.561594000000010
 11
-178.406850999999990
 21
168.561594000000010
  0
LINE
  8
0
  6
CONTINUOUS
 62
256
 10
-275.406851000000020
 20
172.525340000000000
 11
-178.406850999999990
 21
172.525340000000000
  0
LINE
  8
0
  6
CONTINUOUS
 62
256
 10
-275.406851000000020
 20
101.096266000000000
 11
-178.406850999999990
 21
101.096266000000000
  0
ARC
  8
0
  6
CONTINUOUS
 62
256
 10
-577.010178999999990
 20
-88.022502000000003
 40
1.000000000000000
 50
180.000000000000000
 51
270.000000000000000
  0
LINE
  8
0
  6
CONTINUOUS
 62
256
 10
-577.010178999999990
 20
-89.022502000000003
 11
-574.010178999999990
 21
-89.022502000000003
  0
LINE
  8
0
  6
CONTINUOUS
 62
256
 10
-453.009780999999980
 20
-17.522501999999999
 11
-448.009780999999980
 21
-17.522501999999999
  0
LINE
  8
0
  6
CONTINUOUS
 62
256
 10
-465.010178999999990
 20
6.968771000000000
 11
-465.010178999999990
 21
-23.784265999999999
  0
LINE
  8
0
  6
CONTINUOUS
 62
256
 10
-453.009780999999980
 20
-46.407860999999997
 11
-453.009780999999980
 21
6.759303000000000
  0
LINE
  8
0
  6
CONTINUOUS
 62
256
 10
-453.009780999999980
 20
6.759303000000000
 11
-465.010178999999990
 21
6.968771000000000
  0
LINE
  8
0
  6
CONTINUOUS
 62
256
 10
-448.009780999999980
 20
-65.022502000000003
 11
-448.009780999999980
 21
-17.522501999999999
  0
ARC
  8
0
  6
CONTINUOUS
 62
256
 10
-445.010178999999990
 20
-42.022502000000003
 40
1.000000000000000
 50
0.000000000000000
 51
90.000000000000000
  0
LINE
  8
0
  6
CONTINUOUS
 62
256
 10
-444.010178999999990
 20
-42.022502000000003
 11
-444.010178999999990
 21
-65.022502000000003
  0
LINE
  8
0
  6
CONTINUOUS
 62
256
 10
-445.010178999999990
 20
-41.022502000000003
 11
-448.010178999999990
 21
-41.022502000000003
  0
LINE
  8
0
  6
CONTINUOUS
 62
256
 10
-444.010178999999990
 20
-88.022502000000003
 11
-444.010178999999990
 21
-65.022502000000003
  0
ARC
  8
0
  6
CONTINUOUS
 62
256
 10
-445.010178999999990
 20
-88.022502000000003
 40
1.000000000000000
 50
270.000000000000000
 51
0.000000000000000
  0
LINE
  8
0
  6
CONTINUOUS
 62
256
 10
-445.010178999999990
 20
-89.022502000000003
 11
-448.010178999999990
 21
-89.022502000000003
  0
LINE
  8
0
  6
CONTINUOUS
 62
256
 10
-452.665200000000030
 20
-112.522502000000000
 11
-448.009780999999980
 21
-112.522502000000000
  0
LINE
  8
0
  6
CONTINUOUS
 62
256
 10
-448.009780999999980
 20
-65.022502000000003
 11
-448.009780999999980
 21
-112.522502000000000
  0
LINE
  8
0
  6
CONTINUOUS
 62
256
 10
-453.009780999999980
 20
-115.636830000000000
 11
-453.009780999999980
 21
-168.304383000000000
  0
LINE
  8
0
  6
CONTINUOUS
 62
256
 10
-465.010178999999990
 20
-138.260424000000000
 11
-465.010178999999990
 21
-169.013774000000010
  0
LINE
  8
0
  6
CONTINUOUS
 62
256
 10
-465.010178999999990
 20
-169.013774000000010
 11
-475.010178999999990
 21
-168.839224000000000
  0
LINE
  8
0
  6
CONTINUOUS
 62
256
 10
-453.509629000000020
 20
-168.813031000000000
 11
-465.010178999999990
 21
-169.013774000000010
  0
LINE
  8
0
  6
CONTINUOUS
 62
256
 10
-453.009780999999980
 20
-168.304383000000000
 11
-453.509629000000020
 21
-168.813031000000000
  0
LINE
  8
0
  6
CONTINUOUS
 62
256
 10
-569.010178999999990
 20
-115.640260000000000
 11
-569.010178999999990
 21
-167.364271000000000
  0
LINE
  8
0
  6
CONTINUOUS
 62
256
 10
-547.010178999999990
 20
-167.582459000000000
 11
-559.510178999999990
 21
-167.364271000000000
  0
LINE
  8
0
  6
CONTINUOUS
 62
256
 10
-559.510178999999990
 20
-167.364271000000000
 11
-569.010178999999990
 21
-167.364271000000000
  0
LINE
  8
0
  6
CONTINUOUS
 62
256
 10
-574.010178999999990
 20
-112.522502000000000
 11
-569.355156999999960
 21
-112.522502000000000
  0
LINE
  8
0
  6
CONTINUOUS
 62
256
 10
-578.010178999999990
 20
-88.022502000000003
 11
-578.010178999999990
 21
-65.022502000000003
  0
ARC
  8
0
  6
CONTINUOUS
 62
256
 10
-577.010178999999990
 20
-42.022502000000003
 40
1.000000000000000
 50
90.000000000000000
 51
180.000000000000000
  0
LINE
  8
0
  6
CONTINUOUS
 62
256
 10
-578.010178999999990
 20
-42.022502000000003
 11
-578.010178999999990
 21
-65.022502000000003
  0
LINE
  8
0
  6
CONTINUOUS
 62
256
 10
-577.010178999999990
 20
-41.022502000000003
 11
-574.010178999999990
 21
-41.022502000000003
  0
LINE
  8
0
  6
CONTINUOUS
 62
256
 10
-574.010178999999990
 20
-17.522501999999999
 11
-574.010178999999990
 21
-112.522502000000000
  0
LINE
  8
0
  6
CONTINUOUS
 62
256
 10
-574.010178999999990
 20
-17.522501999999999
 11
-569.010178999999990
 21
-17.522501999999999
  0
LINE
  8
0
  6
CONTINUOUS
 62
256
 10
-569.010178999999990
 20
5.319267000000000
 11
-569.010178999999990
 21
-46.404431000000002
  0
LINE
  8
0
  6
CONTINUOUS
 62
256
 10
-559.510178999999990
 20
5.319267000000000
 11
-569.010178999999990
 21
5.319267000000000
  0
LINE
  8
0
  6
CONTINUOUS
 62
256
 10
-465.010178999999990
 20
6.968771000000000
 11
-559.510178999999990
 21
5.319267000000000
  0
LINE
  8
0
  6
DASHDOT
 62
256
 10
-511.010178999999990
 20
10.058655999999999
 11
-511.010178999999990
 21
-186.665258999999990
  0
LINE
  8
0
  6
DASHDOT
 62
256
 10
-582.400865999999950
 20
-81.022345000000001
 11
-439.089820999999970
 21
-81.022345000000001
  0
ARC
  8
0
  6
CONTINUOUS
 62
256
 10
-511.010178999999990
 20
121.477655000000000
 40
300.000000000000000
 50
263.967950999999970
 51
276.032048999999970
  0
LINE
  8
0
  6
CONTINUOUS
 62
256
 10
-513.510178999999990
 20
-178.511929000000010
 11
-513.510178999999990
 21
-179.022345000000000
  0
LINE
  8
0
  6
CONTINUOUS
 62
256
 10
-508.510178999999990
 20
-178.522343000000010
 11
-508.510178999999990
 21
-179.022345000000000
  0
LINE
  8
0
  6
CONTINUOUS
 62
256
 10
-513.510178999999990
 20
-179.022345000000000
 11
-508.510178999999990
 21
-179.022345000000000
  0
ARC
  8
0
  6
CONTINUOUS
 62
256
 10
-542.010178999999990
 20
-171.889010000000010
 40
5.000000000000000
 50
180.000000000000000
 51
263.967951000000650
  0
LINE
  8
0
  6
CONTINUOUS
 62
256
 10
-547.010178999999990
 20
-143.328649000000010
 11
-547.010178999999990
 21
-171.889010000000010
  0
LINE
  8
0
  6
CONTINUOUS
 62
256
 10
-475.010178999999990
 20
-143.328649000000010
 11
-475.010178999999990
 21
-171.889010000000010
  0
ARC
  8
0
  6
CONTINUOUS
 62
256
 10
-480.010178999999990
 20
-171.889010000000010
 40
5.000000000000002
 50
276.032049000000030
 51
0.000000000000000
  0
LINE
  8
0
  6
CONTINUOUS
 62
256
 10
-541.002677999999950
 20
-144.522345000000000
 11
-547.010178999999990
 21
-144.522345000000000
  0
LINE
  8
0
  6
CONTINUOUS
 62
256
 10
-481.017679999999980
 20
-144.522345000000000
 11
-475.010178999999990
 21
-144.522345000000000
  0
ARC
  8
0
  6
CONTINUOUS
 62
256
 10
-511.010178999999990
 20
-316.622345000000000
 40
289.396999999999990
 50
90.000000000000000
 51
96.051984999999988
  0
ARC
  8
0
  6
CONTINUOUS
 62
256
 10
-539.898208999999950
 20
-44.149444000000003
 40
15.396999999999997
 50
96.051984999999931
 51
135.000000000000090
  0
LINE
  8
0
  6
CONTINUOUS
 62
256
 10
-555.361596999999960
 20
-37.838186999999998
 11
-550.785531999999990
 21
-33.262121000000000
  0
ARC
  8
0
  6
CONTINUOUS
 62
256
 10
-551.118956000000030
 20
-42.080826999999999
 40
6.000000000000024
 50
135.000000000000260
 51
172.102011000000000
  0
ARC
  8
0
  6
CONTINUOUS
 62
256
 10
-270.410179000000030
 20
-81.022345000000001
 40
289.397000000000110
 50
172.102011000000030
 51
180.000000000000000
  0
ARC
  8
0
  6
CONTINUOUS
 62
256
 10
-511.010178999999990
 20
154.577654999999990
 40
289.396999999999990
 50
263.948015000000000
 51
270.000000000000000
  0
ARC
  8
0
  6
CONTINUOUS
 62
256
 10
-539.898208999999950
 20
-117.895246000000000
 40
15.397000000000025
 50
224.999999999999940
 51
263.948015000000050
  0
LINE
  8
0
  6
CONTINUOUS
 62
256
 10
-555.361596999999960
 20
-124.206504000000000
 11
-550.785531999999990
 21
-128.782569000000000
  0
ARC
  8
0
  6
CONTINUOUS
 62
256
 10
-551.118956000000030
 20
-119.963863000000000
 40
5.999999999999990
 50
187.897989000000000
 51
224.999999999999800
  0
ARC
  8
0
  6
CONTINUOUS
 62
256
 10
-270.410179000000030
 20
-81.022345000000001
 40
289.396999999999990
 50
180.000000000000000
 51
187.897988999999970
  0
ARC
  8
0
  6
CONTINUOUS
 62
256
 10
-511.010178999999990
 20
154.577654999999990
 40
289.396999999999990
 50
270.000000000000000
 51
276.051985000000000
  0
ARC
  8
0
  6
CONTINUOUS
 62
256
 10
-482.122148999999980
 20
-117.895246000000000
 40
15.396999999999988
 50
276.051984999999890
 51
314.999999999999890
  0
LINE
  8
0
  6
CONTINUOUS
 62
256
 10
-466.658761000000030
 20
-124.206504000000000
 11
-471.234826000000000
 21
-128.782569000000000
  0
ARC
  8
0
  6
CONTINUOUS
 62
256
 10
-470.901401000000020
 20
-119.963863000000000
 40
5.999999999999989
 50
314.999999999999770
 51
352.102010999999950
  0
ARC
  8
0
  6
CONTINUOUS
 62
256
 10
-751.610179000000020
 20
-81.022345000000001
 40
289.396999999999990
 50
352.102011000000000
 51
360.000000000000000
  0
ARC
  8
0
  6
CONTINUOUS
 62
256
 10
-511.010178999999990
 20
-316.622345000000000
 40
289.396999999999990
 50
83.948014999999998
 51
90.000000000000000
  0
LINE
  8
0
  6
CONTINUOUS
 62
256
 10
-466.658761000000030
 20
-37.838186999999998
 11
-471.234826000000000
 21
-33.262121000000000
  0
ARC
  8
0
  6
CONTINUOUS
 62
256
 10
-482.122148999999980
 20
-44.149444000000003
 40
15.397000000000016
 50
44.999999999999929
 51
83.948015000000069
  0
ARC
  8
0
  6
CONTINUOUS
 62
256
 10
-539.898208999999950
 20
-117.895246000000000
 40
26.599999999999987
 50
225.000000000000060
 51
263.948015000000050
  0
LINE
  8
0
  6
CONTINUOUS
 62
256
 10
-565.773697999999970
 20
-129.637837999999990
 11
-558.707249000000050
 21
-136.704286999999990
  0
ARC
  8
0
  6
CONTINUOUS
 62
256
 10
-511.010178999999990
 20
154.577654999999990
 40
300.600000000000020
 50
263.948014999999940
 51
276.051985000000000
  0
ARC
  8
0
  6
CONTINUOUS
 62
256
 10
-539.898208999999950
 20
-44.149444000000003
 40
26.599999999999998
 50
96.051984999999959
 51
134.999999999999940
  0
ARC
  8
0
  6
CONTINUOUS
 62
256
 10
-511.010178999999990
 20
-316.622345000000000
 40
300.600000000000020
 50
83.948014999999998
 51
96.051985000000002
  0
LINE
  8
0
  6
CONTINUOUS
 62
256
 10
-565.773697999999970
 20
-32.406852999999998
 11
-558.707249000000050
 21
-25.340403999999999
  0
ARC
  8
0
  6
CONTINUOUS
 62
256
 10
-482.122148999999980
 20
-44.149444000000003
 40
26.600000000000019
 50
44.999999999999964
 51
83.948015000000026
  0
LINE
  8
0
  6
CONTINUOUS
 62
256
 10
-456.246660000000020
 20
-32.406852999999998
 11
-463.313109000000000
 21
-25.340403999999999
  0
ARC
  8
0
  6
CONTINUOUS
 62
256
 10
-482.122148999999980
 20
-117.895246000000000
 40
26.599999999999994
 50
276.051984999999950
 51
315.000000000000000
  0
LINE
  8
0
  6
CONTINUOUS
 62
256
 10
-456.246660000000020
 20
-129.637837999999990
 11
-463.313109000000000
 21
-136.704286999999990
  0
ARC
  8
0
  6
CONTINUOUS
 62
256
 10
-561.106793000000040
 20
-37.073757999999998
 40
6.599999999999977
 50
134.999999999999830
 51
171.402918000000030
  0
ARC
  8
0
  6
CONTINUOUS
 62
256
 10
-270.410179000000030
 20
-81.022345000000001
 40
300.600000000000080
 50
171.402918000000000
 51
180.000000000000000
  0
ARC
  8
0
  6
CONTINUOUS
 62
256
 10
-561.106793000000040
 20
-124.970933000000000
 40
6.600000000000022
 50
188.597082000000030
 51
225.000000000000170
  0
ARC
  8
0
  6
CONTINUOUS
 62
256
 10
-751.610179000000020
 20
-81.022345000000001
 40
300.600000000000020
 50
351.402918000000000
 51
0.000000000000000
  0
ARC
  8
0
  6
CONTINUOUS
 62
256
 10
-460.913564000000010
 20
-124.970933000000000
 40
6.600000000000017
 50
315.000000000000170
 51
351.402918000000060
  0
ARC
  8
0
  6
CONTINUOUS
 62
256
 10
-270.410179000000030
 20
-81.022345000000001
 40
300.600000000000080
 50
180.000000000000000
 51
188.597082000000000
  0
ARC
  8
0
  6
CONTINUOUS
 62
256
 10
-751.610179000000020
 20
-81.022345000000001
 40
300.600000000000020
 50
0.000000000000000
 51
8.597082000000000
  0
ARC
  8
0
  6
CONTINUOUS
 62
256
 10
-469.703399999999990
 20
-85.022345000000001
 40
1.499999999999979
 50
354.468927999999720
 51
90.000000000000000
  0
ARC
  8
0
  6
CONTINUOUS
 62
256
 10
-469.703399999999990
 20
-77.022345000000001
 40
1.500000000000000
 50
270.000000000000000
 51
5.531072000000276
  0
ARC
  8
0
  6
CONTINUOUS
 62
256
 10
-511.010178999999990
 20
-81.022345000000001
 40
17.999999999999989
 50
311.837003999999920
 51
348.162995999999960
  0
ARC
  8
0
  6
CONTINUOUS
 62
256
 10
-511.010178999999990
 20
-81.022345000000001
 40
27.499999999999986
 50
7.928141999999994
 51
52.071858000000006
  0
LINE
  8
0
  6
CONTINUOUS
 62
256
 10
-469.703399999999990
 20
-83.522345000000001
 11
-472.718534999999970
 21
-83.522345000000001
  0
LINE
  8
0
  6
CONTINUOUS
 62
256
 10
-489.699293000000010
 20
-112.933882000000000
 11
-488.191726000000020
 21
-115.545064999999990
  0
LINE
  8
0
  6
CONTINUOUS
 62
256
 10
-479.261163000000010
 20
-83.522345000000001
 11
-482.287366000000020
 21
-83.522345000000001
  0
ARC
  8
0
  6
CONTINUOUS
 62
256
 10
-479.261163000000010
 20
-85.022345000000001
 40
1.500000000000028
 50
352.819243999999910
 51
90.000000000000000
  0
ARC
  8
0
  6
CONTINUOUS
 62
256
 10
-472.718534999999970
 20
-85.022345000000001
 40
1.500000000000000
 50
90.000000000000000
 51
174.036430000000220
  0
ARC
  8
0
  6
CONTINUOUS
 62
256
 10
-486.892688000000020
 20
-114.795064999999990
 40
1.499999999999975
 50
210.000000000000510
 51
305.531071999999480
  0
ARC
  8
0
  6
CONTINUOUS
 62
256
 10
-511.010178999999990
 20
-81.022345000000001
 40
43.000000000000021
 50
305.531071999999990
 51
354.468928000000010
  0
ARC
  8
0
  6
CONTINUOUS
 62
256
 10
-493.820891000000020
 20
-118.795064999999990
 40
1.500000000000002
 50
294.468927999999780
 51
30.000000000000544
  0
LINE
  8
0
  6
CONTINUOUS
 62
256
 10
-494.029420000000020
 20
-115.433882000000000
 11
-492.521853000000020
 21
-118.045064999999990
  0
ARC
  8
0
  6
CONTINUOUS
 62
256
 10
-495.328458000000010
 20
-116.183882000000000
 40
1.499999999999975
 50
30.000000000000544
 51
114.036429999999640
  0
ARC
  8
0
  6
CONTINUOUS
 62
256
 10
-511.010178999999990
 20
-81.022345000000001
 40
37.000000000000014
 50
245.963569999999950
 51
294.036429999999940
  0
ARC
  8
0
  6
CONTINUOUS
 62
256
 10
-511.010178999999990
 20
-81.022345000000001
 40
43.000000000000007
 50
245.531071999999970
 51
294.468927999999950
  0
ARC
  8
0
  6
CONTINUOUS
 62
256
 10
-528.199467000000030
 20
-118.795064999999990
 40
1.500000000000025
 50
150.000000000000540
 51
245.531072000000220
  0
LINE
  8
0
  6
CONTINUOUS
 62
256
 10
-529.498505000000020
 20
-118.045064999999990
 11
-527.990937000000030
 21
-115.433882000000000
  0
ARC
  8
0
  6
CONTINUOUS
 62
256
 10
-526.691899000000030
 20
-116.183882000000000
 40
1.500000000000022
 50
65.963569999998384
 51
150.000000000000540
  0
ARC
  8
0
  6
CONTINUOUS
 62
256
 10
-535.127669999999970
 20
-114.795064999999990
 40
1.500000000000022
 50
234.468927999998730
 51
330.000000000000570
  0
LINE
  8
0
  6
CONTINUOUS
 62
256
 10
-533.828631999999970
 20
-115.545064999999990
 11
-532.321063999999980
 21
-112.933882000000000
  0
LINE
  8
0
  6
CONTINUOUS
 62
256
 10
-469.703399999999990
 20
-78.522345000000001
 11
-472.718534999999970
 21
-78.522345000000001
  0
ARC
  8
0
  6
CONTINUOUS
 62
256
 10
-472.718534999999970
 20
-77.022345000000001
 40
1.500000000000012
 50
185.963569999999780
 51
270.000000000000000
  0
LINE
  8
0
  6
CONTINUOUS
 62
256
 10
-479.261163000000010
 20
-78.522345000000001
 11
-482.287366000000020
 21
-78.522345000000001
  0
ARC
  8
0
  6
CONTINUOUS
 62
256
 10
-479.261163000000010
 20
-77.022345000000001
 40
1.500000000000000
 50
270.000000000000000
 51
7.180756000000089
  0
ARC
  8
0
  6
CONTINUOUS
 62
256
 10
-511.010178999999990
 20
-81.022345000000001
 40
23.999999999999993
 50
10.240347999999988
 51
49.759652000000010
  0
ARC
  8
0
  6
CONTINUOUS
 62
256
 10
-496.475281999999990
 20
-63.847166000000001
 40
1.499999999999991
 50
49.759652000000230
 51
150.000000000000540
  0
LINE
  8
0
  6
CONTINUOUS
 62
256
 10
-499.302448000000030
 20
-65.743960999999999
 11
-497.774319999999990
 21
-63.097166000000001
  0
ARC
  8
0
  6
CONTINUOUS
 62
256
 10
-498.003409999999970
 20
-66.493960999999999
 40
1.499999999999975
 50
149.999999999999460
 51
228.162996000000190
  0
ARC
  8
0
  6
CONTINUOUS
 62
256
 10
-511.010178999999990
 20
-81.022345000000001
 40
17.999999999999975
 50
11.837004000000027
 51
48.162996000000071
  0
ARC
  8
0
  6
CONTINUOUS
 62
256
 10
-491.924844000000010
 20
-77.022345000000001
 40
1.499999999999997
 50
191.837003999999810
 51
270.000000000000000
  0
LINE
  8
0
  6
CONTINUOUS
 62
256
 10
-488.868588999999990
 20
-78.522345000000001
 11
-491.924844000000010
 21
-78.522345000000001
  0
ARC
  8
0
  6
CONTINUOUS
 62
256
 10
-488.868588999999990
 20
-77.022345000000001
 40
1.500000000000000
 50
270.000000000000000
 51
10.240347999999715
  0
ARC
  8
0
  6
CONTINUOUS
 62
256
 10
-511.010178999999990
 20
-81.022345000000001
 40
14.500000000000014
 50
17.920213000000000
 51
42.079786999999946
  0
ARC
  8
0
  6
CONTINUOUS
 62
256
 10
-501.361419000000010
 20
-72.310203000000001
 40
1.499999999999994
 50
42.079787000000181
 51
149.999999999999460
  0
LINE
  8
0
  6
CONTINUOUS
 62
256
 10
-504.262540000000000
 20
-74.335091000000006
 11
-502.660457000000010
 21
-71.560203000000001
  0
ARC
  8
0
  6
CONTINUOUS
 62
256
 10
-502.963501000000010
 20
-75.085091000000006
 40
1.499999999999975
 50
149.999999999999460
 51
216.421821999999960
  0
ARC
  8
0
  6
CONTINUOUS
 62
256
 10
-511.010178999999990
 20
-81.022345000000001
 40
8.499999999999991
 50
23.578178000000058
 51
36.421822000000063
  0
ARC
  8
0
  6
CONTINUOUS
 62
256
 10
-501.845027000000020
 20
-77.022345000000001
 40
1.499999999999984
 50
203.578178000000380
 51
270.000000000000000
  0
LINE
  8
0
  6
CONTINUOUS
 62
256
 10
-498.640862000000030
 20
-78.522345000000001
 11
-501.845027000000020
 21
-78.522345000000001
  0
ARC
  8
0
  6
CONTINUOUS
 62
256
 10
-498.640862000000030
 20
-77.022345000000001
 40
1.500000000000000
 50
270.000000000000000
 51
17.920212999999450
  0
ARC
  8
0
  6
CONTINUOUS
 62
256
 10
-511.010178999999990
 20
-81.022345000000001
 40
24.000000000000050
 50
190.240348000000010
 51
229.759652000000100
  0
ARC
  8
0
  6
CONTINUOUS
 62
256
 10
-533.151768999999940
 20
-85.022345000000001
 40
1.500000000000000
 50
90.000000000000000
 51
190.240348000000100
  0
LINE
  8
0
  6
CONTINUOUS
 62
256
 10
-530.095512999999980
 20
-83.522345000000001
 11
-533.151768999999940
 21
-83.522345000000001
  0
ARC
  8
0
  6
CONTINUOUS
 62
256
 10
-530.095512999999980
 20
-85.022345000000001
 40
1.500000000000053
 50
11.837003999999359
 51
90.000000000000000
  0
ARC
  8
0
  6
CONTINUOUS
 62
256
 10
-511.010178999999990
 20
-81.022345000000001
 40
17.999999999999975
 50
191.837004000000010
 51
228.162996000000020
  0
ARC
  8
0
  6
CONTINUOUS
 62
256
 10
-524.016947999999960
 20
-95.550730000000001
 40
1.500000000000025
 50
330.000000000000570
 51
48.162995999998600
  0
LINE
  8
0
  6
CONTINUOUS
 62
256
 10
-524.246037000000000
 20
-98.947524999999999
 11
-522.717909999999960
 21
-96.300730000000001
  0
ARC
  8
0
  6
CONTINUOUS
 62
256
 10
-525.545075000000000
 20
-98.197524999999999
 40
1.500000000000027
 50
229.759651999998570
 51
330.000000000000570
  0
ARC
  8
0
  6
CONTINUOUS
 62
256
 10
-511.010178999999990
 20
-81.022345000000001
 40
14.499999999999956
 50
197.920213000000020
 51
222.079787000000070
  0
ARC
  8
0
  6
CONTINUOUS
 62
256
 10
-523.379496000000020
 20
-85.022345000000001
 40
1.500000000000000
 50
90.000000000000000
 51
197.920212999999450
  0
LINE
  8
0
  6
CONTINUOUS
 62
256
 10
-520.175330000000030
 20
-83.522345000000001
 11
-523.379496000000020
 21
-83.522345000000001
  0
ARC
  8
0
  6
CONTINUOUS
 62
256
 10
-520.175330000000030
 20
-85.022345000000001
 40
1.500000000000036
 50
23.578177999999536
 51
90.000000000000000
  0
ARC
  8
0
  6
CONTINUOUS
 62
256
 10
-511.010178999999990
 20
-81.022345000000001
 40
8.499999999999991
 50
203.578178000000070
 51
216.421822000000050
  0
ARC
  8
0
  6
CONTINUOUS
 62
256
 10
-519.056856000000040
 20
-86.959598999999997
 40
1.500000000000025
 50
330.000000000000570
 51
36.421822000001256
  0
LINE
  8
0
  6
CONTINUOUS
 62
256
 10
-519.359901000000040
 20
-90.484487999999999
 11
-517.757818000000040
 21
-87.709598999999997
  0
ARC
  8
0
  6
CONTINUOUS
 62
256
 10
-520.658939000000030
 20
-89.734487999999999
 40
1.499999999999994
 50
222.079787000000180
 51
330.000000000000570
  0
ARC
  8
0
  6
CONTINUOUS
 62
256
 10
-511.010178999999990
 20
-81.022345000000001
 40
24.000000000000032
 50
130.240348000000130
 51
169.759651999999990
  0
ARC
  8
0
  6
CONTINUOUS
 62
256
 10
-533.151768999999940
 20
-77.022345000000001
 40
1.499999999999953
 50
169.759651999999900
 51
270.000000000000000
  0
LINE
  8
0
  6
CONTINUOUS
 62
256
 10
-530.095512999999980
 20
-78.522345000000001
 11
-533.151768999999940
 21
-78.522345000000001
  0
ARC
  8
0
  6
CONTINUOUS
 62
256
 10
-530.095512999999980
 20
-77.022345000000001
 40
1.500000000000000
 50
270.000000000000000
 51
348.162996000000650
  0
ARC
  8
0
  6
CONTINUOUS
 62
256
 10
-511.010178999999990
 20
-81.022345000000001
 40
17.999999999999989
 50
131.837003999999920
 51
168.162995999999990
  0
ARC
  8
0
  6
CONTINUOUS
 62
256
 10
-524.016947999999960
 20
-66.493960999999999
 40
1.500000000000027
 50
311.837004000001400
 51
29.999999999999456
  0
LINE
  8
0
  6
CONTINUOUS
 62
256
 10
-524.246037000000000
 20
-63.097166000000001
 11
-522.717909999999960
 21
-65.743960999999999
  0
ARC
  8
0
  6
CONTINUOUS
 62
256
 10
-525.545075000000000
 20
-63.847166000000001
 40
1.500000000000025
 50
29.999999999999456
 51
130.240348000001430
  0
ARC
  8
0
  6
CONTINUOUS
 62
256
 10
-511.010178999999990
 20
-81.022345000000001
 40
14.499999999999970
 50
137.920212999999930
 51
162.079786999999980
  0
ARC
  8
0
  6
CONTINUOUS
 62
256
 10
-523.379496000000020
 20
-77.022345000000001
 40
1.500000000000024
 50
162.079787000000550
 51
270.000000000000000
  0
LINE
  8
0
  6
CONTINUOUS
 62
256
 10
-520.175330000000030
 20
-78.522345000000001
 11
-523.379496000000020
 21
-78.522345000000001
  0
ARC
  8
0
  6
CONTINUOUS
 62
256
 10
-520.175330000000030
 20
-77.022345000000001
 40
1.500000000000000
 50
270.000000000000000
 51
336.421822000000470
  0
ARC
  8
0
  6
CONTINUOUS
 62
256
 10
-511.010178999999990
 20
-81.022345000000001
 40
8.499999999999989
 50
143.578177999999950
 51
156.421821999999930
  0
ARC
  8
0
  6
CONTINUOUS
 62
256
 10
-519.056856000000040
 20
-75.085091000000006
 40
1.499999999999955
 50
323.578177999998730
 51
29.999999999999456
  0
LINE
  8
0
  6
CONTINUOUS
 62
256
 10
-519.359901000000040
 20
-71.560203000000001
 11
-517.757818000000040
 21
-74.335091000000006
  0
ARC
  8
0
  6
CONTINUOUS
 62
256
 10
-520.658939000000030
 20
-72.310203000000001
 40
1.500000000000025
 50
29.999999999999456
 51
137.920212999999820
  0
ARC
  8
0
  6
CONTINUOUS
 62
256
 10
-511.010178999999990
 20
-81.022345000000001
 40
23.999999999999993
 50
70.240348000000012
 51
109.759651999999990
  0
ARC
  8
0
  6
CONTINUOUS
 62
256
 10
-503.403485999999990
 20
-59.847166000000001
 40
1.499999999999975
 50
329.999999999999490
 51
70.240347999999216
  0
LINE
  8
0
  6
CONTINUOUS
 62
256
 10
-503.632574999999970
 20
-63.243960999999999
 11
-502.104446999999990
 21
-60.597166000000001
  0
ARC
  8
0
  6
CONTINUOUS
 62
256
 10
-504.931613000000030
 20
-62.493960999999999
 40
1.500000000000000
 50
251.837003999999610
 51
329.999999999999490
  0
ARC
  8
0
  6
CONTINUOUS
 62
256
 10
-511.010178999999990
 20
-81.022345000000001
 40
17.999999999999996
 50
71.837004000000007
 51
108.162996000000010
  0
ARC
  8
0
  6
CONTINUOUS
 62
256
 10
-517.088745000000020
 20
-62.493960999999999
 40
1.500000000000025
 50
209.999999999999460
 51
288.162996000000360
  0
LINE
  8
0
  6
CONTINUOUS
 62
256
 10
-519.915910000000050
 20
-60.597166000000001
 11
-518.387783000000010
 21
-63.243960999999999
  0
ARC
  8
0
  6
CONTINUOUS
 62
256
 10
-518.616871999999940
 20
-59.847166000000001
 40
1.500000000000005
 50
109.759652000000780
 51
209.999999999999460
  0
ARC
  8
0
  6
CONTINUOUS
 62
256
 10
-511.010178999999990
 20
-81.022345000000001
 40
14.500000000000002
 50
77.920213000000032
 51
102.079786999999980
  0
ARC
  8
0
  6
CONTINUOUS
 62
256
 10
-508.289622000000010
 20
-68.310203000000001
 40
1.499999999999975
 50
329.999999999999490
 51
77.920213000000771
  0
LINE
  8
0
  6
CONTINUOUS
 62
256
 10
-508.592667000000010
 20
-71.835091000000006
 11
-506.990584000000010
 21
-69.060203000000001
  0
ARC
  8
0
  6
CONTINUOUS
 62
256
 10
-509.891705000000000
 20
-71.085091000000006
 40
1.500000000000001
 50
263.578178000000780
 51
329.999999999999490
  0
ARC
  8
0
  6
CONTINUOUS
 62
256
 10
-511.010178999999990
 20
-81.022345000000001
 40
8.500000000000007
 50
83.578177999999994
 51
96.421822000000020
  0
ARC
  8
0
  6
CONTINUOUS
 62
256
 10
-512.128652999999990
 20
-71.085091000000006
 40
1.500000000000025
 50
209.999999999999460
 51
276.421821999999220
  0
LINE
  8
0
  6
CONTINUOUS
 62
256
 10
-515.029773999999970
 20
-69.060203000000001
 11
-513.427690999999980
 21
-71.835091000000006
  0
ARC
  8
0
  6
CONTINUOUS
 62
256
 10
-513.730735999999980
 20
-68.310203000000001
 40
1.500000000000000
 50
102.079787000001360
 51
209.999999999999460
  0
ARC
  8
0
  6
CONTINUOUS
 62
256
 10
-511.010178999999990
 20
-81.022345000000001
 40
23.999999999999993
 50
250.240348000000010
 51
289.759652000000020
  0
ARC
  8
0
  6
CONTINUOUS
 62
256
 10
-503.403485999999990
 20
-102.197525000000000
 40
1.500000000000012
 50
289.759652000000640
 51
30.000000000000544
  0
LINE
  8
0
  6
CONTINUOUS
 62
256
 10
-503.632574999999970
 20
-98.800730000000001
 11
-502.104446999999990
 21
-101.447525000000000
  0
ARC
  8
0
  6
CONTINUOUS
 62
256
 10
-504.931613000000030
 20
-99.550730000000001
 40
1.499999999999975
 50
30.000000000000544
 51
108.162996000000290
  0
ARC
  8
0
  6
CONTINUOUS
 62
256
 10
-511.010178999999990
 20
-81.022345000000001
 40
17.999999999999996
 50
251.837003999999980
 51
288.162995999999960
  0
ARC
  8
0
  6
CONTINUOUS
 62
256
 10
-517.088745000000020
 20
-99.550730000000001
 40
1.500000000000007
 50
71.837003999999709
 51
150.000000000000540
  0
LINE
  8
0
  6
CONTINUOUS
 62
256
 10
-519.915910000000050
 20
-101.447525000000000
 11
-518.387783000000010
 21
-98.800730000000001
  0
ARC
  8
0
  6
CONTINUOUS
 62
256
 10
-518.616871999999940
 20
-102.197525000000000
 40
1.500000000000025
 50
150.000000000000540
 51
250.240347999999300
  0
ARC
  8
0
  6
CONTINUOUS
 62
256
 10
-511.010178999999990
 20
-81.022345000000001
 40
14.500000000000002
 50
257.920213000000050
 51
282.079786999999950
  0
ARC
  8
0
  6
CONTINUOUS
 62
256
 10
-508.289622000000010
 20
-93.734487999999999
 40
1.499999999999989
 50
282.079786999999270
 51
29.999999999999456
  0
LINE
  8
0
  6
CONTINUOUS
 62
256
 10
-508.592667000000010
 20
-90.209598999999997
 11
-506.990584000000010
 21
-92.984487999999999
  0
ARC
  8
0
  6
CONTINUOUS
 62
256
 10
-509.891705000000000
 20
-90.959598999999997
 40
1.500000000000025
 50
29.999999999999456
 51
96.421821999999253
  0
ARC
  8
0
  6
CONTINUOUS
 62
256
 10
-511.010178999999990
 20
-81.022345000000001
 40
8.500000000000007
 50
263.578177999999980
 51
276.421822000000020
  0
ARC
  8
0
  6
CONTINUOUS
 62
256
 10
-512.128652999999990
 20
-90.959598999999997
 40
1.500000000000001
 50
83.578178000000747
 51
150.000000000000540
  0
LINE
  8
0
  6
CONTINUOUS
 62
256
 10
-515.029773999999970
 20
-92.984487999999999
 11
-513.427690999999980
 21
-90.209598999999997
  0
ARC
  8
0
  6
CONTINUOUS
 62
256
 10
-513.730735999999980
 20
-93.734487999999999
 40
1.500000000000025
 50
150.000000000000540
 51
257.920212999998630
  0
ARC
  8
0
  6
CONTINUOUS
 62
256
 10
-511.010178999999990
 20
-81.022345000000001
 40
8.499999999999989
 50
323.578177999999920
 51
336.421821999999910
  0
ARC
  8
0
  6
CONTINUOUS
 62
256
 10
-511.010178999999990
 20
-81.022345000000001
 40
24.000000000000004
 50
310.240347999999980
 51
349.759652000000020
  0
LINE
  8
0
  6
CONTINUOUS
 62
256
 10
-504.262540000000000
 20
-87.709598999999997
 11
-502.660457000000010
 21
-90.484487999999999
  0
LINE
  8
0
  6
CONTINUOUS
 62
256
 10
-488.868588999999990
 20
-83.522345000000001
 11
-491.924844000000010
 21
-83.522345000000001
  0
LINE
  8
0
  6
CONTINUOUS
 62
256
 10
-498.640862000000030
 20
-83.522345000000001
 11
-501.845027000000020
 21
-83.522345000000001
  0
ARC
  8
0
  6
CONTINUOUS
 62
256
 10
-511.010178999999990
 20
-81.022345000000001
 40
14.500000000000021
 50
317.920213000000050
 51
342.079787000000010
  0
LINE
  8
0
  6
CONTINUOUS
 62
256
 10
-499.302448000000030
 20
-96.300730000000001
 11
-497.774319999999990
 21
-98.947524999999999
  0
ARC
  8
0
  6
CONTINUOUS
 62
256
 10
-501.361419000000010
 20
-89.734487999999999
 40
1.499999999999975
 50
210.000000000000510
 51
317.920212999999820
  0
ARC
  8
0
  6
CONTINUOUS
 62
256
 10
-488.868588999999990
 20
-85.022345000000001
 40
1.500000000000009
 50
349.759652000000300
 51
90.000000000000000
  0
ARC
  8
0
  6
CONTINUOUS
 62
256
 10
-498.003409999999970
 20
-95.550730000000001
 40
1.499999999999989
 50
131.837003999999810
 51
210.000000000000510
  0
ARC
  8
0
  6
CONTINUOUS
 62
256
 10
-491.924844000000010
 20
-85.022345000000001
 40
1.500000000000000
 50
90.000000000000000
 51
168.162996000000190
  0
ARC
  8
0
  6
CONTINUOUS
 62
256
 10
-498.640862000000030
 20
-85.022345000000001
 40
1.500000000000024
 50
342.079787000000580
 51
90.000000000000000
  0
ARC
  8
0
  6
CONTINUOUS
 62
256
 10
-496.475281999999990
 20
-98.197524999999999
 40
1.499999999999975
 50
210.000000000000510
 51
310.240347999999810
  0
ARC
  8
0
  6
CONTINUOUS
 62
256
 10
-501.845027000000020
 20
-85.022345000000001
 40
1.500000000000000
 50
90.000000000000000
 51
156.421821999999620
  0
ARC
  8
0
  6
CONTINUOUS
 62
256
 10
-502.963501000000010
 20
-86.959598999999997
 40
1.500000000000000
 50
143.578178000000040
 51
210.000000000000510
  0
CIRCLE
  8
0
  6
CONTINUOUS
 62
256
 10
-511.010178999999990
 20
-81.022345000000001
 40
5.000000000000000
  0
ARC
  8
0
  6
CONTINUOUS
 62
256
 10
-493.184670999999980
 20
-103.897031000000000
 40
1.500000000000018
 50
127.928142000000730
 51
210.000000000000510
  0
LINE
  8
0
  6
CONTINUOUS
 62
256
 10
-494.483708999999980
 20
-104.647031000000000
 11
-492.970606999999970
 21
-107.267799999999990
  0
ARC
  8
0
  6
CONTINUOUS
 62
256
 10
-482.287366000000020
 20
-85.022345000000001
 40
1.500000000000000
 50
90.000000000000000
 51
172.071857999999850
  0
ARC
  8
0
  6
CONTINUOUS
 62
256
 10
-511.010178999999990
 20
-81.022345000000001
 40
27.500000000000004
 50
307.928141999999980
 51
352.071858000000020
  0
ARC
  8
0
  6
CONTINUOUS
 62
256
 10
-491.671568999999980
 20
-106.517799999999990
 40
1.499999999999975
 50
210.000000000000510
 51
307.180756000000090
  0
ARC
  8
0
  6
CONTINUOUS
 62
256
 10
-488.400255000000020
 20
-112.183882000000000
 40
1.500000000000018
 50
125.963570000000500
 51
210.000000000000510
  0
ARC
  8
0
  6
CONTINUOUS
 62
256
 10
-511.010178999999990
 20
-81.022345000000001
 40
36.999999999999993
 50
305.963570000000000
 51
354.036429999999940
  0
ARC
  8
0
  6
CONTINUOUS
 62
256
 10
-511.010178999999990
 20
-81.022345000000001
 40
33.499999999999986
 50
307.180755999999920
 51
352.819244000000030
  0
LINE
  8
0
  6
CONTINUOUS
 62
256
 10
-498.813835999999980
 20
-107.147031000000000
 11
-497.300733999999980
 21
-109.767799999999990
  0
ARC
  8
0
  6
CONTINUOUS
 62
256
 10
-498.599773000000030
 20
-110.517799999999990
 40
1.499999999999989
 50
292.819243999999060
 51
29.999999999999456
  0
ARC
  8
0
  6
CONTINUOUS
 62
256
 10
-500.112873999999980
 20
-107.897031000000000
 40
1.499999999999975
 50
30.000000000000544
 51
112.071857999999120
  0
ARC
  8
0
  6
CONTINUOUS
 62
256
 10
-511.010178999999990
 20
-81.022345000000001
 40
27.499999999999982
 50
247.928142000000120
 51
292.071857999999960
  0
ARC
  8
0
  6
CONTINUOUS
 62
256
 10
-511.010178999999990
 20
-81.022345000000001
 40
33.500000000000007
 50
247.180756000000030
 51
292.819243999999970
  0
ARC
  8
0
  6
CONTINUOUS
 62
256
 10
-521.907483999999950
 20
-107.897031000000000
 40
1.499999999999998
 50
67.928142000000889
 51
150.000000000000540
  0
LINE
  8
0
  6
CONTINUOUS
 62
256
 10
-524.719622999999960
 20
-109.767799999999990
 11
-523.206521999999950
 21
-107.147031000000000
  0
ARC
  8
0
  6
CONTINUOUS
 62
256
 10
-523.420584999999960
 20
-110.517799999999990
 40
1.500000000000025
 50
150.000000000000540
 51
247.180756000000940
  0
ARC
  8
0
  6
CONTINUOUS
 62
256
 10
-552.316958000000000
 20
-85.022345000000001
 40
1.500000000000000
 50
90.000000000000000
 51
185.531072000000050
  0
LINE
  8
0
  6
CONTINUOUS
 62
256
 10
-549.301823000000010
 20
-83.522345000000001
 11
-552.316958000000000
 21
-83.522345000000001
  0
LINE
  8
0
  6
CONTINUOUS
 62
256
 10
-539.732991999999970
 20
-83.522345000000001
 11
-542.759194999999980
 21
-83.522345000000001
  0
ARC
  8
0
  6
CONTINUOUS
 62
256
 10
-549.301823000000010
 20
-85.022345000000001
 40
1.499999999999955
 50
5.963570000000017
 51
90.000000000000000
  0
ARC
  8
0
  6
CONTINUOUS
 62
256
 10
-542.759194999999980
 20
-85.022345000000001
 40
1.500000000000000
 50
90.000000000000000
 51
187.180756000000340
  0
ARC
  8
0
  6
CONTINUOUS
 62
256
 10
-539.732991999999970
 20
-85.022345000000001
 40
1.500000000000004
 50
7.928142000000149
 51
90.000000000000000
  0
ARC
  8
0
  6
CONTINUOUS
 62
256
 10
-511.010178999999990
 20
-81.022345000000001
 40
27.499999999999989
 50
187.928142000000010
 51
232.071857999999930
  0
ARC
  8
0
  6
CONTINUOUS
 62
256
 10
-511.010178999999990
 20
-81.022345000000001
 40
37.000000000000036
 50
185.963570000000000
 51
234.036429999999970
  0
ARC
  8
0
  6
CONTINUOUS
 62
256
 10
-511.010178999999990
 20
-81.022345000000001
 40
42.999999999999979
 50
185.531071999999990
 51
234.468928000000060
  0
ARC
  8
0
  6
CONTINUOUS
 62
256
 10
-511.010178999999990
 20
-81.022345000000001
 40
33.499999999999950
 50
187.180756000000000
 51
232.819243999999880
  0
ARC
  8
0
  6
CONTINUOUS
 62
256
 10
-528.835687000000010
 20
-103.897031000000000
 40
1.500000000000025
 50
330.000000000000570
 51
52.071857999999288
  0
ARC
  8
0
  6
CONTINUOUS
 62
256
 10
-533.620101999999970
 20
-112.183882000000000
 40
1.500000000000025
 50
330.000000000000570
 51
54.036429999999186
  0
LINE
  8
0
  6
CONTINUOUS
 62
256
 10
-529.049750000000020
 20
-107.267799999999990
 11
-527.536649000000010
 21
-104.647031000000000
  0
ARC
  8
0
  6
CONTINUOUS
 62
256
 10
-530.348788000000010
 20
-106.517799999999990
 40
1.499999999999994
 50
232.819243999999940
 51
330.000000000000570
  0
ARC
  8
0
  6
CONTINUOUS
 62
256
 10
-552.316958000000000
 20
-77.022345000000001
 40
1.500000000000035
 50
174.468927999999950
 51
270.000000000000000
  0
LINE
  8
0
  6
CONTINUOUS
 62
256
 10
-549.301823000000010
 20
-78.522345000000001
 11
-552.316958000000000
 21
-78.522345000000001
  0
LINE
  8
0
  6
CONTINUOUS
 62
256
 10
-539.732991999999970
 20
-78.522345000000001
 11
-542.759194999999980
 21
-78.522345000000001
  0
ARC
  8
0
  6
CONTINUOUS
 62
256
 10
-549.301823000000010
 20
-77.022345000000001
 40
1.500000000000000
 50
270.000000000000000
 51
354.036430000000000
  0
ARC
  8
0
  6
CONTINUOUS
 62
256
 10
-542.759194999999980
 20
-77.022345000000001
 40
1.499999999999972
 50
172.819243999999660
 51
270.000000000000000
  0
ARC
  8
0
  6
CONTINUOUS
 62
256
 10
-539.732991999999970
 20
-77.022345000000001
 40
1.500000000000000
 50
270.000000000000000
 51
352.071857999999850
  0
ARC
  8
0
  6
CONTINUOUS
 62
256
 10
-511.010178999999990
 20
-81.022345000000001
 40
27.500000000000036
 50
127.928142000000070
 51
172.071857999999990
  0
ARC
  8
0
  6
CONTINUOUS
 62
256
 10
-511.010178999999990
 20
-81.022345000000001
 40
37.000000000000000
 50
125.963569999999990
 51
174.036430000000000
  0
ARC
  8
0
  6
CONTINUOUS
 62
256
 10
-511.010178999999990
 20
-81.022345000000001
 40
42.999999999999979
 50
125.531071999999970
 51
174.468928000000010
  0
ARC
  8
0
  6
CONTINUOUS
 62
256
 10
-511.010178999999990
 20
-81.022345000000001
 40
33.499999999999972
 50
127.180755999999930
 51
172.819244000000000
  0
ARC
  8
0
  6
CONTINUOUS
 62
256
 10
-528.835687000000010
 20
-58.147658999999997
 40
1.500000000000018
 50
307.928142000000720
 51
29.999999999999456
  0
ARC
  8
0
  6
CONTINUOUS
 62
256
 10
-535.127669999999970
 20
-47.249625000000002
 40
1.500000000000025
 50
29.999999999999456
 51
125.531072000001260
  0
LINE
  8
0
  6
CONTINUOUS
 62
256
 10
-533.828631999999970
 20
-46.499625000000002
 11
-532.321063999999980
 21
-49.110809000000003
  0
ARC
  8
0
  6
CONTINUOUS
 62
256
 10
-533.620101999999970
 20
-49.860809000000003
 40
1.500000000000013
 50
305.963570000000630
 51
29.999999999999456
  0
LINE
  8
0
  6
CONTINUOUS
 62
256
 10
-529.049750000000020
 20
-54.776890999999999
 11
-527.536649000000010
 21
-57.397658999999997
  0
ARC
  8
0
  6
CONTINUOUS
 62
256
 10
-530.348788000000010
 20
-55.526890999999999
 40
1.500000000000025
 50
29.999999999999456
 51
127.180755999999920
  0
ARC
  8
0
  6
CONTINUOUS
 62
256
 10
-493.820891000000020
 20
-43.249625000000002
 40
1.499999999999975
 50
329.999999999999490
 51
65.531072000000108
  0
LINE
  8
0
  6
CONTINUOUS
 62
256
 10
-494.029420000000020
 20
-46.610809000000003
 11
-492.521853000000020
 21
-43.999625000000002
  0
LINE
  8
0
  6
CONTINUOUS
 62
256
 10
-498.813835999999980
 20
-54.897658999999997
 11
-497.300733999999980
 21
-52.276890999999999
  0
ARC
  8
0
  6
CONTINUOUS
 62
256
 10
-495.328458000000010
 20
-45.860809000000003
 40
1.499999999999999
 50
245.963570000000350
 51
329.999999999999490
  0
ARC
  8
0
  6
CONTINUOUS
 62
256
 10
-498.599773000000030
 20
-51.526890999999999
 40
1.499999999999975
 50
329.999999999999490
 51
67.180756000000954
  0
ARC
  8
0
  6
CONTINUOUS
 62
256
 10
-500.112873999999980
 20
-54.147658999999997
 40
1.499999999999991
 50
247.928142000000750
 51
329.999999999999490
  0
ARC
  8
0
  6
CONTINUOUS
 62
256
 10
-511.010178999999990
 20
-81.022345000000001
 40
27.499999999999993
 50
67.928142000000022
 51
112.071858000000090
  0
ARC
  8
0
  6
CONTINUOUS
 62
256
 10
-511.010178999999990
 20
-81.022345000000001
 40
36.999999999999993
 50
65.963570000000033
 51
114.036430000000070
  0
ARC
  8
0
  6
CONTINUOUS
 62
256
 10
-511.010178999999990
 20
-81.022345000000001
 40
43.000000000000007
 50
65.531071999999980
 51
114.468928000000030
  0
ARC
  8
0
  6
CONTINUOUS
 62
256
 10
-511.010178999999990
 20
-81.022345000000001
 40
33.500000000000000
 50
67.180756000000002
 51
112.819244000000000
  0
ARC
  8
0
  6
CONTINUOUS
 62
256
 10
-521.907483999999950
 20
-54.147658999999997
 40
1.500000000000025
 50
209.999999999999460
 51
292.071857999999220
  0
ARC
  8
0
  6
CONTINUOUS
 62
256
 10
-528.199467000000030
 20
-43.249625000000002
 40
1.499999999999995
 50
114.468927999999890
 51
209.999999999999460
  0
LINE
  8
0
  6
CONTINUOUS
 62
256
 10
-529.498505000000020
 20
-43.999625000000002
 11
-527.990937000000030
 21
-46.610809000000003
  0
ARC
  8
0
  6
CONTINUOUS
 62
256
 10
-526.691899000000030
 20
-45.860809000000003
 40
1.500000000000025
 50
209.999999999999460
 51
294.036430000001640
  0
LINE
  8
0
  6
CONTINUOUS
 62
256
 10
-524.719622999999960
 20
-52.276890999999999
 11
-523.206521999999950
 21
-54.897658999999997
  0
ARC
  8
0
  6
CONTINUOUS
 62
256
 10
-523.420584999999960
 20
-51.526890999999999
 40
1.499999999999989
 50
112.819243999999050
 51
209.999999999999460
  0
ARC
  8
0
  6
CONTINUOUS
 62
256
 10
-486.892688000000020
 20
-47.249625000000002
 40
1.499999999999989
 50
54.468928000000517
 51
150.000000000000540
  0
LINE
  8
0
  6
CONTINUOUS
 62
256
 10
-489.699293000000010
 20
-49.110809000000003
 11
-488.191726000000020
 21
-46.499625000000002
  0
LINE
  8
0
  6
CONTINUOUS
 62
256
 10
-494.483708999999980
 20
-57.397658999999997
 11
-492.970606999999970
 21
-54.776890999999999
  0
ARC
  8
0
  6
CONTINUOUS
 62
256
 10
-488.400255000000020
 20
-49.860809000000003
 40
1.500000000000025
 50
150.000000000000540
 51
234.036429999999370
  0
ARC
  8
0
  6
CONTINUOUS
 62
256
 10
-491.671568999999980
 20
-55.526890999999999
 40
1.500000000000000
 50
52.819244000000090
 51
150.000000000000540
  0
ARC
  8
0
  6
CONTINUOUS
 62
256
 10
-493.184670999999980
 20
-58.147658999999997
 40
1.500000000000025
 50
150.000000000000540
 51
232.071857999999280
  0
ARC
  8
0
  6
CONTINUOUS
 62
256
 10
-511.010178999999990
 20
-81.022345000000001
 40
36.999999999999979
 50
5.963570000000011
 51
54.036430000000010
  0
ARC
  8
0
  6
CONTINUOUS
 62
256
 10
-511.010178999999990
 20
-81.022345000000001
 40
42.999999999999979
 50
5.531071999999997
 51
54.468927999999984
  0
ARC
  8
0
  6
CONTINUOUS
 62
256
 10
-511.010178999999990
 20
-81.022345000000001
 40
33.500000000000007
 50
7.180755999999994
 51
52.819243999999983
  0
ARC
  8
0
  6
CONTINUOUS
 62
256
 10
-482.287366000000020
 20
-77.022345000000001
 40
1.500000000000004
 50
187.928142000000150
 51
270.000000000000000
  0
ARC
  8
0
  6
CONTINUOUS
 62
256
 10
-460.913564000000010
 20
-37.073757999999998
 40
6.600000000000021
 50
8.597081999999979
 51
44.999999999999829
  0
ARC
  8
0
  6
CONTINUOUS
 62
256
 10
-470.901401000000020
 20
-42.080826999999999
 40
5.999999999999990
 50
7.897989000000010
 51
45.000000000000149
  0
ARC
  8
0
  6
CONTINUOUS
 62
256
 10
-751.610179000000020
 20
-81.022345000000001
 40
289.396999999999990
 50
0.000000000000000
 51
7.897989000000000
  0
TEXT
  8
0
  6
CONTINUOUS
 62
256
 10
576.838500976562500
 20
-217.305862426757810
 40
3.299999952316284
  1
1/1
 50
0.000002504478167
 41
0.850909097352304
  7
STANDARD1
  0
TEXT
  8
0
  6
CONTINUOUS
 62
256
 10
574.420532226562500
 20
-217.305862426757810
 40
3.299999952316284
  1
 
 50
0.000002504478167
 41
1.733333298293026
  7
STANDARD1
  0
TEXT
  8
0
  6
CONTINUOUS
 62
256
 10
561.369873046875000
 20
-217.305862426757810
 40
3.299999952316284
  1
SCALE
 50
0.000002504478167
 41
0.821052645401140
  7
STANDARD1
  0
TEXT
  8
0
  6
CONTINUOUS
 62
256
 10
558.118530273437500
 20
-217.305862426757810
 40
3.299999952316284
  1
 
 50
0.000002504478167
 41
1.733333298293026
  7
STANDARD1
  0
TEXT
  8
0
  6
CONTINUOUS
 62
256
 10
572.972717285156250
 20
-212.005859375000000
 40
3.299999952316284
  1
1/240
 50
0.000002504478167
 41
0.821052645401140
  7
STANDARD1
  0
TEXT
  8
0
  6
CONTINUOUS
 62
256
 10
569.190673828125000
 20
-212.005859375000000
 40
3.299999952316284
  1
ü`
 50
0.000002504478167
 41
1.176000019651471
  7
STANDARD1
  0
TEXT
  8
0
  6
CONTINUOUS
 62
256
 10
558.118530273437500
 20
-212.005859375000000
 40
3.299999952316284
  1
1/80
 50
0.000002504478167
 41
0.832000075658163
  7
STANDARD1
  0
TEXT
  8
0
  6
CONTINUOUS
 62
256
 10
558.118530273437500
 20
-206.705856323242190
 40
3.299999952316284
  1
GM-SHYFB-RH
 50
0.000002504478167
 41
0.798139564113939
  7
STANDARD1
  0
TEXT
  8
0
  6
CONTINUOUS
 62
256
 10
563.943908691406250
 20
-201.405868530273440
 40
3.299999952316284
  1
0.4kW
 50
0.000002504478167
 41
0.821052645401140
  7
STANDARD1
  0
TEXT
  8
0
  6
CONTINUOUS
 62
256
 10
558.118530273437500
 20
-201.405868530273440
 40
3.299999952316284
  1
  
 50
0.000002504478167
 41
1.485714400175845
  7
STANDARD1
  0
TEXT
  8
0
  6
CONTINUOUS
 62
256
 10
563.937988281250000
 20
-196.105865478515620
 40
3.299999952316284
  1
SHY065
 50
0.000002504478167
 41
0.813913121261144
  7
STANDARD1
  0
TEXT
  8
0
  6
CONTINUOUS
 62
256
 10
558.118530273437500
 20
-196.105865478515620
 40
3.299999952316284
  1
  
 50
0.000002504478167
 41
1.485714400175845
  7
STANDARD1
  0
CIRCLE
  8
0
  6
CONTINUOUS
 62
256
 10
320.644304999999970
 20
-65.022502000000003
 40
24.000000000000000
  0
ARC
  8
0
  6
CONTINUOUS
 62
256
 10
320.644304999999970
 20
-65.022502000000003
 40
17.500000000000004
 50
106.601550000000100
 51
73.398449999999912
  0
LINE
  8
0
  6
DASHDOT
 62
256
 10
352.082167000000030
 20
-65.022502000000003
 11
290.435908999999980
 21
-65.022502000000003
  0
LINE
  8
0
  6
CONTINUOUS
 62
256
 10
325.644304999999970
 20
-44.222501999999999
 11
315.644304999999970
 21
-44.222501999999999
  0
LINE
  8
0
  6
CONTINUOUS
 62
256
 10
315.644304999999970
 20
-48.251992000000001
 11
315.644304999999970
 21
-44.222501999999999
  0
LINE
  8
0
  6
CONTINUOUS
 62
256
 10
325.644304999999970
 20
-48.251992000000001
 11
325.644304999999970
 21
-44.222501999999999
  0
LINE
  8
0
  6
DASHDOT
 62
256
 10
320.644304999999970
 20
-96.761182000000005
 11
320.644304999999970
 21
-34.664951000000002
  0
LINE
  8
0
  6
CONTINUOUS
 62
256
 10
129.828621000000000
 20
-40.022500000000001
 11
143.828559000000010
 21
-40.022483000000001
  0
LINE
  8
0
  6
CONTINUOUS
 62
256
 10
143.828555999999990
 20
-38.022502000000003
 11
143.828559000000010
 21
-40.022502000000003
  0
LINE
  8
0
  6
CONTINUOUS
 62
256
 10
129.828621000000000
 20
-90.022502000000003
 11
143.828620000000000
 21
-90.022502000000003
  0
LINE
  8
0
  6
CONTINUOUS
 62
256
 10
226.828697000000010
 20
-40.022500000000001
 11
214.328755000000000
 21
-40.022485000000003
  0
LINE
  8
0
  6
CONTINUOUS
 62
256
 10
226.828697000000010
 20
-90.022484000000006
 11
226.828698000000000
 21
-89.422500999999997
  0
LINE
  8
0
  6
CONTINUOUS
 62
256
 10
130.328621000000000
 20
-90.022502000000003
 11
143.828620000000000
 21
-90.022502000000003
  0
LINE
  8
0
  6
CONTINUOUS
 62
256
 10
129.828621000000000
 20
-90.022502000000003
 11
129.828620000000000
 21
-89.022502000000003
  0
LINE
  8
0
  6
CONTINUOUS
 62
256
 10
111.328591000000000
 20
-41.422502000000001
 11
111.328591000000000
 21
-65.022502000000003
  0
LINE
  8
0
  6
CONTINUOUS
 62
256
 10
143.828620000000000
 20
-40.022502000000003
 11
143.828622000000000
 21
-38.022502000000003
  0
LINE
  8
0
  6
CONTINUOUS
 62
256
 10
129.828621000000000
 20
-40.022502000000003
 11
143.828620000000000
 21
-40.022502000000003
  0
LINE
  8
0
  6
CONTINUOUS
 62
256
 10
111.728590999999990
 20
-89.022502000000003
 11
129.828620000000000
 21
-89.022502000000003
  0
LINE
  8
0
  6
CONTINUOUS
 62
256
 10
111.728590999999990
 20
-41.022502000000003
 11
129.828620000000000
 21
-41.022502000000003
  0
LINE
  8
0
  6
CONTINUOUS
 62
256
 10
129.828621000000000
 20
-40.022500000000001
 11
129.828620000000000
 21
-41.022502000000003
  0
LINE
  8
0
  6
CONTINUOUS
 62
256
 10
245.328728000000010
 20
-41.422502000000001
 11
245.328728000000010
 21
-65.022502000000003
  0
LINE
  8
0
  6
CONTINUOUS
 62
256
 10
226.828697000000010
 20
-90.022502000000003
 11
212.828696000000010
 21
-90.022502000000003
  0
LINE
  8
0
  6
CONTINUOUS
 62
256
 10
244.928728000000010
 20
-41.022502000000003
 11
226.828698000000000
 21
-41.022502000000003
  0
LINE
  8
0
  6
CONTINUOUS
 62
256
 10
244.928728000000010
 20
-89.022502000000003
 11
227.228698000000010
 21
-89.022502000000003
  0
LINE
  8
0
  6
CONTINUOUS
 62
256
 10
226.828697000000010
 20
-40.022500000000001
 11
226.828698000000000
 21
-41.022502000000003
  0
LINE
  8
0
  6
DASHDOT
 62
256
 10
108.325100000000010
 20
-65.022502000000003
 11
248.481663999999990
 21
-65.022502000000003
  0
LINE
  8
0
  6
CONTINUOUS
 62
256
 10
111.328591000000000
 20
-65.022502000000003
 11
111.328591000000000
 21
-88.622501999999997
  0
LINE
  8
0
  6
CONTINUOUS
 62
256
 10
245.328728000000010
 20
-65.022502000000003
 11
245.328728000000010
 21
-88.622501999999997
  0
LINE
  8
0
  6
CONTINUOUS
 62
256
 10
226.828697000000010
 20
-40.022516000000003
 11
226.828698000000000
 21
-41.022502000000003
  0
LINE
  8
0
  6
CONTINUOUS
 62
256
 10
226.828697000000010
 20
-40.022502000000003
 11
189.828728000000010
 21
-40.022502000000003
  0
LINE
  8
0
  6
CONTINUOUS
 62
256
 10
226.328697000000010
 20
-40.022502000000003
 11
212.328728000000010
 21
-40.022502000000003
  0
LINE
  8
0
  6
CONTINUOUS
 62
256
 10
143.828555999999990
 20
-38.022502000000003
 11
189.828728000000010
 21
-38.022502000000003
  0
LINE
  8
0
  6
CONTINUOUS
 62
256
 10
189.828728000000010
 20
-38.022502000000003
 11
189.828728000000010
 21
-40.022502000000003
  0
LINE
  8
0
  6
CONTINUOUS
 62
256
 10
129.828621000000000
 20
-40.022502000000003
 11
143.828620000000000
 21
-40.022502000000003
  0
LINE
  8
0
  6
CONTINUOUS
 62
256
 10
143.828620000000000
 20
-40.022502000000003
 11
143.828622000000000
 21
-38.022502000000003
  0
LINE
  8
0
  6
CONTINUOUS
 62
256
 10
129.828621000000000
 20
-40.022516000000003
 11
129.828620000000000
 21
-41.022502000000003
  0
LINE
  8
0
  6
CONTINUOUS
 62
256
 10
130.328621000000000
 20
-40.022502000000003
 11
143.828620000000000
 21
-40.022502000000003
  0
LINE
  8
0
  6
CONTINUOUS
 62
256
 10
226.828697000000010
 20
-90.022502000000003
 11
189.828728000000010
 21
-90.022502000000003
  0
LINE
  8
0
  6
CONTINUOUS
 62
256
 10
143.828622000000000
 20
-92.022502000000003
 11
189.828728000000010
 21
-92.022502000000003
  0
LINE
  8
0
  6
CONTINUOUS
 62
256
 10
189.828728000000010
 20
-92.022502000000003
 11
189.828728000000010
 21
-90.022502000000003
  0
LINE
  8
0
  6
CONTINUOUS
 62
256
 10
143.828620000000000
 20
-90.022502000000003
 11
143.828622000000000
 21
-92.022502000000003
  0
LINE
  8
0
  6
CONTINUOUS
 62
256
 10
143.828620000000000
 20
-90.022502000000003
 11
143.828622000000000
 21
-92.022502000000003
  0
LINE
  8
0
  6
CONTINUOUS
 62
256
 10
129.828621000000000
 20
-90.022502000000003
 11
143.828620000000000
 21
-90.022502000000003
  0
LINE
  8
0
  6
CONTINUOUS
 62
256
 10
222.078728000000010
 20
-82.522502000000003
 11
242.828728000000010
 21
-82.522502000000003
  0
LINE
  8
0
  6
CONTINUOUS
 62
256
 10
222.078728000000010
 20
-65.022502000000003
 11
222.078728000000010
 21
-84.522502000000003
  0
LINE
  8
0
  6
CONTINUOUS
 62
256
 10
219.328728000000010
 20
-65.022502000000003
 11
219.328728000000010
 21
-84.522502000000003
  0
LINE
  8
0
  6
CONTINUOUS
 62
256
 10
219.328728000000010
 20
-84.522502000000003
 11
222.078728000000010
 21
-84.522502000000003
  0
LINE
  8
0
  6
CONTINUOUS
 62
256
 10
193.328728000000010
 20
-82.522502000000003
 11
219.328728000000010
 21
-82.522502000000003
  0
LINE
  8
0
  6
CONTINUOUS
 62
256
 10
193.328728000000010
 20
-65.022502000000003
 11
193.328728000000010
 21
-82.822502000000000
  0
LINE
  8
0
  6
CONTINUOUS
 62
256
 10
163.328590999999990
 20
-82.822502000000000
 11
193.328728000000010
 21
-82.822502000000000
  0
LINE
  8
0
  6
CONTINUOUS
 62
256
 10
163.328590999999990
 20
-65.022502000000003
 11
163.328590999999990
 21
-82.522502000000003
  0
LINE
  8
0
  6
CONTINUOUS
 62
256
 10
137.328590999999990
 20
-82.522502000000003
 11
163.328590999999990
 21
-82.522502000000003
  0
LINE
  8
0
  6
CONTINUOUS
 62
256
 10
137.328590999999990
 20
-65.022502000000003
 11
137.328590999999990
 21
-84.522502000000003
  0
LINE
  8
0
  6
CONTINUOUS
 62
256
 10
134.578590999999990
 20
-65.022502000000003
 11
134.578590999999990
 21
-84.522502000000003
  0
LINE
  8
0
  6
CONTINUOUS
 62
256
 10
134.578590999999990
 20
-84.522502000000003
 11
137.328590999999990
 21
-84.522502000000003
  0
LINE
  8
0
  6
CONTINUOUS
 62
256
 10
113.828591000000000
 20
-82.522502000000003
 11
134.578590999999990
 21
-82.522502000000003
  0
LINE
  8
0
  6
CONTINUOUS
 62
256
 10
222.078728000000010
 20
-47.522502000000003
 11
242.828728000000010
 21
-47.522502000000003
  0
LINE
  8
0
  6
CONTINUOUS
 62
256
 10
222.078728000000010
 20
-65.022502000000003
 11
222.078728000000010
 21
-46.522502000000003
  0
LINE
  8
0
  6
CONTINUOUS
 62
256
 10
219.328728000000010
 20
-65.022502000000003
 11
219.328728000000010
 21
-46.522502000000003
  0
LINE
  8
0
  6
CONTINUOUS
 62
256
 10
219.328728000000010
 20
-46.522502000000003
 11
222.078728000000010
 21
-46.522502000000003
  0
LINE
  8
0
  6
CONTINUOUS
 62
256
 10
193.328728000000010
 20
-47.522502000000003
 11
219.328728000000010
 21
-47.522502000000003
  0
LINE
  8
0
  6
CONTINUOUS
 62
256
 10
193.328728000000010
 20
-65.022502000000003
 11
193.328728000000010
 21
-47.222501999999999
  0
LINE
  8
0
  6
CONTINUOUS
 62
256
 10
163.328590999999990
 20
-47.222501999999999
 11
193.328728000000010
 21
-47.222501999999999
  0
LINE
  8
0
  6
CONTINUOUS
 62
256
 10
163.328590999999990
 20
-65.022502000000003
 11
163.328590999999990
 21
-47.222501999999999
  0
LINE
  8
0
  6
CONTINUOUS
 62
256
 10
137.328590999999990
 20
-47.522502000000003
 11
163.328590999999990
 21
-47.522502000000003
  0
LINE
  8
0
  6
CONTINUOUS
 62
256
 10
137.328590999999990
 20
-65.022502000000003
 11
137.328590999999990
 21
-46.522502000000003
  0
LINE
  8
0
  6
CONTINUOUS
 62
256
 10
134.578590999999990
 20
-65.022502000000003
 11
134.578590999999990
 21
-46.522502000000003
  0
LINE
  8
0
  6
CONTINUOUS
 62
256
 10
134.578590999999990
 20
-46.522502000000003
 11
137.328590999999990
 21
-46.522502000000003
  0
LINE
  8
0
  6
CONTINUOUS
 62
256
 10
113.828591000000000
 20
-47.522502000000003
 11
134.578590999999990
 21
-47.522502000000003
  0
LINE
  8
0
  6
CONTINUOUS
 62
256
 10
111.328591000000000
 20
-44.222501999999999
 11
245.328728000000010
 21
-44.222501999999999
  0
ARC
  8
0
  6
CONTINUOUS
 62
256
 10
113.828591000000000
 20
-45.022502000000003
 40
2.500000000000000
 50
180.000000000000000
 51
270.000000000000000
  0
ARC
  8
0
  6
CONTINUOUS
 62
256
 10
242.828728000000010
 20
-45.022502000000003
 40
2.500000000000000
 50
270.000000000000000
 51
0.000000000000000
  0
ARC
  8
0
  6
CONTINUOUS
 62
256
 10
111.728590999999990
 20
-41.422502000000001
 40
0.399999999999999
 50
90.000000000000000
 51
180.000000000000000
  0
ARC
  8
0
  6
CONTINUOUS
 62
256
 10
111.728590999999990
 20
-88.622501999999997
 40
0.400000000000006
 50
180.000000000000000
 51
270.000000000000000
  0
ARC
  8
0
  6
CONTINUOUS
 62
256
 10
227.228698000000010
 20
-89.422501999999994
 40
0.400000000000006
 50
90.000000000000000
 51
179.999929999999470
  0
ARC
  8
0
  6
CONTINUOUS
 62
256
 10
244.928728000000010
 20
-41.422502000000001
 40
0.400000000000006
 50
0.000000000000000
 51
90.000000000000000
  0
ARC
  8
0
  6
CONTINUOUS
 62
256
 10
244.928728000000010
 20
-88.622501999999997
 40
0.400000000000006
 50
270.000000000000000
 51
0.000000000000000
  0
ARC
  8
0
  6
CONTINUOUS
 62
256
 10
113.828591000000000
 20
-85.022502000000003
 40
2.500000000000000
 50
90.000000000000000
 51
180.000000000000000
  0
ARC
  8
0
  6
CONTINUOUS
 62
256
 10
242.828728000000010
 20
-85.022502000000003
 40
2.500000000000000
 50
0.000000000000000
 51
90.000000000000000
  0
ARC
  8
0
  6
CONTINUOUS
 62
256
 10
142.328557999999990
 20
-38.522486999999998
 40
1.500000000000002
 50
270.000000000000000
 51
359.999981999999990
  0
ARC
  8
0
  6
CONTINUOUS
 62
256
 10
-134.906617000000010
 20
-154.022502000000000
 40
15.500000000000004
 50
31.585980000000028
 51
80.793103999999943
  0
LINE
  8
0
  6
DASHDOT
 62
256
 10
43.604076999999997
 20
-65.022502000000003
 11
-105.265928000000000
 21
-65.022502000000003
  0
CIRCLE
  8
0
  6
CONTINUOUS
 62
256
 10
-32.906616999999997
 20
-65.022502000000003
 40
24.000000000000000
  0
CIRCLE
  8
0
  6
CONTINUOUS
 62
256
 10
-32.906616999999997
 20
-65.022502000000003
 40
47.500000000000000
  0
POINT
  8
0
  6
CONTINUOUS
 62
256
 10
-32.906616999999997
 20
-65.022502000000003
  0
LINE
  8
0
  6
DASHDOT
 62
256
 10
-32.906616999999997
 20
9.938063000000000
 11
-32.906616999999997
 21
-141.643341999999990
  0
LINE
  8
0
  6
CONTINUOUS
 62
256
 10
-27.906617000000001
 20
-48.251992000000001
 11
-27.906617000000001
 21
-44.222501999999999
  0
LINE
  8
0
  6
CONTINUOUS
 62
256
 10
-37.906616999999997
 20
-44.222501999999999
 11
-27.906617000000001
 21
-44.222501999999999
  0
LINE
  8
0
  6
CONTINUOUS
 62
256
 10
-37.906616999999997
 20
-48.251992000000001
 11
-37.906616999999997
 21
-44.222501999999999
  0
ARC
  8
0
  6
CONTINUOUS
 62
256
 10
-32.906616999999997
 20
-65.022502000000003
 40
17.499999999999996
 50
106.601550000000000
 51
73.398449999999997
  0
ARC
  8
0
  6
CONTINUOUS
 62
256
 10
-152.906617000000010
 20
-18.085508000000001
 40
3.000000000000000
 50
271.000000000000110
 51
0.000000000000000
  0
ARC
  8
0
  6
CONTINUOUS
 62
256
 10
-152.906617000000010
 20
-143.959183000000000
 40
3.000000000000000
 50
0.000000000000000
 51
88.999999999999858
  0
LINE
  8
0
  6
CONTINUOUS
 62
256
 10
-178.406850999999990
 20
-140.504889999999990
 11
-152.854260000000010
 21
-140.959640000000010
  0
LINE
  8
0
  6
CONTINUOUS
 62
256
 10
-178.406850999999990
 20
-21.539800000000000
 11
-152.854260000000010
 21
-21.085051000000000
  0
LINE
  8
0
  6
CONTINUOUS
 62
256
 10
-178.406850999999990
 20
-81.022345000000001
 11
-178.406850999999990
 21
-21.522345000000001
  0
LINE
  8
0
  6
CONTINUOUS
 62
256
 10
-178.406850999999990
 20
-81.022345000000001
 11
-178.406850999999990
 21
-140.522345000000000
  0
LINE
  8
0
  6
CONTINUOUS
 62
256
 10
-149.906617000000010
 20
-5.022502000000000
 11
-149.906617000000010
 21
-157.022502000000000
  0
LINE
  8
0
  6
CONTINUOUS
 62
256
 10
27.093382999999999
 20
6.977498000000000
 11
-137.906617000000010
 21
6.977498000000000
  0
LINE
  8
0
  6
CONTINUOUS
 62
256
 10
39.093383000000003
 20
-157.022502000000000
 11
39.093383000000003
 21
-5.022502000000000
  0
LINE
  8
0
  6
CONTINUOUS
 62
256
 10
-137.906617000000010
 20
-169.022502000000000
 11
27.093382999999999
 21
-169.022502000000000
  0
LINE
  8
0
  6
DASHDOT
 62
256
 10
36.093383000000003
 20
-154.022502000000000
 11
12.234133000000000
 21
-154.022502000000000
  0
LINE
  8
0
  6
DASHDOT
 62
256
 10
-134.906617000000010
 20
3.977498000000000
 11
-134.906617000000010
 21
-20.994391000000000
  0
LINE
  8
0
  6
DASHDOT
 62
256
 10
14.640488000000000
 20
-160.022813000000010
 11
-1.110195000000000
 21
-160.022813000000010
  0
LINE
  8
0
  6
DASHDOT
 62
256
 10
15.681073000000000
 20
-2.022813000000000
 11
-1.110195000000000
 21
-2.022813000000000
  0
LINE
  8
0
  6
DASHDOT
 62
256
 10
7.093256000000000
 20
5.932843000000000
 11
7.093256000000000
 21
-10.275176999999999
  0
LINE
  8
0
  6
DASHDOT
 62
256
 10
-116.906744000000000
 20
4.819228000000000
 11
-116.906744000000000
 21
-10.056417000000000
  0
LINE
  8
0
  6
DASHDOT
 62
256
 10
-134.906617000000010
 20
-142.187144999999990
 11
-134.906617000000010
 21
-166.792536000000010
  0
LINE
  8
0
  6
DASHDOT
 62
256
 10
-116.906744000000000
 20
-152.468841000000000
 11
-116.906744000000000
 21
-166.906967000000010
  0
LINE
  8
0
  6
DASHDOT
 62
256
 10
7.093256000000000
 20
-151.812563000000010
 11
7.093256000000000
 21
-166.688208000000000
  0
LINE
  8
0
  6
DASHDOT
 62
256
 10
24.093382999999999
 20
-141.749626000000010
 11
24.093382999999999
 21
-166.146333000000000
  0
LINE
  8
0
  6
DASHDOT
 62
256
 10
-122.959228000000000
 20
-8.022501999999999
 11
-148.906617000000010
 21
-8.022501999999999
  0
LINE
  8
0
  6
DASHDOT
 62
256
 10
-110.052418000000000
 20
-2.022813000000000
 11
-124.271784999999990
 21
-2.022813000000000
  0
LINE
  8
0
  6
DASHDOT
 62
256
 10
-109.614898999999990
 20
-160.022813000000010
 11
-124.740253000000000
 21
-160.022813000000010
  0
LINE
  8
0
  6
DASHDOT
 62
256
 10
-122.302949000000000
 20
-154.022502000000000
 11
-148.906617000000010
 21
-154.022502000000000
  0
CIRCLE
  8
0
  6
CONTINUOUS
 62
256
 10
7.093256000000000
 20
-160.022813000000010
 40
5.500000000000000
  0
CIRCLE
  8
0
  6
CONTINUOUS
 62
256
 10
7.093256000000000
 20
-2.022813000000000
 40
5.500000000000000
  0
CIRCLE
  8
0
  6
CONTINUOUS
 62
256
 10
-116.906744000000000
 20
-2.022813000000000
 40
5.500000000000000
  0
CIRCLE
  8
0
  6
CONTINUOUS
 62
256
 10
-116.906744000000000
 20
-160.022813000000010
 40
5.500000000000000
  0
LINE
  8
0
  6
CONTINUOUS
 62
256
 10
-178.406850999999990
 20
-101.022345000000000
 11
-171.406850999999990
 21
-101.022345000000000
  0
LINE
  8
0
  6
CONTINUOUS
 62
256
 10
-178.406850999999990
 20
-61.022345000000001
 11
-171.406850999999990
 21
-61.022345000000001
  0
LINE
  8
0
  6
CONTINUOUS
 62
256
 10
-168.406850999999990
 20
-133.118652999999990
 11
-163.406850999999990
 21
-133.118652999999990
  0
LINE
  8
0
  6
CONTINUOUS
 62
256
 10
-168.406850999999990
 20
-126.207077000000000
 11
-163.406850999999990
 21
-126.207077000000000
  0
LINE
  8
0
  6
CONTINUOUS
 62
256
 10
-168.406850999999990
 20
-35.837614000000002
 11
-163.406850999999990
 21
-35.837614000000002
  0
LINE
  8
0
  6
CONTINUOUS
 62
256
 10
-168.406850999999990
 20
-28.926037999999998
 11
-163.406850999999990
 21
-28.926037999999998
  0
LINE
  8
0
  6
CONTINUOUS
 62
256
 10
-171.406850999999990
 20
-25.522345000000001
 11
-171.406850999999990
 21
-24.522345000000001
  0
LINE
  8
0
  6
CONTINUOUS
 62
256
 10
-168.406850999999990
 20
-42.021078000000003
 11
-163.406850999999990
 21
-42.021078000000003
  0
LINE
  8
0
  6
CONTINUOUS
 62
256
 10
-171.406850999999990
 20
-38.837614000000002
 11
-171.406850999999990
 21
-81.022345000000001
  0
LINE
  8
0
  6
CONTINUOUS
 62
256
 10
-171.406850999999990
 20
-25.522345000000001
 11
-171.406850999999990
 21
-25.926037999999998
  0
LINE
  8
0
  6
CONTINUOUS
 62
256
 10
-171.406850999999990
 20
-136.522345000000000
 11
-171.406850999999990
 21
-137.522345000000000
  0
LINE
  8
0
  6
CONTINUOUS
 62
256
 10
-171.406850999999990
 20
-136.522345000000000
 11
-171.406850999999990
 21
-136.118652999999990
  0
LINE
  8
0
  6
CONTINUOUS
 62
256
 10
-171.406850999999990
 20
-136.522345000000000
 11
-171.406850999999990
 21
-136.118652999999990
  0
LINE
  8
0
  6
CONTINUOUS
 62
256
 10
-168.406850999999990
 20
-120.023612000000000
 11
-163.406850999999990
 21
-120.023612000000000
  0
LINE
  8
0
  6
CONTINUOUS
 62
256
 10
-171.406850999999990
 20
-123.207077000000000
 11
-171.406850999999990
 21
-81.022345000000001
  0
ARC
  8
0
  6
CONTINUOUS
 62
256
 10
-168.406850999999990
 20
-25.926037999999998
 40
3.000000000000000
 50
180.000000000000000
 51
270.000000000000000
  0
ARC
  8
0
  6
CONTINUOUS
 62
256
 10
-168.406850999999990
 20
-38.837614000000002
 40
3.000000000000000
 50
90.000000000000000
 51
180.000000000000000
  0
ARC
  8
0
  6
CONTINUOUS
 62
256
 10
-168.406850999999990
 20
-45.021078000000003
 40
3.000000000000000
 50
90.000000000000000
 51
180.000000000000000
  0
ARC
  8
0
  6
CONTINUOUS
 62
256
 10
-174.406850999999990
 20
-24.522345000000001
 40
3.000000000000000
 50
0.000000000000000
 51
90.000000000000000
  0
ARC
  8
0
  6
CONTINUOUS
 62
256
 10
-174.406850999999990
 20
-137.522345000000000
 40
3.000000000000000
 50
270.000000000000000
 51
0.000000000000000
  0
ARC
  8
0
  6
CONTINUOUS
 62
256
 10
-168.406850999999990
 20
-123.207077000000000
 40
3.000000000000000
 50
180.000000000000000
 51
270.000000000000000
  0
ARC
  8
0
  6
CONTINUOUS
 62
256
 10
-168.406850999999990
 20
-136.118652999999990
 40
3.000000000000000
 50
90.000000000000000
 51
180.000000000000000
  0
ARC
  8
0
  6
CONTINUOUS
 62
256
 10
-168.406850999999990
 20
-117.023612000000000
 40
3.000000000000000
 50
180.000000000000000
 51
270.000000000000000
  0
LINE
  8
0
  6
CONTINUOUS
 62
256
 10
-160.406850999999990
 20
-137.761346000000000
 11
-160.406850999999990
 21
-24.283345000000001
  0
ARC
  8
0
  6
CONTINUOUS
 62
256
 10
-163.406850999999990
 20
-24.283345000000001
 40
3.000000000000000
 50
0.000000000000000
 51
90.981172999999970
  0
ARC
  8
0
  6
CONTINUOUS
 62
256
 10
-163.406850999999990
 20
-137.761346000000000
 40
2.999999999999992
 50
269.018827000000040
 51
0.000000000000000
  0
ARC
  8
0
  6
CONTINUOUS
 62
256
 10
-163.406850999999990
 20
-130.118652999999990
 40
3.000000000000000
 50
270.000000000000000
 51
0.000000000000000
  0
ARC
  8
0
  6
CONTINUOUS
 62
256
 10
-163.406850999999990
 20
-123.207077000000000
 40
3.000000000000000
 50
270.000000000000000
 51
0.000000000000000
  0
ARC
  8
0
  6
CONTINUOUS
 62
256
 10
-163.406850999999990
 20
-31.926037999999998
 40
3.000000000000000
 50
0.000000000000000
 51
90.000000000000000
  0
ARC
  8
0
  6
CONTINUOUS
 62
256
 10
-163.406850999999990
 20
-38.837614000000002
 40
3.000000000000000
 50
0.000000000000000
 51
90.000000000000000
  0
LINE
  8
0
  6
DASHED
 62
256
 10
-149.906617000000010
 20
-116.468541000000000
 11
-149.906617000000010
 21
-130.248831999999990
  0
INSERT
  8
0
  2
ZU_SYM_1
 10
-116.906744000000000
 20
-2.022813000000000
  0
INSERT
  8
0
  2
ZU_SYM_2
 10
7.093256000000000
 20
-2.022813000000000
  0
INSERT
  8
0
  2
ZU_SYM_3
 10
7.093256000000000
 20
-160.022813000000010
  0
INSERT
  8
0
  2
ZU_SYM_4
 10
-116.906744000000000
 20
-160.022813000000010
  0
ARC
  8
0
  6
CONTINUOUS
 62
256
 10
-130.906617000000010
 20
-129.344576999999990
 40
9.500000000000000
 50
180.000000000000000
 51
260.793103999999970
  0
ARC
  8
0
  6
CONTINUOUS
 62
256
 10
-117.017660000000010
 20
-143.023175000000010
 40
5.500000000000008
 50
211.585980000000010
 51
270.373825000000070
  0
ARC
  8
0
  6
CONTINUOUS
 62
256
 10
-116.906744000000000
 20
-160.022813000000010
 40
11.500000000000005
 50
20.668437000000058
 51
90.373824999999982
  0
ARC
  8
0
  6
CONTINUOUS
 62
256
 10
-101.000888000000000
 20
-154.022502000000000
 40
5.499999999999998
 50
200.668437000000150
 51
270.000000000000000
  0
LINE
  8
0
  6
CONTINUOUS
 62
256
 10
-8.812601000000001
 20
-159.522502000000000
 11
-101.000888000000000
 21
-159.522502000000000
  0
ARC
  8
0
  6
CONTINUOUS
 62
256
 10
-8.812601000000001
 20
-154.022502000000000
 40
5.500000000000000
 50
270.000000000000000
 51
339.331562999999850
  0
ARC
  8
0
  6
CONTINUOUS
 62
256
 10
7.093256000000000
 20
-160.022813000000010
 40
11.500000000000002
 50
93.046047000000002
 51
159.331562999999930
  0
ARC
  8
0
  6
CONTINUOUS
 62
256
 10
6.189901000000000
 20
-143.046831000000000
 40
5.500000000000014
 50
273.046046999999990
 51
328.489758000000110
  0
ARC
  8
0
  6
CONTINUOUS
 62
256
 10
24.093382999999999
 20
-154.022502000000000
 40
15.499999999999998
 50
99.206896000000000
 51
148.489758000000020
  0
ARC
  8
0
  6
CONTINUOUS
 62
256
 10
20.093382999999999
 20
-129.344576999999990
 40
9.500000000000009
 50
279.206895999999970
 51
0.000000000000000
  0
LINE
  8
0
  6
CONTINUOUS
 62
256
 10
29.593382999999999
 20
-32.700426999999998
 11
29.593382999999999
 21
-129.344576999999990
  0
ARC
  8
0
  6
CONTINUOUS
 62
256
 10
20.093382999999999
 20
-32.700426999999998
 40
9.500000000000000
 50
0.000000000000000
 51
80.793103999999985
  0
ARC
  8
0
  6
CONTINUOUS
 62
256
 10
24.093382999999999
 20
-8.022501999999999
 40
15.500000000000002
 50
211.512300000000010
 51
260.793104000000030
  0
ARC
  8
0
  6
CONTINUOUS
 62
256
 10
6.190295000000000
 20
-18.998815000000000
 40
5.500000000000001
 50
31.512300000000018
 51
86.955282999999994
  0
ARC
  8
0
  6
CONTINUOUS
 62
256
 10
7.093256000000000
 20
-2.022813000000000
 40
11.500000000000000
 50
200.666195999999990
 51
266.955283000000010
  0
ARC
  8
0
  6
CONTINUOUS
 62
256
 10
-8.812835000000000
 20
-8.022501999999999
 40
5.500000000000000
 50
20.666195999999999
 51
90.000000000000000
  0
LINE
  8
0
  6
CONTINUOUS
 62
256
 10
-101.000653000000000
 20
-2.522502000000000
 11
-8.812835000000000
 21
-2.522502000000000
  0
ARC
  8
0
  6
CONTINUOUS
 62
256
 10
-101.000653000000000
 20
-8.022501999999999
 40
5.500000000000000
 50
90.000000000000000
 51
159.333803999999990
  0
ARC
  8
0
  6
CONTINUOUS
 62
256
 10
-116.906744000000000
 20
-2.022813000000000
 40
11.500000000000002
 50
269.624890999999930
 51
339.333803999999990
  0
ARC
  8
0
  6
CONTINUOUS
 62
256
 10
-117.018041000000000
 20
-19.022449000000002
 40
5.500000000000001
 50
89.624891000000005
 51
148.412035000000000
  0
ARC
  8
0
  6
CONTINUOUS
 62
256
 10
-134.906617000000010
 20
-8.022501999999999
 40
15.499999999999998
 50
279.206895999999920
 51
328.412035000000000
  0
ARC
  8
0
  6
CONTINUOUS
 62
256
 10
-130.906617000000010
 20
-32.700426999999998
 40
9.500000000000000
 50
99.206896000000043
 51
180.000000000000000
  0
LINE
  8
0
  6
CONTINUOUS
 62
256
 10
-140.406617000000010
 20
-129.344576999999990
 11
-140.406617000000010
 21
-32.700426999999998
  0
ARC
  8
0
  6
CONTINUOUS
 62
256
 10
-137.906617000000010
 20
-157.022502000000000
 40
11.000000000000000
 50
180.000000000000000
 51
270.000000000000000
  0
ARC
  8
0
  6
CONTINUOUS
 62
256
 10
27.093382999999999
 20
-157.022502000000000
 40
11.000000000000000
 50
270.000000000000000
 51
0.000000000000000
  0
ARC
  8
0
  6
CONTINUOUS
 62
256
 10
27.093382999999999
 20
-157.022502000000000
 40
12.000000000000000
 50
270.000000000000000
 51
0.000000000000000
  0
ARC
  8
0
  6
CONTINUOUS
 62
256
 10
-137.906617000000010
 20
-157.022502000000000
 40
12.000000000000000
 50
180.000000000000000
 51
270.000000000000000
  0
ARC
  8
0
  6
CONTINUOUS
 62
256
 10
27.093382999999999
 20
-5.022502000000000
 40
12.000000000000004
 50
0.000000000000000
 51
90.000000000000000
  0
ARC
  8
0
  6
CONTINUOUS
 62
256
 10
27.093382999999999
 20
-5.022502000000000
 40
11.000000000000004
 50
0.000000000000000
 51
90.000000000000000
  0
ARC
  8
0
  6
CONTINUOUS
 62
256
 10
-137.906617000000010
 20
-5.022502000000000
 40
11.000000000000000
 50
90.000000000000000
 51
180.000000000000000
  0
ARC
  8
0
  6
CONTINUOUS
 62
256
 10
-137.906617000000010
 20
-5.022502000000000
 40
12.000000000000000
 50
90.000000000000000
 51
180.000000000000000
  0
ARC
  8
0
  6
CONTINUOUS
 62
256
 10
24.093382999999999
 20
-154.022502000000000
 40
17.499999999999996
 50
99.206896000000000
 51
148.489758000000020
  0
ARC
  8
0
  6
CONTINUOUS
 62
256
 10
6.189901000000000
 20
-143.046831000000000
 40
3.500000000000009
 50
273.046046999999930
 51
328.489758000000050
  0
ARC
  8
0
  6
CONTINUOUS
 62
256
 10
7.093256000000000
 20
-160.022813000000010
 40
13.500000000000007
 50
93.046047000000002
 51
159.331563000000050
  0
ARC
  8
0
  6
CONTINUOUS
 62
256
 10
-8.812601000000001
 20
-154.022502000000000
 40
3.500000000000000
 50
270.000000000000000
 51
339.331562999999960
  0
LINE
  8
0
  6
CONTINUOUS
 62
256
 10
-101.000888000000000
 20
-157.522502000000000
 11
-8.812601000000001
 21
-157.522502000000000
  0
ARC
  8
0
  6
CONTINUOUS
 62
256
 10
-101.000888000000000
 20
-154.022502000000000
 40
3.500000000000000
 50
200.668437000000040
 51
270.000000000000000
  0
ARC
  8
0
  6
CONTINUOUS
 62
256
 10
-116.906744000000000
 20
-160.022813000000010
 40
13.499999999999993
 50
20.668436999999983
 51
90.373824999999997
  0
ARC
  8
0
  6
CONTINUOUS
 62
256
 10
-117.017660000000010
 20
-143.023175000000010
 40
3.500000000000003
 50
211.585979999999890
 51
270.373825000000070
  0
ARC
  8
0
  6
CONTINUOUS
 62
256
 10
-134.906617000000010
 20
-154.022502000000000
 40
17.500000000000007
 50
31.585980000000038
 51
80.793104000000028
  0
ARC
  8
0
  6
CONTINUOUS
 62
256
 10
-130.906617000000010
 20
-129.344576999999990
 40
7.500000000000000
 50
180.000000000000000
 51
260.793103999999970
  0
LINE
  8
0
  6
CONTINUOUS
 62
256
 10
-138.406617000000010
 20
-32.700426999999998
 11
-138.406617000000010
 21
-129.344576999999990
  0
ARC
  8
0
  6
CONTINUOUS
 62
256
 10
-130.906617000000010
 20
-32.700426999999998
 40
7.500000000000000
 50
99.206896000000029
 51
180.000000000000000
  0
ARC
  8
0
  6
CONTINUOUS
 62
256
 10
-134.906617000000010
 20
-8.022501999999999
 40
17.500000000000000
 50
279.206895999999920
 51
328.412035000000000
  0
ARC
  8
0
  6
CONTINUOUS
 62
256
 10
-117.018041000000000
 20
-19.022449000000002
 40
3.500000000000000
 50
89.624891000000119
 51
148.412034999999950
  0
ARC
  8
0
  6
CONTINUOUS
 62
256
 10
-116.906744000000000
 20
-2.022813000000000
 40
13.500000000000002
 50
269.624890999999990
 51
339.333803999999990
  0
ARC
  8
0
  6
CONTINUOUS
 62
256
 10
-101.000653000000000
 20
-8.022501999999999
 40
3.500000000000000
 50
90.000000000000000
 51
159.333803999999960
  0
LINE
  8
0
  6
CONTINUOUS
 62
256
 10
-8.812835000000000
 20
-4.522502000000000
 11
-101.000653000000000
 21
-4.522502000000000
  0
ARC
  8
0
  6
CONTINUOUS
 62
256
 10
-8.812835000000000
 20
-8.022501999999999
 40
3.500000000000000
 50
20.666195999999996
 51
90.000000000000000
  0
ARC
  8
0
  6
CONTINUOUS
 62
256
 10
7.093256000000000
 20
-2.022813000000000
 40
13.500000000000000
 50
200.666195999999990
 51
266.955283000000010
  0
ARC
  8
0
  6
CONTINUOUS
 62
256
 10
6.190295000000000
 20
-18.998815000000000
 40
3.500000000000000
 50
31.512300000000021
 51
86.955283000000009
  0
ARC
  8
0
  6
CONTINUOUS
 62
256
 10
24.093382999999999
 20
-8.022501999999999
 40
17.500000000000000
 50
211.512300000000010
 51
260.793104000000030
  0
ARC
  8
0
  6
CONTINUOUS
 62
256
 10
20.093382999999999
 20
-32.700426999999998
 40
7.500000000000000
 50
0.000000000000000
 51
80.793104000000014
  0
LINE
  8
0
  6
CONTINUOUS
 62
256
 10
27.593382999999999
 20
-129.344576999999990
 11
27.593382999999999
 21
-32.700426999999998
  0
ARC
  8
0
  6
CONTINUOUS
 62
256
 10
20.093382999999999
 20
-129.344576999999990
 40
7.500000000000013
 50
279.206895999999920
 51
0.000000000000000
  0
LINE
  8
0
  6
CONTINUOUS
 62
256
 10
38.093383000000003
 20
-157.022502000000000
 11
38.093383000000003
 21
-5.022502000000000
  0
LINE
  8
0
  6
CONTINUOUS
 62
256
 10
-137.906617000000010
 20
-168.022502000000000
 11
27.093382999999999
 21
-168.022502000000000
  0
LINE
  8
0
  6
CONTINUOUS
 62
256
 10
-148.906617000000010
 20
-5.022502000000000
 11
-148.906617000000010
 21
-157.022502000000000
  0
LINE
  8
0
  6
CONTINUOUS
 62
256
 10
27.093382999999999
 20
5.977498000000000
 11
-137.906617000000010
 21
5.977498000000000
  0
LINE
  8
0
  6
CONTINUOUS
 62
256
 10
402.628084000000000
 20
-17.522501999999999
 11
407.628481000000020
 21
-17.522501999999999
  0
LINE
  8
0
  6
CONTINUOUS
 62
256
 10
402.628084000000000
 20
-112.522502000000000
 11
407.628481000000020
 21
-112.522502000000000
  0
LINE
  8
0
  6
CONTINUOUS
 62
256
 10
528.628480999999970
 20
-112.522502000000000
 11
523.628480999999970
 21
-112.522502000000000
  0
LINE
  8
0
  6
CONTINUOUS
 62
256
 10
528.628480999999970
 20
-17.522501999999999
 11
523.628480999999970
 21
-17.522501999999999
  0
LINE
  8
0
  6
DASHDOT
 62
256
 10
535.107290000000030
 20
-65.022502000000003
 11
394.259067000000020
 21
-65.022502000000003
  0
LINE
  8
0
  6
CONTINUOUS
 62
256
 10
419.628481000000020
 20
-168.784787999999990
 11
514.128480999999970
 21
-167.135285000000010
  0
ARC
  8
0
  6
DASHED
 62
256
 10
485.128481000000020
 20
-22.022345000000001
 40
0.500000000000000
 50
0.000000000000000
 51
90.000000000000000
  0
ARC
  8
0
  6
DASHED
 62
256
 10
465.628481000000020
 20
-423.522344999999970
 40
400.000000000000060
 50
85.885655000000000
 51
87.065974999999995
  0
ARC
  8
0
  6
DASHED
 62
256
 10
492.174936000000000
 20
-54.475890999999997
 40
30.000000000000018
 50
4.114344999999991
 51
85.885655000000028
  0
ARC
  8
0
  6
DASHED
 62
256
 10
524.628480999999970
 20
-61.522345000000001
 40
0.500000000000000
 50
0.000000000000000
 51
90.000000000000000
  0
ARC
  8
0
  6
DASHED
 62
256
 10
524.628480999999970
 20
-100.522345000000000
 40
0.500000000000000
 50
270.000000000000000
 51
0.000000000000000
  0
ARC
  8
0
  6
DASHED
 62
256
 10
123.128480999999990
 20
-81.022345000000001
 40
400.000000000000060
 50
355.885654999999990
 51
357.065974999999980
  0
ARC
  8
0
  6
DASHED
 62
256
 10
523.103480999999990
 20
-101.522345000000000
 40
0.500000000000000
 50
90.000000000000000
 51
177.065974999999950
  0
ARC
  8
0
  6
DASHED
 62
256
 10
123.128480999999990
 20
-81.022345000000001
 40
400.000000000000060
 50
2.934025000000000
 51
4.114344999999999
  0
ARC
  8
0
  6
DASHED
 62
256
 10
492.174936000000000
 20
-107.568800000000000
 40
30.000000000000004
 50
274.114344999999960
 51
355.885654999999990
  0
ARC
  8
0
  6
DASHED
 62
256
 10
465.628481000000020
 20
261.477655000000030
 40
400.000000000000000
 50
272.934025000000020
 51
274.114345000000010
  0
ARC
  8
0
  6
DASHED
 62
256
 10
485.128481000000020
 20
-140.022345000000000
 40
0.500000000000000
 50
270.000000000000000
 51
0.000000000000000
  0
ARC
  8
0
  6
DASHED
 62
256
 10
486.128481000000020
 20
-138.497345000000000
 40
0.499999999999999
 50
92.934025000000204
 51
180.000000000000000
  0
ARC
  8
0
  6
DASHED
 62
256
 10
446.128481000000020
 20
-140.022345000000000
 40
0.500000000000000
 50
180.000000000000000
 51
270.000000000000000
  0
ARC
  8
0
  6
DASHED
 62
256
 10
445.128481000000020
 20
-138.497345000000000
 40
0.500000000000000
 50
0.000000000000000
 51
87.065974999999796
  0
ARC
  8
0
  6
DASHED
 62
256
 10
446.128481000000020
 20
-140.022345000000000
 40
0.500000000000000
 50
180.000000000000000
 51
270.000000000000000
  0
ARC
  8
0
  6
DASHED
 62
256
 10
445.128481000000020
 20
-138.497345000000000
 40
0.500000000000000
 50
0.000000000000000
 51
87.065974999999796
  0
ARC
  8
0
  6
DASHED
 62
256
 10
465.628481000000020
 20
261.477655000000030
 40
399.999999999999940
 50
265.885654999999990
 51
267.065974999999980
  0
ARC
  8
0
  6
DASHED
 62
256
 10
439.082026999999980
 20
-107.568800000000000
 40
30.000000000000018
 50
184.114344999999960
 51
265.885655000000040
  0
ARC
  8
0
  6
DASHED
 62
256
 10
808.128480999999970
 20
-81.022345000000001
 40
400.000000000000000
 50
182.934024999999990
 51
184.114344999999960
  0
ARC
  8
0
  6
DASHED
 62
256
 10
406.628481000000020
 20
-100.522345000000000
 40
0.500000000000000
 50
180.000000000000000
 51
270.000000000000000
  0
ARC
  8
0
  6
DASHED
 62
256
 10
408.153482000000000
 20
-101.522345000000000
 40
0.500000000000028
 50
2.934025000000031
 51
90.000000000000000
  0
ARC
  8
0
  6
DASHED
 62
256
 10
408.153482000000000
 20
-101.522345000000000
 40
0.500000000000028
 50
2.934025000000031
 51
90.000000000000000
  0
ARC
  8
0
  6
DASHED
 62
256
 10
406.628481000000020
 20
-61.522345000000001
 40
0.500000000000000
 50
90.000000000000000
 51
180.000000000000000
  0
ARC
  8
0
  6
DASHED
 62
256
 10
408.153482000000000
 20
-60.522345000000001
 40
0.500000000000000
 50
270.000000000000000
 51
357.065974999999980
  0
ARC
  8
0
  6
DASHED
 62
256
 10
406.628481000000020
 20
-61.522345000000001
 40
0.500000000000000
 50
90.000000000000000
 51
180.000000000000000
  0
ARC
  8
0
  6
DASHED
 62
256
 10
408.153482000000000
 20
-60.522345000000001
 40
0.500000000000000
 50
270.000000000000000
 51
357.065974999999980
  0
ARC
  8
0
  6
DASHED
 62
256
 10
808.128480999999970
 20
-81.022345000000001
 40
400.000000000000060
 50
175.885655000000010
 51
177.065975000000010
  0
ARC
  8
0
  6
DASHED
 62
256
 10
439.082026999999980
 20
-54.475890999999997
 40
30.000000000000000
 50
94.114344999999972
 51
175.885655000000010
  0
ARC
  8
0
  6
DASHED
 62
256
 10
465.628481000000020
 20
-423.522344999999970
 40
400.000000000000000
 50
92.934025000000005
 51
94.114345000000000
  0
ARC
  8
0
  6
DASHED
 62
256
 10
446.128481000000020
 20
-22.022345000000001
 40
0.500000000000000
 50
90.000000000000000
 51
180.000000000000000
  0
ARC
  8
0
  6
DASHED
 62
256
 10
445.128481000000020
 20
-23.547346000000001
 40
0.499999999999999
 50
272.934025000000190
 51
0.000000000000000
  0
ARC
  8
0
  6
DASHED
 62
256
 10
486.128481000000020
 20
-23.547346000000001
 40
0.500000000000000
 50
180.000000000000000
 51
267.065974999999810
  0
ARC
  8
0
  6
DASHED
 62
256
 10
523.103480999999990
 20
-60.522345000000001
 40
0.500000000000028
 50
182.934025000000020
 51
270.000000000000000
  0
LINE
  8
0
  6
DASHDOT
 62
256
 10
465.628481000000020
 20
11.848392000000000
 11
465.628481000000020
 21
-184.280711000000000
  0
LINE
  8
0
  6
DASHED
 62
256
 10
465.628481000000020
 20
-21.522345000000001
 11
485.128481000000020
 21
-21.522345000000001
  0
LINE
  8
0
  6
DASHED
 62
256
 10
485.628481000000020
 20
-22.022345000000001
 11
485.628481000000020
 21
-23.547346000000001
  0
LINE
  8
0
  6
DASHED
 62
256
 10
524.628480999999970
 20
-61.022345000000001
 11
523.103480999999990
 21
-61.022345000000001
  0
LINE
  8
0
  6
DASHED
 62
256
 10
525.128480999999970
 20
-81.022345000000001
 11
525.128480999999970
 21
-61.522345000000001
  0
LINE
  8
0
  6
DASHED
 62
256
 10
525.128480999999970
 20
-81.022345000000001
 11
525.128480999999970
 21
-100.522345000000000
  0
LINE
  8
0
  6
DASHED
 62
256
 10
524.628480999999970
 20
-101.022345000000000
 11
523.103480999999990
 21
-101.022345000000000
  0
LINE
  8
0
  6
DASHED
 62
256
 10
465.628481000000020
 20
-140.522345000000000
 11
485.128481000000020
 21
-140.522345000000000
  0
LINE
  8
0
  6
DASHED
 62
256
 10
485.628481000000020
 20
-140.022345000000000
 11
485.628481000000020
 21
-138.497345000000000
  0
LINE
  8
0
  6
DASHED
 62
256
 10
465.628481000000020
 20
-140.522345000000000
 11
446.128481000000020
 21
-140.522345000000000
  0
LINE
  8
0
  6
DASHED
 62
256
 10
445.628481000000020
 20
-140.022345000000000
 11
445.628481000000020
 21
-138.497345000000000
  0
LINE
  8
0
  6
DASHED
 62
256
 10
465.628481000000020
 20
-140.522345000000000
 11
446.128481000000020
 21
-140.522345000000000
  0
LINE
  8
0
  6
DASHED
 62
256
 10
445.628481000000020
 20
-140.022345000000000
 11
445.628481000000020
 21
-138.497345000000000
  0
LINE
  8
0
  6
DASHED
 62
256
 10
406.128481000000020
 20
-81.022345000000001
 11
406.128481000000020
 21
-100.522345000000000
  0
LINE
  8
0
  6
DASHED
 62
256
 10
406.628481000000020
 20
-101.022345000000000
 11
408.153482000000000
 21
-101.022345000000000
  0
LINE
  8
0
  6
DASHED
 62
256
 10
406.128481000000020
 20
-81.022345000000001
 11
406.128481000000020
 21
-61.522345000000001
  0
LINE
  8
0
  6
DASHED
 62
256
 10
406.628481000000020
 20
-61.022345000000001
 11
408.153482000000000
 21
-61.022345000000001
  0
LINE
  8
0
  6
DASHED
 62
256
 10
465.628481000000020
 20
-21.522345000000001
 11
446.128481000000020
 21
-21.522345000000001
  0
LINE
  8
0
  6
DASHED
 62
256
 10
445.628481000000020
 20
-22.022345000000001
 11
445.628481000000020
 21
-23.547346000000001
  0
LINE
  8
0
  6
DASHDOT
 62
256
 10
454.387254999999980
 20
-81.022345000000001
 11
476.626448999999980
 21
-81.022345000000001
  0
LINE
  8
0
  6
CONTINUOUS
 62
256
 10
407.628084000000000
 20
-80.793672000000001
 11
407.628084000000000
 21
6.987976000000000
  0
LINE
  8
0
  6
CONTINUOUS
 62
256
 10
402.628084000000000
 20
-64.793829000000002
 11
402.628084000000000
 21
-17.522501999999999
  0
LINE
  8
0
  6
CONTINUOUS
 62
256
 10
402.628084000000000
 20
-64.793829000000002
 11
402.628084000000000
 21
-112.522502000000000
  0
LINE
  8
0
  6
CONTINUOUS
 62
256
 10
407.628084000000000
 20
-80.793672000000001
 11
407.628084000000000
 21
-168.075709999999990
  0
LINE
  8
0
  6
CONTINUOUS
 62
256
 10
407.628084000000000
 20
-168.075709999999990
 11
408.127930999999990
 21
-168.584359000000010
  0
LINE
  8
0
  6
CONTINUOUS
 62
256
 10
407.628084000000000
 20
6.987976000000000
 11
419.628481000000020
 21
7.197444000000000
  0
LINE
  8
0
  6
CONTINUOUS
 62
256
 10
419.628481000000020
 20
7.197444000000000
 11
419.628481000000020
 21
-80.793672000000001
  0
LINE
  8
0
  6
CONTINUOUS
 62
256
 10
419.628481000000020
 20
7.197444000000000
 11
514.128480999999970
 21
5.547940000000000
  0
LINE
  8
0
  6
CONTINUOUS
 62
256
 10
523.628480999999970
 20
5.547940000000000
 11
523.628480999999970
 21
-80.793672000000001
  0
LINE
  8
0
  6
CONTINUOUS
 62
256
 10
528.628480999999970
 20
-17.522501999999999
 11
528.628480999999970
 21
-112.522502000000000
  0
LINE
  8
0
  6
CONTINUOUS
 62
256
 10
514.128480999999970
 20
5.547940000000000
 11
523.628480999999970
 21
5.547940000000000
  0
LINE
  8
0
  6
CONTINUOUS
 62
256
 10
523.628480999999970
 20
-80.793672000000001
 11
523.628480999999970
 21
-167.135597999999990
  0
LINE
  8
0
  6
CONTINUOUS
 62
256
 10
514.128480999999970
 20
-167.135597999999990
 11
523.628480999999970
 21
-167.135597999999990
  0
LINE
  8
0
  6
CONTINUOUS
 62
256
 10
419.628481000000020
 20
-80.793672000000001
 11
419.628481000000020
 21
-168.785101000000000
  0
LINE
  8
0
  6
CONTINUOUS
 62
256
 10
408.127930999999990
 20
-168.584359000000010
 11
419.628481000000020
 21
-168.785101000000000
  0
LINE
  8
0
  6
CONTINUOUS
 62
256
 10
531.628480999999970
 20
-41.022502000000003
 11
528.628480999999970
 21
-41.022502000000003
  0
LINE
  8
0
  6
CONTINUOUS
 62
256
 10
532.628480999999970
 20
-42.022502000000003
 11
532.628480999999970
 21
-65.022502000000003
  0
ARC
  8
0
  6
CONTINUOUS
 62
256
 10
531.628480999999970
 20
-42.022502000000003
 40
1.000000000000000
 50
0.000000000000000
 51
90.000000000000000
  0
LINE
  8
0
  6
CONTINUOUS
 62
256
 10
531.628480999999970
 20
-89.022502000000003
 11
528.628480999999970
 21
-89.022502000000003
  0
LINE
  8
0
  6
CONTINUOUS
 62
256
 10
532.628480999999970
 20
-88.022502000000003
 11
532.628480999999970
 21
-65.022502000000003
  0
ARC
  8
0
  6
CONTINUOUS
 62
256
 10
531.628480999999970
 20
-88.022502000000003
 40
1.000000000000000
 50
270.000000000000000
 51
0.000000000000000
  0
LINE
  8
0
  6
CONTINUOUS
 62
256
 10
399.628481000000020
 20
-89.022502000000003
 11
402.628481000000020
 21
-89.022502000000003
  0
LINE
  8
0
  6
CONTINUOUS
 62
256
 10
398.628481000000020
 20
-88.022502000000003
 11
398.628481000000020
 21
-65.022502000000003
  0
ARC
  8
0
  6
CONTINUOUS
 62
256
 10
399.628481000000020
 20
-88.022502000000003
 40
1.000000000000000
 50
180.000000000000000
 51
270.000000000000000
  0
LINE
  8
0
  6
CONTINUOUS
 62
256
 10
399.628481000000020
 20
-41.022502000000003
 11
402.628481000000020
 21
-41.022502000000003
  0
LINE
  8
0
  6
CONTINUOUS
 62
256
 10
398.628481000000020
 20
-42.022502000000003
 11
398.628481000000020
 21
-65.022502000000003
  0
ARC
  8
0
  6
CONTINUOUS
 62
256
 10
399.628481000000020
 20
-42.022502000000003
 40
1.000000000000000
 50
90.000000000000000
 51
180.000000000000000
  0
LINE
  8
0
  6
CONTINUOUS
 62
256
 10
-283.206850999999970
 20
-144.522345000000000
 11
-283.206850999999970
 21
-142.750200000000010
  0
LINE
  8
0
  6
CONTINUOUS
 62
256
 10
-193.206851000000000
 20
-144.522345000000000
 11
-283.206850999999970
 21
-144.522345000000000
  0
LINE
  8
0
  6
CONTINUOUS
 62
256
 10
-193.206851000000000
 20
-144.522345000000000
 11
-193.206851000000000
 21
-139.522345000000000
  0
LINE
  8
0
  6
CONTINUOUS
 62
256
 10
-193.206851000000000
 20
-139.522345000000000
 11
-275.406851000000020
 21
-139.522345000000000
  0
LINE
  8
0
  6
CONTINUOUS
 62
256
 10
-282.206850999999970
 20
-178.522345000000000
 11
-194.206851000000000
 21
-178.522345000000000
  0
LINE
  8
0
  6
CONTINUOUS
 62
256
 10
-283.206850999999970
 20
-144.522345000000000
 11
-283.206850999999970
 21
-177.522345000000000
  0
ARC
  8
0
  6
CONTINUOUS
 62
256
 10
-282.206850999999970
 20
-177.522345000000000
 40
1.000000000000000
 50
180.000000000000000
 51
270.000000000000000
  0
LINE
  8
0
  6
CONTINUOUS
 62
256
 10
-283.206850999999970
 20
-144.522345000000000
 11
-193.206851000000000
 21
-144.522345000000000
  0
LINE
  8
0
  6
CONTINUOUS
 62
256
 10
-193.206851000000000
 20
-144.522345000000000
 11
-193.206851000000000
 21
-177.522345000000000
  0
ARC
  8
0
  6
CONTINUOUS
 62
256
 10
-194.206851000000000
 20
-177.522345000000000
 40
1.000000000000000
 50
270.000000000000000
 51
0.000000000000000
  0
LINE
  8
0
  6
CONTINUOUS
 62
256
 10
-208.206851000000000
 20
-179.022345000000000
 11
-200.206851000000000
 21
-179.022345000000000
  0
LINE
  8
0
  6
CONTINUOUS
 62
256
 10
-276.206850999999970
 20
-179.022345000000000
 11
-268.206850999999970
 21
-179.022345000000000
  0
LINE
  8
0
  6
CONTINUOUS
 62
256
 10
-200.206851000000000
 20
-178.522345000000000
 11
-200.206851000000000
 21
-179.022345000000000
  0
LINE
  8
0
  6
CONTINUOUS
 62
256
 10
-208.206851000000000
 20
-178.522345000000000
 11
-208.206851000000000
 21
-179.022345000000000
  0
LINE
  8
0
  6
CONTINUOUS
 62
256
 10
-268.206850999999970
 20
-178.522345000000000
 11
-268.206850999999970
 21
-179.022345000000000
  0
LINE
  8
0
  6
CONTINUOUS
 62
256
 10
-276.206850999999970
 20
-178.522345000000000
 11
-276.206850999999970
 21
-179.022345000000000
  0
LINE
  8
0
  6
CONTINUOUS
 62
256
 10
-273.706850999999970
 20
-178.522345000000000
 11
-273.706850999999970
 21
-179.022345000000000
  0
LINE
  8
0
  6
CONTINUOUS
 62
256
 10
-202.706851000000000
 20
-178.522345000000000
 11
-202.706851000000000
 21
-179.022345000000000
  0
LINE
  8
0
  6
CONTINUOUS
 62
256
 10
-282.406851000000020
 20
-142.641566000000010
 11
-278.406851000000020
 21
-142.641566000000010
  0
LINE
  8
0
  6
CONTINUOUS
 62
256
 10
-378.406851000000020
 20
-81.022345000000001
 11
-378.406851000000020
 21
-133.465550000000010
  0
LINE
  8
0
  6
CONTINUOUS
 62
256
 10
-178.406850999999990
 20
-140.522345000000000
 11
-178.406850999999990
 21
-81.022345000000001
  0
LINE
  8
0
  6
CONTINUOUS
 62
256
 10
-275.406851000000020
 20
-81.022345000000001
 11
-275.406851000000020
 21
-139.641566000000010
  0
ARC
  8
0
  6
CONTINUOUS
 62
256
 10
-282.406851000000020
 20
-145.641566000000010
 40
3.000000000000000
 50
90.000000000000000
 51
180.000000000000000
  0
ARC
  8
0
  6
CONTINUOUS
 62
256
 10
-278.406851000000020
 20
-139.641566000000010
 40
3.000000000000000
 50
270.000000000000000
 51
0.000000000000000
  0
ARC
  8
0
  6
CONTINUOUS
 62
256
 10
-375.806850999999990
 20
-28.579139999999999
 40
2.600000000000004
 50
125.000000000000090
 51
180.000000000000000
  0
LINE
  8
0
  6
CONTINUOUS
 62
256
 10
-367.572404000000010
 20
-19.639303999999999
 11
-377.298149000000020
 21
-26.449345000000001
  0
ARC
  8
0
  6
CONTINUOUS
 62
256
 10
-356.100874999999970
 20
-36.022345000000001
 40
20.000000000000000
 50
90.000000000000000
 51
125.000000000000040
  0
LINE
  8
0
  6
CONTINUOUS
 62
256
 10
-378.406851000000020
 20
-81.022345000000001
 11
-378.406851000000020
 21
-28.579139999999999
  0
LINE
  8
0
  6
CONTINUOUS
 62
256
 10
-275.406851000000020
 20
-16.022345000000001
 11
-356.100874999999970
 21
-16.022345000000001
  0
LINE
  8
0
  6
CONTINUOUS
 62
256
 10
-178.406850999999990
 20
-21.522345000000001
 11
-178.406850999999990
 21
-81.022345000000001
  0
LINE
  8
0
  6
CONTINUOUS
 62
256
 10
-208.406850999999990
 20
-21.522345000000001
 11
-178.406850999999990
 21
-21.522345000000001
  0
LINE
  8
0
  6
CONTINUOUS
 62
256
 10
-275.406851000000020
 20
-24.022345000000001
 11
-178.406850999999990
 21
-24.022345000000001
  0
LINE
  8
0
  6
CONTINUOUS
 62
256
 10
-275.406851000000020
 20
-25.022345000000001
 11
-178.406850999999990
 21
-25.022345000000001
  0
LINE
  8
0
  6
CONTINUOUS
 62
256
 10
-275.406851000000020
 20
-26.022345000000001
 11
-178.406850999999990
 21
-26.022345000000001
  0
LINE
  8
0
  6
CONTINUOUS
 62
256
 10
-275.406851000000020
 20
-81.022345000000001
 11
-275.406851000000020
 21
-16.022345000000001
  0
LINE
  8
0
  6
CONTINUOUS
 62
256
 10
-275.406851000000020
 20
-30.706810999999998
 11
-178.406850999999990
 21
-30.706810999999998
  0
LINE
  8
0
  6
CONTINUOUS
 62
256
 10
-275.406851000000020
 20
-35.656559000000001
 11
-178.406850999999990
 21
-35.656559000000001
  0
LINE
  8
0
  6
CONTINUOUS
 62
256
 10
-275.406851000000020
 20
-66.022345000000001
 11
-178.406850999999990
 21
-66.022345000000001
  0
LINE
  8
0
  6
CONTINUOUS
 62
256
 10
-275.406851000000020
 20
-61.649084000000002
 11
-178.406850999999990
 21
-61.649084000000002
  0
LINE
  8
0
  6
CONTINUOUS
 62
256
 10
-275.406851000000020
 20
-60.382846000000001
 11
-178.406850999999990
 21
-60.382846000000001
  0
LINE
  8
0
  6
CONTINUOUS
 62
256
 10
-275.406851000000020
 20
-56.192292000000002
 11
-178.406850999999990
 21
-56.192292000000002
  0
LINE
  8
0
  6
CONTINUOUS
 62
256
 10
-275.406851000000020
 20
-54.830412000000003
 11
-178.406850999999990
 21
-54.830412000000003
  0
LINE
  8
0
  6
CONTINUOUS
 62
256
 10
-275.406851000000020
 20
-50.739910999999999
 11
-178.406850999999990
 21
-50.739910999999999
  0
LINE
  8
0
  6
CONTINUOUS
 62
256
 10
-275.406851000000020
 20
-49.271554000000002
 11
-178.406850999999990
 21
-49.271554000000002
  0
LINE
  8
0
  6
CONTINUOUS
 62
256
 10
-275.406851000000020
 20
-45.307808000000001
 11
-178.406850999999990
 21
-45.307808000000001
  0
LINE
  8
0
  6
CONTINUOUS
 62
256
 10
-275.406851000000020
 20
-43.703159999999997
 11
-178.406850999999990
 21
-43.703159999999997
  0
LINE
  8
0
  6
CONTINUOUS
 62
256
 10
-275.406851000000020
 20
-96.022345000000001
 11
-178.406850999999990
 21
-96.022345000000001
  0
LINE
  8
0
  6
CONTINUOUS
 62
256
 10
-275.406851000000020
 20
-100.395607000000000
 11
-178.406850999999990
 21
-100.395607000000000
  0
LINE
  8
0
  6
CONTINUOUS
 62
256
 10
-275.406851000000020
 20
-101.661845000000000
 11
-178.406850999999990
 21
-101.661845000000000
  0
LINE
  8
0
  6
CONTINUOUS
 62
256
 10
-275.406851000000020
 20
-105.852399000000010
 11
-178.406850999999990
 21
-105.852399000000010
  0
LINE
  8
0
  6
CONTINUOUS
 62
256
 10
-275.406851000000020
 20
-107.214279000000000
 11
-178.406850999999990
 21
-107.214279000000000
  0
LINE
  8
0
  6
CONTINUOUS
 62
256
 10
-275.406851000000020
 20
-111.304779999999990
 11
-178.406850999999990
 21
-111.304779999999990
  0
LINE
  8
0
  6
CONTINUOUS
 62
256
 10
-275.406851000000020
 20
-112.773137000000010
 11
-178.406850999999990
 21
-112.773137000000010
  0
LINE
  8
0
  6
CONTINUOUS
 62
256
 10
-275.406851000000020
 20
-116.736881999999990
 11
-178.406850999999990
 21
-116.736881999999990
  0
LINE
  8
0
  6
CONTINUOUS
 62
256
 10
-275.406851000000020
 20
-118.341530000000010
 11
-178.406850999999990
 21
-118.341530000000010
  0
LINE
  8
0
  6
CONTINUOUS
 62
256
 10
-275.406851000000020
 20
-126.388132000000000
 11
-178.406850999999990
 21
-126.388132000000000
  0
LINE
  8
0
  6
CONTINUOUS
 62
256
 10
-275.406851000000020
 20
-136.022345000000000
 11
-178.406850999999990
 21
-136.022345000000000
  0
LINE
  8
0
  6
CONTINUOUS
 62
256
 10
-275.406851000000020
 20
-137.022345000000000
 11
-178.406850999999990
 21
-137.022345000000000
  0
LINE
  8
0
  6
CONTINUOUS
 62
256
 10
-275.406851000000020
 20
-138.022345000000000
 11
-178.406850999999990
 21
-138.022345000000000
  0
LINE
  8
0
  6
CONTINUOUS
 62
256
 10
-286.406851000000020
 20
-27.282229999999998
 11
-288.406851000000020
 21
-28.934871999999999
  0
LINE
  8
0
  6
CONTINUOUS
 62
256
 10
-284.406851000000020
 20
-26.106445000000001
 11
-286.406851000000020
 21
-27.282229999999998
  0
LINE
  8
0
  6
CONTINUOUS
 62
256
 10
-286.406851000000020
 20
-27.282229999999998
 11
-284.406851000000020
 21
-28.934871999999999
  0
LINE
  8
0
  6
CONTINUOUS
 62
256
 10
-288.406851000000020
 20
-26.106445000000001
 11
-286.406851000000020
 21
-27.282229999999998
  0
POLYLINE
  8
0
  6
CONTINUOUS
 62
256
 66
1
 70
1
  0
VERTEX
  8
0
  6
CONTINUOUS
 62
256
 10
-281.706851000000030
 20
-29.098820000000000
  0
VERTEX
  8
0
  6
CONTINUOUS
 62
256
 10
-281.797160182104850
 20
-28.395863489441833
  0
VERTEX
  8
0
  6
CONTINUOUS
 62
256
 10
-282.064617197196980
 20
-27.719921203361860
  0
VERTEX
  8
0
  6
CONTINUOUS
 62
256
 10
-282.498943822178090
 20
-27.096969224741340
  0
VERTEX
  8
0
  6
CONTINUOUS
 62
256
 10
-283.083449128423240
 20
-26.550947248763158
  0
VERTEX
  8
0
  6
CONTINUOUS
 62
256
 10
-283.795670904807880
 20
-26.102838593751510
  0
VERTEX
  8
0
  6
CONTINUOUS
 62
256
 10
-284.608238867884100
 20
-25.769863824016262
  0
VERTEX
  8
0
  6
CONTINUOUS
 62
256
 10
-285.489926486524210
 20
-25.564818973223939
  0
VERTEX
  8
0
  6
CONTINUOUS
 62
256
 10
-286.406851000000020
 20
-25.495583800000009
  0
VERTEX
  8
0
  6
CONTINUOUS
 62
256
 10
-287.323775513475820
 20
-25.564818973223939
  0
VERTEX
  8
0
  6
CONTINUOUS
 62
256
 10
-288.205463132115940
 20
-25.769863824016262
  0
VERTEX
  8
0
  6
CONTINUOUS
 62
256
 10
-289.018031095192160
 20
-26.102838593751510
  0
VERTEX
  8
0
  6
CONTINUOUS
 62
256
 10
-289.730252871576790
 20
-26.550947248763158
  0
VERTEX
  8
0
  6
CONTINUOUS
 62
256
 10
-290.314758177821940
 20
-27.096969224741340
  0
VERTEX
  8
0
  6
CONTINUOUS
 62
256
 10
-290.749084802803050
 20
-27.719921203361860
  0
VERTEX
  8
0
  6
CONTINUOUS
 62
256
 10
-291.016541817895190
 20
-28.395863489441830
  0
VERTEX
  8
0
  6
CONTINUOUS
 62
256
 10
-291.106851000000010
 20
-29.098820000000000
  0
VERTEX
  8
0
  6
CONTINUOUS
 62
256
 10
-291.016541817895190
 20
-29.801776510558167
  0
VERTEX
  8
0
  6
CONTINUOUS
 62
256
 10
-290.749084802803050
 20
-30.477718796638136
  0
VERTEX
  8
0
  6
CONTINUOUS
 62
256
 10
-290.314758177821940
 20
-31.100670775258660
  0
VERTEX
  8
0
  6
CONTINUOUS
 62
256
 10
-289.730252871576790
 20
-31.646692751236838
  0
VERTEX
  8
0
  6
CONTINUOUS
 62
256
 10
-289.018031095192160
 20
-32.094801406248486
  0
VERTEX
  8
0
  6
CONTINUOUS
 62
256
 10
-288.205463132115940
 20
-32.427776175983738
  0
VERTEX
  8
0
  6
CONTINUOUS
 62
256
 10
-287.323775513475820
 20
-32.632821026776057
  0
VERTEX
  8
0
  6
CONTINUOUS
 62
256
 10
-286.406851000000020
 20
-32.702056199999987
  0
VERTEX
  8
0
  6
CONTINUOUS
 62
256
 10
-285.489926486524210
 20
-32.632821026776057
  0
VERTEX
  8
0
  6
CONTINUOUS
 62
256
 10
-284.608238867884100
 20
-32.427776175983738
  0
VERTEX
  8
0
  6
CONTINUOUS
 62
256
 10
-283.795670904807880
 20
-32.094801406248486
  0
VERTEX
  8
0
  6
CONTINUOUS
 62
256
 10
-283.083449128423240
 20
-31.646692751236841
  0
VERTEX
  8
0
  6
CONTINUOUS
 62
256
 10
-282.498943822178090
 20
-31.100670775258660
  0
VERTEX
  8
0
  6
CONTINUOUS
 62
256
 10
-282.064617197196980
 20
-30.477718796638140
  0
VERTEX
  8
0
  6
CONTINUOUS
 62
256
 10
-281.797160182104850
 20
-29.801776510558170
  0
SEQEND
  8
0
  6
CONTINUOUS
 62
256
  0
LINE
  8
0
  6
CONTINUOUS
 62
256
 10
-286.406851000000020
 20
-134.762460000000000
 11
-288.406851000000020
 21
-133.109818999999990
  0
LINE
  8
0
  6
CONTINUOUS
 62
256
 10
-284.406851000000020
 20
-135.938245999999990
 11
-286.406851000000020
 21
-134.762460000000000
  0
LINE
  8
0
  6
CONTINUOUS
 62
256
 10
-193.206851000000000
 20
-140.522345000000000
 11
-178.406850999999990
 21
-140.522345000000000
  0
ARC
  8
0
  6
CONTINUOUS
 62
256
 10
-356.100874999999970
 20
-126.022345000000000
 40
19.999999999999996
 50
234.999999999999940
 51
270.000000000000000
  0
LINE
  8
0
  6
CONTINUOUS
 62
256
 10
-286.406851000000020
 20
-134.762460000000000
 11
-284.406851000000020
 21
-133.109818999999990
  0
LINE
  8
0
  6
CONTINUOUS
 62
256
 10
-288.406851000000020
 20
-135.938245999999990
 11
-286.406851000000020
 21
-134.762460000000000
  0
POLYLINE
  8
0
  6
CONTINUOUS
 62
256
 66
1
 70
1
  0
VERTEX
  8
0
  6
CONTINUOUS
 62
256
 10
-281.706851000000030
 20
-132.945870000000010
  0
VERTEX
  8
0
  6
CONTINUOUS
 62
256
 10
-281.797160182104850
 20
-132.242913489441830
  0
VERTEX
  8
0
  6
CONTINUOUS
 62
256
 10
-282.064617197196980
 20
-131.566971203361870
  0
VERTEX
  8
0
  6
CONTINUOUS
 62
256
 10
-282.498943822178090
 20
-130.944019224741340
  0
VERTEX
  8
0
  6
CONTINUOUS
 62
256
 10
-283.083449128423240
 20
-130.397997248763180
  0
VERTEX
  8
0
  6
CONTINUOUS
 62
256
 10
-283.795670904807880
 20
-129.949888593751520
  0
VERTEX
  8
0
  6
CONTINUOUS
 62
256
 10
-284.608238867884100
 20
-129.616913824016280
  0
VERTEX
  8
0
  6
CONTINUOUS
 62
256
 10
-285.489926486524210
 20
-129.411868973223930
  0
VERTEX
  8
0
  6
CONTINUOUS
 62
256
 10
-286.406851000000020
 20
-129.342633800000020
  0
VERTEX
  8
0
  6
CONTINUOUS
 62
256
 10
-287.323775513475820
 20
-129.411868973223930
  0
VERTEX
  8
0
  6
CONTINUOUS
 62
256
 10
-288.205463132115940
 20
-129.616913824016280
  0
VERTEX
  8
0
  6
CONTINUOUS
 62
256
 10
-289.018031095192160
 20
-129.949888593751520
  0
VERTEX
  8
0
  6
CONTINUOUS
 62
256
 10
-289.730252871576790
 20
-130.397997248763180
  0
VERTEX
  8
0
  6
CONTINUOUS
 62
256
 10
-290.314758177821940
 20
-130.944019224741340
  0
VERTEX
  8
0
  6
CONTINUOUS
 62
256
 10
-290.749084802803050
 20
-131.566971203361870
  0
VERTEX
  8
0
  6
CONTINUOUS
 62
256
 10
-291.016541817895190
 20
-132.242913489441830
  0
VERTEX
  8
0
  6
CONTINUOUS
 62
256
 10
-291.106851000000010
 20
-132.945870000000010
  0
VERTEX
  8
0
  6
CONTINUOUS
 62
256
 10
-291.016541817895190
 20
-133.648826510558190
  0
VERTEX
  8
0
  6
CONTINUOUS
 62
256
 10
-290.749084802803050
 20
-134.324768796638150
  0
VERTEX
  8
0
  6
CONTINUOUS
 62
256
 10
-290.314758177821940
 20
-134.947720775258690
  0
VERTEX
  8
0
  6
CONTINUOUS
 62
256
 10
-289.730252871576790
 20
-135.493742751236850
  0
VERTEX
  8
0
  6
CONTINUOUS
 62
256
 10
-289.018031095192160
 20
-135.941851406248500
  0
VERTEX
  8
0
  6
CONTINUOUS
 62
256
 10
-288.205463132115940
 20
-136.274826175983750
  0
VERTEX
  8
0
  6
CONTINUOUS
 62
256
 10
-287.323775513475820
 20
-136.479871026776070
  0
VERTEX
  8
0
  6
CONTINUOUS
 62
256
 10
-286.406851000000020
 20
-136.549106200000010
  0
VERTEX
  8
0
  6
CONTINUOUS
 62
256
 10
-285.489926486524210
 20
-136.479871026776070
  0
VERTEX
  8
0
  6
CONTINUOUS
 62
256
 10
-284.608238867884100
 20
-136.274826175983750
  0
VERTEX
  8
0
  6
CONTINUOUS
 62
256
 10
-283.795670904807880
 20
-135.941851406248500
  0
VERTEX
  8
0
  6
CONTINUOUS
 62
256
 10
-283.083449128423240
 20
-135.493742751236850
  0
VERTEX
  8
0
  6
CONTINUOUS
 62
256
 10
-282.498943822178090
 20
-134.947720775258690
  0
VERTEX
  8
0
  6
CONTINUOUS
 62
256
 10
-282.064617197196980
 20
-134.324768796638150
  0
VERTEX
  8
0
  6
CONTINUOUS
 62
256
 10
-281.797160182104850
 20
-133.648826510558190
  0
SEQEND
  8
0
  6
CONTINUOUS
 62
256
  0
LINE
  8
0
  6
CONTINUOUS
 62
256
 10
-285.406851000000020
 20
-146.022345000000000
 11
-356.100874999999970
 21
-146.022345000000000
  0
LINE
  8
0
  6
DASHDOT
 62
256
 10
-140.482529000000000
 20
-81.022345000000001
 11
-388.336063000000020
 21
-81.022345000000001
  0
ARC
  8
0
  6
CONTINUOUS
 62
256
 10
-375.806850999999990
 20
-133.465550000000010
 40
2.600000000000023
 50
180.000000000000000
 51
234.999999999999770
  0
LINE
  8
0
  6
CONTINUOUS
 62
256
 10
-367.572404000000010
 20
-142.405385999999990
 11
-377.298149000000020
 21
-135.595346000000010
  0
LINE
  8
0
  6
CONTINUOUS
 62
256
 10
-275.406851000000020
 20
-21.522345000000001
 11
-178.406850999999990
 21
-21.522345000000001
  0
LINE
  8
0
  6
CONTINUOUS
 62
256
 10
-285.406851000000020
 20
-146.022345000000000
 11
-285.406851000000020
 21
-145.641566000000010
  0
LINE
  8
0
  6
CONTINUOUS
 62
256
 10
-275.406851000000020
 20
-131.337880000000010
 11
-178.406850999999990
 21
-131.337880000000010
  0
ARC
  8
0
  6
CONTINUOUS
 62
256
 10
496.628481000000020
 20
-171.889010000000010
 40
5.000000000000002
 50
276.032049000000030
 51
0.000000000000000
  0
LINE
  8
0
  6
CONTINUOUS
 62
256
 10
501.628481000000020
 20
-167.582145999999990
 11
501.628481000000020
 21
-171.889010000000010
  0
LINE
  8
0
  6
CONTINUOUS
 62
256
 10
429.628481000000020
 20
-168.838911000000000
 11
429.628481000000020
 21
-171.889010000000010
  0
ARC
  8
0
  6
CONTINUOUS
 62
256
 10
434.628481000000020
 20
-171.889010000000010
 40
5.000000000000000
 50
180.000000000000000
 51
263.967950999999970
  0
LINE
  8
0
  6
CONTINUOUS
 62
256
 10
463.128481000000020
 20
-179.022345000000000
 11
468.128481000000020
 21
-179.022345000000000
  0
LINE
  8
0
  6
CONTINUOUS
 62
256
 10
468.128481000000020
 20
-178.522343000000010
 11
468.128481000000020
 21
-179.022345000000000
  0
LINE
  8
0
  6
CONTINUOUS
 62
256
 10
463.128481000000020
 20
-178.511929000000010
 11
463.128481000000020
 21
-179.022345000000000
  0
ARC
  8
0
  6
CONTINUOUS
 62
256
 10
465.628481000000020
 20
121.477655000000000
 40
300.000000000000000
 50
263.967951000000030
 51
276.032048999999970
  0
LINE
  8
0
  6
DASHDOT
 62
256
 10
405.084881000000000
 20
-8.022501999999999
 11
526.385245000000050
 21
-8.022501999999999
  0
LINE
  8
0
  6
DASHDOT
 62
256
 10
405.084881000000000
 20
-154.022502000000000
 11
526.385245000000050
 21
-154.022502000000000
  0
LINE
  8
0
  6
DASHDOT
 62
256
 10
24.093382999999999
 20
5.780254000000000
 11
24.093382999999999
 21
-21.043085000000001
  0
LINE
  8
0
  6
DASHDOT
 62
256
 10
37.234518999999999
 20
-8.022501999999999
 11
11.644602000000001
 21
-8.022501999999999
  0
ENDSEC
  0
EOF
