  0
SECTION
  2
HEADER
  9
$TEXTSIZE
 40
2.5
  9
$ACADVER
  1
AC1009
  9
$DIMASZ
 40
3.863703297614046
  9
$DIMEXE
 40
2.000000000000000
  9
$DIMEXO
 40
1.000000000000000
  9
$DIMLFAC
 40
1.000000000000000
  9
$DIMSCALE
 40
1.000000000000000
  9
$DIMTAD
 70
1
  9
$DIMTFAC
 40
0.625000000000000
  9
$DIMTXT
 40
3.200000047683716
  9
$LUPREC
 70
3
  9
$REGENMODE
 70
1
  9
$TEXTSTYLE
  7
STANDARD1
  0
ENDSEC
  0
SECTION
  2
TABLES
  0
TABLE
  2
LTYPE
 70
4
  0
LTYPE
  2
CONTINUOUS
 70
64
  3
Solid line
 72
65
 73
0
 40
0.0
  0
LTYPE
  2
DASHED
 70
64
  3
-- -- -- -- -- -- -- -- -- -- -- -- -- -- --
 72
65
 73
2
 40
0.75
 49
0.5
 49
-0.25
  0
LTYPE
  2
DASHDOT
 70
64
  3
__ . __ . __ . __ . __ . __ . __ . __ . __ . __
 72
65
 73
4
 40
1.0
 49
0.5
 49
-0.25
 49
0.0
 49
-0.25
  0
LTYPE
  2
DIVIDE
 70
64
  3
__ . . __ . . __ . . __ . . __ . . __ . . __
 72
65
 73
6
 40
1.25
 49
0.5
 49
-0.25
 49
0.0
 49
-0.25
 49
0.0
 49
-0.25
  0
ENDTAB
  0
TABLE
  2
LAYER
 70
3
  0
LAYER
  2
0
 70
64
 62
53
  6
CONTINUOUS
  0
LAYER
  2
1
 70
64
 62
102
  6
CONTINUOUS
  0
LAYER
  2
2
 70
64
 62
102
  6
CONTINUOUS
  0
ENDTAB
  0
TABLE
  2
STYLE
 70
4
  0
STYLE
  2
STANDARD1
 70
64
 40
0.0
 41
1.0
 50
0.0
 71
0
 42
3.200000047683716
  3
MONOTXT
  4
BIGFONT
  0
STYLE
  2
STANDARD2
 70
68
 40
0.0
 41
1.0
 50
0.0
 71
0
 42
3.200000047683716
  3
MONOTXT
  4
BIGFONT
  0
STYLE
  2
STANDARD3
 70
64
 40
0.0
 41
1.0
 50
0.0
 71
0
 42
3.200000047683716
  3
MONOTXT
  4

  0
STYLE
  2
STANDARD4
 70
68
 40
0.0
 41
1.0
 50
0.0
 71
0
 42
3.200000047683716
  3
MONOTXT
  4

  0
ENDTAB
  0
TABLE
  2
VIEW
 70
0
  0
ENDTAB
  0
ENDSEC
  0
SECTION
  2
BLOCKS
  0
ENDSEC
  0
SECTION
  2
ENTITIES
  0
TEXT
  8
0
  6
CONTINUOUS
 62
256
 10
-70.375488281250000
 20
-13.156250000000000
 40
2.799999952316284
  1
ü@
 50
0.000002504478167
 41
0.996000017370497
  7
STANDARD1
  0
TEXT
  8
0
  6
CONTINUOUS
 62
256
 10
1.624511957168579
 20
-253.406250000000000
 40
2.799999952316284
  1
ü@
 50
0.000002504478167
 41
0.996000017370497
  7
STANDARD1
  0
CIRCLE
  8
0
  6
CONTINUOUS
 62
256
 10
-146.653302999999990
 20
-170.469773000000000
 40
4.000000000000000
  0
CIRCLE
  8
0
  6
CONTINUOUS
 62
256
 10
-146.653302999999990
 20
-170.469773000000000
 40
3.323499999999996
  0
CIRCLE
  8
0
  6
CONTINUOUS
 62
256
 10
-28.653303000000001
 20
-170.469773000000000
 40
4.000000000000000
  0
CIRCLE
  8
0
  6
CONTINUOUS
 62
256
 10
-28.653303000000001
 20
-170.469773000000000
 40
3.323499999999999
  0
CIRCLE
  8
0
  6
CONTINUOUS
 62
256
 10
-28.653303000000001
 20
-65.469773000000004
 40
4.000000000000000
  0
CIRCLE
  8
0
  6
CONTINUOUS
 62
256
 10
-28.653303000000001
 20
-65.469773000000004
 40
3.323499999999999
  0
LINE
  8
0
  6
DASHDOT
 62
256
 10
-104.653302999999990
 20
-52.703504000000002
 11
-104.653302999999990
 21
-186.619876000000000
  0
LINE
  8
0
  6
DASHDOT
 62
256
 10
-161.954734000000000
 20
-107.469773000000000
 11
-55.451433000000002
 21
-107.469773000000000
  0
LINE
  8
0
  6
CONTINUOUS
 62
256
 10
11.346697000000001
 20
-66.969773000000004
 11
11.346697000000001
 21
-120.469773000000000
  0
LINE
  8
0
  6
CONTINUOUS
 62
256
 10
11.346697000000001
 20
-173.969773000000000
 11
11.346697000000001
 21
-120.469773000000000
  0
LINE
  8
0
  6
CONTINUOUS
 62
256
 10
-101.653302999999990
 20
-93.969773000000004
 11
-101.653302999999990
 21
-99.969773000000004
  0
LINE
  8
0
  6
CONTINUOUS
 62
256
 10
-107.653302999999990
 20
-99.969773000000004
 11
-101.653302999999990
 21
-99.969773000000004
  0
LINE
  8
0
  6
CONTINUOUS
 62
256
 10
-107.653302999999990
 20
-93.969773000000004
 11
-101.653302999999990
 21
-93.969773000000004
  0
LINE
  8
0
  6
CONTINUOUS
 62
256
 10
-107.653302999999990
 20
-93.969773000000004
 11
-107.653302999999990
 21
-99.969773000000004
  0
CIRCLE
  8
0
  6
CONTINUOUS
 62
256
 10
-104.653302999999990
 20
-107.469773000000000
 40
4.000000000000000
  0
CIRCLE
  8
0
  6
CONTINUOUS
 62
256
 10
-104.653302999999990
 20
-107.469773000000000
 40
3.500000000000000
  0
ARC
  8
0
  6
CONTINUOUS
 62
256
 10
-104.653302999999990
 20
-107.469773000000000
 40
11.000000000000004
 50
105.826619999999990
 51
74.173380000000009
  0
LINE
  8
0
  6
CONTINUOUS
 62
256
 10
-26.153303000000001
 20
-153.499210000000010
 11
-26.153303000000001
 21
-82.440336000000002
  0
LINE
  8
0
  6
CONTINUOUS
 62
256
 10
-45.535246000000001
 20
-171.969773000000000
 11
-129.771359999999990
 21
-171.969773000000000
  0
LINE
  8
0
  6
CONTINUOUS
 62
256
 10
-149.153302999999990
 20
-82.440336000000002
 11
-149.153302999999990
 21
-153.499210000000010
  0
LINE
  8
0
  6
CONTINUOUS
 62
256
 10
-45.535246000000001
 20
-63.969773000000004
 11
-98.038923999999994
 21
-63.969773000000004
  0
LINE
  8
0
  6
CONTINUOUS
 62
256
 10
-23.653303000000001
 20
-153.499210000000010
 11
-23.653303000000001
 21
-82.440336000000002
  0
LINE
  8
0
  6
CONTINUOUS
 62
256
 10
-45.535246000000001
 20
-174.469773000000000
 11
-129.771359999999990
 21
-174.469773000000000
  0
LINE
  8
0
  6
CONTINUOUS
 62
256
 10
-151.653302999999990
 20
-82.440336000000002
 11
-151.653302999999990
 21
-153.499210000000010
  0
LINE
  8
0
  6
CONTINUOUS
 62
256
 10
-45.535246000000001
 20
-61.469773000000004
 11
-129.771359999999990
 21
-61.469773000000004
  0
LINE
  8
0
  6
CONTINUOUS
 62
256
 10
-133.998234000000000
 20
-78.124842000000001
 11
-134.039285000000010
 21
-78.165892999999997
  0
LINE
  8
0
  6
DASHDOT
 62
256
 10
-58.311002000000002
 20
-107.469773000000000
 11
-154.262722000000000
 21
-107.469773000000000
  0
LINE
  8
0
  6
DASHDOT
 62
256
 10
-28.653303000000001
 20
-56.753247000000002
 11
-28.653303000000001
 21
-74.176944000000006
  0
LINE
  8
0
  6
DASHDOT
 62
256
 10
-37.084338000000002
 20
-65.469773000000004
 11
-19.756845999999999
 21
-65.469773000000004
  0
LINE
  8
0
  6
DASHDOT
 62
256
 10
-155.198996999999990
 20
-65.469773000000004
 11
-137.756846000000000
 21
-65.469773000000004
  0
LINE
  8
0
  6
DASHDOT
 62
256
 10
-146.653302999999990
 20
-56.374673999999999
 11
-146.653302999999990
 21
-74.176944000000006
  0
LINE
  8
0
  6
DASHDOT
 62
256
 10
-155.009710000000010
 20
-170.469773000000000
 11
-137.756846000000000
 21
-170.469773000000000
  0
LINE
  8
0
  6
DASHDOT
 62
256
 10
-146.653302999999990
 20
-161.617863000000000
 11
-146.653302999999990
 21
-179.176943999999990
  0
LINE
  8
0
  6
DASHDOT
 62
256
 10
-37.652197000000001
 20
-170.469773000000000
 11
-19.756845999999999
 21
-170.469773000000000
  0
LINE
  8
0
  6
DASHDOT
 62
256
 10
-28.653303000000001
 20
-161.239291000000010
 11
-28.653303000000001
 21
-179.221489999999990
  0
LINE
  8
0
  6
CONTINUOUS
 62
256
 10
-150.653302999999990
 20
-181.469773000000000
 11
-23.653303000000001
 21
-181.469773000000000
  0
LINE
  8
0
  6
CONTINUOUS
 62
256
 10
-157.653302999999990
 20
-61.469773000000004
 11
-157.653302999999990
 21
-174.469773000000000
  0
LINE
  8
0
  6
CONTINUOUS
 62
256
 10
-23.653303000000001
 20
-54.469773000000004
 11
-150.653302999999990
 21
-54.469773000000004
  0
LINE
  8
0
  6
CONTINUOUS
 62
256
 10
6.346697000000000
 20
-167.969773000000000
 11
6.346697000000000
 21
-171.004225999999990
  0
LINE
  8
0
  6
CONTINUOUS
 62
256
 10
3.346697000000000
 20
-164.969773000000000
 11
-1.653303000000000
 21
-164.969773000000000
  0
LINE
  8
0
  6
CONTINUOUS
 62
256
 10
4.346697000000000
 20
-161.899425000000010
 11
-1.653303000000000
 21
-161.899425000000010
  0
LINE
  8
0
  6
CONTINUOUS
 62
256
 10
-6.653303000000000
 20
-157.361939000000010
 11
-6.653303000000000
 21
-159.969773000000000
  0
LINE
  8
0
  6
CONTINUOUS
 62
256
 10
-3.653303000000000
 20
-154.361939000000010
 11
3.346697000000000
 21
-154.361939000000010
  0
LINE
  8
0
  6
CONTINUOUS
 62
256
 10
6.346697000000000
 20
-140.469773000000000
 11
11.346697000000001
 21
-140.469773000000000
  0
LINE
  8
0
  6
CONTINUOUS
 62
256
 10
6.346697000000000
 20
-120.469773000000000
 11
6.346697000000000
 21
-159.899425000000010
  0
LINE
  8
0
  6
CONTINUOUS
 62
256
 10
6.346697000000000
 20
-100.469773000000000
 11
11.346697000000001
 21
-100.469773000000000
  0
LINE
  8
0
  6
CONTINUOUS
 62
256
 10
-6.653303000000000
 20
-83.577607000000000
 11
-6.653303000000000
 21
-80.969773000000004
  0
LINE
  8
0
  6
CONTINUOUS
 62
256
 10
-3.653303000000000
 20
-86.577607000000000
 11
3.346697000000000
 21
-86.577607000000000
  0
LINE
  8
0
  6
CONTINUOUS
 62
256
 10
6.346697000000000
 20
-120.469773000000000
 11
6.346697000000000
 21
-81.040121999999997
  0
LINE
  8
0
  6
CONTINUOUS
 62
256
 10
3.346697000000000
 20
-75.969773000000004
 11
-1.653303000000000
 21
-75.969773000000004
  0
LINE
  8
0
  6
CONTINUOUS
 62
256
 10
4.346697000000000
 20
-79.040121999999997
 11
-1.653303000000000
 21
-79.040121999999997
  0
LINE
  8
0
  6
CONTINUOUS
 62
256
 10
6.346697000000000
 20
-72.969773000000004
 11
6.346697000000000
 21
-69.935320000000004
  0
LINE
  8
0
  6
CONTINUOUS
 62
256
 10
-18.153303000000001
 20
-174.469773000000000
 11
-18.153303000000001
 21
-61.469773000000004
  0
LINE
  8
0
  6
DASHDOT
 62
256
 10
-104.653302999999990
 20
-183.064905000000010
 11
-104.653302999999990
 21
-57.143900000000002
  0
LINE
  8
0
  6
CONTINUOUS
 62
256
 10
-23.653303000000001
 20
-55.969773000000004
 11
-104.653302000000000
 21
-55.969773000000004
  0
LINE
  8
0
  6
CONTINUOUS
 62
256
 10
-104.653302999999990
 20
-55.969773000000004
 11
-150.653302999999990
 21
-55.969773000000004
  0
LINE
  8
0
  6
CONTINUOUS
 62
256
 10
-156.153302999999990
 20
-61.469773000000004
 11
-156.153302999999990
 21
-107.469773000000000
  0
LINE
  8
0
  6
CONTINUOUS
 62
256
 10
-156.153302999999990
 20
-107.469773000000000
 11
-156.153302999999990
 21
-174.469773000000000
  0
LINE
  8
0
  6
CONTINUOUS
 62
256
 10
-104.653302999999990
 20
-179.969773000000000
 11
-23.653303000000001
 21
-179.969773000000000
  0
LINE
  8
0
  6
CONTINUOUS
 62
256
 10
-150.653302999999990
 20
-179.969773000000000
 11
-104.653302999999990
 21
-179.969773000000000
  0
ARC
  8
0
  6
CONTINUOUS
 62
256
 10
-104.653302999999990
 20
-107.469773000000000
 40
41.500000000000000
 50
180.000000000000000
 51
270.000000000000000
  0
ARC
  8
0
  6
CONTINUOUS
 62
256
 10
-104.653302999999990
 20
-107.469773000000000
 40
44.000000000000000
 50
180.000000000000000
 51
81.354135999999983
  0
ARC
  8
0
  6
CONTINUOUS
 62
256
 10
-129.771359999999990
 20
-168.469773000000000
 40
3.500000000000010
 50
186.756327000000170
 51
270.000000000000000
  0
ARC
  8
0
  6
CONTINUOUS
 62
256
 10
-45.535246000000001
 20
-168.469773000000000
 40
3.500000000000000
 50
270.000000000000000
 51
353.243672999999830
  0
ARC
  8
0
  6
CONTINUOUS
 62
256
 10
-28.653303000000001
 20
-170.469773000000000
 40
13.499999999999989
 50
93.372287000000000
 51
173.243673000000000
  0
ARC
  8
0
  6
CONTINUOUS
 62
256
 10
-29.653303000000001
 20
-153.499210000000010
 40
3.500000000000003
 50
273.372286999999970
 51
0.000000000000000
  0
ARC
  8
0
  6
CONTINUOUS
 62
256
 10
-146.653302999999990
 20
-170.469773000000000
 40
13.499999999999991
 50
6.756327000000010
 51
86.627712999999972
  0
ARC
  8
0
  6
CONTINUOUS
 62
256
 10
-145.653302999999990
 20
-153.499210000000010
 40
3.500000000000000
 50
180.000000000000000
 51
266.627713000000030
  0
ARC
  8
0
  6
CONTINUOUS
 62
256
 10
-145.653302999999990
 20
-82.440336000000002
 40
3.500000000000003
 50
93.372286999999972
 51
180.000000000000000
  0
ARC
  8
0
  6
CONTINUOUS
 62
256
 10
-146.653302999999990
 20
-65.469773000000004
 40
13.500000000000004
 50
273.372286999999910
 51
353.243673000000000
  0
ARC
  8
0
  6
CONTINUOUS
 62
256
 10
-129.771359999999990
 20
-67.469773000000004
 40
3.500000000000000
 50
90.000000000000000
 51
173.243673000000060
  0
ARC
  8
0
  6
CONTINUOUS
 62
256
 10
-45.535246000000001
 20
-67.469773000000004
 40
3.500000000000002
 50
6.756326999999959
 51
90.000000000000000
  0
ARC
  8
0
  6
CONTINUOUS
 62
256
 10
-28.653303000000001
 20
-65.469773000000004
 40
13.499999999999998
 50
186.756327000000000
 51
266.627713000000030
  0
ARC
  8
0
  6
CONTINUOUS
 62
256
 10
-29.653303000000001
 20
-82.440336000000002
 40
3.500000000000000
 50
0.000000000000000
 51
86.627712999999986
  0
ARC
  8
0
  6
CONTINUOUS
 62
256
 10
-29.653303000000001
 20
-153.499210000000010
 40
5.999999999999992
 50
273.372286999999970
 51
0.000000000000000
  0
ARC
  8
0
  6
CONTINUOUS
 62
256
 10
-28.653303000000001
 20
-170.469773000000000
 40
11.000000000000000
 50
93.372287000000000
 51
173.243673000000030
  0
ARC
  8
0
  6
CONTINUOUS
 62
256
 10
-45.535246000000001
 20
-168.469773000000000
 40
6.000000000000000
 50
270.000000000000000
 51
353.243673000000110
  0
ARC
  8
0
  6
CONTINUOUS
 62
256
 10
-129.771359999999990
 20
-168.469773000000000
 40
6.000000000000010
 50
186.756326999999860
 51
270.000000000000000
  0
ARC
  8
0
  6
CONTINUOUS
 62
256
 10
-146.653302999999990
 20
-170.469773000000000
 40
10.999999999999988
 50
6.756326999999992
 51
86.627712999999986
  0
ARC
  8
0
  6
CONTINUOUS
 62
256
 10
-145.653302999999990
 20
-153.499210000000010
 40
6.000000000000000
 50
180.000000000000000
 51
266.627712999999970
  0
ARC
  8
0
  6
CONTINUOUS
 62
256
 10
-145.653302999999990
 20
-82.440336000000002
 40
6.000000000000006
 50
93.372287000000000
 51
180.000000000000000
  0
ARC
  8
0
  6
CONTINUOUS
 62
256
 10
-146.653302999999990
 20
-65.469773000000004
 40
11.000000000000000
 50
273.372286999999860
 51
353.243673000000000
  0
ARC
  8
0
  6
CONTINUOUS
 62
256
 10
-129.771359999999990
 20
-67.469773000000004
 40
6.000000000000000
 50
90.000000000000000
 51
173.243673000000000
  0
ARC
  8
0
  6
CONTINUOUS
 62
256
 10
-29.653303000000001
 20
-82.440336000000002
 40
6.000000000000000
 50
0.000000000000000
 51
86.627713000000014
  0
ARC
  8
0
  6
CONTINUOUS
 62
256
 10
-28.653303000000001
 20
-65.469773000000004
 40
11.000000000000002
 50
186.756326999999970
 51
266.627713000000030
  0
ARC
  8
0
  6
CONTINUOUS
 62
256
 10
-45.535246000000001
 20
-67.469773000000004
 40
5.999999999999997
 50
6.756327000000024
 51
90.000000000000000
  0
ARC
  8
0
  6
CONTINUOUS
 62
256
 10
9.346697000000001
 20
-171.004225999999990
 40
3.000000000000000
 50
180.000000000000000
 51
271.000000000000000
  0
ARC
  8
0
  6
CONTINUOUS
 62
256
 10
9.346697000000001
 20
-69.935320000000004
 40
2.999999999999997
 50
88.999999999999986
 51
180.000000000000000
  0
ARC
  8
0
  6
CONTINUOUS
 62
256
 10
-23.653303000000001
 20
-61.469773000000004
 40
7.000000000000000
 50
0.000000000000000
 51
90.000000000000000
  0
CIRCLE
  8
0
  6
CONTINUOUS
 62
256
 10
-104.653302999999990
 20
-107.469773000000000
 40
25.000000000000000
  0
ARC
  8
0
  6
CONTINUOUS
 62
256
 10
-150.653302999999990
 20
-174.469773000000000
 40
7.000000000000000
 50
180.000000000000000
 51
270.000000000000000
  0
ARC
  8
0
  6
CONTINUOUS
 62
256
 10
-150.653302999999990
 20
-61.469773000000004
 40
7.000000000000000
 50
90.000000000000000
 51
180.000000000000000
  0
ARC
  8
0
  6
CONTINUOUS
 62
256
 10
-23.653303000000001
 20
-174.469773000000000
 40
7.000000000000000
 50
270.000000000000000
 51
0.000000000000000
  0
ARC
  8
0
  6
CONTINUOUS
 62
256
 10
3.346697000000000
 20
-151.361939000000010
 40
3.000000000000000
 50
270.000000000000000
 51
0.000000000000000
  0
ARC
  8
0
  6
CONTINUOUS
 62
256
 10
3.346697000000000
 20
-167.969773000000000
 40
3.000000000000000
 50
0.000000000000000
 51
90.000000000000000
  0
ARC
  8
0
  6
CONTINUOUS
 62
256
 10
4.346697000000000
 20
-159.899425000000010
 40
2.000000000000000
 50
270.000000000000000
 51
0.000000000000000
  0
ARC
  8
0
  6
CONTINUOUS
 62
256
 10
-1.653303000000000
 20
-156.899425000000010
 40
5.000000000000000
 50
180.000000000000000
 51
270.000000000000000
  0
ARC
  8
0
  6
CONTINUOUS
 62
256
 10
-1.653303000000000
 20
-159.969773000000000
 40
5.000000000000000
 50
180.000000000000000
 51
270.000000000000000
  0
ARC
  8
0
  6
CONTINUOUS
 62
256
 10
3.346697000000000
 20
-89.577607000000000
 40
3.000000000000000
 50
0.000000000000000
 51
90.000000000000000
  0
ARC
  8
0
  6
CONTINUOUS
 62
256
 10
-1.653303000000000
 20
-84.040121999999997
 40
5.000000000000000
 50
90.000000000000000
 51
180.000000000000000
  0
ARC
  8
0
  6
CONTINUOUS
 62
256
 10
-1.653303000000000
 20
-80.969773000000004
 40
5.000000000000000
 50
90.000000000000000
 51
180.000000000000000
  0
ARC
  8
0
  6
CONTINUOUS
 62
256
 10
3.346697000000000
 20
-72.969773000000004
 40
3.000000000000000
 50
270.000000000000000
 51
0.000000000000000
  0
ARC
  8
0
  6
CONTINUOUS
 62
256
 10
4.346697000000000
 20
-81.040121999999997
 40
2.000000000000000
 50
0.000000000000000
 51
90.000000000000000
  0
ARC
  8
0
  6
CONTINUOUS
 62
256
 10
-23.653303000000001
 20
-61.469773000000004
 40
5.500000000000000
 50
0.000000000000000
 51
90.000000000000000
  0
ARC
  8
0
  6
CONTINUOUS
 62
256
 10
-23.653303000000001
 20
-174.469773000000000
 40
5.500000000000000
 50
270.000000000000000
 51
0.000000000000000
  0
ARC
  8
0
  6
CONTINUOUS
 62
256
 10
-150.653302999999990
 20
-174.469773000000000
 40
5.500000000000000
 50
180.000000000000000
 51
270.000000000000000
  0
ARC
  8
0
  6
CONTINUOUS
 62
256
 10
-150.653302999999990
 20
-61.469773000000004
 40
5.500000000000000
 50
90.000000000000000
 51
180.000000000000000
  0
LINE
  8
0
  6
CONTINUOUS
 62
256
 10
-16.653303000000001
 20
-174.469773000000000
 11
-16.653303000000001
 21
-61.469773000000004
  0
LINE
  8
0
  6
CONTINUOUS
 62
256
 10
-111.267681000000000
 20
-63.969773000000004
 11
-129.771359999999990
 21
-63.969773000000004
  0
ARC
  8
0
  6
CONTINUOUS
 62
256
 10
-104.653302999999990
 20
-107.469773000000000
 40
44.000000000000000
 50
98.645864000000003
 51
180.000000000000000
  0
ARC
  8
0
  6
CONTINUOUS
 62
256
 10
-13.757329000000000
 20
-63.531123999999998
 40
2.999999999999999
 50
188.271556000000000
 51
268.999999999999940
  0
LINE
  8
0
  6
CONTINUOUS
 62
256
 10
-13.809687000000000
 20
-66.530666999999994
 11
11.346697000000001
 21
-66.969773000000004
  0
ARC
  8
0
  6
CONTINUOUS
 62
256
 10
-13.669157999999999
 20
-177.406883999999990
 40
3.000000000000011
 50
91.000000000000014
 51
183.226826000000240
  0
LINE
  8
0
  6
CONTINUOUS
 62
256
 10
-13.721515000000000
 20
-174.407341000000000
 11
11.346697000000001
 21
-173.969773000000000
  0
LINE
  8
0
  6
CONTINUOUS
 62
256
 10
-6.653303000000000
 20
-171.231142000000010
 11
-6.653303000000000
 21
-120.469773000000000
  0
LINE
  8
0
  6
CONTINUOUS
 62
256
 10
-6.653303000000000
 20
-69.708404000000002
 11
-6.653303000000000
 21
-120.469773000000000
  0
ARC
  8
0
  6
CONTINUOUS
 62
256
 10
-3.653303000000000
 20
-69.708404000000002
 40
2.999999999999997
 50
89.000000000000000
 51
180.000000000000000
  0
ARC
  8
0
  6
CONTINUOUS
 62
256
 10
-3.653303000000000
 20
-171.231142000000010
 40
3.000000000000000
 50
180.000000000000000
 51
271.000000000000000
  0
ARC
  8
0
  6
CONTINUOUS
 62
256
 10
-3.653303000000000
 20
-89.577607000000000
 40
3.000000000000000
 50
90.000000000000000
 51
180.000000000000000
  0
ARC
  8
0
  6
CONTINUOUS
 62
256
 10
-3.653303000000000
 20
-151.361939000000010
 40
3.000000000000000
 50
180.000000000000000
 51
270.000000000000000
  0
ARC
  8
0
  6
CONTINUOUS
 62
256
 10
-104.653302999999990
 20
-107.469773000000000
 40
41.500000000000000
 50
270.000000000000000
 51
180.000000000000000
  0
ARC
  8
0
  6
CONTINUOUS
 62
256
 10
-3.653303000000000
 20
-89.577607000000000
 40
3.000000000000000
 50
90.000000000000000
 51
180.000000000000000
  0
ARC
  8
0
  6
CONTINUOUS
 62
256
 10
-3.653303000000000
 20
-151.361939000000010
 40
3.000000000000000
 50
180.000000000000000
 51
270.000000000000000
  0
ARC
  8
0
  6
CONTINUOUS
 62
256
 10
-3.653303000000000
 20
-69.708404000000002
 40
2.999999999999997
 50
89.000000000000000
 51
180.000000000000000
  0
ARC
  8
0
  6
CONTINUOUS
 62
256
 10
-3.653303000000000
 20
-171.231142000000010
 40
3.000000000000000
 50
180.000000000000000
 51
271.000000000000000
  0
LINE
  8
0
  6
CONTINUOUS
 62
256
 10
-6.653303000000000
 20
-171.231142000000010
 11
-6.653303000000000
 21
-120.469773000000000
  0
LINE
  8
0
  6
CONTINUOUS
 62
256
 10
-6.653303000000000
 20
-69.708404000000002
 11
-6.653303000000000
 21
-120.469773000000000
  0
ARC
  8
0
  6
CONTINUOUS
 62
256
 10
4.346697000000000
 20
-159.899425000000010
 40
2.000000000000000
 50
270.000000000000000
 51
0.000000000000000
  0
ARC
  8
0
  6
CONTINUOUS
 62
256
 10
3.346697000000000
 20
-167.969773000000000
 40
3.000000000000000
 50
0.000000000000000
 51
90.000000000000000
  0
ARC
  8
0
  6
CONTINUOUS
 62
256
 10
-1.653303000000000
 20
-159.969773000000000
 40
5.000000000000000
 50
180.000000000000000
 51
270.000000000000000
  0
ARC
  8
0
  6
CONTINUOUS
 62
256
 10
-1.653303000000000
 20
-156.899425000000010
 40
5.000000000000000
 50
180.000000000000000
 51
270.000000000000000
  0
ARC
  8
0
  6
CONTINUOUS
 62
256
 10
3.346697000000000
 20
-151.361939000000010
 40
3.000000000000000
 50
270.000000000000000
 51
0.000000000000000
  0
ARC
  8
0
  6
CONTINUOUS
 62
256
 10
-1.653303000000000
 20
-80.969773000000004
 40
5.000000000000000
 50
90.000000000000000
 51
180.000000000000000
  0
ARC
  8
0
  6
CONTINUOUS
 62
256
 10
-1.653303000000000
 20
-84.040121999999997
 40
5.000000000000000
 50
90.000000000000000
 51
180.000000000000000
  0
ARC
  8
0
  6
CONTINUOUS
 62
256
 10
4.346697000000000
 20
-81.040121999999997
 40
2.000000000000000
 50
0.000000000000000
 51
90.000000000000000
  0
ARC
  8
0
  6
CONTINUOUS
 62
256
 10
3.346697000000000
 20
-72.969773000000004
 40
3.000000000000000
 50
270.000000000000000
 51
0.000000000000000
  0
ARC
  8
0
  6
CONTINUOUS
 62
256
 10
3.346697000000000
 20
-89.577607000000000
 40
3.000000000000000
 50
0.000000000000000
 51
90.000000000000000
  0
ARC
  8
0
  6
CONTINUOUS
 62
256
 10
9.346697000000001
 20
-171.004225999999990
 40
3.000000000000000
 50
180.000000000000000
 51
271.000000000000000
  0
ARC
  8
0
  6
CONTINUOUS
 62
256
 10
9.346697000000001
 20
-69.935320000000004
 40
2.999999999999997
 50
88.999999999999986
 51
180.000000000000000
  0
LINE
  8
0
  6
CONTINUOUS
 62
256
 10
6.346697000000000
 20
-167.969773000000000
 11
6.346697000000000
 21
-171.004225999999990
  0
LINE
  8
0
  6
CONTINUOUS
 62
256
 10
4.346697000000000
 20
-161.899425000000010
 11
-1.653303000000000
 21
-161.899425000000010
  0
LINE
  8
0
  6
CONTINUOUS
 62
256
 10
3.346697000000000
 20
-164.969773000000000
 11
-1.653303000000000
 21
-164.969773000000000
  0
LINE
  8
0
  6
CONTINUOUS
 62
256
 10
6.346697000000000
 20
-120.469773000000000
 11
6.346697000000000
 21
-159.899425000000010
  0
LINE
  8
0
  6
CONTINUOUS
 62
256
 10
-3.653303000000000
 20
-154.361939000000010
 11
3.346697000000000
 21
-154.361939000000010
  0
LINE
  8
0
  6
CONTINUOUS
 62
256
 10
-6.653303000000000
 20
-157.361939000000010
 11
-6.653303000000000
 21
-159.969773000000000
  0
LINE
  8
0
  6
CONTINUOUS
 62
256
 10
6.346697000000000
 20
-140.469773000000000
 11
11.346697000000001
 21
-140.469773000000000
  0
LINE
  8
0
  6
CONTINUOUS
 62
256
 10
6.346697000000000
 20
-120.469773000000000
 11
6.346697000000000
 21
-81.040121999999997
  0
LINE
  8
0
  6
CONTINUOUS
 62
256
 10
6.346697000000000
 20
-100.469773000000000
 11
11.346697000000001
 21
-100.469773000000000
  0
LINE
  8
0
  6
CONTINUOUS
 62
256
 10
-3.653303000000000
 20
-86.577607000000000
 11
3.346697000000000
 21
-86.577607000000000
  0
LINE
  8
0
  6
CONTINUOUS
 62
256
 10
-6.653303000000000
 20
-83.577607000000000
 11
-6.653303000000000
 21
-80.969773000000004
  0
LINE
  8
0
  6
CONTINUOUS
 62
256
 10
4.346697000000000
 20
-79.040121999999997
 11
-1.653303000000000
 21
-79.040121999999997
  0
LINE
  8
0
  6
CONTINUOUS
 62
256
 10
3.346697000000000
 20
-75.969773000000004
 11
-1.653303000000000
 21
-75.969773000000004
  0
LINE
  8
0
  6
CONTINUOUS
 62
256
 10
6.346697000000000
 20
-72.969773000000004
 11
6.346697000000000
 21
-69.935320000000004
  0
LINE
  8
0
  6
CONTINUOUS
 62
256
 10
11.346697000000001
 20
-173.969773000000000
 11
11.346697000000001
 21
-120.469773000000000
  0
LINE
  8
0
  6
CONTINUOUS
 62
256
 10
11.346697000000001
 20
-66.969773000000004
 11
11.346697000000001
 21
-120.469773000000000
  0
LINE
  8
0
  6
CONTINUOUS
 62
256
 10
11.346697000000001
 20
-173.969773000000000
 11
95.346697000000006
 21
-173.969773000000000
  0
LINE
  8
0
  6
CONTINUOUS
 62
256
 10
95.346697000000006
 20
-134.469773000000000
 11
11.346697000000001
 21
-134.469773000000000
  0
LINE
  8
0
  6
CONTINUOUS
 62
256
 10
95.346697000000006
 20
-140.097807999999990
 11
11.346697000000001
 21
-140.097807999999990
  0
LINE
  8
0
  6
CONTINUOUS
 62
256
 10
95.346697000000006
 20
-138.855887999999990
 11
11.346697000000001
 21
-138.855887999999990
  0
LINE
  8
0
  6
CONTINUOUS
 62
256
 10
95.346697000000006
 20
-143.308012999999990
 11
11.346697000000001
 21
-143.308012999999990
  0
LINE
  8
0
  6
CONTINUOUS
 62
256
 10
95.346697000000006
 20
-144.654415000000000
 11
11.346697000000001
 21
-144.654415000000000
  0
LINE
  8
0
  6
CONTINUOUS
 62
256
 10
95.346697000000006
 20
-147.747145999999990
 11
11.346697000000001
 21
-147.747145999999990
  0
LINE
  8
0
  6
CONTINUOUS
 62
256
 10
95.346697000000006
 20
-149.226169000000000
 11
11.346697000000001
 21
-149.226169000000000
  0
LINE
  8
0
  6
CONTINUOUS
 62
256
 10
95.346697000000006
 20
-152.184164000000010
 11
11.346697000000001
 21
-152.184164000000010
  0
LINE
  8
0
  6
CONTINUOUS
 62
256
 10
95.346697000000006
 20
-153.773373999999990
 11
11.346697000000001
 21
-153.773373999999990
  0
LINE
  8
0
  6
CONTINUOUS
 62
256
 10
95.346697000000006
 20
-161.511686999999990
 11
11.346697000000001
 21
-161.511686999999990
  0
LINE
  8
0
  6
CONTINUOUS
 62
256
 10
95.346697000000006
 20
-166.602856000000000
 11
11.346697000000001
 21
-166.602856000000000
  0
LINE
  8
0
  6
CONTINUOUS
 62
256
 10
95.346697000000006
 20
-170.969773000000000
 11
11.346697000000001
 21
-170.969773000000000
  0
LINE
  8
0
  6
CONTINUOUS
 62
256
 10
95.346697000000006
 20
-171.469773000000000
 11
11.346697000000001
 21
-171.469773000000000
  0
LINE
  8
0
  6
CONTINUOUS
 62
256
 10
11.346697000000001
 20
-173.969773000000000
 11
11.346697000000001
 21
-120.469773000000000
  0
LINE
  8
0
  6
CONTINUOUS
 62
256
 10
95.346697000000006
 20
-87.166172000000003
 11
11.346697000000001
 21
-87.166172000000003
  0
LINE
  8
0
  6
CONTINUOUS
 62
256
 10
95.346697000000006
 20
-88.755381999999997
 11
11.346697000000001
 21
-88.755381999999997
  0
LINE
  8
0
  6
CONTINUOUS
 62
256
 10
95.346697000000006
 20
-91.713378000000006
 11
11.346697000000001
 21
-91.713378000000006
  0
LINE
  8
0
  6
CONTINUOUS
 62
256
 10
95.346697000000006
 20
-93.192401000000004
 11
11.346697000000001
 21
-93.192401000000004
  0
LINE
  8
0
  6
CONTINUOUS
 62
256
 10
95.346697000000006
 20
-96.285132000000004
 11
11.346697000000001
 21
-96.285132000000004
  0
LINE
  8
0
  6
CONTINUOUS
 62
256
 10
95.346697000000006
 20
-97.631534000000002
 11
11.346697000000001
 21
-97.631534000000002
  0
LINE
  8
0
  6
CONTINUOUS
 62
256
 10
95.346697000000006
 20
-100.841739000000000
 11
11.346697000000001
 21
-100.841739000000000
  0
LINE
  8
0
  6
CONTINUOUS
 62
256
 10
95.346697000000006
 20
-102.083658000000000
 11
11.346697000000001
 21
-102.083658000000000
  0
LINE
  8
0
  6
CONTINUOUS
 62
256
 10
95.346697000000006
 20
-106.469773000000000
 11
11.346697000000001
 21
-106.469773000000000
  0
LINE
  8
0
  6
DASHDOT
 62
256
 10
-28.578745000000001
 20
-120.469773000000000
 11
179.664661000000000
 21
-120.469773000000000
  0
LINE
  8
0
  6
CONTINUOUS
 62
256
 10
11.346697000000001
 20
-66.969773000000004
 11
11.346697000000001
 21
-120.469773000000000
  0
LINE
  8
0
  6
CONTINUOUS
 62
256
 10
95.346697000000006
 20
-179.469773000000000
 11
150.851541999999990
 21
-179.469773000000000
  0
LINE
  8
0
  6
CONTINUOUS
 62
256
 10
162.667216999999990
 20
-175.744305000000000
 11
170.237996000000010
 21
-170.443188999999990
  0
LINE
  8
0
  6
CONTINUOUS
 62
256
 10
171.346697000000010
 20
-168.313392999999990
 11
171.346697000000010
 21
-120.469773000000000
  0
ARC
  8
0
  6
CONTINUOUS
 62
256
 10
168.746697000000010
 20
-168.313392999999990
 40
2.599999999999996
 50
305.000000000000230
 51
0.000000000000000
  0
ARC
  8
0
  6
CONTINUOUS
 62
256
 10
150.851541999999990
 20
-158.869773000000010
 40
20.599999999999994
 50
270.000000000000000
 51
305.000000000000000
  0
LINE
  8
0
  6
CONTINUOUS
 62
256
 10
95.346697000000006
 20
-179.469773000000000
 11
95.346697000000006
 21
-120.469773000000000
  0
LINE
  8
0
  6
CONTINUOUS
 62
256
 10
106.346697000000010
 20
-169.613694000000010
 11
108.346697000000010
 21
-167.961052999999990
  0
LINE
  8
0
  6
CONTINUOUS
 62
256
 10
104.346697000000010
 20
-170.789480000000000
 11
106.346697000000010
 21
-169.613694000000010
  0
LINE
  8
0
  6
CONTINUOUS
 62
256
 10
106.346697000000010
 20
-169.613694000000010
 11
104.346697000000010
 21
-167.961052999999990
  0
LINE
  8
0
  6
CONTINUOUS
 62
256
 10
108.346697000000010
 20
-170.789480000000000
 11
106.346697000000010
 21
-169.613694000000010
  0
POLYLINE
  8
0
  6
CONTINUOUS
 62
256
 66
1
 70
1
  0
VERTEX
  8
0
  6
CONTINUOUS
 62
256
 10
111.046696999999990
 20
-167.797103999999990
  0
VERTEX
  8
0
  6
CONTINUOUS
 62
256
 10
110.956387817895180
 20
-167.094147489441810
  0
VERTEX
  8
0
  6
CONTINUOUS
 62
256
 10
110.688930802803040
 20
-166.418205203361850
  0
VERTEX
  8
0
  6
CONTINUOUS
 62
256
 10
110.254604177821960
 20
-165.795253224741320
  0
VERTEX
  8
0
  6
CONTINUOUS
 62
256
 10
109.670098871576770
 20
-165.249231248763150
  0
VERTEX
  8
0
  6
CONTINUOUS
 62
256
 10
108.957877095192130
 20
-164.801122593751500
  0
VERTEX
  8
0
  6
CONTINUOUS
 62
256
 10
108.145309132115930
 20
-164.468147824016260
  0
VERTEX
  8
0
  6
CONTINUOUS
 62
256
 10
107.263621513475810
 20
-164.263102973223910
  0
VERTEX
  8
0
  6
CONTINUOUS
 62
256
 10
106.346697000000010
 20
-164.193867799999990
  0
VERTEX
  8
0
  6
CONTINUOUS
 62
256
 10
105.429772486524200
 20
-164.263102973223910
  0
VERTEX
  8
0
  6
CONTINUOUS
 62
256
 10
104.548084867884090
 20
-164.468147824016260
  0
VERTEX
  8
0
  6
CONTINUOUS
 62
256
 10
103.735516904807880
 20
-164.801122593751500
  0
VERTEX
  8
0
  6
CONTINUOUS
 62
256
 10
103.023295128423240
 20
-165.249231248763150
  0
VERTEX
  8
0
  6
CONTINUOUS
 62
256
 10
102.438789822178050
 20
-165.795253224741320
  0
VERTEX
  8
0
  6
CONTINUOUS
 62
256
 10
102.004463197196970
 20
-166.418205203361850
  0
VERTEX
  8
0
  6
CONTINUOUS
 62
256
 10
101.737006182104840
 20
-167.094147489441810
  0
VERTEX
  8
0
  6
CONTINUOUS
 62
256
 10
101.646697000000020
 20
-167.797103999999990
  0
VERTEX
  8
0
  6
CONTINUOUS
 62
256
 10
101.737006182104840
 20
-168.500060510558170
  0
VERTEX
  8
0
  6
CONTINUOUS
 62
256
 10
102.004463197196970
 20
-169.176002796638130
  0
VERTEX
  8
0
  6
CONTINUOUS
 62
256
 10
102.438789822178050
 20
-169.798954775258660
  0
VERTEX
  8
0
  6
CONTINUOUS
 62
256
 10
103.023295128423240
 20
-170.344976751236830
  0
VERTEX
  8
0
  6
CONTINUOUS
 62
256
 10
103.735516904807880
 20
-170.793085406248480
  0
VERTEX
  8
0
  6
CONTINUOUS
 62
256
 10
104.548084867884090
 20
-171.126060175983720
  0
VERTEX
  8
0
  6
CONTINUOUS
 62
256
 10
105.429772486524200
 20
-171.331105026776040
  0
VERTEX
  8
0
  6
CONTINUOUS
 62
256
 10
106.346697000000010
 20
-171.400340199999990
  0
VERTEX
  8
0
  6
CONTINUOUS
 62
256
 10
107.263621513475800
 20
-171.331105026776040
  0
VERTEX
  8
0
  6
CONTINUOUS
 62
256
 10
108.145309132115930
 20
-171.126060175983720
  0
VERTEX
  8
0
  6
CONTINUOUS
 62
256
 10
108.957877095192130
 20
-170.793085406248480
  0
VERTEX
  8
0
  6
CONTINUOUS
 62
256
 10
109.670098871576770
 20
-170.344976751236830
  0
VERTEX
  8
0
  6
CONTINUOUS
 62
256
 10
110.254604177821960
 20
-169.798954775258660
  0
VERTEX
  8
0
  6
CONTINUOUS
 62
256
 10
110.688930802803040
 20
-169.176002796638130
  0
VERTEX
  8
0
  6
CONTINUOUS
 62
256
 10
110.956387817895180
 20
-168.500060510558170
  0
SEQEND
  8
0
  6
CONTINUOUS
 62
256
  0
LINE
  8
0
  6
CONTINUOUS
 62
256
 10
103.146697000000000
 20
-62.969773000000004
 11
13.146697000000000
 21
-62.969773000000004
  0
LINE
  8
0
  6
CONTINUOUS
 62
256
 10
103.146697000000000
 20
-66.021443000000005
 11
103.146697000000000
 21
-29.969773000000000
  0
LINE
  8
0
  6
CONTINUOUS
 62
256
 10
105.346697000000010
 20
-61.469773000000004
 11
105.346697000000010
 21
-63.130077000000000
  0
LINE
  8
0
  6
CONTINUOUS
 62
256
 10
105.346697000000010
 20
-61.469773000000004
 11
150.851541999999990
 21
-61.469773000000004
  0
ARC
  8
0
  6
CONTINUOUS
 62
256
 10
102.346697000000010
 20
-63.130077000000000
 40
3.000000000000000
 50
270.000000000000000
 51
0.000000000000000
  0
LINE
  8
0
  6
CONTINUOUS
 62
256
 10
102.346697000000010
 20
-66.130077000000000
 11
98.346697000000006
 21
-66.130077000000000
  0
ARC
  8
0
  6
CONTINUOUS
 62
256
 10
98.346697000000006
 20
-69.130077000000000
 40
3.000000000000000
 50
90.000000000000000
 51
180.000000000000000
  0
LINE
  8
0
  6
CONTINUOUS
 62
256
 10
95.346697000000006
 20
-69.130077000000000
 11
95.346697000000006
 21
-120.469773000000000
  0
LINE
  8
0
  6
CONTINUOUS
 62
256
 10
106.346697000000010
 20
-71.325851999999998
 11
108.346697000000010
 21
-72.978493999999998
  0
LINE
  8
0
  6
CONTINUOUS
 62
256
 10
104.346697000000010
 20
-70.150067000000007
 11
106.346697000000010
 21
-71.325851999999998
  0
LINE
  8
0
  6
CONTINUOUS
 62
256
 10
106.346697000000010
 20
-71.325851999999998
 11
104.346697000000010
 21
-72.978493999999998
  0
LINE
  8
0
  6
CONTINUOUS
 62
256
 10
108.346697000000010
 20
-70.150067000000007
 11
106.346697000000010
 21
-71.325851999999998
  0
POLYLINE
  8
0
  6
CONTINUOUS
 62
256
 66
1
 70
1
  0
VERTEX
  8
0
  6
CONTINUOUS
 62
256
 10
111.046696999999990
 20
-73.142442000000003
  0
VERTEX
  8
0
  6
CONTINUOUS
 62
256
 10
110.956387817895180
 20
-72.439485489441836
  0
VERTEX
  8
0
  6
CONTINUOUS
 62
256
 10
110.688930802803040
 20
-71.763543203361863
  0
VERTEX
  8
0
  6
CONTINUOUS
 62
256
 10
110.254604177821960
 20
-71.140591224741343
  0
VERTEX
  8
0
  6
CONTINUOUS
 62
256
 10
109.670098871576770
 20
-70.594569248763150
  0
VERTEX
  8
0
  6
CONTINUOUS
 62
256
 10
108.957877095192130
 20
-70.146460593751513
  0
VERTEX
  8
0
  6
CONTINUOUS
 62
256
 10
108.145309132115930
 20
-69.813485824016254
  0
VERTEX
  8
0
  6
CONTINUOUS
 62
256
 10
107.263621513475810
 20
-69.608440973223935
  0
VERTEX
  8
0
  6
CONTINUOUS
 62
256
 10
106.346697000000010
 20
-69.539205800000005
  0
VERTEX
  8
0
  6
CONTINUOUS
 62
256
 10
105.429772486524200
 20
-69.608440973223935
  0
VERTEX
  8
0
  6
CONTINUOUS
 62
256
 10
104.548084867884090
 20
-69.813485824016254
  0
VERTEX
  8
0
  6
CONTINUOUS
 62
256
 10
103.735516904807880
 20
-70.146460593751513
  0
VERTEX
  8
0
  6
CONTINUOUS
 62
256
 10
103.023295128423240
 20
-70.594569248763150
  0
VERTEX
  8
0
  6
CONTINUOUS
 62
256
 10
102.438789822178050
 20
-71.140591224741343
  0
VERTEX
  8
0
  6
CONTINUOUS
 62
256
 10
102.004463197196970
 20
-71.763543203361863
  0
VERTEX
  8
0
  6
CONTINUOUS
 62
256
 10
101.737006182104840
 20
-72.439485489441836
  0
VERTEX
  8
0
  6
CONTINUOUS
 62
256
 10
101.646697000000020
 20
-73.142442000000003
  0
VERTEX
  8
0
  6
CONTINUOUS
 62
256
 10
101.737006182104840
 20
-73.845398510558169
  0
VERTEX
  8
0
  6
CONTINUOUS
 62
256
 10
102.004463197196970
 20
-74.521340796638142
  0
VERTEX
  8
0
  6
CONTINUOUS
 62
256
 10
102.438789822178050
 20
-75.144292775258663
  0
VERTEX
  8
0
  6
CONTINUOUS
 62
256
 10
103.023295128423240
 20
-75.690314751236841
  0
VERTEX
  8
0
  6
CONTINUOUS
 62
256
 10
103.735516904807880
 20
-76.138423406248492
  0
VERTEX
  8
0
  6
CONTINUOUS
 62
256
 10
104.548084867884090
 20
-76.471398175983751
  0
VERTEX
  8
0
  6
CONTINUOUS
 62
256
 10
105.429772486524200
 20
-76.676443026776070
  0
VERTEX
  8
0
  6
CONTINUOUS
 62
256
 10
106.346697000000010
 20
-76.745678200000000
  0
VERTEX
  8
0
  6
CONTINUOUS
 62
256
 10
107.263621513475800
 20
-76.676443026776070
  0
VERTEX
  8
0
  6
CONTINUOUS
 62
256
 10
108.145309132115930
 20
-76.471398175983751
  0
VERTEX
  8
0
  6
CONTINUOUS
 62
256
 10
108.957877095192130
 20
-76.138423406248492
  0
VERTEX
  8
0
  6
CONTINUOUS
 62
256
 10
109.670098871576770
 20
-75.690314751236855
  0
VERTEX
  8
0
  6
CONTINUOUS
 62
256
 10
110.254604177821960
 20
-75.144292775258663
  0
VERTEX
  8
0
  6
CONTINUOUS
 62
256
 10
110.688930802803040
 20
-74.521340796638142
  0
VERTEX
  8
0
  6
CONTINUOUS
 62
256
 10
110.956387817895180
 20
-73.845398510558169
  0
SEQEND
  8
0
  6
CONTINUOUS
 62
256
  0
LINE
  8
0
  6
CONTINUOUS
 62
256
 10
13.146697000000000
 20
-67.969773000000004
 11
95.346697000000006
 21
-67.969773000000004
  0
LINE
  8
0
  6
CONTINUOUS
 62
256
 10
96.146697000000003
 20
-28.969773000000000
 11
96.146697000000003
 21
-28.469773000000000
  0
LINE
  8
0
  6
CONTINUOUS
 62
256
 10
88.146697000000003
 20
-28.969773000000000
 11
88.146697000000003
 21
-28.469773000000000
  0
LINE
  8
0
  6
CONTINUOUS
 62
256
 10
20.146697000000000
 20
-28.969773000000000
 11
20.146697000000000
 21
-28.469773000000000
  0
LINE
  8
0
  6
CONTINUOUS
 62
256
 10
28.146697000000000
 20
-28.969773000000000
 11
28.146697000000000
 21
-28.469773000000000
  0
LINE
  8
0
  6
CONTINUOUS
 62
256
 10
28.146697000000000
 20
-28.469773000000000
 11
20.146697000000000
 21
-28.469773000000000
  0
LINE
  8
0
  6
CONTINUOUS
 62
256
 10
96.146697000000003
 20
-28.469773000000000
 11
88.146697000000003
 21
-28.469773000000000
  0
ARC
  8
0
  6
CONTINUOUS
 62
256
 10
102.146697000000000
 20
-29.969773000000000
 40
1.000000000000000
 50
0.000000000000000
 51
90.000000000000000
  0
LINE
  8
0
  6
CONTINUOUS
 62
256
 10
102.146697000000000
 20
-28.969773000000000
 11
14.146697000000000
 21
-28.969773000000000
  0
ARC
  8
0
  6
CONTINUOUS
 62
256
 10
14.146697000000000
 20
-29.969773000000000
 40
1.000000000000000
 50
90.000000000000000
 51
180.000000000000000
  0
LINE
  8
0
  6
CONTINUOUS
 62
256
 10
13.146697000000000
 20
-67.969773000000004
 11
13.146697000000000
 21
-29.969773000000000
  0
LINE
  8
0
  6
CONTINUOUS
 62
256
 10
11.346697000000001
 20
-66.969773000000004
 11
13.146697000000000
 21
-66.969773000000004
  0
LINE
  8
0
  6
CONTINUOUS
 62
256
 10
95.346697000000006
 20
-69.469773000000004
 11
11.346697000000001
 21
-69.469773000000004
  0
LINE
  8
0
  6
CONTINUOUS
 62
256
 10
95.346697000000006
 20
-69.969773000000004
 11
11.346697000000001
 21
-69.969773000000004
  0
LINE
  8
0
  6
CONTINUOUS
 62
256
 10
95.346697000000006
 20
-74.336691000000002
 11
11.346697000000001
 21
-74.336691000000002
  0
LINE
  8
0
  6
CONTINUOUS
 62
256
 10
95.346697000000006
 20
-79.427858999999998
 11
11.346697000000001
 21
-79.427858999999998
  0
LINE
  8
0
  6
CONTINUOUS
 62
256
 10
171.346697000000010
 20
-72.626153000000002
 11
171.346697000000010
 21
-120.469773000000000
  0
LINE
  8
0
  6
CONTINUOUS
 62
256
 10
162.667216999999990
 20
-65.195240999999996
 11
170.237996000000010
 21
-70.496358000000001
  0
ARC
  8
0
  6
CONTINUOUS
 62
256
 10
168.746697000000010
 20
-72.626153000000002
 40
2.599999999999994
 50
0.000000000000000
 51
54.999999999999979
  0
ARC
  8
0
  6
CONTINUOUS
 62
256
 10
150.851541999999990
 20
-82.069772999999998
 40
20.600000000000001
 50
55.000000000000028
 51
90.000000000000000
  0
LINE
  8
0
  6
DASHDOT
 62
256
 10
-436.351139999999990
 20
-107.469773000000000
 11
-284.230227000000010
 21
-107.469773000000000
  0
LINE
  8
0
  6
DASHDOT
 62
256
 10
-367.822339000000000
 20
-120.469773000000000
 11
-383.322902000000000
 21
-120.469773000000000
  0
LINE
  8
0
  6
DASHDOT
 62
256
 10
-375.730409000000010
 20
-184.482083999999990
 11
-375.730409000000010
 21
-23.556394000000001
  0
ARC
  8
0
  6
CONTINUOUS
 62
256
 10
-428.730409000000010
 20
-139.969773000000000
 40
0.500000000000000
 50
180.000000000000000
 51
270.000000000000000
  0
ARC
  8
0
  6
CONTINUOUS
 62
256
 10
-428.730409000000010
 20
-100.969773000000000
 40
0.500000000000000
 50
90.000000000000000
 51
180.000000000000000
  0
ARC
  8
0
  6
CONTINUOUS
 62
256
 10
-428.730409000000010
 20
-99.969773000000004
 40
0.500000000000000
 50
270.000000000000000
 51
0.000000000000000
  0
ARC
  8
0
  6
CONTINUOUS
 62
256
 10
-428.730409000000010
 20
-140.969773000000000
 40
0.500000000000000
 50
0.000000000000000
 51
90.000000000000000
  0
ARC
  8
0
  6
CONTINUOUS
 62
256
 10
-322.730409000000010
 20
-139.969773000000000
 40
0.500000000000000
 50
270.000000000000000
 51
0.000000000000000
  0
ARC
  8
0
  6
CONTINUOUS
 62
256
 10
-322.730409000000010
 20
-140.969773000000000
 40
0.500000000000000
 50
90.000000000000000
 51
180.000000000000000
  0
ARC
  8
0
  6
CONTINUOUS
 62
256
 10
-420.762764000000000
 20
-161.259488000000000
 40
3.000000000000004
 50
135.000000000000370
 51
217.162520000000170
  0
ARC
  8
0
  6
CONTINUOUS
 62
256
 10
-418.822128000000020
 20
-163.490671999999990
 40
3.000000000000027
 50
224.869578999999760
 51
262.178139999999590
  0
ARC
  8
0
  6
CONTINUOUS
 62
256
 10
-332.638690000000000
 20
-163.490671999999990
 40
2.999999999999995
 50
277.821860000000410
 51
315.130421000000180
  0
ARC
  8
0
  6
CONTINUOUS
 62
256
 10
-330.698054000000010
 20
-161.259488000000000
 40
2.999999999999989
 50
322.837479999999800
 51
44.999999999999616
  0
ARC
  8
0
  6
CONTINUOUS
 62
256
 10
-330.698054000000010
 20
-79.680059000000000
 40
2.999999999999977
 50
325.340699999999860
 51
34.659300000000187
  0
ARC
  8
0
  6
CONTINUOUS
 62
256
 10
-28.230409000000002
 20
-100.469773000000000
 40
400.000000000000000
 50
178.568016000000000
 51
179.928470000000000
  0
ARC
  8
0
  6
CONTINUOUS
 62
256
 10
-403.230409000000010
 20
-92.969773000000004
 40
25.000000000000011
 50
143.130101999999990
 51
174.269825000000000
  0
ARC
  8
0
  6
CONTINUOUS
 62
256
 10
-28.230409000000002
 20
-140.469773000000000
 40
400.000000000000000
 50
180.071529999999970
 51
180.859540999999980
  0
ARC
  8
0
  6
CONTINUOUS
 62
256
 10
-403.230409000000010
 20
-147.969773000000000
 40
25.000000000000007
 50
176.561350000000030
 51
230.208181000000000
  0
ARC
  8
0
  6
CONTINUOUS
 62
256
 10
-723.230409000000010
 20
-140.469773000000000
 40
400.000000000000000
 50
358.568016000000060
 51
359.928470000000000
  0
ARC
  8
0
  6
CONTINUOUS
 62
256
 10
-348.230409000000010
 20
-147.969773000000000
 40
24.999999999999986
 50
309.791818999999920
 51
354.269824999999970
  0
ARC
  8
0
  6
CONTINUOUS
 62
256
 10
-723.230409000000010
 20
-100.469773000000000
 40
400.000000000000060
 50
0.572967000000000
 51
1.431984000000000
  0
ARC
  8
0
  6
CONTINUOUS
 62
256
 10
-348.230409000000010
 20
-92.969773000000004
 40
24.999999999999979
 50
5.730175000000014
 51
36.869897999999978
  0
LINE
  8
0
  6
CONTINUOUS
 62
256
 10
-429.230409000000010
 20
-100.969773000000000
 11
-429.230409000000010
 21
-139.969773000000000
  0
LINE
  8
0
  6
CONTINUOUS
 62
256
 10
-322.230409000000010
 20
-139.969773000000000
 11
-322.230409000000010
 21
-118.469773000000000
  0
LINE
  8
0
  6
CONTINUOUS
 62
256
 10
-419.230409000000010
 20
-155.484491999999990
 11
-422.884085000000030
 21
-159.138168000000010
  0
LINE
  8
0
  6
CONTINUOUS
 62
256
 10
-332.230409000000010
 20
-155.484491999999990
 11
-328.576732999999990
 21
-159.138168000000010
  0
ARC
  8
0
  6
CONTINUOUS
 62
256
 10
-420.762764000000000
 20
-79.680059000000000
 40
2.999999999999977
 50
145.340699999999830
 51
214.659300000000170
  0
LINE
  8
0
  6
CONTINUOUS
 62
256
 10
-423.230409000000010
 20
-69.969773000000004
 11
-423.230409000000010
 21
-144.969773000000000
  0
LINE
  8
0
  6
CONTINUOUS
 62
256
 10
-423.230409000000010
 20
-69.969773000000004
 11
-419.230409000000010
 21
-69.969773000000004
  0
LINE
  8
0
  6
CONTINUOUS
 62
256
 10
-419.230409000000010
 20
-54.661779000000003
 11
-419.230409000000010
 21
-181.277768000000010
  0
LINE
  8
0
  6
CONTINUOUS
 62
256
 10
-423.230409000000010
 20
-144.969773000000000
 11
-419.230409000000010
 21
-144.969773000000000
  0
LINE
  8
0
  6
CONTINUOUS
 62
256
 10
-332.230409000000010
 20
-69.978500999999994
 11
-328.230409000000010
 21
-69.978500999999994
  0
LINE
  8
0
  6
CONTINUOUS
 62
256
 10
-328.230409000000010
 20
-69.978500999999994
 11
-328.230409000000010
 21
-144.961046000000010
  0
LINE
  8
0
  6
CONTINUOUS
 62
256
 10
-341.730409000000010
 20
-55.639263000000000
 11
-332.230409000000010
 21
-55.639263000000000
  0
LINE
  8
0
  6
CONTINUOUS
 62
256
 10
-332.230409000000010
 20
-166.751413000000010
 11
-332.230409000000010
 21
-55.639263000000000
  0
LINE
  8
0
  6
CONTINUOUS
 62
256
 10
-408.730409000000010
 20
-54.461046000000003
 11
-408.730409000000010
 21
-58.969773000000004
  0
LINE
  8
0
  6
CONTINUOUS
 62
256
 10
-408.730409000000010
 20
-172.357270000000000
 11
-408.730409000000010
 21
-57.961046000000003
  0
LINE
  8
0
  6
CONTINUOUS
 62
256
 10
-408.730409000000010
 20
-54.469773000000004
 11
-341.730409000000010
 21
-55.639263000000000
  0
LINE
  8
0
  6
CONTINUOUS
 62
256
 10
-408.730409000000010
 20
-54.478501000000001
 11
-419.230409000000010
 21
-54.661779000000003
  0
LINE
  8
0
  6
CONTINUOUS
 62
256
 10
-332.230409000000010
 20
-144.961046000000010
 11
-328.230409000000010
 21
-144.961046000000010
  0
LINE
  8
0
  6
CONTINUOUS
 62
256
 10
-341.730409000000010
 20
-180.317738999999990
 11
-332.230409000000010
 21
-180.317738999999990
  0
LINE
  8
0
  6
CONTINUOUS
 62
256
 10
-332.230409000000010
 20
-180.317738999999990
 11
-332.230409000000010
 21
-166.751413000000010
  0
LINE
  8
0
  6
CONTINUOUS
 62
256
 10
-408.730409000000010
 20
-181.487227999999990
 11
-341.730409000000010
 21
-180.317738999999990
  0
LINE
  8
0
  6
CONTINUOUS
 62
256
 10
-408.730409000000010
 20
-181.487227999999990
 11
-408.730409000000010
 21
-176.978500999999990
  0
LINE
  8
0
  6
CONTINUOUS
 62
256
 10
-408.730409000000010
 20
-181.487227999999990
 11
-408.730409000000010
 21
-172.357270000000000
  0
LINE
  8
0
  6
CONTINUOUS
 62
256
 10
-407.980409000000010
 20
-181.474137000000010
 11
-419.230409000000010
 21
-181.277768000000010
  0
ARC
  8
0
  6
CONTINUOUS
 62
256
 10
-375.730409000000010
 20
-120.469773000000000
 40
53.500000000000007
 50
152.604368000000020
 51
215.601639000000010
  0
ARC
  8
0
  6
CONTINUOUS
 62
256
 10
-375.730409000000010
 20
-120.469773000000000
 40
53.499999999999986
 50
324.398360999999970
 51
2.142396999999993
  0
LINE
  8
0
  6
CONTINUOUS
 62
256
 10
-411.730409000000010
 20
-54.530866000000003
 11
-411.730409000000010
 21
-35.603107999999999
  0
LINE
  8
0
  6
CONTINUOUS
 62
256
 10
-339.730409000000010
 20
-55.639263000000000
 11
-339.730409000000010
 21
-35.603107999999999
  0
LINE
  8
0
  6
CONTINUOUS
 62
256
 10
-378.230409000000010
 20
-28.469773000000000
 11
-378.230409000000010
 21
-28.980190000000000
  0
LINE
  8
0
  6
CONTINUOUS
 62
256
 10
-373.230409000000010
 20
-28.469773000000000
 11
-378.230409000000010
 21
-28.469773000000000
  0
LINE
  8
0
  6
CONTINUOUS
 62
256
 10
-373.230409000000010
 20
-28.469773000000000
 11
-373.230409000000010
 21
-28.980190000000000
  0
ARC
  8
0
  6
CONTINUOUS
 62
256
 10
-344.730409000000010
 20
-35.603107999999999
 40
5.000000000000000
 50
0.000000000000000
 51
83.967950999999999
  0
ARC
  8
0
  6
CONTINUOUS
 62
256
 10
-406.730409000000010
 20
-35.603107999999999
 40
5.000000000000002
 50
96.032049000000001
 51
180.000000000000000
  0
ARC
  8
0
  6
CONTINUOUS
 62
256
 10
-375.730409000000010
 20
-328.969772999999980
 40
300.000000000000000
 50
83.967950999999999
 51
96.032049000000001
  0
ARC
  8
0
  6
CONTINUOUS
 62
256
 10
-330.308462000000020
 20
-81.038905999999997
 40
6.599999999999973
 50
5.743682000000063
 51
44.999999999999829
  0
ARC
  8
0
  6
CONTINUOUS
 62
256
 10
-722.330409000000030
 20
-120.469773000000000
 40
400.600000000000020
 50
0.000000000000000
 51
0.286051000000000
  0
LINE
  8
0
  6
CONTINUOUS
 62
256
 10
-328.230409000000010
 20
-73.783150000000006
 11
-325.641557999999970
 21
-76.372000999999997
  0
ARC
  8
0
  6
CONTINUOUS
 62
256
 10
-330.308462000000020
 20
-159.900640000000010
 40
6.600000000000017
 50
315.000000000000170
 51
354.256318000000020
  0
ARC
  8
0
  6
CONTINUOUS
 62
256
 10
-722.330409000000030
 20
-120.469773000000000
 40
400.600000000000020
 50
354.256318000000020
 51
0.000000000000000
  0
LINE
  8
0
  6
CONTINUOUS
 62
256
 10
-332.230409000000010
 20
-171.156396000000000
 11
-325.641557999999970
 21
-164.567545000000000
  0
LINE
  8
0
  6
CONTINUOUS
 62
256
 10
-423.230409000000010
 20
-73.783150000000006
 11
-425.819260999999980
 21
-76.372000999999997
  0
ARC
  8
0
  6
CONTINUOUS
 62
256
 10
-29.130409000000000
 20
-120.469773000000000
 40
400.600000000000080
 50
174.256317999999990
 51
180.000000000000000
  0
ARC
  8
0
  6
CONTINUOUS
 62
256
 10
-421.152356000000000
 20
-81.038905999999997
 40
6.600000000000017
 50
135.000000000000170
 51
174.256317999999940
  0
ARC
  8
0
  6
CONTINUOUS
 62
256
 10
-421.152356000000000
 20
-159.900640000000010
 40
6.599999999999971
 50
185.743681999999920
 51
220.971507999999910
  0
ARC
  8
0
  6
CONTINUOUS
 62
256
 10
-29.130409000000000
 20
-120.469773000000000
 40
400.600000000000020
 50
180.000000000000000
 51
185.743681999999980
  0
LINE
  8
0
  6
CONTINUOUS
 62
256
 10
-419.230409000000010
 20
-171.156396000000000
 11
-426.147122000000020
 21
-164.239683000000010
  0
LINE
  8
0
  6
CONTINUOUS
 62
256
 10
-318.230481999999990
 20
-93.969773000000004
 11
-318.230481999999990
 21
-96.469773000000004
  0
LINE
  8
0
  6
CONTINUOUS
 62
256
 10
-326.230481999999990
 20
-96.469773000000004
 11
-318.230481999999990
 21
-96.469773000000004
  0
LINE
  8
0
  6
CONTINUOUS
 62
256
 10
-326.230481999999990
 20
-118.469773000000000
 11
-286.230481999999990
 21
-118.469773000000000
  0
LINE
  8
0
  6
CONTINUOUS
 62
256
 10
-318.230481999999990
 20
-93.969773000000004
 11
-286.230500000000010
 21
-93.969773000000004
  0
LINE
  8
0
  6
CONTINUOUS
 62
256
 10
-286.230481999999990
 20
-118.469773000000000
 11
-286.230481999999990
 21
-93.969773000000004
  0
LINE
  8
0
  6
CONTINUOUS
 62
256
 10
-318.230481999999990
 20
-96.469773000000004
 11
-286.230481999999990
 21
-96.469773000000004
  0
LINE
  8
0
  6
CONTINUOUS
 62
256
 10
-328.230409000000010
 20
-95.469773000000004
 11
-326.230481999999990
 21
-95.469773000000004
  0
LINE
  8
0
  6
CONTINUOUS
 62
256
 10
-328.230409000000010
 20
-119.469773000000000
 11
-326.230481999999990
 21
-119.469773000000000
  0
LINE
  8
0
  6
CONTINUOUS
 62
256
 10
-326.230481999999990
 20
-119.469773000000000
 11
-326.230481999999990
 21
-95.469773000000004
  0
LINE
  8
0
  6
DASHDOT
 62
256
 10
-330.692638999999990
 20
-65.469773000000004
 11
-420.509593999999990
 21
-65.469773000000004
  0
ARC
  8
0
  6
CONTINUOUS
 62
256
 10
-722.330409000000030
 20
-120.469773000000000
 40
400.599999999999970
 50
3.434655000000000
 51
5.743682000000000
  0
CIRCLE
  8
0
  6
CONTINUOUS
 62
256
 10
-146.653302999999990
 20
-65.469773000000004
 40
3.323499999999996
  0
CIRCLE
  8
0
  6
CONTINUOUS
 62
256
 10
-146.653302999999990
 20
-65.469773000000004
 40
4.000000000000000
  0
POINT
  8
0
  6
CONTINUOUS
 62
256
 10
-223.912410999999990
 20
-96.469773000000004
  0
CIRCLE
  8
0
  6
CONTINUOUS
 62
256
 10
-223.912410999999990
 20
-107.469773000000000
 40
3.500000000000000
  0
CIRCLE
  8
0
  6
CONTINUOUS
 62
256
 10
-223.912410999999990
 20
-107.469773000000000
 40
4.000000000000000
  0
LINE
  8
0
  6
DASHDOT
 62
256
 10
-237.868844000000000
 20
-107.469773000000000
 11
-209.258112000000010
 21
-107.469773000000000
  0
LINE
  8
0
  6
DASHDOT
 62
256
 10
-223.912410999999990
 20
-90.881675999999999
 11
-223.912410999999990
 21
-121.558165000000000
  0
LINE
  8
0
  6
CONTINUOUS
 62
256
 10
-226.912410999999990
 20
-99.969773000000004
 11
-220.912410999999990
 21
-99.969773000000004
  0
LINE
  8
0
  6
CONTINUOUS
 62
256
 10
-226.912410999999990
 20
-93.969773000000004
 11
-220.912410999999990
 21
-93.969773000000004
  0
LINE
  8
0
  6
CONTINUOUS
 62
256
 10
-226.912410999999990
 20
-93.969773000000004
 11
-226.912410999999990
 21
-99.969773000000004
  0
LINE
  8
0
  6
CONTINUOUS
 62
256
 10
-220.912410999999990
 20
-93.969773000000004
 11
-220.912410999999990
 21
-99.969773000000004
  0
ARC
  8
0
  6
CONTINUOUS
 62
256
 10
-223.912410999999990
 20
-107.469773000000000
 40
11.000000000000004
 50
105.826619999999990
 51
74.173380000000009
  0
TEXT
  8
0
  6
CONTINUOUS
 62
256
 10
444.842315673828120
 20
-221.628555297851560
 40
3.299999952316284
  1
1/1
 50
0.000002504478167
 41
0.850909097352304
  7
STANDARD1
  0
TEXT
  8
0
  6
CONTINUOUS
 62
256
 10
442.424316406250000
 20
-221.628555297851560
 40
3.299999952316284
  1
 
 50
0.000002504478167
 41
1.733333298293026
  7
STANDARD1
  0
TEXT
  8
0
  6
CONTINUOUS
 62
256
 10
429.373687744140620
 20
-221.628555297851560
 40
3.299999952316284
  1
SCALE
 50
0.000002504478167
 41
0.821052645401140
  7
STANDARD1
  0
TEXT
  8
0
  6
CONTINUOUS
 62
256
 10
426.122314453125000
 20
-221.628555297851560
 40
3.299999952316284
  1
 
 50
0.000002504478167
 41
1.733333298293026
  7
STANDARD1
  0
TEXT
  8
0
  6
CONTINUOUS
 62
256
 10
438.402496337890620
 20
-216.328552246093750
 40
3.299999952316284
  1
1/240
 50
0.000002504478167
 41
0.821052645401140
  7
STANDARD1
  0
TEXT
  8
0
  6
CONTINUOUS
 62
256
 10
434.620483398437500
 20
-216.328552246093750
 40
3.299999952316284
  1
ü`
 50
0.000002504478167
 41
1.176000019651471
  7
STANDARD1
  0
TEXT
  8
0
  6
CONTINUOUS
 62
256
 10
426.122314453125000
 20
-216.328552246093750
 40
3.299999952316284
  1
1/5
 50
0.000002504478167
 41
0.850909097352304
  7
STANDARD1
  0
TEXT
  8
0
  6
CONTINUOUS
 62
256
 10
429.354766845703120
 20
-211.028549194335940
 40
3.299999952316284
  1
GM-SHYMB-RL
 50
0.000002504478167
 41
0.798139564113939
  7
STANDARD1
  0
TEXT
  8
0
  6
CONTINUOUS
 62
256
 10
426.122314453125000
 20
-211.028549194335940
 40
3.299999952316284
  1
 
 50
0.000002504478167
 41
1.733333298293026
  7
STANDARD1
  0
TEXT
  8
0
  6
CONTINUOUS
 62
256
 10
431.947692871093750
 20
-205.728561401367190
 40
3.299999952316284
  1
0.1kW
 50
0.000002504478167
 41
0.821052645401140
  7
STANDARD1
  0
TEXT
  8
0
  6
CONTINUOUS
 62
256
 10
426.122314453125000
 20
-205.728561401367190
 40
3.299999952316284
  1
  
 50
0.000002504478167
 41
1.485714400175845
  7
STANDARD1
  0
TEXT
  8
0
  6
CONTINUOUS
 62
256
 10
431.941802978515620
 20
-200.428558349609370
 40
3.299999952316284
  1
SHY071
 50
0.000002504478167
 41
0.813913121261144
  7
STANDARD1
  0
TEXT
  8
0
  6
CONTINUOUS
 62
256
 10
426.122314453125000
 20
-200.428558349609370
 40
3.299999952316284
  1
  
 50
0.000002504478167
 41
1.485714400175845
  7
STANDARD1
  0
LINE
  8
0
  6
CONTINUOUS
 62
256
 10
290.443195000000000
 20
-69.978500999999994
 11
290.443195000000000
 21
-73.783150000000006
  0
LINE
  8
0
  6
CONTINUOUS
 62
256
 10
294.247843999999990
 20
-69.978500999999994
 11
290.443195000000000
 21
-69.978500999999994
  0
LINE
  8
0
  6
CONTINUOUS
 62
256
 10
294.443195000000000
 20
-69.783150000000006
 11
294.443195000000000
 21
-55.639263000000000
  0
LINE
  8
0
  6
CONTINUOUS
 62
256
 10
283.948187000000020
 20
-118.469773000000000
 11
248.443267999999990
 21
-118.469773000000000
  0
LINE
  8
0
  6
CONTINUOUS
 62
256
 10
284.662762999999980
 20
-96.469773000000004
 11
280.443267999999990
 21
-96.469773000000004
  0
LINE
  8
0
  6
CONTINUOUS
 62
256
 10
294.443195000000000
 20
-180.317738999999990
 11
294.443195000000000
 21
-171.156396000000000
  0
LINE
  8
0
  6
CONTINUOUS
 62
256
 10
370.943195000000000
 20
-181.487227999999990
 11
370.943195000000000
 21
-177.459678000000000
  0
LINE
  8
0
  6
CONTINUOUS
 62
256
 10
385.443195000000000
 20
-69.969773000000004
 11
385.443195000000000
 21
-73.783150000000006
  0
LINE
  8
0
  6
CONTINUOUS
 62
256
 10
385.443195000000000
 20
-69.969773000000004
 11
381.629818000000000
 21
-69.969773000000004
  0
LINE
  8
0
  6
CONTINUOUS
 62
256
 10
381.443195000000000
 20
-171.156396000000000
 11
381.443195000000000
 21
-181.277768000000010
  0
LINE
  8
0
  6
CONTINUOUS
 62
256
 10
381.443195000000000
 20
-54.661779000000003
 11
381.443195000000000
 21
-69.783150000000006
  0
LINE
  8
0
  6
CONTINUOUS
 62
256
 10
370.943195000000000
 20
-181.487227999999990
 11
370.943195000000000
 21
-177.652905000000000
  0
LINE
  8
0
  6
CONTINUOUS
 62
256
 10
373.943195000000000
 20
-54.530866000000003
 11
381.443195000000000
 21
-54.661779000000003
  0
LINE
  8
0
  6
CONTINUOUS
 62
256
 10
301.943195000000000
 20
-55.639263000000000
 11
294.443195000000000
 21
-55.639263000000000
  0
LINE
  8
0
  6
DASHDOT
 62
256
 10
394.980225000000020
 20
-107.469773000000000
 11
246.443013000000010
 21
-107.469773000000000
  0
LINE
  8
0
  6
DASHDOT
 62
256
 10
337.943195000000000
 20
-183.710260000000010
 11
337.943195000000000
 21
-26.599433000000001
  0
LINE
  8
0
  6
DASHDOT
 62
256
 10
395.250579000000020
 20
-120.469773000000000
 11
280.079935999999980
 21
-120.469773000000000
  0
LINE
  8
0
  6
CONTINUOUS
 62
256
 10
295.313038000000010
 20
-172.026240000000000
 11
287.854342999999970
 21
-164.567545000000000
  0
ARC
  8
0
  6
CONTINUOUS
 62
256
 10
372.767755000000020
 20
-123.969773000000000
 40
1.000000000000000
 50
90.000000000000000
 51
174.260829999999570
  0
ARC
  8
0
  6
CONTINUOUS
 62
256
 10
375.781667000000030
 20
-123.969773000000000
 40
1.000000000000027
 50
354.715267000000210
 51
90.000000000000000
  0
ARC
  8
0
  6
CONTINUOUS
 62
256
 10
367.234831999999980
 20
-123.969773000000000
 40
1.000000000000019
 50
353.186146000000240
 51
90.000000000000000
  0
LINE
  8
0
  6
CONTINUOUS
 62
256
 10
375.781667000000030
 20
-122.969773000000000
 11
372.767755000000020
 21
-122.969773000000000
  0
ARC
  8
0
  6
CONTINUOUS
 62
256
 10
343.740327999999980
 20
-137.510702000000010
 40
0.999999999999984
 50
30.000000000000544
 51
108.787729000000750
  0
LINE
  8
0
  6
CONTINUOUS
 62
256
 10
346.131271000000030
 20
-139.651937000000000
 11
344.606353000000010
 21
-137.010702000000010
  0
ARC
  8
0
  6
CONTINUOUS
 62
256
 10
345.265244999999990
 20
-140.151937000000000
 40
0.999999999999993
 50
290.405931999999840
 51
30.000000000000544
  0
ARC
  8
0
  6
CONTINUOUS
 62
256
 10
348.046031000000030
 20
-144.968400000000000
 40
0.999999999999984
 50
30.000000000000544
 51
112.410458000000460
  0
ARC
  8
0
  6
CONTINUOUS
 62
256
 10
352.324386000000000
 20
-152.378727000000000
 40
0.999999999999984
 50
30.000000000000544
 51
114.260829999998650
  0
LINE
  8
0
  6
CONTINUOUS
 62
256
 10
350.423949999999990
 20
-147.087075000000000
 11
348.912057000000000
 21
-144.468400000000000
  0
ARC
  8
0
  6
CONTINUOUS
 62
256
 10
349.557924000000010
 20
-147.587075000000000
 40
1.000000000000000
 50
293.186146000000120
 51
30.000000000000544
  0
LINE
  8
0
  6
CONTINUOUS
 62
256
 10
354.697366999999990
 20
-154.488852000000010
 11
353.190410999999980
 21
-151.878727000000000
  0
ARC
  8
0
  6
CONTINUOUS
 62
256
 10
353.831342000000010
 20
-154.988852000000010
 40
1.000000000000004
 50
294.715267000000150
 51
30.000000000000544
  0
ARC
  8
0
  6
CONTINUOUS
 62
256
 10
359.893520000000020
 20
-151.488852000000010
 40
0.999999999999984
 50
210.000000000000510
 51
305.284733000000980
  0
ARC
  8
0
  6
CONTINUOUS
 62
256
 10
358.386564000000020
 20
-148.878727000000000
 40
0.999999999999998
 50
125.739170000000210
 51
210.000000000000510
  0
ARC
  8
0
  6
CONTINUOUS
 62
256
 10
364.211046000000010
 20
-123.969773000000000
 40
1.000000000000000
 50
90.000000000000000
 51
172.410458000000010
  0
ARC
  8
0
  6
CONTINUOUS
 62
256
 10
355.620101999999970
 20
-144.087075000000000
 40
0.999999999999984
 50
210.000000000000510
 51
306.813854000001190
  0
ARC
  8
0
  6
CONTINUOUS
 62
256
 10
354.108208999999990
 20
-141.468400000000000
 40
0.999999999999993
 50
127.589541999998830
 51
210.000000000000510
  0
ARC
  8
0
  6
CONTINUOUS
 62
256
 10
358.649474000000000
 20
-123.969773000000000
 40
0.999999999999978
 50
350.405932000000010
 51
90.000000000000000
  0
ARC
  8
0
  6
CONTINUOUS
 62
256
 10
355.599638000000030
 20
-123.969773000000000
 40
1.000000000000000
 50
90.000000000000000
 51
168.787729000000270
  0
ARC
  8
0
  6
CONTINUOUS
 62
256
 10
351.327423000000010
 20
-136.651937000000000
 40
0.999999999999984
 50
210.000000000000510
 51
309.594067999998800
  0
ARC
  8
0
  6
CONTINUOUS
 62
256
 10
349.802505000000000
 20
-134.010702000000010
 40
1.000000000000006
 50
131.212270999999760
 51
210.000000000000510
  0
ARC
  8
0
  6
CONTINUOUS
 62
256
 10
346.974284000000010
 20
-129.112078000000000
 40
0.999999999999984
 50
210.000000000000510
 51
316.260205000000780
  0
ARC
  8
0
  6
CONTINUOUS
 62
256
 10
349.943195000000000
 20
-123.969773000000000
 40
0.999999999999976
 50
343.739794999999330
 51
90.000000000000000
  0
ARC
  8
0
  6
CONTINUOUS
 62
256
 10
346.774955999999970
 20
-123.969773000000000
 40
1.000000000000000
 50
90.000000000000000
 51
158.381728000000550
  0
ARC
  8
0
  6
CONTINUOUS
 62
256
 10
345.390164000000030
 20
-126.368303000000000
 40
0.999999999999985
 50
141.618271999999000
 51
210.000000000000510
  0
ARC
  8
0
  6
CONTINUOUS
 62
256
 10
337.943195000000000
 20
-120.469773000000000
 40
39.000000000000000
 50
305.284733000000020
 51
354.715266999999980
  0
ARC
  8
0
  6
CONTINUOUS
 62
256
 10
337.943195000000000
 20
-120.469773000000000
 40
30.499999999999993
 50
306.813853999999990
 51
353.186146000000010
  0
ARC
  8
0
  6
CONTINUOUS
 62
256
 10
337.943195000000000
 20
-120.469773000000000
 40
34.000000000000000
 50
305.739169999999940
 51
354.260830000000000
  0
ARC
  8
0
  6
CONTINUOUS
 62
256
 10
337.943195000000000
 20
-120.469773000000000
 40
25.499999999999986
 50
307.589541999999990
 51
352.410458000000010
  0
ARC
  8
0
  6
CONTINUOUS
 62
256
 10
337.943195000000000
 20
-120.469773000000000
 40
21.999999999999996
 50
309.594067999999940
 51
350.405932000000010
  0
ARC
  8
0
  6
CONTINUOUS
 62
256
 10
337.943195000000000
 20
-120.469773000000000
 40
17.000000000000014
 50
311.212270999999990
 51
348.787729000000010
  0
ARC
  8
0
  6
CONTINUOUS
 62
256
 10
337.943195000000000
 20
-120.469773000000000
 40
13.499999999999995
 50
316.260205000000040
 51
343.739794999999960
  0
ARC
  8
0
  6
CONTINUOUS
 62
256
 10
337.943195000000000
 20
-120.469773000000000
 40
8.500000000000005
 50
321.618272000000050
 51
338.381728000000010
  0
LINE
  8
0
  6
CONTINUOUS
 62
256
 10
354.754077000000000
 20
-144.587075000000000
 11
353.242184000000010
 21
-141.968400000000000
  0
LINE
  8
0
  6
CONTINUOUS
 62
256
 10
359.027493999999990
 20
-151.988852000000010
 11
357.520537999999990
 21
-149.378727000000000
  0
LINE
  8
0
  6
CONTINUOUS
 62
256
 10
350.461397999999970
 20
-137.151937000000000
 11
348.936480000000020
 21
-134.510702000000010
  0
LINE
  8
0
  6
CONTINUOUS
 62
256
 10
346.108257999999980
 20
-129.612078000000000
 11
344.524138999999990
 21
-126.868303000000000
  0
LINE
  8
0
  6
CONTINUOUS
 62
256
 10
349.943195000000000
 20
-122.969773000000000
 11
346.774955999999970
 21
-122.969773000000000
  0
LINE
  8
0
  6
CONTINUOUS
 62
256
 10
358.649474000000000
 20
-122.969773000000000
 11
355.599638000000030
 21
-122.969773000000000
  0
LINE
  8
0
  6
CONTINUOUS
 62
256
 10
367.234831999999980
 20
-122.969773000000000
 11
364.211046000000010
 21
-122.969773000000000
  0
ARC
  8
0
  6
CONTINUOUS
 62
256
 10
339.327986000000010
 20
-129.868303000000000
 40
0.999999999999984
 50
30.000000000000544
 51
98.381727999999029
  0
ARC
  8
0
  6
CONTINUOUS
 62
256
 10
337.943195000000000
 20
-120.469773000000000
 40
8.499999999999988
 50
261.618271999999930
 51
278.381728000000070
  0
LINE
  8
0
  6
CONTINUOUS
 62
256
 10
341.778130999999970
 20
-132.112078000000000
 11
340.194011999999990
 21
-129.368303000000000
  0
ARC
  8
0
  6
CONTINUOUS
 62
256
 10
340.912105999999990
 20
-132.612078000000000
 40
0.999999999999997
 50
283.739795000001440
 51
30.000000000000544
  0
ARC
  8
0
  6
CONTINUOUS
 62
256
 10
320.286750999999980
 20
-123.969773000000000
 40
1.000000000000016
 50
11.212270999999729
 51
90.000000000000000
  0
LINE
  8
0
  6
CONTINUOUS
 62
256
 10
317.236915000000010
 20
-122.969773000000000
 11
320.286750999999980
 21
-122.969773000000000
  0
ARC
  8
0
  6
CONTINUOUS
 62
256
 10
317.236915000000010
 20
-123.969773000000000
 40
1.000000000000000
 50
90.000000000000000
 51
189.594067999999960
  0
ARC
  8
0
  6
CONTINUOUS
 62
256
 10
311.675344000000000
 20
-123.969773000000000
 40
0.999999999999990
 50
7.589541999999997
 51
90.000000000000000
  0
LINE
  8
0
  6
CONTINUOUS
 62
256
 10
308.651558000000020
 20
-122.969773000000000
 11
311.675344000000000
 21
-122.969773000000000
  0
ARC
  8
0
  6
CONTINUOUS
 62
256
 10
308.651558000000020
 20
-123.969773000000000
 40
1.000000000000000
 50
90.000000000000000
 51
186.813853999999760
  0
ARC
  8
0
  6
CONTINUOUS
 62
256
 10
303.118633999999990
 20
-123.969773000000000
 40
0.999999999999978
 50
5.739170000000447
 51
90.000000000000000
  0
LINE
  8
0
  6
CONTINUOUS
 62
256
 10
300.104721999999980
 20
-122.969773000000000
 11
303.118633999999990
 21
-122.969773000000000
  0
ARC
  8
0
  6
CONTINUOUS
 62
256
 10
300.104721999999980
 20
-123.969773000000000
 40
1.000000000000000
 50
90.000000000000000
 51
185.284732999999760
  0
ARC
  8
0
  6
CONTINUOUS
 62
256
 10
320.266286999999980
 20
-144.087075000000000
 40
1.000000000000000
 50
233.186145999998760
 51
329.999999999999490
  0
LINE
  8
0
  6
CONTINUOUS
 62
256
 10
321.132313000000010
 20
-144.587075000000000
 11
322.644206000000000
 21
-141.968400000000000
  0
ARC
  8
0
  6
CONTINUOUS
 62
256
 10
321.778180000000020
 20
-141.468400000000000
 40
0.999999999999984
 50
329.999999999999490
 51
52.410458000001171
  0
ARC
  8
0
  6
CONTINUOUS
 62
256
 10
315.992869999999980
 20
-151.488852000000010
 40
1.000000000000016
 50
234.715266999999020
 51
329.999999999999490
  0
LINE
  8
0
  6
CONTINUOUS
 62
256
 10
316.858895000000020
 20
-151.988852000000010
 11
318.365851000000020
 21
-149.378727000000000
  0
ARC
  8
0
  6
CONTINUOUS
 62
256
 10
317.499825999999980
 20
-148.878727000000000
 40
0.999999999999984
 50
329.999999999999490
 51
54.260829999999778
  0
ARC
  8
0
  6
CONTINUOUS
 62
256
 10
330.496224999999980
 20
-126.368303000000000
 40
0.999999999999984
 50
329.999999999999490
 51
38.381728000001026
  0
LINE
  8
0
  6
CONTINUOUS
 62
256
 10
329.778130999999970
 20
-129.612078000000000
 11
331.362251000000010
 21
-126.868303000000000
  0
ARC
  8
0
  6
CONTINUOUS
 62
256
 10
326.083884000000010
 20
-134.010702000000010
 40
0.999999999999984
 50
329.999999999999490
 51
48.787729000000247
  0
LINE
  8
0
  6
CONTINUOUS
 62
256
 10
325.424991999999970
 20
-137.151937000000000
 11
326.949908999999990
 21
-134.510702000000010
  0
ARC
  8
0
  6
CONTINUOUS
 62
256
 10
324.558966000000000
 20
-136.651937000000000
 40
0.999999999999999
 50
230.405932000001170
 51
329.999999999999490
  0
ARC
  8
0
  6
CONTINUOUS
 62
256
 10
329.111433999999970
 20
-123.969773000000000
 40
1.000000000000013
 50
21.618271999999475
 51
90.000000000000000
  0
ARC
  8
0
  6
CONTINUOUS
 62
256
 10
337.943195000000000
 20
-120.469773000000000
 40
8.500000000000016
 50
201.618271999999960
 51
218.381727999999950
  0
ARC
  8
0
  6
CONTINUOUS
 62
256
 10
328.912105999999990
 20
-129.112078000000000
 40
0.999999999999995
 50
223.739794999999160
 51
329.999999999999490
  0
LINE
  8
0
  6
CONTINUOUS
 62
256
 10
325.943195000000000
 20
-122.969773000000000
 11
329.111433999999970
 21
-122.969773000000000
  0
ARC
  8
0
  6
CONTINUOUS
 62
256
 10
325.943195000000000
 20
-123.969773000000000
 40
1.000000000000000
 50
90.000000000000000
 51
196.260205000000670
  0
ARC
  8
0
  6
CONTINUOUS
 62
256
 10
337.943195000000000
 20
-120.469773000000000
 40
13.499999999999989
 50
196.260205000000010
 51
223.739794999999960
  0
ARC
  8
0
  6
CONTINUOUS
 62
256
 10
337.943195000000000
 20
-120.469773000000000
 40
16.999999999999993
 50
191.212271000000020
 51
228.787728999999980
  0
ARC
  8
0
  6
CONTINUOUS
 62
256
 10
337.943195000000000
 20
-120.469773000000000
 40
21.999999999999975
 50
189.594067999999960
 51
230.405932000000060
  0
ARC
  8
0
  6
CONTINUOUS
 62
256
 10
337.943195000000000
 20
-120.469773000000000
 40
30.499999999999986
 50
186.813853999999990
 51
233.186146000000040
  0
ARC
  8
0
  6
CONTINUOUS
 62
256
 10
337.943195000000000
 20
-120.469773000000000
 40
25.500000000000011
 50
187.589541999999990
 51
232.410458000000030
  0
ARC
  8
0
  6
CONTINUOUS
 62
256
 10
337.943195000000000
 20
-120.469773000000000
 40
33.999999999999972
 50
185.739169999999970
 51
234.260829999999970
  0
ARC
  8
0
  6
CONTINUOUS
 62
256
 10
337.943195000000000
 20
-120.469773000000000
 40
38.999999999999986
 50
185.284732999999990
 51
234.715266999999980
  0
ARC
  8
0
  6
CONTINUOUS
 62
256
 10
326.328464999999990
 20
-147.587075000000000
 40
0.999999999999984
 50
149.999999999999460
 51
246.813853999999880
  0
LINE
  8
0
  6
CONTINUOUS
 62
256
 10
325.462440000000020
 20
-147.087075000000000
 11
326.974333000000000
 21
-144.468400000000000
  0
ARC
  8
0
  6
CONTINUOUS
 62
256
 10
327.840357999999980
 20
-144.968400000000000
 40
1.000000000000009
 50
67.589541999999554
 51
149.999999999999460
  0
ARC
  8
0
  6
CONTINUOUS
 62
256
 10
322.055047000000000
 20
-154.988852000000010
 40
0.999999999999984
 50
149.999999999999460
 51
245.284732999999870
  0
LINE
  8
0
  6
CONTINUOUS
 62
256
 10
321.189022000000020
 20
-154.488852000000010
 11
322.695978000000030
 21
-151.878727000000000
  0
ARC
  8
0
  6
CONTINUOUS
 62
256
 10
323.562004000000000
 20
-152.378727000000000
 40
0.999999999999992
 50
65.739170000001337
 51
149.999999999999460
  0
ARC
  8
0
  6
CONTINUOUS
 62
256
 10
336.558403000000000
 20
-129.868303000000000
 40
0.999999999999984
 50
81.618272000000985
 51
149.999999999999460
  0
LINE
  8
0
  6
CONTINUOUS
 62
256
 10
334.108257999999980
 20
-132.112078000000000
 11
335.692378000000020
 21
-129.368303000000000
  0
ARC
  8
0
  6
CONTINUOUS
 62
256
 10
332.146061999999970
 20
-137.510702000000010
 40
1.000000000000010
 50
71.212270999999262
 51
149.999999999999460
  0
LINE
  8
0
  6
CONTINUOUS
 62
256
 10
329.755118999999980
 20
-139.651937000000000
 11
331.280036000000000
 21
-137.010702000000010
  0
ARC
  8
0
  6
CONTINUOUS
 62
256
 10
330.621144000000020
 20
-140.151937000000000
 40
0.999999999999984
 50
149.999999999999460
 51
249.594068000000160
  0
ARC
  8
0
  6
CONTINUOUS
 62
256
 10
334.974284000000010
 20
-132.612078000000000
 40
0.999999999999984
 50
149.999999999999460
 51
256.260204999998510
  0
ARC
  8
0
  6
CONTINUOUS
 62
256
 10
337.943195000000000
 20
-120.469773000000000
 40
13.500000000000004
 50
256.260205000000040
 51
283.739794999999960
  0
ARC
  8
0
  6
CONTINUOUS
 62
256
 10
337.943195000000000
 20
-120.469773000000000
 40
17.000000000000004
 50
251.212271000000040
 51
288.787728999999960
  0
ARC
  8
0
  6
CONTINUOUS
 62
256
 10
337.943195000000000
 20
-120.469773000000000
 40
22.000000000000011
 50
249.594067999999990
 51
290.405932000000010
  0
ARC
  8
0
  6
CONTINUOUS
 62
256
 10
337.943195000000000
 20
-120.469773000000000
 40
30.499999999999986
 50
246.813853999999990
 51
293.186146000000010
  0
ARC
  8
0
  6
CONTINUOUS
 62
256
 10
337.943195000000000
 20
-120.469773000000000
 40
25.500000000000007
 50
247.589541999999940
 51
292.410458000000010
  0
ARC
  8
0
  6
CONTINUOUS
 62
256
 10
337.943195000000000
 20
-120.469773000000000
 40
33.999999999999993
 50
245.739169999999940
 51
294.260830000000000
  0
ARC
  8
0
  6
CONTINUOUS
 62
256
 10
337.943195000000000
 20
-120.469773000000000
 40
39.000000000000014
 50
245.284732999999960
 51
294.715266999999930
  0
LINE
  8
0
  6
CONTINUOUS
 62
256
 10
367.234831999999980
 20
-117.969773000000000
 11
364.211046000000010
 21
-117.969773000000000
  0
LINE
  8
0
  6
CONTINUOUS
 62
256
 10
358.649474000000000
 20
-117.969773000000000
 11
355.599638000000030
 21
-117.969773000000000
  0
LINE
  8
0
  6
CONTINUOUS
 62
256
 10
349.943195000000000
 20
-117.969773000000000
 11
346.774955999999970
 21
-117.969773000000000
  0
LINE
  8
0
  6
CONTINUOUS
 62
256
 10
346.108257999999980
 20
-111.327468000000000
 11
344.524138999999990
 21
-114.071243999999990
  0
LINE
  8
0
  6
CONTINUOUS
 62
256
 10
350.461397999999970
 20
-103.787609000000000
 11
348.936480000000020
 21
-106.428845000000000
  0
LINE
  8
0
  6
CONTINUOUS
 62
256
 10
359.027493999999990
 20
-88.950694999999996
 11
357.520537999999990
 21
-91.560818999999995
  0
LINE
  8
0
  6
CONTINUOUS
 62
256
 10
375.781667000000030
 20
-117.969773000000000
 11
372.767755000000020
 21
-117.969773000000000
  0
LINE
  8
0
  6
CONTINUOUS
 62
256
 10
354.754077000000000
 20
-96.352470999999994
 11
353.242184000000010
 21
-98.971147000000002
  0
ARC
  8
0
  6
CONTINUOUS
 62
256
 10
337.943195000000000
 20
-120.469773000000000
 40
8.500000000000016
 50
21.618271999999980
 51
38.381727999999960
  0
ARC
  8
0
  6
CONTINUOUS
 62
256
 10
337.943195000000000
 20
-120.469773000000000
 40
13.499999999999989
 50
16.260205000000035
 51
43.739795000000001
  0
ARC
  8
0
  6
CONTINUOUS
 62
256
 10
337.943195000000000
 20
-120.469773000000000
 40
16.999999999999993
 50
11.212271000000010
 51
48.787728999999970
  0
ARC
  8
0
  6
CONTINUOUS
 62
256
 10
337.943195000000000
 20
-120.469773000000000
 40
21.999999999999979
 50
9.594068000000020
 51
50.405932000000043
  0
ARC
  8
0
  6
CONTINUOUS
 62
256
 10
337.943195000000000
 20
-120.469773000000000
 40
25.500000000000011
 50
7.589541999999985
 51
52.410458000000027
  0
ARC
  8
0
  6
CONTINUOUS
 62
256
 10
337.943195000000000
 20
-120.469773000000000
 40
33.999999999999972
 50
5.739170000000013
 51
54.260829999999963
  0
ARC
  8
0
  6
CONTINUOUS
 62
256
 10
337.943195000000000
 20
-120.469773000000000
 40
30.499999999999986
 50
6.813854000000005
 51
53.186146000000043
  0
ARC
  8
0
  6
CONTINUOUS
 62
256
 10
337.943195000000000
 20
-120.469773000000000
 40
38.999999999999986
 50
5.284733000000007
 51
54.715266999999990
  0
ARC
  8
0
  6
CONTINUOUS
 62
256
 10
345.390164000000030
 20
-114.571243999999990
 40
0.999999999999984
 50
149.999999999999460
 51
218.381728000001000
  0
ARC
  8
0
  6
CONTINUOUS
 62
256
 10
346.774955999999970
 20
-116.969773000000000
 40
1.000000000000013
 50
201.618271999999450
 51
270.000000000000000
  0
ARC
  8
0
  6
CONTINUOUS
 62
256
 10
349.943195000000000
 20
-116.969773000000000
 40
1.000000000000000
 50
270.000000000000000
 51
16.260205000000671
  0
ARC
  8
0
  6
CONTINUOUS
 62
256
 10
346.974284000000010
 20
-111.827468000000000
 40
1.000000000000005
 50
43.739794999999773
 51
149.999999999999460
  0
ARC
  8
0
  6
CONTINUOUS
 62
256
 10
349.802505000000000
 20
-106.928845000000000
 40
0.999999999999984
 50
149.999999999999460
 51
228.787729000000240
  0
ARC
  8
0
  6
CONTINUOUS
 62
256
 10
351.327423000000010
 20
-104.287609000000000
 40
0.999999999999988
 50
50.405932000000682
 51
149.999999999999460
  0
ARC
  8
0
  6
CONTINUOUS
 62
256
 10
355.599638000000030
 20
-116.969773000000000
 40
1.000000000000016
 50
191.212270999999730
 51
270.000000000000000
  0
ARC
  8
0
  6
CONTINUOUS
 62
256
 10
358.649474000000000
 20
-116.969773000000000
 40
1.000000000000000
 50
270.000000000000000
 51
9.594067999999961
  0
ARC
  8
0
  6
CONTINUOUS
 62
256
 10
367.234831999999980
 20
-116.969773000000000
 40
1.000000000000000
 50
270.000000000000000
 51
6.813853999999752
  0
ARC
  8
0
  6
CONTINUOUS
 62
256
 10
354.108208999999990
 20
-99.471147000000002
 40
0.999999999999984
 50
149.999999999999460
 51
232.410458000001200
  0
ARC
  8
0
  6
CONTINUOUS
 62
256
 10
355.620101999999970
 20
-96.852470999999994
 40
1.000000000000011
 50
53.186145999999269
 51
149.999999999999460
  0
ARC
  8
0
  6
CONTINUOUS
 62
256
 10
364.211046000000010
 20
-116.969773000000000
 40
0.999999999999990
 50
187.589541999999990
 51
270.000000000000000
  0
ARC
  8
0
  6
CONTINUOUS
 62
256
 10
375.781667000000030
 20
-116.969773000000000
 40
1.000000000000000
 50
270.000000000000000
 51
5.284732999999778
  0
ARC
  8
0
  6
CONTINUOUS
 62
256
 10
372.767755000000020
 20
-116.969773000000000
 40
0.999999999999978
 50
185.739170000000430
 51
270.000000000000000
  0
ARC
  8
0
  6
CONTINUOUS
 62
256
 10
358.386564000000020
 20
-92.060818999999995
 40
0.999999999999984
 50
149.999999999999460
 51
234.260829999999740
  0
ARC
  8
0
  6
CONTINUOUS
 62
256
 10
359.893520000000020
 20
-89.450694999999996
 40
1.000000000000016
 50
54.715266999999017
 51
149.999999999999460
  0
CIRCLE
  8
0
  6
CONTINUOUS
 62
256
 10
337.943195000000000
 20
-120.469773000000000
 40
5.000000000000000
  0
ARC
  8
0
  6
CONTINUOUS
 62
256
 10
353.831342000000010
 20
-85.950694999999996
 40
0.999999999999984
 50
329.999999999999490
 51
65.284732999999861
  0
LINE
  8
0
  6
CONTINUOUS
 62
256
 10
354.697366999999990
 20
-86.450694999999996
 11
353.190410999999980
 21
-89.060818999999995
  0
ARC
  8
0
  6
CONTINUOUS
 62
256
 10
337.943195000000000
 20
-120.469773000000000
 40
38.999999999999993
 50
65.284733000000031
 51
114.715266999999980
  0
ARC
  8
0
  6
CONTINUOUS
 62
256
 10
337.943195000000000
 20
-120.469773000000000
 40
34.000000000000000
 50
65.739169999999987
 51
114.260830000000010
  0
ARC
  8
0
  6
CONTINUOUS
 62
256
 10
337.943195000000000
 20
-120.469773000000000
 40
25.500000000000007
 50
67.589541999999966
 51
112.410458000000050
  0
ARC
  8
0
  6
CONTINUOUS
 62
256
 10
337.943195000000000
 20
-120.469773000000000
 40
30.500000000000011
 50
66.813853999999992
 51
113.186146000000010
  0
ARC
  8
0
  6
CONTINUOUS
 62
256
 10
349.557924000000010
 20
-93.352470999999994
 40
0.999999999999984
 50
329.999999999999490
 51
66.813853999999878
  0
LINE
  8
0
  6
CONTINUOUS
 62
256
 10
350.423949999999990
 20
-93.852470999999994
 11
348.912057000000000
 21
-96.471147000000002
  0
ARC
  8
0
  6
CONTINUOUS
 62
256
 10
337.943195000000000
 20
-120.469773000000000
 40
21.999999999999996
 50
69.594067999999993
 51
110.405932000000020
  0
ARC
  8
0
  6
CONTINUOUS
 62
256
 10
352.324386000000000
 20
-88.560818999999995
 40
0.999999999999992
 50
245.739170000001340
 51
329.999999999999490
  0
ARC
  8
0
  6
CONTINUOUS
 62
256
 10
348.046031000000030
 20
-95.971147000000002
 40
1.000000000000009
 50
247.589541999999540
 51
329.999999999999490
  0
ARC
  8
0
  6
CONTINUOUS
 62
256
 10
345.265244999999990
 20
-100.787609000000000
 40
0.999999999999984
 50
329.999999999999490
 51
69.594068000000149
  0
ARC
  8
0
  6
CONTINUOUS
 62
256
 10
337.943195000000000
 20
-120.469773000000000
 40
16.999999999999993
 50
71.212271000000044
 51
108.787728999999960
  0
LINE
  8
0
  6
CONTINUOUS
 62
256
 10
346.131271000000030
 20
-101.287609000000000
 11
344.606353000000010
 21
-103.928845000000000
  0
ARC
  8
0
  6
CONTINUOUS
 62
256
 10
343.740327999999980
 20
-103.428845000000000
 40
1.000000000000010
 50
251.212270999999220
 51
329.999999999999490
  0
ARC
  8
0
  6
CONTINUOUS
 62
256
 10
337.943195000000000
 20
-120.469773000000000
 40
13.500000000000004
 50
76.260205000000070
 51
103.739794999999930
  0
ARC
  8
0
  6
CONTINUOUS
 62
256
 10
340.912105999999990
 20
-108.327468000000000
 40
0.999999999999984
 50
329.999999999999490
 51
76.260204999998734
  0
LINE
  8
0
  6
CONTINUOUS
 62
256
 10
341.778130999999970
 20
-108.827468000000000
 11
340.194011999999990
 21
-111.571243999999990
  0
ARC
  8
0
  6
CONTINUOUS
 62
256
 10
334.974284000000010
 20
-108.327468000000000
 40
1.000000000000011
 50
103.739795000001280
 51
210.000000000000510
  0
ARC
  8
0
  6
CONTINUOUS
 62
256
 10
337.943195000000000
 20
-120.469773000000000
 40
8.500000000000002
 50
81.618271999999948
 51
98.381728000000052
  0
ARC
  8
0
  6
CONTINUOUS
 62
256
 10
339.327986000000010
 20
-111.071243999999990
 40
0.999999999999998
 50
261.618272000001130
 51
329.999999999999490
  0
ARC
  8
0
  6
CONTINUOUS
 62
256
 10
330.621144000000020
 20
-100.787609000000000
 40
0.999999999999993
 50
110.405931999999860
 51
210.000000000000510
  0
LINE
  8
0
  6
CONTINUOUS
 62
256
 10
329.755118999999980
 20
-101.287609000000000
 11
331.280036000000000
 21
-103.928845000000000
  0
ARC
  8
0
  6
CONTINUOUS
 62
256
 10
332.146061999999970
 20
-103.428845000000000
 40
0.999999999999984
 50
210.000000000000510
 51
288.787729000000750
  0
LINE
  8
0
  6
CONTINUOUS
 62
256
 10
334.108257999999980
 20
-108.827468000000000
 11
335.692378000000020
 21
-111.571243999999990
  0
ARC
  8
0
  6
CONTINUOUS
 62
256
 10
336.558403000000000
 20
-111.071243999999990
 40
0.999999999999984
 50
210.000000000000510
 51
278.381727999998870
  0
ARC
  8
0
  6
CONTINUOUS
 62
256
 10
323.562004000000000
 20
-88.560818999999995
 40
0.999999999999984
 50
210.000000000000510
 51
294.260829999998690
  0
LINE
  8
0
  6
CONTINUOUS
 62
256
 10
321.189022000000020
 20
-86.450694999999996
 11
322.695978000000030
 21
-89.060818999999995
  0
ARC
  8
0
  6
CONTINUOUS
 62
256
 10
322.055047000000000
 20
-85.950694999999996
 40
1.000000000000004
 50
114.715267000000150
 51
210.000000000000510
  0
ARC
  8
0
  6
CONTINUOUS
 62
256
 10
327.840357999999980
 20
-95.971147000000002
 40
0.999999999999984
 50
210.000000000000510
 51
292.410458000000400
  0
LINE
  8
0
  6
CONTINUOUS
 62
256
 10
325.462440000000020
 20
-93.852470999999994
 11
326.974333000000000
 21
-96.471147000000002
  0
ARC
  8
0
  6
CONTINUOUS
 62
256
 10
326.328464999999990
 20
-93.352470999999994
 40
1.000000000000000
 50
113.186146000000120
 51
210.000000000000510
  0
ARC
  8
0
  6
CONTINUOUS
 62
256
 10
337.943195000000000
 20
-120.469773000000000
 40
39.000000000000000
 50
125.284733000000000
 51
174.715267000000010
  0
ARC
  8
0
  6
CONTINUOUS
 62
256
 10
337.943195000000000
 20
-120.469773000000000
 40
34.000000000000007
 50
125.739170000000040
 51
174.260830000000000
  0
ARC
  8
0
  6
CONTINUOUS
 62
256
 10
337.943195000000000
 20
-120.469773000000000
 40
25.499999999999996
 50
127.589541999999970
 51
172.410458000000010
  0
ARC
  8
0
  6
CONTINUOUS
 62
256
 10
337.943195000000000
 20
-120.469773000000000
 40
30.499999999999993
 50
126.813853999999980
 51
173.186145999999980
  0
ARC
  8
0
  6
CONTINUOUS
 62
256
 10
337.943195000000000
 20
-120.469773000000000
 40
21.999999999999986
 50
129.594067999999940
 51
170.405931999999980
  0
ARC
  8
0
  6
CONTINUOUS
 62
256
 10
337.943195000000000
 20
-120.469773000000000
 40
17.000000000000014
 50
131.212271000000020
 51
168.787728999999980
  0
ARC
  8
0
  6
CONTINUOUS
 62
256
 10
337.943195000000000
 20
-120.469773000000000
 40
13.500000000000004
 50
136.260205000000010
 51
163.739794999999960
  0
ARC
  8
0
  6
CONTINUOUS
 62
256
 10
325.943195000000000
 20
-116.969773000000000
 40
0.999999999999976
 50
163.739794999999330
 51
270.000000000000000
  0
LINE
  8
0
  6
CONTINUOUS
 62
256
 10
325.943195000000000
 20
-117.969773000000000
 11
329.111433999999970
 21
-117.969773000000000
  0
ARC
  8
0
  6
CONTINUOUS
 62
256
 10
328.912105999999990
 20
-111.827468000000000
 40
0.999999999999984
 50
30.000000000000544
 51
136.260205000000240
  0
ARC
  8
0
  6
CONTINUOUS
 62
256
 10
337.943195000000000
 20
-120.469773000000000
 40
8.500000000000005
 50
141.618272000000020
 51
158.381728000000040
  0
ARC
  8
0
  6
CONTINUOUS
 62
256
 10
329.111433999999970
 20
-116.969773000000000
 40
1.000000000000000
 50
270.000000000000000
 51
338.381728000000520
  0
ARC
  8
0
  6
CONTINUOUS
 62
256
 10
324.558966000000000
 20
-104.287609000000000
 40
0.999999999999984
 50
30.000000000000544
 51
129.594067999999310
  0
LINE
  8
0
  6
CONTINUOUS
 62
256
 10
325.424991999999970
 20
-103.787609000000000
 11
326.949908999999990
 21
-106.428845000000000
  0
ARC
  8
0
  6
CONTINUOUS
 62
256
 10
326.083884000000010
 20
-106.928845000000000
 40
1.000000000000006
 50
311.212270999999760
 51
30.000000000000544
  0
LINE
  8
0
  6
CONTINUOUS
 62
256
 10
329.778130999999970
 20
-111.327468000000000
 11
331.362251000000010
 21
-114.071243999999990
  0
ARC
  8
0
  6
CONTINUOUS
 62
256
 10
330.496224999999980
 20
-114.571243999999990
 40
0.999999999999985
 50
321.618271999998970
 51
30.000000000000544
  0
ARC
  8
0
  6
CONTINUOUS
 62
256
 10
317.499825999999980
 20
-92.060818999999995
 40
0.999999999999998
 50
305.739170000000230
 51
30.000000000000544
  0
LINE
  8
0
  6
CONTINUOUS
 62
256
 10
316.858895000000020
 20
-88.950694999999996
 11
318.365851000000020
 21
-91.560818999999995
  0
ARC
  8
0
  6
CONTINUOUS
 62
256
 10
315.992869999999980
 20
-89.450694999999996
 40
0.999999999999984
 50
30.000000000000544
 51
125.284733000000970
  0
ARC
  8
0
  6
CONTINUOUS
 62
256
 10
321.778180000000020
 20
-99.471147000000002
 40
0.999999999999993
 50
307.589541999998800
 51
30.000000000000544
  0
LINE
  8
0
  6
CONTINUOUS
 62
256
 10
321.132313000000010
 20
-96.352470999999994
 11
322.644206000000000
 21
-98.971147000000002
  0
ARC
  8
0
  6
CONTINUOUS
 62
256
 10
320.266286999999980
 20
-96.852470999999994
 40
0.999999999999984
 50
30.000000000000544
 51
126.813854000000730
  0
ARC
  8
0
  6
CONTINUOUS
 62
256
 10
300.104721999999980
 20
-116.969773000000000
 40
1.000000000000027
 50
174.715267000000240
 51
270.000000000000000
  0
LINE
  8
0
  6
CONTINUOUS
 62
256
 10
300.104721999999980
 20
-117.969773000000000
 11
303.118633999999990
 21
-117.969773000000000
  0
ARC
  8
0
  6
CONTINUOUS
 62
256
 10
303.118633999999990
 20
-116.969773000000000
 40
1.000000000000000
 50
270.000000000000000
 51
354.260829999999540
  0
ARC
  8
0
  6
CONTINUOUS
 62
256
 10
308.651558000000020
 20
-116.969773000000000
 40
1.000000000000019
 50
173.186146000000240
 51
270.000000000000000
  0
LINE
  8
0
  6
CONTINUOUS
 62
256
 10
308.651558000000020
 20
-117.969773000000000
 11
311.675344000000000
 21
-117.969773000000000
  0
ARC
  8
0
  6
CONTINUOUS
 62
256
 10
311.675344000000000
 20
-116.969773000000000
 40
1.000000000000000
 50
270.000000000000000
 51
352.410458000000010
  0
ARC
  8
0
  6
CONTINUOUS
 62
256
 10
317.236915000000010
 20
-116.969773000000000
 40
0.999999999999978
 50
170.405932000000040
 51
270.000000000000000
  0
LINE
  8
0
  6
CONTINUOUS
 62
256
 10
317.236915000000010
 20
-117.969773000000000
 11
320.286750999999980
 21
-117.969773000000000
  0
ARC
  8
0
  6
CONTINUOUS
 62
256
 10
320.286750999999980
 20
-116.969773000000000
 40
1.000000000000000
 50
270.000000000000000
 51
348.787729000000300
  0
ARC
  8
0
  6
CONTINUOUS
 62
256
 10
366.006951000000020
 20
-83.479705999999993
 40
10.797000000000006
 50
44.999999999999950
 51
84.247716999999980
  0
ARC
  8
0
  6
CONTINUOUS
 62
256
 10
366.006951000000020
 20
-157.459840000000010
 40
10.796999999999988
 50
275.752283000000030
 51
315.000000000000000
  0
ARC
  8
0
  6
CONTINUOUS
 62
256
 10
309.879437999999990
 20
-157.459840000000010
 40
10.797000000000015
 50
225.000000000000000
 51
264.247716999999970
  0
ARC
  8
0
  6
CONTINUOUS
 62
256
 10
309.879437999999990
 20
-83.479705999999993
 40
10.797000000000002
 50
95.752283000000034
 51
135.000000000000060
  0
ARC
  8
0
  6
CONTINUOUS
 62
256
 10
309.879437999999990
 20
-157.459840000000010
 40
20.599999999999991
 50
225.000000000000000
 51
264.247716999999910
  0
ARC
  8
0
  6
CONTINUOUS
 62
256
 10
366.006951000000020
 20
-157.459840000000010
 40
20.599999999999991
 50
275.752282999999860
 51
315.000000000000000
  0
ARC
  8
0
  6
CONTINUOUS
 62
256
 10
366.006951000000020
 20
-83.479705999999993
 40
20.599999999999991
 50
45.000000000000000
 51
84.247716999999938
  0
ARC
  8
0
  6
CONTINUOUS
 62
256
 10
309.879437999999990
 20
-83.479705999999993
 40
20.600000000000009
 50
95.752283000000077
 51
134.999999999999970
  0
LINE
  8
0
  6
CONTINUOUS
 62
256
 10
307.950695999999990
 20
-62.969773000000004
 11
301.943195000000000
 21
-62.969773000000004
  0
LINE
  8
0
  6
CONTINUOUS
 62
256
 10
373.943195000000000
 20
-62.969773000000004
 11
367.931180999999980
 21
-62.969773000000004
  0
LINE
  8
0
  6
CONTINUOUS
 62
256
 10
295.313038000000010
 20
-68.913306000000006
 11
287.854342999999970
 21
-76.372000999999997
  0
ARC
  8
0
  6
CONTINUOUS
 62
256
 10
337.943195000000000
 20
-362.069773000000000
 40
300.600000000000020
 50
90.000000000000000
 51
95.752283000000006
  0
ARC
  8
0
  6
CONTINUOUS
 62
256
 10
684.543194999999970
 20
-120.469773000000000
 40
400.600000000000080
 50
174.256317999999990
 51
180.000000000000000
  0
ARC
  8
0
  6
CONTINUOUS
 62
256
 10
292.521248000000010
 20
-81.038905999999997
 40
6.600000000000017
 50
135.000000000000170
 51
174.256317999999940
  0
ARC
  8
0
  6
CONTINUOUS
 62
256
 10
383.365140999999990
 20
-81.038905999999997
 40
6.599999999999973
 50
5.743682000000063
 51
44.999999999999829
  0
ARC
  8
0
  6
CONTINUOUS
 62
256
 10
-8.656805000000000
 20
-120.469773000000000
 40
400.600000000000020
 50
0.000000000000000
 51
5.743682000000000
  0
LINE
  8
0
  6
CONTINUOUS
 62
256
 10
380.573351000000000
 20
-68.913306000000006
 11
388.032045999999980
 21
-76.372000999999997
  0
ARC
  8
0
  6
CONTINUOUS
 62
256
 10
337.943195000000000
 20
-362.069773000000000
 40
300.600000000000020
 50
84.247716999999994
 51
90.000000000000000
  0
ARC
  8
0
  6
CONTINUOUS
 62
256
 10
383.365140999999990
 20
-159.900640000000010
 40
6.600000000000017
 50
315.000000000000170
 51
354.256318000000020
  0
ARC
  8
0
  6
CONTINUOUS
 62
256
 10
-8.656805000000000
 20
-120.469773000000000
 40
400.600000000000020
 50
354.256318000000020
 51
0.000000000000000
  0
LINE
  8
0
  6
CONTINUOUS
 62
256
 10
380.573351000000000
 20
-172.026240000000000
 11
388.032045999999980
 21
-164.567545000000000
  0
ARC
  8
0
  6
CONTINUOUS
 62
256
 10
337.943195000000000
 20
121.130227000000000
 40
300.600000000000020
 50
270.000000000000000
 51
275.752282999999980
  0
ARC
  8
0
  6
CONTINUOUS
 62
256
 10
292.521248000000010
 20
-159.900640000000010
 40
6.599999999999971
 50
185.743681999999920
 51
224.999999999999830
  0
ARC
  8
0
  6
CONTINUOUS
 62
256
 10
684.543194999999970
 20
-120.469773000000000
 40
400.600000000000020
 50
180.000000000000000
 51
185.743681999999980
  0
LINE
  8
0
  6
CONTINUOUS
 62
256
 10
292.765930000000030
 20
-169.479131000000000
 11
287.854342999999970
 21
-164.567545000000000
  0
ARC
  8
0
  6
CONTINUOUS
 62
256
 10
337.943195000000000
 20
121.130227000000000
 40
300.600000000000020
 50
264.247717000000020
 51
270.000000000000000
  0
LINE
  8
0
  6
CONTINUOUS
 62
256
 10
302.244805999999980
 20
-75.845073999999997
 11
296.357392000000000
 21
-81.732488000000004
  0
ARC
  8
0
  6
CONTINUOUS
 62
256
 10
684.543194999999970
 20
-120.469773000000000
 40
390.797000000000030
 50
174.582035999999990
 51
180.000000000000000
  0
ARC
  8
0
  6
CONTINUOUS
 62
256
 10
298.478713000000030
 20
-83.853808000000001
 40
3.000000000000014
 50
135.000000000000200
 51
174.582036000000070
  0
ARC
  8
0
  6
CONTINUOUS
 62
256
 10
337.943195000000000
 20
-362.069773000000000
 40
290.797000000000030
 50
90.000000000000000
 51
95.752283000000006
  0
ARC
  8
0
  6
CONTINUOUS
 62
256
 10
377.407676999999980
 20
-83.853808000000001
 40
2.999999999999996
 50
5.417963999999932
 51
44.999999999999808
  0
ARC
  8
0
  6
CONTINUOUS
 62
256
 10
-8.656805000000000
 20
-120.469773000000000
 40
390.797000000000030
 50
0.000000000000000
 51
5.417963999999998
  0
LINE
  8
0
  6
CONTINUOUS
 62
256
 10
373.641583000000030
 20
-75.845073999999997
 11
379.528997000000000
 21
-81.732488000000004
  0
ARC
  8
0
  6
CONTINUOUS
 62
256
 10
337.943195000000000
 20
-362.069773000000000
 40
290.797000000000030
 50
84.247716999999994
 51
90.000000000000000
  0
ARC
  8
0
  6
CONTINUOUS
 62
256
 10
377.407676999999980
 20
-157.085737999999990
 40
3.000000000000004
 50
315.000000000000340
 51
354.582035999999790
  0
ARC
  8
0
  6
CONTINUOUS
 62
256
 10
-8.656805000000000
 20
-120.469773000000000
 40
390.797000000000030
 50
354.582036000000020
 51
0.000000000000000
  0
LINE
  8
0
  6
CONTINUOUS
 62
256
 10
373.641583000000030
 20
-165.094472000000000
 11
379.528997000000000
 21
-159.207058999999990
  0
ARC
  8
0
  6
CONTINUOUS
 62
256
 10
337.943195000000000
 20
121.130227000000000
 40
290.797000000000030
 50
270.000000000000000
 51
275.752282999999980
  0
ARC
  8
0
  6
CONTINUOUS
 62
256
 10
298.478713000000030
 20
-157.085737999999990
 40
2.999999999999998
 50
185.417964000000180
 51
224.999999999999630
  0
ARC
  8
0
  6
CONTINUOUS
 62
256
 10
684.543194999999970
 20
-120.469773000000000
 40
390.797000000000030
 50
180.000000000000000
 51
185.417963999999980
  0
LINE
  8
0
  6
CONTINUOUS
 62
256
 10
302.244805999999980
 20
-165.094472000000000
 11
296.357392000000000
 21
-159.207058999999990
  0
ARC
  8
0
  6
CONTINUOUS
 62
256
 10
337.943195000000000
 20
121.130227000000000
 40
290.797000000000030
 50
264.247717000000020
 51
270.000000000000000
  0
LINE
  8
0
  6
CONTINUOUS
 62
256
 10
301.943195000000000
 20
-64.469813000000002
 11
301.943195000000000
 21
-35.603107999999999
  0
LINE
  8
0
  6
CONTINUOUS
 62
256
 10
373.943195000000000
 20
-64.469813000000002
 11
373.943195000000000
 21
-35.603107999999999
  0
LINE
  8
0
  6
CONTINUOUS
 62
256
 10
335.443195000000000
 20
-28.469773000000000
 11
335.443195000000000
 21
-28.980190000000000
  0
LINE
  8
0
  6
CONTINUOUS
 62
256
 10
340.443195000000000
 20
-28.469773000000000
 11
335.443195000000000
 21
-28.469773000000000
  0
LINE
  8
0
  6
CONTINUOUS
 62
256
 10
340.443195000000000
 20
-28.469773000000000
 11
340.443195000000000
 21
-28.980190000000000
  0
ARC
  8
0
  6
CONTINUOUS
 62
256
 10
368.943195000000000
 20
-35.603107999999999
 40
5.000000000000000
 50
0.000000000000000
 51
83.967950999999999
  0
ARC
  8
0
  6
CONTINUOUS
 62
256
 10
306.943195000000000
 20
-35.603107999999999
 40
5.000000000000002
 50
96.032049000000001
 51
180.000000000000000
  0
ARC
  8
0
  6
CONTINUOUS
 62
256
 10
337.943195000000000
 20
-328.969772999999980
 40
300.000000000000000
 50
83.967950999999999
 51
96.032049000000001
  0
LINE
  8
0
  6
CONTINUOUS
 62
256
 10
280.443267999999990
 20
-96.469773000000004
 11
248.443267999999990
 21
-96.469773000000004
  0
LINE
  8
0
  6
CONTINUOUS
 62
256
 10
248.443267999999990
 20
-118.469773000000000
 11
248.443267999999990
 21
-93.969773000000004
  0
LINE
  8
0
  6
CONTINUOUS
 62
256
 10
280.443267999999990
 20
-93.969773000000004
 11
248.443286000000000
 21
-93.969773000000004
  0
LINE
  8
0
  6
CONTINUOUS
 62
256
 10
280.443267999999990
 20
-93.969773000000004
 11
280.443267999999990
 21
-96.469773000000004
  0
ARC
  8
0
  6
CONTINUOUS
 62
256
 10
337.943195000000000
 20
-328.969772999999980
 40
300.000000000000000
 50
83.967950999999999
 51
96.032049000000001
  0
ARC
  8
0
  6
CONTINUOUS
 62
256
 10
368.943195000000000
 20
-35.603107999999999
 40
5.000000000000000
 50
0.000000000000000
 51
83.967950999999999
  0
ARC
  8
0
  6
CONTINUOUS
 62
256
 10
306.943195000000000
 20
-35.603107999999999
 40
5.000000000000002
 50
96.032049000000001
 51
180.000000000000000
  0
LINE
  8
0
  6
CONTINUOUS
 62
256
 10
335.443195000000000
 20
-28.469773000000000
 11
335.443195000000000
 21
-28.980190000000000
  0
LINE
  8
0
  6
CONTINUOUS
 62
256
 10
335.443195000000000
 20
-28.469773000000000
 11
340.443195000000000
 21
-28.469773000000000
  0
LINE
  8
0
  6
CONTINUOUS
 62
256
 10
340.443195000000000
 20
-28.469773000000000
 11
340.443195000000000
 21
-28.980190000000000
  0
LINE
  8
0
  6
CONTINUOUS
 62
256
 10
301.943195000000000
 20
-55.639263000000000
 11
301.943195000000000
 21
-35.603107999999999
  0
LINE
  8
0
  6
CONTINUOUS
 62
256
 10
373.943195000000000
 20
-54.530866000000003
 11
373.943195000000000
 21
-35.603107999999999
  0
LINE
  8
0
  6
CONTINUOUS
 62
256
 10
370.193195000000000
 20
-181.474137000000010
 11
381.443195000000000
 21
-181.277768000000010
  0
LINE
  8
0
  6
CONTINUOUS
 62
256
 10
370.943195000000000
 20
-181.487227999999990
 11
303.943195000000000
 21
-180.317738999999990
  0
LINE
  8
0
  6
CONTINUOUS
 62
256
 10
303.943195000000000
 20
-180.317738999999990
 11
294.443195000000000
 21
-180.317738999999990
  0
LINE
  8
0
  6
CONTINUOUS
 62
256
 10
11.346697000000001
 20
140.893486000000000
 11
11.346697000000001
 21
194.341120999999990
  0
LINE
  8
0
  6
CONTINUOUS
 62
256
 10
11.346697000000001
 20
140.893486000000000
 11
11.346697000000001
 21
87.445852000000002
  0
LINE
  8
0
  6
CONTINUOUS
 62
256
 10
95.346697000000006
 20
86.893485999999996
 11
150.851541999999990
 21
86.893485999999996
  0
LINE
  8
0
  6
CONTINUOUS
 62
256
 10
95.346697000000006
 20
86.893485999999996
 11
95.346697000000006
 21
99.893485999999996
  0
LINE
  8
0
  6
CONTINUOUS
 62
256
 10
95.346697000000006
 20
194.893486000000000
 11
95.346697000000006
 21
181.893486000000000
  0
LINE
  8
0
  6
CONTINUOUS
 62
256
 10
95.346697000000006
 20
194.893486000000000
 11
150.851541999999990
 21
194.893486000000000
  0
LINE
  8
0
  6
CONTINUOUS
 62
256
 10
106.346697000000010
 20
91.749565000000004
 11
108.346697000000010
 21
93.402207000000004
  0
LINE
  8
0
  6
CONTINUOUS
 62
256
 10
104.346697000000010
 20
90.573779999999999
 11
106.346697000000010
 21
91.749565000000004
  0
LINE
  8
0
  6
CONTINUOUS
 62
256
 10
106.346697000000010
 20
91.749565000000004
 11
104.346697000000010
 21
93.402207000000004
  0
LINE
  8
0
  6
CONTINUOUS
 62
256
 10
108.346697000000010
 20
90.573779999999999
 11
106.346697000000010
 21
91.749565000000004
  0
POLYLINE
  8
0
  6
CONTINUOUS
 62
256
 66
1
 70
1
  0
VERTEX
  8
0
  6
CONTINUOUS
 62
256
 10
111.046696999999990
 20
93.566154999999995
  0
VERTEX
  8
0
  6
CONTINUOUS
 62
256
 10
110.956387817895180
 20
94.269111510558162
  0
VERTEX
  8
0
  6
CONTINUOUS
 62
256
 10
110.688930802803040
 20
94.945053796638135
  0
VERTEX
  8
0
  6
CONTINUOUS
 62
256
 10
110.254604177821960
 20
95.568005775258655
  0
VERTEX
  8
0
  6
CONTINUOUS
 62
256
 10
109.670098871576770
 20
96.114027751236847
  0
VERTEX
  8
0
  6
CONTINUOUS
 62
256
 10
108.957877095192130
 20
96.562136406248484
  0
VERTEX
  8
0
  6
CONTINUOUS
 62
256
 10
108.145309132115930
 20
96.895111175983743
  0
VERTEX
  8
0
  6
CONTINUOUS
 62
256
 10
107.263621513475810
 20
97.100156026776062
  0
VERTEX
  8
0
  6
CONTINUOUS
 62
256
 10
106.346697000000010
 20
97.169391199999993
  0
VERTEX
  8
0
  6
CONTINUOUS
 62
256
 10
105.429772486524200
 20
97.100156026776062
  0
VERTEX
  8
0
  6
CONTINUOUS
 62
256
 10
104.548084867884090
 20
96.895111175983743
  0
VERTEX
  8
0
  6
CONTINUOUS
 62
256
 10
103.735516904807880
 20
96.562136406248484
  0
VERTEX
  8
0
  6
CONTINUOUS
 62
256
 10
103.023295128423240
 20
96.114027751236847
  0
VERTEX
  8
0
  6
CONTINUOUS
 62
256
 10
102.438789822178050
 20
95.568005775258655
  0
VERTEX
  8
0
  6
CONTINUOUS
 62
256
 10
102.004463197196970
 20
94.945053796638135
  0
VERTEX
  8
0
  6
CONTINUOUS
 62
256
 10
101.737006182104840
 20
94.269111510558162
  0
VERTEX
  8
0
  6
CONTINUOUS
 62
256
 10
101.646697000000020
 20
93.566154999999995
  0
VERTEX
  8
0
  6
CONTINUOUS
 62
256
 10
101.737006182104840
 20
92.863198489441828
  0
VERTEX
  8
0
  6
CONTINUOUS
 62
256
 10
102.004463197196970
 20
92.187256203361855
  0
VERTEX
  8
0
  6
CONTINUOUS
 62
256
 10
102.438789822178050
 20
91.564304224741335
  0
VERTEX
  8
0
  6
CONTINUOUS
 62
256
 10
103.023295128423240
 20
91.018282248763157
  0
VERTEX
  8
0
  6
CONTINUOUS
 62
256
 10
103.735516904807880
 20
90.570173593751505
  0
VERTEX
  8
0
  6
CONTINUOUS
 62
256
 10
104.548084867884090
 20
90.237198824016247
  0
VERTEX
  8
0
  6
CONTINUOUS
 62
256
 10
105.429772486524200
 20
90.032153973223927
  0
VERTEX
  8
0
  6
CONTINUOUS
 62
256
 10
106.346697000000010
 20
89.962918799999997
  0
VERTEX
  8
0
  6
CONTINUOUS
 62
256
 10
107.263621513475800
 20
90.032153973223927
  0
VERTEX
  8
0
  6
CONTINUOUS
 62
256
 10
108.145309132115930
 20
90.237198824016247
  0
VERTEX
  8
0
  6
CONTINUOUS
 62
256
 10
108.957877095192130
 20
90.570173593751505
  0
VERTEX
  8
0
  6
CONTINUOUS
 62
256
 10
109.670098871576770
 20
91.018282248763143
  0
VERTEX
  8
0
  6
CONTINUOUS
 62
256
 10
110.254604177821960
 20
91.564304224741335
  0
VERTEX
  8
0
  6
CONTINUOUS
 62
256
 10
110.688930802803040
 20
92.187256203361855
  0
VERTEX
  8
0
  6
CONTINUOUS
 62
256
 10
110.956387817895180
 20
92.863198489441828
  0
SEQEND
  8
0
  6
CONTINUOUS
 62
256
  0
LINE
  8
0
  6
CONTINUOUS
 62
256
 10
106.346697000000010
 20
190.037407000000000
 11
108.346697000000010
 21
188.384766000000010
  0
LINE
  8
0
  6
CONTINUOUS
 62
256
 10
104.346697000000010
 20
191.213192999999990
 11
106.346697000000010
 21
190.037407000000000
  0
LINE
  8
0
  6
CONTINUOUS
 62
256
 10
106.346697000000010
 20
190.037407000000000
 11
104.346697000000010
 21
188.384766000000010
  0
LINE
  8
0
  6
CONTINUOUS
 62
256
 10
108.346697000000010
 20
191.213192999999990
 11
106.346697000000010
 21
190.037407000000000
  0
POLYLINE
  8
0
  6
CONTINUOUS
 62
256
 66
1
 70
1
  0
VERTEX
  8
0
  6
CONTINUOUS
 62
256
 10
111.046696999999990
 20
188.220817000000010
  0
VERTEX
  8
0
  6
CONTINUOUS
 62
256
 10
110.956387817895180
 20
188.923773510558190
  0
VERTEX
  8
0
  6
CONTINUOUS
 62
256
 10
110.688930802803040
 20
189.599715796638150
  0
VERTEX
  8
0
  6
CONTINUOUS
 62
256
 10
110.254604177821960
 20
190.222667775258690
  0
VERTEX
  8
0
  6
CONTINUOUS
 62
256
 10
109.670098871576770
 20
190.768689751236850
  0
VERTEX
  8
0
  6
CONTINUOUS
 62
256
 10
108.957877095192130
 20
191.216798406248500
  0
VERTEX
  8
0
  6
CONTINUOUS
 62
256
 10
108.145309132115930
 20
191.549773175983740
  0
VERTEX
  8
0
  6
CONTINUOUS
 62
256
 10
107.263621513475810
 20
191.754818026776090
  0
VERTEX
  8
0
  6
CONTINUOUS
 62
256
 10
106.346697000000010
 20
191.824053200000010
  0
VERTEX
  8
0
  6
CONTINUOUS
 62
256
 10
105.429772486524200
 20
191.754818026776090
  0
VERTEX
  8
0
  6
CONTINUOUS
 62
256
 10
104.548084867884090
 20
191.549773175983740
  0
VERTEX
  8
0
  6
CONTINUOUS
 62
256
 10
103.735516904807880
 20
191.216798406248500
  0
VERTEX
  8
0
  6
CONTINUOUS
 62
256
 10
103.023295128423240
 20
190.768689751236850
  0
VERTEX
  8
0
  6
CONTINUOUS
 62
256
 10
102.438789822178050
 20
190.222667775258690
  0
VERTEX
  8
0
  6
CONTINUOUS
 62
256
 10
102.004463197196970
 20
189.599715796638150
  0
VERTEX
  8
0
  6
CONTINUOUS
 62
256
 10
101.737006182104840
 20
188.923773510558190
  0
VERTEX
  8
0
  6
CONTINUOUS
 62
256
 10
101.646697000000020
 20
188.220817000000010
  0
VERTEX
  8
0
  6
CONTINUOUS
 62
256
 10
101.737006182104840
 20
187.517860489441830
  0
VERTEX
  8
0
  6
CONTINUOUS
 62
256
 10
102.004463197196970
 20
186.841918203361870
  0
VERTEX
  8
0
  6
CONTINUOUS
 62
256
 10
102.438789822178050
 20
186.218966224741340
  0
VERTEX
  8
0
  6
CONTINUOUS
 62
256
 10
103.023295128423240
 20
185.672944248763170
  0
VERTEX
  8
0
  6
CONTINUOUS
 62
256
 10
103.735516904807880
 20
185.224835593751520
  0
VERTEX
  8
0
  6
CONTINUOUS
 62
256
 10
104.548084867884090
 20
184.891860824016280
  0
VERTEX
  8
0
  6
CONTINUOUS
 62
256
 10
105.429772486524200
 20
184.686815973223960
  0
VERTEX
  8
0
  6
CONTINUOUS
 62
256
 10
106.346697000000010
 20
184.617580800000010
  0
VERTEX
  8
0
  6
CONTINUOUS
 62
256
 10
107.263621513475800
 20
184.686815973223960
  0
VERTEX
  8
0
  6
CONTINUOUS
 62
256
 10
108.145309132115930
 20
184.891860824016280
  0
VERTEX
  8
0
  6
CONTINUOUS
 62
256
 10
108.957877095192130
 20
185.224835593751520
  0
VERTEX
  8
0
  6
CONTINUOUS
 62
256
 10
109.670098871576770
 20
185.672944248763170
  0
VERTEX
  8
0
  6
CONTINUOUS
 62
256
 10
110.254604177821960
 20
186.218966224741340
  0
VERTEX
  8
0
  6
CONTINUOUS
 62
256
 10
110.688930802803040
 20
186.841918203361870
  0
VERTEX
  8
0
  6
CONTINUOUS
 62
256
 10
110.956387817895180
 20
187.517860489441830
  0
SEQEND
  8
0
  6
CONTINUOUS
 62
256
  0
LINE
  8
0
  6
DASHDOT
 62
256
 10
-168.554711999999990
 20
140.893486000000000
 11
177.594704000000010
 21
140.893486000000000
  0
LINE
  8
0
  6
CONTINUOUS
 62
256
 10
105.346697000000010
 20
140.893486000000000
 11
105.346697000000010
 21
175.893486000000000
  0
LINE
  8
0
  6
CONTINUOUS
 62
256
 10
11.346697000000001
 20
193.393486000000000
 11
95.346697000000006
 21
193.393486000000000
  0
LINE
  8
0
  6
CONTINUOUS
 62
256
 10
95.346697000000006
 20
191.393486000000000
 11
11.346697000000001
 21
191.393486000000000
  0
LINE
  8
0
  6
CONTINUOUS
 62
256
 10
95.346697000000006
 20
191.893486000000000
 11
11.346697000000001
 21
191.893486000000000
  0
LINE
  8
0
  6
CONTINUOUS
 62
256
 10
95.346697000000006
 20
187.026568999999990
 11
11.346697000000001
 21
187.026568999999990
  0
LINE
  8
0
  6
CONTINUOUS
 62
256
 10
95.346697000000006
 20
185.398142000000010
 11
11.346697000000001
 21
185.398142000000010
  0
LINE
  8
0
  6
CONTINUOUS
 62
256
 10
95.346697000000006
 20
181.935399999999990
 11
11.346697000000001
 21
181.935399999999990
  0
LINE
  8
0
  6
CONTINUOUS
 62
256
 10
95.504298000000006
 20
180.933922000000000
 11
11.346697000000001
 21
180.933922000000000
  0
LINE
  8
0
  6
CONTINUOUS
 62
256
 10
105.346697000000010
 20
174.197087000000010
 11
103.146697000000000
 21
174.197087000000010
  0
LINE
  8
0
  6
CONTINUOUS
 62
256
 10
105.346697000000010
 20
172.607878000000000
 11
103.146697000000000
 21
172.607878000000000
  0
LINE
  8
0
  6
CONTINUOUS
 62
256
 10
105.346697000000010
 20
169.649881999999990
 11
103.146697000000000
 21
169.649881999999990
  0
LINE
  8
0
  6
CONTINUOUS
 62
256
 10
105.346697000000010
 20
168.170859000000010
 11
103.146697000000000
 21
168.170859000000010
  0
LINE
  8
0
  6
CONTINUOUS
 62
256
 10
105.346697000000010
 20
165.078127999999990
 11
103.146697000000000
 21
165.078127999999990
  0
LINE
  8
0
  6
CONTINUOUS
 62
256
 10
105.346697000000010
 20
163.731726000000010
 11
103.146697000000000
 21
163.731726000000010
  0
LINE
  8
0
  6
CONTINUOUS
 62
256
 10
105.346697000000010
 20
160.893486000000000
 11
103.146697000000000
 21
160.893486000000000
  0
LINE
  8
0
  6
CONTINUOUS
 62
256
 10
13.146697000000000
 20
169.649881999999990
 11
11.346697000000001
 21
169.649881999999990
  0
LINE
  8
0
  6
CONTINUOUS
 62
256
 10
13.146697000000000
 20
168.170859000000010
 11
11.346697000000001
 21
168.170859000000010
  0
LINE
  8
0
  6
CONTINUOUS
 62
256
 10
13.146697000000000
 20
165.078127999999990
 11
11.346697000000001
 21
165.078127999999990
  0
LINE
  8
0
  6
CONTINUOUS
 62
256
 10
13.146697000000000
 20
163.731726000000010
 11
11.346697000000001
 21
163.731726000000010
  0
LINE
  8
0
  6
CONTINUOUS
 62
256
 10
13.146697000000000
 20
160.893486000000000
 11
11.346697000000001
 21
160.893486000000000
  0
LINE
  8
0
  6
CONTINUOUS
 62
256
 10
13.146697000000000
 20
172.607878000000000
 11
11.346697000000001
 21
172.607878000000000
  0
LINE
  8
0
  6
CONTINUOUS
 62
256
 10
13.146697000000000
 20
174.197087000000010
 11
11.346697000000001
 21
174.197087000000010
  0
ARC
  8
0
  6
CONTINUOUS
 62
256
 10
14.146697000000000
 20
175.893486000000000
 40
1.000000000000000
 50
90.000000000000000
 51
180.000000000000000
  0
LINE
  8
0
  6
CONTINUOUS
 62
256
 10
14.146697000000000
 20
176.893486000000000
 11
102.146697000000000
 21
176.893486000000000
  0
LINE
  8
0
  6
CONTINUOUS
 62
256
 10
13.146697000000000
 20
175.893486000000000
 11
13.146697000000000
 21
140.893486000000000
  0
ARC
  8
0
  6
CONTINUOUS
 62
256
 10
102.146697000000000
 20
175.893486000000000
 40
1.000000000000000
 50
0.000000000000000
 51
90.000000000000000
  0
LINE
  8
0
  6
CONTINUOUS
 62
256
 10
103.146697000000000
 20
175.893486000000000
 11
103.146697000000000
 21
140.893486000000000
  0
ARC
  8
0
  6
CONTINUOUS
 62
256
 10
98.346697000000006
 20
181.893486000000000
 40
3.000000000000000
 50
180.000000000000000
 51
270.000000000000000
  0
LINE
  8
0
  6
CONTINUOUS
 62
256
 10
98.346697000000006
 20
178.893486000000000
 11
102.346697000000010
 21
178.893486000000000
  0
ARC
  8
0
  6
CONTINUOUS
 62
256
 10
102.346697000000010
 20
175.893486000000000
 40
3.000000000000000
 50
0.000000000000000
 51
90.000000000000000
  0
LINE
  8
0
  6
CONTINUOUS
 62
256
 10
162.667216999999990
 20
191.168018999999990
 11
170.237996000000010
 21
185.866902000000010
  0
LINE
  8
0
  6
CONTINUOUS
 62
256
 10
171.346697000000010
 20
183.737107000000010
 11
171.346697000000010
 21
140.893486000000000
  0
ARC
  8
0
  6
CONTINUOUS
 62
256
 10
168.746697000000010
 20
183.737107000000010
 40
2.599999999999994
 50
0.000000000000000
 51
54.999999999999801
  0
ARC
  8
0
  6
CONTINUOUS
 62
256
 10
150.851541999999990
 20
174.293486000000000
 40
20.599999999999991
 50
55.000000000000007
 51
90.000000000000000
  0
LINE
  8
0
  6
CONTINUOUS
 62
256
 10
105.346697000000010
 20
140.893486000000000
 11
105.346697000000010
 21
105.893486000000000
  0
LINE
  8
0
  6
CONTINUOUS
 62
256
 10
11.346697000000001
 20
88.393485999999996
 11
95.346697000000006
 21
88.393485999999996
  0
LINE
  8
0
  6
CONTINUOUS
 62
256
 10
95.346697000000006
 20
90.393485999999996
 11
11.346697000000001
 21
90.393485999999996
  0
LINE
  8
0
  6
CONTINUOUS
 62
256
 10
95.346697000000006
 20
89.893485999999996
 11
11.346697000000001
 21
89.893485999999996
  0
LINE
  8
0
  6
CONTINUOUS
 62
256
 10
95.346697000000006
 20
94.760403999999994
 11
11.346697000000001
 21
94.760403999999994
  0
LINE
  8
0
  6
CONTINUOUS
 62
256
 10
95.346697000000006
 20
96.388830999999996
 11
11.346697000000001
 21
96.388830999999996
  0
LINE
  8
0
  6
CONTINUOUS
 62
256
 10
95.346697000000006
 20
99.851573000000002
 11
11.346697000000001
 21
99.851573000000002
  0
LINE
  8
0
  6
CONTINUOUS
 62
256
 10
95.504298000000006
 20
100.853050999999990
 11
11.346697000000001
 21
100.853050999999990
  0
LINE
  8
0
  6
CONTINUOUS
 62
256
 10
105.346697000000010
 20
107.589885000000000
 11
103.146697000000000
 21
107.589885000000000
  0
LINE
  8
0
  6
CONTINUOUS
 62
256
 10
105.346697000000010
 20
109.179095000000000
 11
103.146697000000000
 21
109.179095000000000
  0
LINE
  8
0
  6
CONTINUOUS
 62
256
 10
105.346697000000010
 20
112.137091000000000
 11
103.146697000000000
 21
112.137091000000000
  0
LINE
  8
0
  6
CONTINUOUS
 62
256
 10
105.346697000000010
 20
113.616114000000000
 11
103.146697000000000
 21
113.616114000000000
  0
LINE
  8
0
  6
CONTINUOUS
 62
256
 10
105.346697000000010
 20
116.708845000000000
 11
103.146697000000000
 21
116.708845000000000
  0
LINE
  8
0
  6
CONTINUOUS
 62
256
 10
105.346697000000010
 20
118.055246999999990
 11
103.146697000000000
 21
118.055246999999990
  0
LINE
  8
0
  6
CONTINUOUS
 62
256
 10
105.346697000000010
 20
120.893486000000000
 11
103.146697000000000
 21
120.893486000000000
  0
LINE
  8
0
  6
CONTINUOUS
 62
256
 10
13.146697000000000
 20
112.137091000000000
 11
11.346697000000001
 21
112.137091000000000
  0
LINE
  8
0
  6
CONTINUOUS
 62
256
 10
13.146697000000000
 20
113.616114000000000
 11
11.346697000000001
 21
113.616114000000000
  0
LINE
  8
0
  6
CONTINUOUS
 62
256
 10
13.146697000000000
 20
116.708845000000000
 11
11.346697000000001
 21
116.708845000000000
  0
LINE
  8
0
  6
CONTINUOUS
 62
256
 10
13.146697000000000
 20
118.055246999999990
 11
11.346697000000001
 21
118.055246999999990
  0
LINE
  8
0
  6
CONTINUOUS
 62
256
 10
13.146697000000000
 20
120.893486000000000
 11
11.346697000000001
 21
120.893486000000000
  0
LINE
  8
0
  6
CONTINUOUS
 62
256
 10
13.146697000000000
 20
109.179095000000000
 11
11.346697000000001
 21
109.179095000000000
  0
LINE
  8
0
  6
CONTINUOUS
 62
256
 10
13.146697000000000
 20
107.589885000000000
 11
11.346697000000001
 21
107.589885000000000
  0
ARC
  8
0
  6
CONTINUOUS
 62
256
 10
14.146697000000000
 20
105.893486000000000
 40
1.000000000000000
 50
180.000000000000000
 51
270.000000000000000
  0
LINE
  8
0
  6
CONTINUOUS
 62
256
 10
14.146697000000000
 20
104.893486000000000
 11
102.146697000000000
 21
104.893486000000000
  0
LINE
  8
0
  6
CONTINUOUS
 62
256
 10
13.146697000000000
 20
105.893486000000000
 11
13.146697000000000
 21
140.893486000000000
  0
ARC
  8
0
  6
CONTINUOUS
 62
256
 10
102.146697000000000
 20
105.893486000000000
 40
1.000000000000000
 50
270.000000000000000
 51
0.000000000000000
  0
LINE
  8
0
  6
CONTINUOUS
 62
256
 10
103.146697000000000
 20
105.893486000000000
 11
103.146697000000000
 21
140.893486000000000
  0
ARC
  8
0
  6
CONTINUOUS
 62
256
 10
98.346697000000006
 20
99.893485999999996
 40
3.000000000000000
 50
90.000000000000000
 51
180.000000000000000
  0
LINE
  8
0
  6
CONTINUOUS
 62
256
 10
98.346697000000006
 20
102.893486000000000
 11
102.346697000000010
 21
102.893486000000000
  0
ARC
  8
0
  6
CONTINUOUS
 62
256
 10
102.346697000000010
 20
105.893486000000000
 40
3.000000000000000
 50
270.000000000000000
 51
0.000000000000000
  0
LINE
  8
0
  6
CONTINUOUS
 62
256
 10
162.667216999999990
 20
90.618954000000002
 11
170.237996000000010
 21
95.920070999999993
  0
LINE
  8
0
  6
CONTINUOUS
 62
256
 10
171.346697000000010
 20
98.049865999999994
 11
171.346697000000010
 21
140.893486000000000
  0
ARC
  8
0
  6
CONTINUOUS
 62
256
 10
168.746697000000010
 20
98.049865999999994
 40
2.600000000000007
 50
305.000000000000000
 51
0.000000000000000
  0
ARC
  8
0
  6
CONTINUOUS
 62
256
 10
150.851541999999990
 20
107.493486000000000
 40
20.600000000000009
 50
270.000000000000000
 51
304.999999999999940
  0
LINE
  8
0
  6
CONTINUOUS
 62
256
 10
6.346697000000000
 20
93.393485999999996
 11
6.346697000000000
 21
90.359032999999997
  0
LINE
  8
0
  6
CONTINUOUS
 62
256
 10
3.346697000000000
 20
96.393485999999996
 11
-1.653303000000000
 21
96.393485999999996
  0
LINE
  8
0
  6
CONTINUOUS
 62
256
 10
4.346697000000000
 20
99.463835000000003
 11
-1.653303000000000
 21
99.463835000000003
  0
LINE
  8
0
  6
CONTINUOUS
 62
256
 10
-6.653303000000000
 20
104.001320000000010
 11
-6.653303000000000
 21
101.393486000000000
  0
LINE
  8
0
  6
CONTINUOUS
 62
256
 10
-3.653303000000000
 20
107.001320000000010
 11
3.346697000000000
 21
107.001320000000010
  0
LINE
  8
0
  6
CONTINUOUS
 62
256
 10
6.346697000000000
 20
120.893486000000000
 11
11.346697000000001
 21
120.893486000000000
  0
LINE
  8
0
  6
CONTINUOUS
 62
256
 10
6.346697000000000
 20
140.893486000000000
 11
6.346697000000000
 21
101.463835000000000
  0
LINE
  8
0
  6
CONTINUOUS
 62
256
 10
6.346697000000000
 20
160.893486000000000
 11
11.346697000000001
 21
160.893486000000000
  0
LINE
  8
0
  6
CONTINUOUS
 62
256
 10
-6.653303000000000
 20
177.785652000000000
 11
-6.653303000000000
 21
180.393486000000000
  0
LINE
  8
0
  6
CONTINUOUS
 62
256
 10
-3.653303000000000
 20
174.785652000000000
 11
3.346697000000000
 21
174.785652000000000
  0
LINE
  8
0
  6
CONTINUOUS
 62
256
 10
6.346697000000000
 20
140.893486000000000
 11
6.346697000000000
 21
180.323138000000000
  0
LINE
  8
0
  6
CONTINUOUS
 62
256
 10
3.346697000000000
 20
185.393486000000000
 11
-1.653303000000000
 21
185.393486000000000
  0
LINE
  8
0
  6
CONTINUOUS
 62
256
 10
4.346697000000000
 20
182.323138000000000
 11
-1.653303000000000
 21
182.323138000000000
  0
LINE
  8
0
  6
CONTINUOUS
 62
256
 10
6.346697000000000
 20
188.393486000000000
 11
6.346697000000000
 21
191.427940000000010
  0
ARC
  8
0
  6
CONTINUOUS
 62
256
 10
9.346697000000001
 20
90.359032999999997
 40
3.000000000000000
 50
180.000000000000000
 51
271.000000000000000
  0
ARC
  8
0
  6
CONTINUOUS
 62
256
 10
9.346697000000001
 20
191.427940000000010
 40
3.000000000000011
 50
89.000000000000000
 51
180.000000000000000
  0
ARC
  8
0
  6
CONTINUOUS
 62
256
 10
3.346697000000000
 20
110.001320000000010
 40
3.000000000000000
 50
270.000000000000000
 51
0.000000000000000
  0
ARC
  8
0
  6
CONTINUOUS
 62
256
 10
3.346697000000000
 20
93.393485999999996
 40
3.000000000000000
 50
0.000000000000000
 51
90.000000000000000
  0
ARC
  8
0
  6
CONTINUOUS
 62
256
 10
4.346697000000000
 20
101.463835000000000
 40
2.000000000000000
 50
270.000000000000000
 51
0.000000000000000
  0
ARC
  8
0
  6
CONTINUOUS
 62
256
 10
-1.653303000000000
 20
104.463835000000000
 40
5.000000000000000
 50
180.000000000000000
 51
270.000000000000000
  0
ARC
  8
0
  6
CONTINUOUS
 62
256
 10
-1.653303000000000
 20
101.393486000000000
 40
5.000000000000000
 50
180.000000000000000
 51
270.000000000000000
  0
ARC
  8
0
  6
CONTINUOUS
 62
256
 10
3.346697000000000
 20
171.785652000000000
 40
3.000000000000000
 50
0.000000000000000
 51
90.000000000000000
  0
ARC
  8
0
  6
CONTINUOUS
 62
256
 10
-1.653303000000000
 20
177.323138000000000
 40
5.000000000000000
 50
90.000000000000000
 51
180.000000000000000
  0
ARC
  8
0
  6
CONTINUOUS
 62
256
 10
-1.653303000000000
 20
180.393486000000000
 40
5.000000000000000
 50
90.000000000000000
 51
180.000000000000000
  0
ARC
  8
0
  6
CONTINUOUS
 62
256
 10
3.346697000000000
 20
188.393486000000000
 40
3.000000000000000
 50
270.000000000000000
 51
0.000000000000000
  0
ARC
  8
0
  6
CONTINUOUS
 62
256
 10
4.346697000000000
 20
180.323138000000000
 40
2.000000000000000
 50
0.000000000000000
 51
90.000000000000000
  0
LINE
  8
0
  6
CONTINUOUS
 62
256
 10
-6.653303000000000
 20
90.132116999999994
 11
-6.653303000000000
 21
140.893486000000000
  0
LINE
  8
0
  6
CONTINUOUS
 62
256
 10
-6.653303000000000
 20
191.654855000000000
 11
-6.653303000000000
 21
140.893486000000000
  0
ARC
  8
0
  6
CONTINUOUS
 62
256
 10
-3.653303000000000
 20
191.654855000000000
 40
3.000000000000011
 50
89.000000000000000
 51
180.000000000000000
  0
ARC
  8
0
  6
CONTINUOUS
 62
256
 10
-3.653303000000000
 20
90.132116999999994
 40
3.000000000000000
 50
180.000000000000000
 51
271.000000000000000
  0
ARC
  8
0
  6
CONTINUOUS
 62
256
 10
-3.653303000000000
 20
171.785652000000000
 40
3.000000000000000
 50
90.000000000000000
 51
180.000000000000000
  0
ARC
  8
0
  6
CONTINUOUS
 62
256
 10
-3.653303000000000
 20
110.001320000000010
 40
3.000000000000000
 50
180.000000000000000
 51
270.000000000000000
  0
LINE
  8
0
  6
CONTINUOUS
 62
256
 10
-6.653303000000000
 20
191.654855000000000
 11
-6.653303000000000
 21
185.393486000000000
  0
LINE
  8
0
  6
CONTINUOUS
 62
256
 10
-6.653303000000000
 20
90.132116999999994
 11
-6.653303000000000
 21
107.393486000000000
  0
ARC
  8
0
  6
CONTINUOUS
 62
256
 10
-3.653303000000000
 20
90.132116999999994
 40
3.000000000000000
 50
180.000000000000000
 51
271.000000000000000
  0
ARC
  8
0
  6
CONTINUOUS
 62
256
 10
-9.653302999999999
 20
174.393486000000000
 40
3.000000000000000
 50
270.000000000000000
 51
0.000000000000000
  0
LINE
  8
0
  6
CONTINUOUS
 62
256
 10
-14.661726000000000
 20
171.393486000000000
 11
-9.653302999999999
 21
171.393486000000000
  0
ARC
  8
0
  6
CONTINUOUS
 62
256
 10
-3.653303000000000
 20
191.654855000000000
 40
3.000000000000011
 50
89.000000000000000
 51
180.000000000000000
  0
ARC
  8
0
  6
CONTINUOUS
 62
256
 10
-9.653302999999999
 20
96.393485999999996
 40
3.000000000000000
 50
0.000000000000000
 51
90.000000000000000
  0
LINE
  8
0
  6
CONTINUOUS
 62
256
 10
-15.822792000000000
 20
99.393485999999996
 11
-9.653302999999999
 21
99.393485999999996
  0
LINE
  8
0
  6
CONTINUOUS
 62
256
 10
-16.670757999999999
 20
173.393486000000000
 11
-16.862763999999999
 21
184.393486000000000
  0
LINE
  8
0
  6
CONTINUOUS
 62
256
 10
-157.653302999999990
 20
184.393486000000000
 11
-16.862763999999999
 21
184.393486000000000
  0
LINE
  8
0
  6
CONTINUOUS
 62
256
 10
-157.845307999999990
 20
173.393486000000000
 11
-157.653302999999990
 21
184.393486000000000
  0
LINE
  8
0
  6
CONTINUOUS
 62
256
 10
-67.153302999999994
 20
97.393485999999996
 11
-67.153302999999994
 21
93.393485999999996
  0
LINE
  8
0
  6
CONTINUOUS
 62
256
 10
-142.153302999999990
 20
93.393485999999996
 11
-67.153302999999994
 21
93.393485999999996
  0
LINE
  8
0
  6
CONTINUOUS
 62
256
 10
-142.153302999999990
 20
97.393485999999996
 11
-142.153302999999990
 21
93.393485999999996
  0
LINE
  8
0
  6
CONTINUOUS
 62
256
 10
-67.153302999999994
 20
188.393486000000000
 11
-67.153302999999994
 21
184.393486000000000
  0
LINE
  8
0
  6
CONTINUOUS
 62
256
 10
-142.153302999999990
 20
188.393486000000000
 11
-142.153302999999990
 21
184.393486000000000
  0
LINE
  8
0
  6
CONTINUOUS
 62
256
 10
-31.528510000000001
 20
184.393486000000000
 11
-45.563668000000000
 21
184.393486000000000
  0
LINE
  8
0
  6
CONTINUOUS
 62
256
 10
-142.153302999999990
 20
188.393486000000000
 11
-67.153302999999994
 21
188.393486000000000
  0
ARC
  8
0
  6
CONTINUOUS
 62
256
 10
-15.822792000000000
 20
97.393485999999996
 40
2.000000000000000
 50
90.000000000000000
 51
180.000000000000000
  0
ARC
  8
0
  6
CONTINUOUS
 62
256
 10
-14.661726000000000
 20
173.393486000000000
 40
2.000000000000002
 50
180.000000000000000
 51
270.000000000000000
  0
LINE
  8
0
  6
CONTINUOUS
 62
256
 10
-4.159808000000000
 20
87.175184999999999
 11
11.346697000000001
 21
87.445852000000002
  0
LINE
  8
0
  6
CONTINUOUS
 62
256
 10
-4.159808000000000
 20
194.611787999999990
 11
11.346697000000001
 21
194.341120999999990
  0
LINE
  8
0
  6
CONTINUOUS
 62
256
 10
-17.822792000000000
 20
106.893486000000000
 11
-17.822792000000000
 21
97.393485999999996
  0
LINE
  8
0
  6
CONTINUOUS
 62
256
 10
-17.822792000000000
 20
97.393485999999996
 11
-104.653302999999990
 21
97.393485999999996
  0
LINE
  8
0
  6
CONTINUOUS
 62
256
 10
-16.662030000000001
 20
173.393486000000000
 11
-17.822792000000000
 21
106.893486000000000
  0
LINE
  8
0
  6
CONTINUOUS
 62
256
 10
-16.661726000000002
 20
173.393486000000000
 11
-157.845307999999990
 21
173.393486000000000
  0
LINE
  8
0
  6
CONTINUOUS
 62
256
 10
-157.836581000000000
 20
173.393486000000000
 11
-156.675818999999990
 21
106.893486000000000
  0
LINE
  8
0
  6
CONTINUOUS
 62
256
 10
-156.675818999999990
 20
106.893486000000000
 11
-156.675818999999990
 21
97.393485999999996
  0
LINE
  8
0
  6
CONTINUOUS
 62
256
 10
-104.653302999999990
 20
97.393485999999996
 11
-156.675818999999990
 21
97.393485999999996
  0
LINE
  8
0
  6
CONTINUOUS
 62
256
 10
-116.653302999999990
 20
93.393485999999996
 11
-116.653302999999990
 21
91.393558999999996
  0
LINE
  8
0
  6
CONTINUOUS
 62
256
 10
-115.653302999999990
 20
91.393558999999996
 11
-115.653302999999990
 21
51.393559000000003
  0
LINE
  8
0
  6
CONTINUOUS
 62
256
 10
-93.653302999999994
 20
83.393558999999996
 11
-93.653302999999994
 21
51.393559000000003
  0
LINE
  8
0
  6
CONTINUOUS
 62
256
 10
-116.653302999999990
 20
91.393558999999996
 11
-92.653302999999994
 21
91.393558999999996
  0
LINE
  8
0
  6
CONTINUOUS
 62
256
 10
-92.653302999999994
 20
93.393485999999996
 11
-92.653302999999994
 21
91.393558999999996
  0
LINE
  8
0
  6
CONTINUOUS
 62
256
 10
-93.653302999999994
 20
91.393558999999996
 11
-93.653302999999994
 21
83.393558999999996
  0
LINE
  8
0
  6
DASHDOT
 62
256
 10
-104.653302999999990
 20
195.913141999999990
 11
-104.653302999999990
 21
48.382592000000002
  0
LINE
  8
0
  6
CONTINUOUS
 62
256
 10
-101.653302999999990
 20
51.393559000000003
 11
-101.653302999999990
 21
83.393558999999996
  0
ARC
  8
0
  6
CONTINUOUS
 62
256
 10
-104.653302999999990
 20
83.393558999999996
 40
3.000000000000000
 50
0.000000000000000
 51
180.000000000000000
  0
LINE
  8
0
  6
CONTINUOUS
 62
256
 10
-107.653302999999990
 20
83.393558999999996
 11
-101.653302999999990
 21
83.393558999999996
  0
LINE
  8
0
  6
CONTINUOUS
 62
256
 10
-107.653302999999990
 20
51.393559000000003
 11
-107.653302999999990
 21
83.393558999999996
  0
LINE
  8
0
  6
CONTINUOUS
 62
256
 10
-115.653302999999990
 20
51.393559000000003
 11
-93.653302999999994
 21
51.393559000000003
  0
ARC
  8
0
  6
CONTINUOUS
 62
256
 10
-104.653302999999990
 20
-107.469773000000000
 40
37.500000000000000
 50
90.000000000000000
 51
180.000000000000000
  0
ARC
  8
0
  6
CONTINUOUS
 62
256
 10
-104.653302999999990
 20
-107.469773000000000
 40
37.500000000000000
 50
180.000000000000000
 51
90.000000000000000
  0
ENDSEC
  0
EOF
