  0
SECTION
  2
HEADER
  9
$TEXTSIZE
 40
2.5
  9
$ACADVER
  1
AC1009
  9
$DIMASZ
 40
3.863703297614046
  9
$DIMEXE
 40
2.000000000000000
  9
$DIMEXO
 40
1.000000000000000
  9
$DIMLFAC
 40
1.000000000000000
  9
$DIMSCALE
 40
1.000000000000000
  9
$DIMTAD
 70
1
  9
$DIMTFAC
 40
0.625000000000000
  9
$DIMTXT
 40
3.200000047683716
  9
$LUPREC
 70
3
  9
$REGENMODE
 70
1
  9
$TEXTSTYLE
  7
STANDARD1
  0
ENDSEC
  0
SECTION
  2
TABLES
  0
TABLE
  2
LTYPE
 70
4
  0
LTYPE
  2
CONTINUOUS
 70
64
  3
Solid line
 72
65
 73
0
 40
0.0
  0
LTYPE
  2
DASHED
 70
64
  3
-- -- -- -- -- -- -- -- -- -- -- -- -- -- --
 72
65
 73
2
 40
0.75
 49
0.5
 49
-0.25
  0
LTYPE
  2
DASHDOT
 70
64
  3
__ . __ . __ . __ . __ . __ . __ . __ . __ . __
 72
65
 73
4
 40
1.0
 49
0.5
 49
-0.25
 49
0.0
 49
-0.25
  0
LTYPE
  2
DIVIDE
 70
64
  3
__ . . __ . . __ . . __ . . __ . . __ . . __
 72
65
 73
6
 40
1.25
 49
0.5
 49
-0.25
 49
0.0
 49
-0.25
 49
0.0
 49
-0.25
  0
ENDTAB
  0
TABLE
  2
LAYER
 70
3
  0
LAYER
  2
0
 70
64
 62
53
  6
CONTINUOUS
  0
LAYER
  2
1
 70
64
 62
102
  6
CONTINUOUS
  0
LAYER
  2
2
 70
64
 62
102
  6
CONTINUOUS
  0
ENDTAB
  0
TABLE
  2
STYLE
 70
4
  0
STYLE
  2
STANDARD1
 70
64
 40
0.0
 41
1.0
 50
0.0
 71
0
 42
3.200000047683716
  3
MONOTXT
  4
BIGFONT
  0
STYLE
  2
STANDARD2
 70
68
 40
0.0
 41
1.0
 50
0.0
 71
0
 42
3.200000047683716
  3
MONOTXT
  4
BIGFONT
  0
STYLE
  2
STANDARD3
 70
64
 40
0.0
 41
1.0
 50
0.0
 71
0
 42
3.200000047683716
  3
MONOTXT
  4

  0
STYLE
  2
STANDARD4
 70
68
 40
0.0
 41
1.0
 50
0.0
 71
0
 42
3.200000047683716
  3
MONOTXT
  4

  0
ENDTAB
  0
TABLE
  2
VIEW
 70
0
  0
ENDTAB
  0
ENDSEC
  0
SECTION
  2
BLOCKS
  0
ENDSEC
  0
SECTION
  2
ENTITIES
  0
POINT
  8
0
  6
CONTINUOUS
 62
256
 10
-199.105899999999990
 20
-127.762925000000000
  0
POINT
  8
0
  6
CONTINUOUS
 62
256
 10
-199.105899999999990
 20
-127.762925000000000
  0
CIRCLE
  8
0
  6
CONTINUOUS
 62
256
 10
-101.846791000000000
 20
-201.762925000000000
 40
3.323499999999996
  0
CIRCLE
  8
0
  6
CONTINUOUS
 62
256
 10
-101.846791000000000
 20
-201.762925000000000
 40
4.000000000000000
  0
CIRCLE
  8
0
  6
CONTINUOUS
 62
256
 10
16.153209000000000
 20
-201.762925000000000
 40
3.323499999999999
  0
CIRCLE
  8
0
  6
CONTINUOUS
 62
256
 10
16.153209000000000
 20
-201.762925000000000
 40
4.000000000000000
  0
CIRCLE
  8
0
  6
CONTINUOUS
 62
256
 10
16.153209000000000
 20
-96.762924999999996
 40
3.323499999999999
  0
CIRCLE
  8
0
  6
CONTINUOUS
 62
256
 10
16.153209000000000
 20
-96.762924999999996
 40
4.000000000000000
  0
CIRCLE
  8
0
  6
CONTINUOUS
 62
256
 10
-199.105899999999990
 20
-138.762925000000000
 40
3.500000000000000
  0
CIRCLE
  8
0
  6
CONTINUOUS
 62
256
 10
-199.105899999999990
 20
-138.762925000000000
 40
4.000000000000000
  0
LINE
  8
0
  6
DASHDOT
 62
256
 10
-213.062333000000000
 20
-138.762925000000000
 11
-184.451601000000010
 21
-138.762925000000000
  0
LINE
  8
0
  6
DASHDOT
 62
256
 10
-199.105899999999990
 20
-122.174828000000010
 11
-199.105899999999990
 21
-152.851316999999990
  0
LINE
  8
0
  6
CONTINUOUS
 62
256
 10
-202.105899999999990
 20
-131.262925000000000
 11
-196.105899999999990
 21
-131.262925000000000
  0
LINE
  8
0
  6
CONTINUOUS
 62
256
 10
-202.105899999999990
 20
-125.262925000000000
 11
-196.105899999999990
 21
-125.262925000000000
  0
LINE
  8
0
  6
CONTINUOUS
 62
256
 10
-202.105899999999990
 20
-125.262925000000000
 11
-202.105899999999990
 21
-131.262925000000000
  0
LINE
  8
0
  6
CONTINUOUS
 62
256
 10
-196.105899999999990
 20
-125.262925000000000
 11
-196.105899999999990
 21
-131.262925000000000
  0
ARC
  8
0
  6
CONTINUOUS
 62
256
 10
-199.105899999999990
 20
-138.762925000000000
 40
10.999999999999989
 50
105.826620000000020
 51
74.173379999999995
  0
LINE
  8
0
  6
CONTINUOUS
 62
256
 10
56.153208999999997
 20
-98.262924999999996
 11
56.153208999999997
 21
-151.762925000000000
  0
LINE
  8
0
  6
CONTINUOUS
 62
256
 10
56.153208999999997
 20
-205.262925000000000
 11
56.153208999999997
 21
-151.762925000000000
  0
LINE
  8
0
  6
DASHDOT
 62
256
 10
15.638722000000000
 20
-151.762925000000000
 11
245.079663000000010
 21
-151.762925000000000
  0
LINE
  8
0
  6
CONTINUOUS
 62
256
 10
51.153208999999997
 20
-131.762925000000000
 11
56.153208999999997
 21
-131.762925000000000
  0
LINE
  8
0
  6
CONTINUOUS
 62
256
 10
51.153208999999997
 20
-131.762925000000000
 11
56.153208999999997
 21
-131.762925000000000
  0
LINE
  8
0
  6
DASHDOT
 62
256
 10
7.154314000000000
 20
-201.762925000000000
 11
25.049665000000001
 21
-201.762925000000000
  0
LINE
  8
0
  6
DASHDOT
 62
256
 10
16.153209000000000
 20
-192.532442000000000
 11
16.153209000000000
 21
-210.514642000000010
  0
LINE
  8
0
  6
CONTINUOUS
 62
256
 10
51.153208999999997
 20
-199.262925000000000
 11
51.153208999999997
 21
-202.297378000000010
  0
LINE
  8
0
  6
CONTINUOUS
 62
256
 10
48.153208999999997
 20
-196.262925000000000
 11
43.153208999999997
 21
-196.262925000000000
  0
LINE
  8
0
  6
CONTINUOUS
 62
256
 10
49.153208999999997
 20
-193.192576000000000
 11
43.153208999999997
 21
-193.192576000000000
  0
LINE
  8
0
  6
CONTINUOUS
 62
256
 10
38.153208999999997
 20
-188.655091000000000
 11
38.153208999999997
 21
-191.262925000000000
  0
LINE
  8
0
  6
CONTINUOUS
 62
256
 10
41.153208999999997
 20
-185.655091000000000
 11
48.153208999999997
 21
-185.655091000000000
  0
LINE
  8
0
  6
CONTINUOUS
 62
256
 10
51.153208999999997
 20
-171.762925000000000
 11
56.153208999999997
 21
-171.762925000000000
  0
LINE
  8
0
  6
CONTINUOUS
 62
256
 10
51.153208999999997
 20
-151.762925000000000
 11
51.153208999999997
 21
-191.192576000000000
  0
ARC
  8
0
  6
CONTINUOUS
 62
256
 10
-0.728734000000000
 20
-199.762925000000000
 40
3.500000000000000
 50
270.000000000000000
 51
353.243672999999830
  0
ARC
  8
0
  6
CONTINUOUS
 62
256
 10
16.153209000000000
 20
-201.762925000000000
 40
13.499999999999989
 50
93.372287000000000
 51
173.243673000000000
  0
ARC
  8
0
  6
CONTINUOUS
 62
256
 10
15.153209000000000
 20
-184.792362000000000
 40
3.500000000000002
 50
273.372286999999970
 51
0.000000000000000
  0
ARC
  8
0
  6
CONTINUOUS
 62
256
 10
15.153209000000000
 20
-184.792362000000000
 40
5.999999999999992
 50
273.372286999999970
 51
0.000000000000000
  0
ARC
  8
0
  6
CONTINUOUS
 62
256
 10
16.153209000000000
 20
-201.762925000000000
 40
11.000000000000000
 50
93.372287000000000
 51
173.243673000000030
  0
ARC
  8
0
  6
CONTINUOUS
 62
256
 10
-0.728734000000000
 20
-199.762925000000000
 40
6.000000000000000
 50
270.000000000000000
 51
353.243673000000110
  0
ARC
  8
0
  6
CONTINUOUS
 62
256
 10
54.153208999999997
 20
-202.297378000000010
 40
3.000000000000000
 50
180.000000000000000
 51
271.000000000000000
  0
ARC
  8
0
  6
CONTINUOUS
 62
256
 10
21.153209000000000
 20
-205.762925000000000
 40
7.000000000000000
 50
270.000000000000000
 51
0.000000000000000
  0
ARC
  8
0
  6
CONTINUOUS
 62
256
 10
48.153208999999997
 20
-182.655091000000000
 40
3.000000000000000
 50
270.000000000000000
 51
0.000000000000000
  0
ARC
  8
0
  6
CONTINUOUS
 62
256
 10
48.153208999999997
 20
-199.262925000000000
 40
3.000000000000000
 50
0.000000000000000
 51
90.000000000000000
  0
ARC
  8
0
  6
CONTINUOUS
 62
256
 10
49.153208999999997
 20
-191.192576000000000
 40
2.000000000000000
 50
270.000000000000000
 51
0.000000000000000
  0
ARC
  8
0
  6
CONTINUOUS
 62
256
 10
43.153208999999997
 20
-188.192576000000000
 40
5.000000000000000
 50
180.000000000000000
 51
270.000000000000000
  0
ARC
  8
0
  6
CONTINUOUS
 62
256
 10
43.153208999999997
 20
-191.262925000000000
 40
5.000000000000000
 50
180.000000000000000
 51
270.000000000000000
  0
ARC
  8
0
  6
CONTINUOUS
 62
256
 10
21.153209000000000
 20
-205.762925000000000
 40
5.500000000000000
 50
270.000000000000000
 51
0.000000000000000
  0
ARC
  8
0
  6
CONTINUOUS
 62
256
 10
31.137353999999998
 20
-208.700035000000010
 40
3.000000000000011
 50
91.000000000000014
 51
183.226826000000240
  0
LINE
  8
0
  6
CONTINUOUS
 62
256
 10
31.084997000000001
 20
-205.700492000000000
 11
56.153208999999997
 21
-205.262925000000000
  0
LINE
  8
0
  6
CONTINUOUS
 62
256
 10
38.153208999999997
 20
-202.524294000000000
 11
38.153208999999997
 21
-151.762925000000000
  0
ARC
  8
0
  6
CONTINUOUS
 62
256
 10
41.153208999999997
 20
-202.524294000000000
 40
3.000000000000000
 50
180.000000000000000
 51
271.000000000000000
  0
ARC
  8
0
  6
CONTINUOUS
 62
256
 10
41.153208999999997
 20
-182.655091000000000
 40
3.000000000000000
 50
180.000000000000000
 51
270.000000000000000
  0
ARC
  8
0
  6
CONTINUOUS
 62
256
 10
41.153208999999997
 20
-182.655091000000000
 40
3.000000000000000
 50
180.000000000000000
 51
270.000000000000000
  0
ARC
  8
0
  6
CONTINUOUS
 62
256
 10
41.153208999999997
 20
-202.524294000000000
 40
3.000000000000000
 50
180.000000000000000
 51
271.000000000000000
  0
LINE
  8
0
  6
CONTINUOUS
 62
256
 10
38.153208999999997
 20
-202.524294000000000
 11
38.153208999999997
 21
-151.762925000000000
  0
ARC
  8
0
  6
CONTINUOUS
 62
256
 10
49.153208999999997
 20
-191.192576000000000
 40
2.000000000000000
 50
270.000000000000000
 51
0.000000000000000
  0
ARC
  8
0
  6
CONTINUOUS
 62
256
 10
48.153208999999997
 20
-199.262925000000000
 40
3.000000000000000
 50
0.000000000000000
 51
90.000000000000000
  0
ARC
  8
0
  6
CONTINUOUS
 62
256
 10
43.153208999999997
 20
-191.262925000000000
 40
5.000000000000000
 50
180.000000000000000
 51
270.000000000000000
  0
ARC
  8
0
  6
CONTINUOUS
 62
256
 10
43.153208999999997
 20
-188.192576000000000
 40
5.000000000000000
 50
180.000000000000000
 51
270.000000000000000
  0
ARC
  8
0
  6
CONTINUOUS
 62
256
 10
48.153208999999997
 20
-182.655091000000000
 40
3.000000000000000
 50
270.000000000000000
 51
0.000000000000000
  0
ARC
  8
0
  6
CONTINUOUS
 62
256
 10
54.153208999999997
 20
-202.297378000000010
 40
3.000000000000000
 50
180.000000000000000
 51
271.000000000000000
  0
LINE
  8
0
  6
CONTINUOUS
 62
256
 10
51.153208999999997
 20
-199.262925000000000
 11
51.153208999999997
 21
-202.297378000000010
  0
LINE
  8
0
  6
CONTINUOUS
 62
256
 10
49.153208999999997
 20
-193.192576000000000
 11
43.153208999999997
 21
-193.192576000000000
  0
LINE
  8
0
  6
CONTINUOUS
 62
256
 10
48.153208999999997
 20
-196.262925000000000
 11
43.153208999999997
 21
-196.262925000000000
  0
LINE
  8
0
  6
CONTINUOUS
 62
256
 10
51.153208999999997
 20
-151.762925000000000
 11
51.153208999999997
 21
-191.192576000000000
  0
LINE
  8
0
  6
CONTINUOUS
 62
256
 10
41.153208999999997
 20
-185.655091000000000
 11
48.153208999999997
 21
-185.655091000000000
  0
LINE
  8
0
  6
CONTINUOUS
 62
256
 10
38.153208999999997
 20
-188.655091000000000
 11
38.153208999999997
 21
-191.262925000000000
  0
LINE
  8
0
  6
CONTINUOUS
 62
256
 10
51.153208999999997
 20
-171.762925000000000
 11
56.153208999999997
 21
-171.762925000000000
  0
LINE
  8
0
  6
CONTINUOUS
 62
256
 10
-0.728734000000000
 20
-203.262925000000000
 11
-84.964848000000003
 21
-203.262925000000000
  0
LINE
  8
0
  6
CONTINUOUS
 62
256
 10
-0.728734000000000
 20
-205.762925000000000
 11
-84.964848000000003
 21
-205.762925000000000
  0
LINE
  8
0
  6
DASHDOT
 62
256
 10
-110.203199000000000
 20
-201.762925000000000
 11
-92.950334999999995
 21
-201.762925000000000
  0
LINE
  8
0
  6
DASHDOT
 62
256
 10
-101.846791000000000
 20
-192.911014999999990
 11
-101.846791000000000
 21
-210.470094999999990
  0
LINE
  8
0
  6
CONTINUOUS
 62
256
 10
-105.846791000000000
 20
-212.762925000000000
 11
21.153209000000000
 21
-212.762925000000000
  0
LINE
  8
0
  6
CONTINUOUS
 62
256
 10
-111.346791000000000
 20
-138.762925000000000
 11
-111.346791000000000
 21
-205.762925000000000
  0
LINE
  8
0
  6
CONTINUOUS
 62
256
 10
-59.846791000000003
 20
-211.262925000000000
 11
21.153209000000000
 21
-211.262925000000000
  0
LINE
  8
0
  6
CONTINUOUS
 62
256
 10
-105.846791000000000
 20
-211.262925000000000
 11
-59.846791000000003
 21
-211.262925000000000
  0
ARC
  8
0
  6
CONTINUOUS
 62
256
 10
-59.846791000000003
 20
-138.762925000000000
 40
41.499999999999993
 50
180.000000000000000
 51
270.000000000000000
  0
ARC
  8
0
  6
CONTINUOUS
 62
256
 10
-84.964848000000003
 20
-199.762925000000000
 40
3.499999999999996
 50
186.756327000000200
 51
270.000000000000000
  0
ARC
  8
0
  6
CONTINUOUS
 62
256
 10
-101.846791000000000
 20
-201.762925000000000
 40
13.500000000000005
 50
6.756327000000003
 51
86.627712999999972
  0
ARC
  8
0
  6
CONTINUOUS
 62
256
 10
-100.846791000000000
 20
-184.792362000000000
 40
3.500000000000000
 50
180.000000000000000
 51
266.627713000000030
  0
ARC
  8
0
  6
CONTINUOUS
 62
256
 10
-84.964848000000003
 20
-199.762925000000000
 40
5.999999999999996
 50
186.756326999999890
 51
270.000000000000000
  0
ARC
  8
0
  6
CONTINUOUS
 62
256
 10
-101.846791000000000
 20
-201.762925000000000
 40
11.000000000000002
 50
6.756326999999983
 51
86.627712999999986
  0
ARC
  8
0
  6
CONTINUOUS
 62
256
 10
-100.846791000000000
 20
-184.792362000000000
 40
6.000000000000000
 50
180.000000000000000
 51
266.627712999999970
  0
ARC
  8
0
  6
CONTINUOUS
 62
256
 10
-105.846791000000000
 20
-205.762925000000000
 40
7.000000000000000
 50
180.000000000000000
 51
270.000000000000000
  0
ARC
  8
0
  6
CONTINUOUS
 62
256
 10
-105.846791000000000
 20
-205.762925000000000
 40
5.500000000000000
 50
180.000000000000000
 51
270.000000000000000
  0
LINE
  8
0
  6
CONTINUOUS
 62
256
 10
18.653209000000000
 20
-184.792362000000000
 11
18.653209000000000
 21
-113.733487000000000
  0
LINE
  8
0
  6
CONTINUOUS
 62
256
 10
-104.346791000000000
 20
-113.733487000000000
 11
-104.346791000000000
 21
-184.792362000000000
  0
LINE
  8
0
  6
CONTINUOUS
 62
256
 10
-0.728734000000000
 20
-95.262924999999996
 11
-53.232413000000001
 21
-95.262924999999996
  0
LINE
  8
0
  6
CONTINUOUS
 62
256
 10
21.153209000000000
 20
-184.792362000000000
 11
21.153209000000000
 21
-113.733487000000000
  0
LINE
  8
0
  6
CONTINUOUS
 62
256
 10
-106.846791000000000
 20
-113.733487000000000
 11
-106.846791000000000
 21
-184.792362000000000
  0
LINE
  8
0
  6
CONTINUOUS
 62
256
 10
-0.728734000000000
 20
-92.762924999999996
 11
-84.964848000000003
 21
-92.762924999999996
  0
LINE
  8
0
  6
CONTINUOUS
 62
256
 10
-89.191722999999996
 20
-109.417993000000000
 11
-89.232774000000006
 21
-109.459044000000010
  0
LINE
  8
0
  6
DASHDOT
 62
256
 10
16.153209000000000
 20
-88.046397999999996
 11
16.153209000000000
 21
-105.470095000000000
  0
LINE
  8
0
  6
DASHDOT
 62
256
 10
7.722173000000000
 20
-96.762924999999996
 11
25.049665000000001
 21
-96.762924999999996
  0
LINE
  8
0
  6
DASHDOT
 62
256
 10
-110.392484999999990
 20
-96.762924999999996
 11
-92.950334999999995
 21
-96.762924999999996
  0
LINE
  8
0
  6
DASHDOT
 62
256
 10
-101.846791000000000
 20
-87.667824999999993
 11
-101.846791000000000
 21
-105.470095000000000
  0
LINE
  8
0
  6
CONTINUOUS
 62
256
 10
-112.846791000000000
 20
-92.762924999999996
 11
-112.846791000000000
 21
-205.762925000000000
  0
LINE
  8
0
  6
CONTINUOUS
 62
256
 10
21.153209000000000
 20
-85.762924999999996
 11
-105.846791000000000
 21
-85.762924999999996
  0
LINE
  8
0
  6
CONTINUOUS
 62
256
 10
38.153208999999997
 20
-114.870759000000010
 11
38.153208999999997
 21
-112.262925000000000
  0
LINE
  8
0
  6
CONTINUOUS
 62
256
 10
41.153208999999997
 20
-117.870759000000010
 11
48.153208999999997
 21
-117.870759000000010
  0
LINE
  8
0
  6
CONTINUOUS
 62
256
 10
51.153208999999997
 20
-151.762925000000000
 11
51.153208999999997
 21
-112.333273000000010
  0
LINE
  8
0
  6
CONTINUOUS
 62
256
 10
48.153208999999997
 20
-107.262925000000000
 11
43.153208999999997
 21
-107.262925000000000
  0
LINE
  8
0
  6
CONTINUOUS
 62
256
 10
49.153208999999997
 20
-110.333273000000010
 11
43.153208999999997
 21
-110.333273000000010
  0
LINE
  8
0
  6
CONTINUOUS
 62
256
 10
51.153208999999997
 20
-104.262925000000000
 11
51.153208999999997
 21
-101.228471000000000
  0
LINE
  8
0
  6
CONTINUOUS
 62
256
 10
26.653209000000000
 20
-205.762925000000000
 11
26.653209000000000
 21
-92.762924999999996
  0
LINE
  8
0
  6
CONTINUOUS
 62
256
 10
21.153209000000000
 20
-87.262924999999996
 11
-59.846791000000003
 21
-87.262924999999996
  0
LINE
  8
0
  6
CONTINUOUS
 62
256
 10
-59.846791000000003
 20
-87.262924999999996
 11
-105.846791000000000
 21
-87.262924999999996
  0
LINE
  8
0
  6
CONTINUOUS
 62
256
 10
-111.346791000000000
 20
-92.762924999999996
 11
-111.346791000000000
 21
-138.762925000000000
  0
ARC
  8
0
  6
CONTINUOUS
 62
256
 10
-59.846791000000003
 20
-138.762925000000000
 40
43.999999999999993
 50
180.000000000000000
 51
81.354135999999997
  0
ARC
  8
0
  6
CONTINUOUS
 62
256
 10
-100.846791000000000
 20
-113.733487000000000
 40
3.500000000000003
 50
93.372286999999972
 51
180.000000000000000
  0
ARC
  8
0
  6
CONTINUOUS
 62
256
 10
-101.846791000000000
 20
-96.762924999999996
 40
13.500000000000004
 50
273.372286999999970
 51
353.243673000000000
  0
ARC
  8
0
  6
CONTINUOUS
 62
256
 10
-84.964848000000003
 20
-98.762924999999996
 40
3.500000000000000
 50
90.000000000000000
 51
173.243673000000030
  0
ARC
  8
0
  6
CONTINUOUS
 62
256
 10
-0.728734000000000
 20
-98.762924999999996
 40
3.500000000000000
 50
6.756326999999962
 51
90.000000000000000
  0
ARC
  8
0
  6
CONTINUOUS
 62
256
 10
16.153209000000000
 20
-96.762924999999996
 40
13.500000000000002
 50
186.756327000000000
 51
266.627713000000030
  0
ARC
  8
0
  6
CONTINUOUS
 62
256
 10
15.153209000000000
 20
-113.733487000000000
 40
3.500000000000000
 50
0.000000000000000
 51
86.627712999999986
  0
ARC
  8
0
  6
CONTINUOUS
 62
256
 10
-100.846791000000000
 20
-113.733487000000000
 40
6.000000000000006
 50
93.372287000000000
 51
180.000000000000000
  0
ARC
  8
0
  6
CONTINUOUS
 62
256
 10
-101.846791000000000
 20
-96.762924999999996
 40
11.000000000000000
 50
273.372286999999970
 51
353.243673000000000
  0
ARC
  8
0
  6
CONTINUOUS
 62
256
 10
-84.964848000000003
 20
-98.762924999999996
 40
6.000000000000000
 50
90.000000000000000
 51
173.243672999999970
  0
ARC
  8
0
  6
CONTINUOUS
 62
256
 10
15.153209000000000
 20
-113.733487000000000
 40
6.000000000000000
 50
0.000000000000000
 51
86.627713000000000
  0
ARC
  8
0
  6
CONTINUOUS
 62
256
 10
16.153209000000000
 20
-96.762924999999996
 40
11.000000000000000
 50
186.756326999999970
 51
266.627713000000030
  0
ARC
  8
0
  6
CONTINUOUS
 62
256
 10
-0.728734000000000
 20
-98.762924999999996
 40
6.000000000000000
 50
6.756327000000021
 51
90.000000000000000
  0
ARC
  8
0
  6
CONTINUOUS
 62
256
 10
54.153208999999997
 20
-101.228471000000000
 40
2.999999999999997
 50
88.999999999999986
 51
180.000000000000000
  0
ARC
  8
0
  6
CONTINUOUS
 62
256
 10
21.153209000000000
 20
-92.762924999999996
 40
7.000000000000000
 50
0.000000000000000
 51
90.000000000000000
  0
CIRCLE
  8
0
  6
CONTINUOUS
 62
256
 10
-59.846791000000003
 20
-138.762925000000000
 40
25.000000000000000
  0
ARC
  8
0
  6
CONTINUOUS
 62
256
 10
-59.846791000000003
 20
-138.762925000000000
 40
37.500000000000000
 50
90.000000000000000
 51
180.000000000000000
  0
ARC
  8
0
  6
CONTINUOUS
 62
256
 10
-105.846791000000000
 20
-92.762924999999996
 40
7.000000000000000
 50
90.000000000000000
 51
180.000000000000000
  0
ARC
  8
0
  6
CONTINUOUS
 62
256
 10
48.153208999999997
 20
-120.870759000000010
 40
3.000000000000000
 50
0.000000000000000
 51
90.000000000000000
  0
ARC
  8
0
  6
CONTINUOUS
 62
256
 10
43.153208999999997
 20
-115.333273000000010
 40
5.000000000000000
 50
90.000000000000000
 51
180.000000000000000
  0
ARC
  8
0
  6
CONTINUOUS
 62
256
 10
43.153208999999997
 20
-112.262925000000000
 40
5.000000000000000
 50
90.000000000000000
 51
180.000000000000000
  0
ARC
  8
0
  6
CONTINUOUS
 62
256
 10
48.153208999999997
 20
-104.262925000000000
 40
3.000000000000000
 50
270.000000000000000
 51
0.000000000000000
  0
ARC
  8
0
  6
CONTINUOUS
 62
256
 10
49.153208999999997
 20
-112.333273000000010
 40
2.000000000000000
 50
0.000000000000000
 51
90.000000000000000
  0
ARC
  8
0
  6
CONTINUOUS
 62
256
 10
21.153209000000000
 20
-92.762924999999996
 40
5.500000000000000
 50
0.000000000000000
 51
90.000000000000000
  0
ARC
  8
0
  6
CONTINUOUS
 62
256
 10
-105.846791000000000
 20
-92.762924999999996
 40
5.500000000000000
 50
90.000000000000000
 51
180.000000000000000
  0
LINE
  8
0
  6
CONTINUOUS
 62
256
 10
28.153209000000000
 20
-205.762925000000000
 11
28.153209000000000
 21
-92.762924999999996
  0
ARC
  8
0
  6
CONTINUOUS
 62
256
 10
-59.846791000000003
 20
-138.762925000000000
 40
37.499999999999993
 50
180.000000000000000
 51
90.000000000000000
  0
LINE
  8
0
  6
CONTINUOUS
 62
256
 10
-66.461169999999996
 20
-95.262924999999996
 11
-84.964848000000003
 21
-95.262924999999996
  0
ARC
  8
0
  6
CONTINUOUS
 62
256
 10
-59.846791000000003
 20
-138.762925000000000
 40
43.999999999999993
 50
98.645864000000003
 51
180.000000000000000
  0
ARC
  8
0
  6
CONTINUOUS
 62
256
 10
31.049181999999998
 20
-94.824275000000000
 40
3.000000000000000
 50
188.271555999999890
 51
268.999999999999940
  0
LINE
  8
0
  6
CONTINUOUS
 62
256
 10
30.996825000000001
 20
-97.823818000000003
 11
56.153208999999997
 21
-98.262924999999996
  0
LINE
  8
0
  6
CONTINUOUS
 62
256
 10
38.153208999999997
 20
-101.001555999999990
 11
38.153208999999997
 21
-151.762925000000000
  0
ARC
  8
0
  6
CONTINUOUS
 62
256
 10
41.153208999999997
 20
-101.001555999999990
 40
2.999999999999997
 50
88.999999999999986
 51
180.000000000000000
  0
ARC
  8
0
  6
CONTINUOUS
 62
256
 10
41.153208999999997
 20
-120.870759000000010
 40
3.000000000000000
 50
90.000000000000000
 51
180.000000000000000
  0
ARC
  8
0
  6
CONTINUOUS
 62
256
 10
-59.846791000000003
 20
-138.762925000000000
 40
41.500000000000000
 50
270.000000000000000
 51
180.000000000000000
  0
ARC
  8
0
  6
CONTINUOUS
 62
256
 10
41.153208999999997
 20
-120.870759000000010
 40
3.000000000000000
 50
90.000000000000000
 51
180.000000000000000
  0
ARC
  8
0
  6
CONTINUOUS
 62
256
 10
41.153208999999997
 20
-101.001555999999990
 40
2.999999999999997
 50
88.999999999999986
 51
180.000000000000000
  0
LINE
  8
0
  6
CONTINUOUS
 62
256
 10
38.153208999999997
 20
-101.001555999999990
 11
38.153208999999997
 21
-151.762925000000000
  0
ARC
  8
0
  6
CONTINUOUS
 62
256
 10
43.153208999999997
 20
-112.262925000000000
 40
5.000000000000000
 50
90.000000000000000
 51
180.000000000000000
  0
ARC
  8
0
  6
CONTINUOUS
 62
256
 10
43.153208999999997
 20
-115.333273000000010
 40
5.000000000000000
 50
90.000000000000000
 51
180.000000000000000
  0
ARC
  8
0
  6
CONTINUOUS
 62
256
 10
49.153208999999997
 20
-112.333273000000010
 40
2.000000000000000
 50
0.000000000000000
 51
90.000000000000000
  0
ARC
  8
0
  6
CONTINUOUS
 62
256
 10
48.153208999999997
 20
-104.262925000000000
 40
3.000000000000000
 50
270.000000000000000
 51
0.000000000000000
  0
ARC
  8
0
  6
CONTINUOUS
 62
256
 10
48.153208999999997
 20
-120.870759000000010
 40
3.000000000000000
 50
0.000000000000000
 51
90.000000000000000
  0
ARC
  8
0
  6
CONTINUOUS
 62
256
 10
54.153208999999997
 20
-101.228471000000000
 40
2.999999999999997
 50
88.999999999999986
 51
180.000000000000000
  0
LINE
  8
0
  6
CONTINUOUS
 62
256
 10
51.153208999999997
 20
-151.762925000000000
 11
51.153208999999997
 21
-112.333273000000010
  0
LINE
  8
0
  6
CONTINUOUS
 62
256
 10
41.153208999999997
 20
-117.870759000000010
 11
48.153208999999997
 21
-117.870759000000010
  0
LINE
  8
0
  6
CONTINUOUS
 62
256
 10
38.153208999999997
 20
-114.870759000000010
 11
38.153208999999997
 21
-112.262925000000000
  0
LINE
  8
0
  6
CONTINUOUS
 62
256
 10
49.153208999999997
 20
-110.333273000000010
 11
43.153208999999997
 21
-110.333273000000010
  0
LINE
  8
0
  6
CONTINUOUS
 62
256
 10
48.153208999999997
 20
-107.262925000000000
 11
43.153208999999997
 21
-107.262925000000000
  0
LINE
  8
0
  6
CONTINUOUS
 62
256
 10
51.153208999999997
 20
-104.262925000000000
 11
51.153208999999997
 21
-101.228471000000000
  0
LINE
  8
0
  6
DASHDOT
 62
256
 10
-117.148223000000000
 20
-138.762925000000000
 11
-10.330413999999999
 21
-138.762925000000000
  0
LINE
  8
0
  6
DASHDOT
 62
256
 10
-59.846791000000003
 20
-80.880982000000003
 11
-59.846791000000003
 21
-191.651305000000010
  0
CIRCLE
  8
0
  6
CONTINUOUS
 62
256
 10
-59.846791000000003
 20
-138.762925000000000
 40
3.500000000000000
  0
CIRCLE
  8
0
  6
CONTINUOUS
 62
256
 10
-59.846791000000003
 20
-138.762925000000000
 40
4.000000000000000
  0
ARC
  8
0
  6
CONTINUOUS
 62
256
 10
-59.846791000000003
 20
-138.762925000000000
 40
10.999999999999989
 50
105.826620000000020
 51
74.173379999999995
  0
LINE
  8
0
  6
CONTINUOUS
 62
256
 10
-62.846791000000003
 20
-125.262925000000000
 11
-62.846791000000003
 21
-131.262925000000000
  0
LINE
  8
0
  6
CONTINUOUS
 62
256
 10
-62.846791000000003
 20
-125.262925000000000
 11
-56.846791000000003
 21
-125.262925000000000
  0
LINE
  8
0
  6
CONTINUOUS
 62
256
 10
-62.846791000000003
 20
-131.262925000000000
 11
-56.846791000000003
 21
-131.262925000000000
  0
LINE
  8
0
  6
CONTINUOUS
 62
256
 10
-56.846791000000003
 20
-125.262925000000000
 11
-56.846791000000003
 21
-131.262925000000000
  0
ARC
  8
0
  6
CONTINUOUS
 62
256
 10
217.658053999999990
 20
-113.362925000000000
 40
20.600000000000001
 50
55.000000000000028
 51
90.000000000000000
  0
ARC
  8
0
  6
CONTINUOUS
 62
256
 10
235.553209000000010
 20
-103.919304000000000
 40
2.599999999999994
 50
0.000000000000000
 51
54.999999999999979
  0
LINE
  8
0
  6
CONTINUOUS
 62
256
 10
229.473727999999990
 20
-96.488392000000005
 11
237.044507000000010
 21
-101.789509000000000
  0
LINE
  8
0
  6
CONTINUOUS
 62
256
 10
238.153209000000000
 20
-103.919304000000000
 11
238.153209000000000
 21
-151.762925000000000
  0
LINE
  8
0
  6
CONTINUOUS
 62
256
 10
140.153209000000000
 20
-110.721011000000000
 11
56.153208999999997
 21
-110.721011000000000
  0
LINE
  8
0
  6
CONTINUOUS
 62
256
 10
140.153209000000000
 20
-105.629842000000000
 11
56.153208999999997
 21
-105.629842000000000
  0
LINE
  8
0
  6
CONTINUOUS
 62
256
 10
140.153209000000000
 20
-101.262925000000000
 11
56.153208999999997
 21
-101.262925000000000
  0
LINE
  8
0
  6
CONTINUOUS
 62
256
 10
140.153209000000000
 20
-100.762925000000000
 11
56.153208999999997
 21
-100.762925000000000
  0
LINE
  8
0
  6
CONTINUOUS
 62
256
 10
56.153208999999997
 20
-98.262924999999996
 11
57.953209000000001
 21
-98.262924999999996
  0
LINE
  8
0
  6
CONTINUOUS
 62
256
 10
57.953209000000001
 20
-99.262924999999996
 11
57.953209000000001
 21
-61.262925000000003
  0
ARC
  8
0
  6
CONTINUOUS
 62
256
 10
58.953209000000001
 20
-61.262925000000003
 40
1.000000000000000
 50
90.000000000000000
 51
180.000000000000000
  0
LINE
  8
0
  6
CONTINUOUS
 62
256
 10
146.953208999999990
 20
-60.262925000000003
 11
58.953209000000001
 21
-60.262925000000003
  0
ARC
  8
0
  6
CONTINUOUS
 62
256
 10
146.953208999999990
 20
-61.262925000000003
 40
1.000000000000000
 50
0.000000000000000
 51
90.000000000000000
  0
LINE
  8
0
  6
CONTINUOUS
 62
256
 10
140.953208999999990
 20
-59.762925000000003
 11
132.953208999999990
 21
-59.762925000000003
  0
LINE
  8
0
  6
CONTINUOUS
 62
256
 10
72.953209000000001
 20
-59.762925000000003
 11
64.953209000000001
 21
-59.762925000000003
  0
LINE
  8
0
  6
CONTINUOUS
 62
256
 10
72.953209000000001
 20
-60.262925000000003
 11
72.953209000000001
 21
-59.762925000000003
  0
LINE
  8
0
  6
CONTINUOUS
 62
256
 10
64.953209000000001
 20
-60.262925000000003
 11
64.953209000000001
 21
-59.762925000000003
  0
LINE
  8
0
  6
CONTINUOUS
 62
256
 10
132.953208999999990
 20
-60.262925000000003
 11
132.953208999999990
 21
-59.762925000000003
  0
LINE
  8
0
  6
CONTINUOUS
 62
256
 10
140.953208999999990
 20
-60.262925000000003
 11
140.953208999999990
 21
-59.762925000000003
  0
LINE
  8
0
  6
CONTINUOUS
 62
256
 10
57.953209000000001
 20
-99.262924999999996
 11
140.153209000000000
 21
-99.262924999999996
  0
POLYLINE
  8
0
  6
CONTINUOUS
 62
256
 66
1
 70
1
  0
VERTEX
  8
0
  6
CONTINUOUS
 62
256
 10
155.853208999999990
 20
-104.435593999999990
  0
VERTEX
  8
0
  6
CONTINUOUS
 62
256
 10
155.762899817895170
 20
-103.732637489441830
  0
VERTEX
  8
0
  6
CONTINUOUS
 62
256
 10
155.495442802803040
 20
-103.056695203361850
  0
VERTEX
  8
0
  6
CONTINUOUS
 62
256
 10
155.061116177821960
 20
-102.433743224741330
  0
VERTEX
  8
0
  6
CONTINUOUS
 62
256
 10
154.476610871576780
 20
-101.887721248763140
  0
VERTEX
  8
0
  6
CONTINUOUS
 62
256
 10
153.764389095192120
 20
-101.439612593751510
  0
VERTEX
  8
0
  6
CONTINUOUS
 62
256
 10
152.951821132115920
 20
-101.106637824016250
  0
VERTEX
  8
0
  6
CONTINUOUS
 62
256
 10
152.070133513475810
 20
-100.901592973223930
  0
VERTEX
  8
0
  6
CONTINUOUS
 62
256
 10
151.153209000000000
 20
-100.832357800000000
  0
VERTEX
  8
0
  6
CONTINUOUS
 62
256
 10
150.236284486524200
 20
-100.901592973223930
  0
VERTEX
  8
0
  6
CONTINUOUS
 62
256
 10
149.354596867884080
 20
-101.106637824016250
  0
VERTEX
  8
0
  6
CONTINUOUS
 62
256
 10
148.542028904807890
 20
-101.439612593751510
  0
VERTEX
  8
0
  6
CONTINUOUS
 62
256
 10
147.829807128423230
 20
-101.887721248763140
  0
VERTEX
  8
0
  6
CONTINUOUS
 62
256
 10
147.245301822178050
 20
-102.433743224741330
  0
VERTEX
  8
0
  6
CONTINUOUS
 62
256
 10
146.810975197196970
 20
-103.056695203361850
  0
VERTEX
  8
0
  6
CONTINUOUS
 62
256
 10
146.543518182104830
 20
-103.732637489441830
  0
VERTEX
  8
0
  6
CONTINUOUS
 62
256
 10
146.453209000000020
 20
-104.435593999999990
  0
VERTEX
  8
0
  6
CONTINUOUS
 62
256
 10
146.543518182104830
 20
-105.138550510558160
  0
VERTEX
  8
0
  6
CONTINUOUS
 62
256
 10
146.810975197196970
 20
-105.814492796638130
  0
VERTEX
  8
0
  6
CONTINUOUS
 62
256
 10
147.245301822178050
 20
-106.437444775258650
  0
VERTEX
  8
0
  6
CONTINUOUS
 62
256
 10
147.829807128423230
 20
-106.983466751236830
  0
VERTEX
  8
0
  6
CONTINUOUS
 62
256
 10
148.542028904807890
 20
-107.431575406248480
  0
VERTEX
  8
0
  6
CONTINUOUS
 62
256
 10
149.354596867884080
 20
-107.764550175983740
  0
VERTEX
  8
0
  6
CONTINUOUS
 62
256
 10
150.236284486524200
 20
-107.969595026776060
  0
VERTEX
  8
0
  6
CONTINUOUS
 62
256
 10
151.153209000000000
 20
-108.038830199999990
  0
VERTEX
  8
0
  6
CONTINUOUS
 62
256
 10
152.070133513475810
 20
-107.969595026776060
  0
VERTEX
  8
0
  6
CONTINUOUS
 62
256
 10
152.951821132115920
 20
-107.764550175983740
  0
VERTEX
  8
0
  6
CONTINUOUS
 62
256
 10
153.764389095192120
 20
-107.431575406248480
  0
VERTEX
  8
0
  6
CONTINUOUS
 62
256
 10
154.476610871576750
 20
-106.983466751236850
  0
VERTEX
  8
0
  6
CONTINUOUS
 62
256
 10
155.061116177821960
 20
-106.437444775258650
  0
VERTEX
  8
0
  6
CONTINUOUS
 62
256
 10
155.495442802803040
 20
-105.814492796638130
  0
VERTEX
  8
0
  6
CONTINUOUS
 62
256
 10
155.762899817895170
 20
-105.138550510558160
  0
SEQEND
  8
0
  6
CONTINUOUS
 62
256
  0
LINE
  8
0
  6
CONTINUOUS
 62
256
 10
153.153209000000000
 20
-101.443218000000000
 11
151.153209000000000
 21
-102.619004000000000
  0
LINE
  8
0
  6
CONTINUOUS
 62
256
 10
151.153209000000000
 20
-102.619004000000000
 11
149.153209000000000
 21
-104.271645000000010
  0
LINE
  8
0
  6
CONTINUOUS
 62
256
 10
149.153209000000000
 20
-101.443218000000000
 11
151.153209000000000
 21
-102.619004000000000
  0
LINE
  8
0
  6
CONTINUOUS
 62
256
 10
151.153209000000000
 20
-102.619004000000000
 11
153.153209000000000
 21
-104.271645000000010
  0
LINE
  8
0
  6
CONTINUOUS
 62
256
 10
140.153209000000000
 20
-100.423227999999990
 11
140.153209000000000
 21
-151.762925000000000
  0
ARC
  8
0
  6
CONTINUOUS
 62
256
 10
143.153209000000000
 20
-100.423227999999990
 40
3.000000000000000
 50
90.000000000000000
 51
180.000000000000000
  0
LINE
  8
0
  6
CONTINUOUS
 62
256
 10
147.153209000000000
 20
-97.423227999999995
 11
143.153209000000000
 21
-97.423227999999995
  0
ARC
  8
0
  6
CONTINUOUS
 62
256
 10
147.153209000000000
 20
-94.423227999999995
 40
3.000000000000000
 50
270.000000000000000
 51
0.000000000000000
  0
LINE
  8
0
  6
CONTINUOUS
 62
256
 10
150.153209000000000
 20
-92.762924999999996
 11
217.658053999999990
 21
-92.762924999999996
  0
LINE
  8
0
  6
CONTINUOUS
 62
256
 10
150.153209000000000
 20
-92.762924999999996
 11
150.153209000000000
 21
-94.423227999999995
  0
LINE
  8
0
  6
CONTINUOUS
 62
256
 10
147.953208999999990
 20
-97.314594999999997
 11
147.953208999999990
 21
-61.262925000000003
  0
LINE
  8
0
  6
CONTINUOUS
 62
256
 10
147.953208999999990
 20
-94.262924999999996
 11
57.953209000000001
 21
-94.262924999999996
  0
POLYLINE
  8
0
  6
CONTINUOUS
 62
256
 66
1
 70
1
  0
VERTEX
  8
0
  6
CONTINUOUS
 62
256
 10
155.853208999999990
 20
-199.090256000000010
  0
VERTEX
  8
0
  6
CONTINUOUS
 62
256
 10
155.762899817895170
 20
-198.387299489441830
  0
VERTEX
  8
0
  6
CONTINUOUS
 62
256
 10
155.495442802803040
 20
-197.711357203361870
  0
VERTEX
  8
0
  6
CONTINUOUS
 62
256
 10
155.061116177821960
 20
-197.088405224741340
  0
VERTEX
  8
0
  6
CONTINUOUS
 62
256
 10
154.476610871576780
 20
-196.542383248763170
  0
VERTEX
  8
0
  6
CONTINUOUS
 62
256
 10
153.764389095192120
 20
-196.094274593751520
  0
VERTEX
  8
0
  6
CONTINUOUS
 62
256
 10
152.951821132115920
 20
-195.761299824016280
  0
VERTEX
  8
0
  6
CONTINUOUS
 62
256
 10
152.070133513475810
 20
-195.556254973223930
  0
VERTEX
  8
0
  6
CONTINUOUS
 62
256
 10
151.153209000000000
 20
-195.487019800000010
  0
VERTEX
  8
0
  6
CONTINUOUS
 62
256
 10
150.236284486524200
 20
-195.556254973223930
  0
VERTEX
  8
0
  6
CONTINUOUS
 62
256
 10
149.354596867884080
 20
-195.761299824016280
  0
VERTEX
  8
0
  6
CONTINUOUS
 62
256
 10
148.542028904807890
 20
-196.094274593751520
  0
VERTEX
  8
0
  6
CONTINUOUS
 62
256
 10
147.829807128423230
 20
-196.542383248763170
  0
VERTEX
  8
0
  6
CONTINUOUS
 62
256
 10
147.245301822178050
 20
-197.088405224741340
  0
VERTEX
  8
0
  6
CONTINUOUS
 62
256
 10
146.810975197196970
 20
-197.711357203361870
  0
VERTEX
  8
0
  6
CONTINUOUS
 62
256
 10
146.543518182104830
 20
-198.387299489441830
  0
VERTEX
  8
0
  6
CONTINUOUS
 62
256
 10
146.453209000000020
 20
-199.090256000000010
  0
VERTEX
  8
0
  6
CONTINUOUS
 62
256
 10
146.543518182104830
 20
-199.793212510558190
  0
VERTEX
  8
0
  6
CONTINUOUS
 62
256
 10
146.810975197196970
 20
-200.469154796638150
  0
VERTEX
  8
0
  6
CONTINUOUS
 62
256
 10
147.245301822178050
 20
-201.092106775258690
  0
VERTEX
  8
0
  6
CONTINUOUS
 62
256
 10
147.829807128423230
 20
-201.638128751236850
  0
VERTEX
  8
0
  6
CONTINUOUS
 62
256
 10
148.542028904807890
 20
-202.086237406248500
  0
VERTEX
  8
0
  6
CONTINUOUS
 62
256
 10
149.354596867884080
 20
-202.419212175983740
  0
VERTEX
  8
0
  6
CONTINUOUS
 62
256
 10
150.236284486524200
 20
-202.624257026776060
  0
VERTEX
  8
0
  6
CONTINUOUS
 62
256
 10
151.153209000000000
 20
-202.693492200000010
  0
VERTEX
  8
0
  6
CONTINUOUS
 62
256
 10
152.070133513475810
 20
-202.624257026776060
  0
VERTEX
  8
0
  6
CONTINUOUS
 62
256
 10
152.951821132115920
 20
-202.419212175983740
  0
VERTEX
  8
0
  6
CONTINUOUS
 62
256
 10
153.764389095192120
 20
-202.086237406248500
  0
VERTEX
  8
0
  6
CONTINUOUS
 62
256
 10
154.476610871576750
 20
-201.638128751236850
  0
VERTEX
  8
0
  6
CONTINUOUS
 62
256
 10
155.061116177821960
 20
-201.092106775258690
  0
VERTEX
  8
0
  6
CONTINUOUS
 62
256
 10
155.495442802803040
 20
-200.469154796638150
  0
VERTEX
  8
0
  6
CONTINUOUS
 62
256
 10
155.762899817895170
 20
-199.793212510558190
  0
SEQEND
  8
0
  6
CONTINUOUS
 62
256
  0
LINE
  8
0
  6
CONTINUOUS
 62
256
 10
153.153209000000000
 20
-202.082630999999990
 11
151.153209000000000
 21
-200.906846000000000
  0
LINE
  8
0
  6
CONTINUOUS
 62
256
 10
151.153209000000000
 20
-200.906846000000000
 11
149.153209000000000
 21
-199.254203999999990
  0
LINE
  8
0
  6
CONTINUOUS
 62
256
 10
149.153209000000000
 20
-202.082630999999990
 11
151.153209000000000
 21
-200.906846000000000
  0
LINE
  8
0
  6
CONTINUOUS
 62
256
 10
151.153209000000000
 20
-200.906846000000000
 11
153.153209000000000
 21
-199.254203999999990
  0
LINE
  8
0
  6
CONTINUOUS
 62
256
 10
140.153209000000000
 20
-210.762925000000000
 11
140.153209000000000
 21
-151.762925000000000
  0
ARC
  8
0
  6
CONTINUOUS
 62
256
 10
217.658053999999990
 20
-190.162925000000000
 40
20.599999999999994
 50
270.000000000000000
 51
305.000000000000000
  0
ARC
  8
0
  6
CONTINUOUS
 62
256
 10
235.553209000000010
 20
-199.606545000000010
 40
2.599999999999996
 50
305.000000000000230
 51
0.000000000000000
  0
LINE
  8
0
  6
CONTINUOUS
 62
256
 10
238.153209000000000
 20
-199.606545000000010
 11
238.153209000000000
 21
-151.762925000000000
  0
LINE
  8
0
  6
CONTINUOUS
 62
256
 10
229.473727999999990
 20
-207.037456999999990
 11
237.044507000000010
 21
-201.736340000000010
  0
LINE
  8
0
  6
CONTINUOUS
 62
256
 10
140.153209000000000
 20
-210.762925000000000
 11
217.658053999999990
 21
-210.762925000000000
  0
LINE
  8
0
  6
CONTINUOUS
 62
256
 10
56.153208999999997
 20
-98.262924999999996
 11
56.153208999999997
 21
-151.762925000000000
  0
LINE
  8
0
  6
CONTINUOUS
 62
256
 10
140.153209000000000
 20
-137.762925000000000
 11
56.153208999999997
 21
-137.762925000000000
  0
LINE
  8
0
  6
CONTINUOUS
 62
256
 10
140.153209000000000
 20
-133.376810000000010
 11
56.153208999999997
 21
-133.376810000000010
  0
LINE
  8
0
  6
CONTINUOUS
 62
256
 10
140.153209000000000
 20
-132.134890000000010
 11
56.153208999999997
 21
-132.134890000000010
  0
LINE
  8
0
  6
CONTINUOUS
 62
256
 10
140.153209000000000
 20
-128.924685000000010
 11
56.153208999999997
 21
-128.924685000000010
  0
LINE
  8
0
  6
CONTINUOUS
 62
256
 10
140.153209000000000
 20
-127.578283000000000
 11
56.153208999999997
 21
-127.578283000000000
  0
LINE
  8
0
  6
CONTINUOUS
 62
256
 10
140.153209000000000
 20
-124.485552000000000
 11
56.153208999999997
 21
-124.485552000000000
  0
LINE
  8
0
  6
CONTINUOUS
 62
256
 10
140.153209000000000
 20
-123.006529000000000
 11
56.153208999999997
 21
-123.006529000000000
  0
LINE
  8
0
  6
CONTINUOUS
 62
256
 10
140.153209000000000
 20
-120.048533000000010
 11
56.153208999999997
 21
-120.048533000000010
  0
LINE
  8
0
  6
CONTINUOUS
 62
256
 10
140.153209000000000
 20
-118.459324000000000
 11
56.153208999999997
 21
-118.459324000000000
  0
LINE
  8
0
  6
CONTINUOUS
 62
256
 10
56.153208999999997
 20
-205.262925000000000
 11
56.153208999999997
 21
-151.762925000000000
  0
LINE
  8
0
  6
CONTINUOUS
 62
256
 10
140.153209000000000
 20
-202.762925000000000
 11
56.153208999999997
 21
-202.762925000000000
  0
LINE
  8
0
  6
CONTINUOUS
 62
256
 10
140.153209000000000
 20
-202.262925000000000
 11
56.153208999999997
 21
-202.262925000000000
  0
LINE
  8
0
  6
CONTINUOUS
 62
256
 10
140.153209000000000
 20
-197.896007000000000
 11
56.153208999999997
 21
-197.896007000000000
  0
LINE
  8
0
  6
CONTINUOUS
 62
256
 10
140.153209000000000
 20
-192.804837999999990
 11
56.153208999999997
 21
-192.804837999999990
  0
LINE
  8
0
  6
CONTINUOUS
 62
256
 10
140.153209000000000
 20
-185.066526000000010
 11
56.153208999999997
 21
-185.066526000000010
  0
LINE
  8
0
  6
CONTINUOUS
 62
256
 10
140.153209000000000
 20
-183.477316000000000
 11
56.153208999999997
 21
-183.477316000000000
  0
LINE
  8
0
  6
CONTINUOUS
 62
256
 10
140.153209000000000
 20
-180.519319999999990
 11
56.153208999999997
 21
-180.519319999999990
  0
LINE
  8
0
  6
CONTINUOUS
 62
256
 10
140.153209000000000
 20
-179.040297000000010
 11
56.153208999999997
 21
-179.040297000000010
  0
LINE
  8
0
  6
CONTINUOUS
 62
256
 10
140.153209000000000
 20
-175.947565999999990
 11
56.153208999999997
 21
-175.947565999999990
  0
LINE
  8
0
  6
CONTINUOUS
 62
256
 10
140.153209000000000
 20
-174.601164000000010
 11
56.153208999999997
 21
-174.601164000000010
  0
LINE
  8
0
  6
CONTINUOUS
 62
256
 10
140.153209000000000
 20
-170.149038999999990
 11
56.153208999999997
 21
-170.149038999999990
  0
LINE
  8
0
  6
CONTINUOUS
 62
256
 10
140.153209000000000
 20
-171.390959000000010
 11
56.153208999999997
 21
-171.390959000000010
  0
LINE
  8
0
  6
CONTINUOUS
 62
256
 10
140.153209000000000
 20
-165.762925000000000
 11
56.153208999999997
 21
-165.762925000000000
  0
LINE
  8
0
  6
CONTINUOUS
 62
256
 10
56.153208999999997
 20
-205.262925000000000
 11
140.153209000000000
 21
-205.262925000000000
  0
LINE
  8
0
  6
DASHDOT
 62
256
 10
-363.015828000000000
 20
-151.762925000000000
 11
-378.516390000000000
 21
-151.762925000000000
  0
ARC
  8
0
  6
CONTINUOUS
 62
256
 10
-423.923898000000010
 20
-171.262925000000000
 40
0.500000000000000
 50
180.000000000000000
 51
270.000000000000000
  0
ARC
  8
0
  6
CONTINUOUS
 62
256
 10
-423.923898000000010
 20
-132.262925000000000
 40
0.500000000000000
 50
90.000000000000000
 51
180.000000000000000
  0
ARC
  8
0
  6
CONTINUOUS
 62
256
 10
-423.923898000000010
 20
-131.262925000000000
 40
0.500000000000000
 50
270.000000000000000
 51
0.000000000000000
  0
ARC
  8
0
  6
CONTINUOUS
 62
256
 10
-423.923898000000010
 20
-172.262925000000000
 40
0.500000000000000
 50
0.000000000000000
 51
90.000000000000000
  0
ARC
  8
0
  6
CONTINUOUS
 62
256
 10
-317.923898000000010
 20
-171.262925000000000
 40
0.500000000000000
 50
270.000000000000000
 51
0.000000000000000
  0
ARC
  8
0
  6
CONTINUOUS
 62
256
 10
-317.923898000000010
 20
-172.262925000000000
 40
0.500000000000000
 50
90.000000000000000
 51
180.000000000000000
  0
ARC
  8
0
  6
CONTINUOUS
 62
256
 10
-415.956253000000000
 20
-192.552639000000000
 40
3.000000000000004
 50
135.000000000000370
 51
217.162520000000170
  0
ARC
  8
0
  6
CONTINUOUS
 62
256
 10
-414.015617000000020
 20
-194.783823000000010
 40
3.000000000000027
 50
224.869578999999760
 51
262.178139999999590
  0
ARC
  8
0
  6
CONTINUOUS
 62
256
 10
-327.832178000000000
 20
-194.783823000000010
 40
2.999999999999995
 50
277.821860000000410
 51
315.130421000000180
  0
ARC
  8
0
  6
CONTINUOUS
 62
256
 10
-325.891542000000020
 20
-192.552639000000000
 40
2.999999999999989
 50
322.837479999999800
 51
44.999999999999616
  0
ARC
  8
0
  6
CONTINUOUS
 62
256
 10
-325.891542000000020
 20
-110.973209999999990
 40
2.999999999999977
 50
325.340699999999860
 51
34.659300000000187
  0
ARC
  8
0
  6
CONTINUOUS
 62
256
 10
-23.423898000000001
 20
-131.762925000000000
 40
400.000000000000000
 50
178.568016000000000
 51
179.928470000000000
  0
ARC
  8
0
  6
CONTINUOUS
 62
256
 10
-398.423898000000010
 20
-124.262925000000000
 40
25.000000000000011
 50
143.130101999999990
 51
174.269825000000000
  0
ARC
  8
0
  6
CONTINUOUS
 62
256
 10
-23.423898000000001
 20
-171.762925000000000
 40
400.000000000000000
 50
180.071529999999970
 51
180.859540999999980
  0
ARC
  8
0
  6
CONTINUOUS
 62
256
 10
-398.423898000000010
 20
-179.262925000000000
 40
25.000000000000007
 50
176.561350000000030
 51
230.208180999999880
  0
ARC
  8
0
  6
CONTINUOUS
 62
256
 10
-718.423898000000010
 20
-171.762925000000000
 40
400.000000000000000
 50
358.568016000000060
 51
359.928470000000000
  0
ARC
  8
0
  6
CONTINUOUS
 62
256
 10
-343.423898000000010
 20
-179.262925000000000
 40
24.999999999999986
 50
309.791818999999920
 51
354.269824999999970
  0
ARC
  8
0
  6
CONTINUOUS
 62
256
 10
-718.423898000000010
 20
-131.762925000000000
 40
400.000000000000060
 50
0.572967000000000
 51
1.431984000000000
  0
ARC
  8
0
  6
CONTINUOUS
 62
256
 10
-343.423898000000010
 20
-124.262925000000000
 40
24.999999999999979
 50
5.730175000000014
 51
36.869897999999978
  0
LINE
  8
0
  6
CONTINUOUS
 62
256
 10
-424.423898000000010
 20
-132.262925000000000
 11
-424.423898000000010
 21
-171.262925000000000
  0
LINE
  8
0
  6
CONTINUOUS
 62
256
 10
-317.423898000000010
 20
-171.262925000000000
 11
-317.423898000000010
 21
-149.762925000000000
  0
LINE
  8
0
  6
CONTINUOUS
 62
256
 10
-414.423898000000010
 20
-186.777643000000010
 11
-418.077572999999970
 21
-190.431319000000000
  0
LINE
  8
0
  6
CONTINUOUS
 62
256
 10
-327.423898000000010
 20
-186.777643000000010
 11
-323.770221999999990
 21
-190.431319000000000
  0
ARC
  8
0
  6
CONTINUOUS
 62
256
 10
-415.956253000000000
 20
-110.973209999999990
 40
2.999999999999977
 50
145.340699999999830
 51
214.659300000000170
  0
LINE
  8
0
  6
CONTINUOUS
 62
256
 10
-418.423898000000010
 20
-101.262925000000000
 11
-418.423898000000010
 21
-176.262925000000000
  0
LINE
  8
0
  6
CONTINUOUS
 62
256
 10
-418.423898000000010
 20
-101.262925000000000
 11
-414.423898000000010
 21
-101.262925000000000
  0
LINE
  8
0
  6
CONTINUOUS
 62
256
 10
-414.423898000000010
 20
-85.954930000000004
 11
-414.423898000000010
 21
-212.570919000000000
  0
LINE
  8
0
  6
CONTINUOUS
 62
256
 10
-418.423898000000010
 20
-176.262925000000000
 11
-414.423898000000010
 21
-176.262925000000000
  0
LINE
  8
0
  6
CONTINUOUS
 62
256
 10
-327.423898000000010
 20
-101.271652000000000
 11
-323.423898000000010
 21
-101.271652000000000
  0
LINE
  8
0
  6
CONTINUOUS
 62
256
 10
-323.423898000000010
 20
-101.271652000000000
 11
-323.423898000000010
 21
-176.254197000000000
  0
LINE
  8
0
  6
CONTINUOUS
 62
256
 10
-336.923898000000010
 20
-86.932413999999994
 11
-327.423898000000010
 21
-86.932413999999994
  0
LINE
  8
0
  6
CONTINUOUS
 62
256
 10
-327.423898000000010
 20
-198.044565000000010
 11
-327.423898000000010
 21
-86.932413999999994
  0
LINE
  8
0
  6
CONTINUOUS
 62
256
 10
-403.923898000000010
 20
-85.754197000000005
 11
-403.923898000000010
 21
-90.262924999999996
  0
LINE
  8
0
  6
CONTINUOUS
 62
256
 10
-403.923898000000010
 20
-203.650420999999990
 11
-403.923898000000010
 21
-89.254197000000005
  0
LINE
  8
0
  6
CONTINUOUS
 62
256
 10
-403.923898000000010
 20
-85.762924999999996
 11
-336.923898000000010
 21
-86.932413999999994
  0
LINE
  8
0
  6
CONTINUOUS
 62
256
 10
-403.923898000000010
 20
-85.771652000000003
 11
-414.423898000000010
 21
-85.954930000000004
  0
LINE
  8
0
  6
CONTINUOUS
 62
256
 10
-327.423898000000010
 20
-176.254197000000000
 11
-323.423898000000010
 21
-176.254197000000000
  0
LINE
  8
0
  6
CONTINUOUS
 62
256
 10
-336.923898000000010
 20
-211.610890000000010
 11
-327.423898000000010
 21
-211.610890000000010
  0
LINE
  8
0
  6
CONTINUOUS
 62
256
 10
-327.423898000000010
 20
-211.610890000000010
 11
-327.423898000000010
 21
-198.044565000000010
  0
LINE
  8
0
  6
CONTINUOUS
 62
256
 10
-403.923898000000010
 20
-212.780380000000010
 11
-336.923898000000010
 21
-211.610890000000010
  0
LINE
  8
0
  6
CONTINUOUS
 62
256
 10
-403.923898000000010
 20
-212.780380000000010
 11
-403.923898000000010
 21
-208.271651999999990
  0
LINE
  8
0
  6
CONTINUOUS
 62
256
 10
-403.923898000000010
 20
-212.780380000000010
 11
-403.923898000000010
 21
-203.650420999999990
  0
LINE
  8
0
  6
CONTINUOUS
 62
256
 10
-403.173898000000010
 20
-212.767288000000010
 11
-414.423898000000010
 21
-212.570919000000000
  0
ARC
  8
0
  6
CONTINUOUS
 62
256
 10
-370.923898000000010
 20
-151.762925000000000
 40
53.500000000000007
 50
152.604368000000020
 51
215.601639000000010
  0
ARC
  8
0
  6
CONTINUOUS
 62
256
 10
-370.923898000000010
 20
-151.762925000000000
 40
53.499999999999986
 50
324.398360999999970
 51
2.142396999999993
  0
LINE
  8
0
  6
DASHDOT
 62
256
 10
-370.923898000000010
 20
-215.003412000000000
 11
-370.923898000000010
 21
-54.799059999999997
  0
LINE
  8
0
  6
CONTINUOUS
 62
256
 10
-406.923898000000010
 20
-85.824016999999998
 11
-406.923898000000010
 21
-66.896259999999998
  0
LINE
  8
0
  6
CONTINUOUS
 62
256
 10
-334.923898000000010
 20
-86.932413999999994
 11
-334.923898000000010
 21
-66.896259999999998
  0
LINE
  8
0
  6
CONTINUOUS
 62
256
 10
-373.423898000000010
 20
-59.762925000000003
 11
-373.423898000000010
 21
-60.273341000000002
  0
LINE
  8
0
  6
CONTINUOUS
 62
256
 10
-368.423898000000010
 20
-59.762925000000003
 11
-373.423898000000010
 21
-59.762925000000003
  0
LINE
  8
0
  6
CONTINUOUS
 62
256
 10
-368.423898000000010
 20
-59.762925000000003
 11
-368.423898000000010
 21
-60.273341000000002
  0
ARC
  8
0
  6
CONTINUOUS
 62
256
 10
-339.923898000000010
 20
-66.896259999999998
 40
5.000000000000000
 50
0.000000000000000
 51
83.967950999999999
  0
ARC
  8
0
  6
CONTINUOUS
 62
256
 10
-401.923898000000010
 20
-66.896259999999998
 40
5.000000000000002
 50
96.032049000000001
 51
180.000000000000000
  0
ARC
  8
0
  6
CONTINUOUS
 62
256
 10
-370.923898000000010
 20
-360.262925000000000
 40
300.000000000000000
 50
83.967950999999999
 51
96.032049000000001
  0
ARC
  8
0
  6
CONTINUOUS
 62
256
 10
-24.323898000000000
 20
-151.762925000000000
 40
400.600000000000080
 50
174.256317999999990
 51
180.000000000000000
  0
ARC
  8
0
  6
CONTINUOUS
 62
256
 10
-416.345845000000000
 20
-112.332058000000000
 40
6.600000000000017
 50
135.000000000000170
 51
174.256317999999940
  0
LINE
  8
0
  6
CONTINUOUS
 62
256
 10
-418.423898000000010
 20
-105.076301000000000
 11
-421.012748999999990
 21
-107.665153000000000
  0
LINE
  8
0
  6
CONTINUOUS
 62
256
 10
-323.423898000000010
 20
-105.076301000000000
 11
-320.835045999999980
 21
-107.665153000000000
  0
ARC
  8
0
  6
CONTINUOUS
 62
256
 10
-717.523898000000030
 20
-151.762925000000000
 40
400.600000000000020
 50
0.000000000000000
 51
0.286050999999998
  0
ARC
  8
0
  6
CONTINUOUS
 62
256
 10
-325.501951000000020
 20
-112.332058000000000
 40
6.599999999999973
 50
5.743682000000063
 51
44.999999999999829
  0
LINE
  8
0
  6
CONTINUOUS
 62
256
 10
-327.423898000000010
 20
-202.449547999999990
 11
-320.835045999999980
 21
-195.860695999999990
  0
ARC
  8
0
  6
CONTINUOUS
 62
256
 10
-717.523898000000030
 20
-151.762925000000000
 40
400.600000000000020
 50
354.256318000000020
 51
0.000000000000000
  0
ARC
  8
0
  6
CONTINUOUS
 62
256
 10
-325.501951000000020
 20
-191.193792000000000
 40
6.600000000000017
 50
315.000000000000170
 51
354.256318000000020
  0
LINE
  8
0
  6
CONTINUOUS
 62
256
 10
-414.423898000000010
 20
-202.449547999999990
 11
-421.012748999999990
 21
-195.860695999999990
  0
ARC
  8
0
  6
CONTINUOUS
 62
256
 10
-24.323898000000000
 20
-151.762925000000000
 40
400.600000000000020
 50
180.000000000000000
 51
185.743681999999980
  0
ARC
  8
0
  6
CONTINUOUS
 62
256
 10
-416.345845000000000
 20
-191.193792000000000
 40
6.599999999999971
 50
185.743681999999920
 51
224.999999999999830
  0
LINE
  8
0
  6
DASHDOT
 62
256
 10
-276.577991000000000
 20
-138.762925000000000
 11
-428.837399000000000
 21
-138.762925000000000
  0
LINE
  8
0
  6
CONTINUOUS
 62
256
 10
-313.423970999999990
 20
-125.262925000000000
 11
-313.423970999999990
 21
-127.762925000000000
  0
LINE
  8
0
  6
CONTINUOUS
 62
256
 10
-321.423970999999990
 20
-127.762925000000000
 11
-281.423970999999990
 21
-127.762925000000000
  0
LINE
  8
0
  6
CONTINUOUS
 62
256
 10
-281.423970999999990
 20
-149.762925000000000
 11
-281.423970999999990
 21
-125.262925000000000
  0
LINE
  8
0
  6
CONTINUOUS
 62
256
 10
-313.423970999999990
 20
-125.262925000000000
 11
-281.423989000000010
 21
-125.262925000000000
  0
LINE
  8
0
  6
CONTINUOUS
 62
256
 10
-321.423970999999990
 20
-149.762925000000000
 11
-281.423970999999990
 21
-149.762925000000000
  0
LINE
  8
0
  6
CONTINUOUS
 62
256
 10
-323.423898000000010
 20
-126.762925000000000
 11
-321.423970999999990
 21
-126.762925000000000
  0
LINE
  8
0
  6
CONTINUOUS
 62
256
 10
-321.423970999999990
 20
-150.762925000000000
 11
-321.423970999999990
 21
-126.762925000000000
  0
LINE
  8
0
  6
CONTINUOUS
 62
256
 10
-323.423898000000010
 20
-150.762925000000000
 11
-321.423970999999990
 21
-150.762925000000000
  0
LINE
  8
0
  6
DASHDOT
 62
256
 10
-325.886127999999990
 20
-96.762924999999996
 11
-415.703081999999990
 21
-96.762924999999996
  0
LINE
  8
0
  6
DASHDOT
 62
256
 10
-325.963089000000020
 20
-201.762925000000000
 11
-416.187064000000020
 21
-201.762925000000000
  0
ARC
  8
0
  6
CONTINUOUS
 62
256
 10
-717.523898000000030
 20
-151.762925000000000
 40
400.599999999999970
 50
3.434655000000000
 51
5.743682000000000
  0
CIRCLE
  8
0
  6
CONTINUOUS
 62
256
 10
-199.105899999999990
 20
-138.762925000000000
 40
3.500000000000000
  0
CIRCLE
  8
0
  6
CONTINUOUS
 62
256
 10
-199.105899999999990
 20
-138.762925000000000
 40
4.000000000000000
  0
LINE
  8
0
  6
DASHDOT
 62
256
 10
-213.062333000000000
 20
-138.762925000000000
 11
-184.451601000000010
 21
-138.762925000000000
  0
LINE
  8
0
  6
DASHDOT
 62
256
 10
-199.105899999999990
 20
-122.174828000000010
 11
-199.105899999999990
 21
-152.851316999999990
  0
LINE
  8
0
  6
CONTINUOUS
 62
256
 10
-202.105899999999990
 20
-131.262925000000000
 11
-196.105899999999990
 21
-131.262925000000000
  0
LINE
  8
0
  6
CONTINUOUS
 62
256
 10
-202.105899999999990
 20
-125.262925000000000
 11
-196.105899999999990
 21
-125.262925000000000
  0
LINE
  8
0
  6
CONTINUOUS
 62
256
 10
-202.105899999999990
 20
-125.262925000000000
 11
-202.105899999999990
 21
-131.262925000000000
  0
LINE
  8
0
  6
CONTINUOUS
 62
256
 10
-196.105899999999990
 20
-125.262925000000000
 11
-196.105899999999990
 21
-131.262925000000000
  0
ARC
  8
0
  6
CONTINUOUS
 62
256
 10
-199.105899999999990
 20
-138.762925000000000
 40
10.999999999999989
 50
105.826620000000020
 51
74.173379999999995
  0
LINE
  8
0
  6
CONTINUOUS
 62
256
 10
56.153208999999997
 20
-98.262924999999996
 11
56.153208999999997
 21
-151.762925000000000
  0
LINE
  8
0
  6
CONTINUOUS
 62
256
 10
56.153208999999997
 20
-205.262925000000000
 11
56.153208999999997
 21
-151.762925000000000
  0
LINE
  8
0
  6
DASHDOT
 62
256
 10
15.638722000000000
 20
-151.762925000000000
 11
245.079663000000010
 21
-151.762925000000000
  0
LINE
  8
0
  6
CONTINUOUS
 62
256
 10
51.153208999999997
 20
-131.762925000000000
 11
56.153208999999997
 21
-131.762925000000000
  0
LINE
  8
0
  6
CONTINUOUS
 62
256
 10
51.153208999999997
 20
-131.762925000000000
 11
56.153208999999997
 21
-131.762925000000000
  0
LINE
  8
0
  6
DASHDOT
 62
256
 10
7.154314000000000
 20
-201.762925000000000
 11
25.049665000000001
 21
-201.762925000000000
  0
LINE
  8
0
  6
DASHDOT
 62
256
 10
16.153209000000000
 20
-192.532442000000000
 11
16.153209000000000
 21
-210.514642000000010
  0
LINE
  8
0
  6
CONTINUOUS
 62
256
 10
51.153208999999997
 20
-199.262925000000000
 11
51.153208999999997
 21
-202.297378000000010
  0
LINE
  8
0
  6
CONTINUOUS
 62
256
 10
48.153208999999997
 20
-196.262925000000000
 11
43.153208999999997
 21
-196.262925000000000
  0
LINE
  8
0
  6
CONTINUOUS
 62
256
 10
49.153208999999997
 20
-193.192576000000000
 11
43.153208999999997
 21
-193.192576000000000
  0
LINE
  8
0
  6
CONTINUOUS
 62
256
 10
38.153208999999997
 20
-188.655091000000000
 11
38.153208999999997
 21
-191.262925000000000
  0
LINE
  8
0
  6
CONTINUOUS
 62
256
 10
41.153208999999997
 20
-185.655091000000000
 11
48.153208999999997
 21
-185.655091000000000
  0
LINE
  8
0
  6
CONTINUOUS
 62
256
 10
51.153208999999997
 20
-171.762925000000000
 11
56.153208999999997
 21
-171.762925000000000
  0
LINE
  8
0
  6
CONTINUOUS
 62
256
 10
51.153208999999997
 20
-151.762925000000000
 11
51.153208999999997
 21
-191.192576000000000
  0
ARC
  8
0
  6
CONTINUOUS
 62
256
 10
-0.728734000000000
 20
-199.762925000000000
 40
3.500000000000000
 50
270.000000000000000
 51
353.243672999999830
  0
ARC
  8
0
  6
CONTINUOUS
 62
256
 10
16.153209000000000
 20
-201.762925000000000
 40
13.499999999999989
 50
93.372287000000000
 51
173.243673000000000
  0
ARC
  8
0
  6
CONTINUOUS
 62
256
 10
15.153209000000000
 20
-184.792362000000000
 40
3.500000000000002
 50
273.372286999999970
 51
0.000000000000000
  0
ARC
  8
0
  6
CONTINUOUS
 62
256
 10
15.153209000000000
 20
-184.792362000000000
 40
5.999999999999992
 50
273.372286999999970
 51
0.000000000000000
  0
ARC
  8
0
  6
CONTINUOUS
 62
256
 10
16.153209000000000
 20
-201.762925000000000
 40
11.000000000000000
 50
93.372287000000000
 51
173.243673000000030
  0
ARC
  8
0
  6
CONTINUOUS
 62
256
 10
-0.728734000000000
 20
-199.762925000000000
 40
6.000000000000000
 50
270.000000000000000
 51
353.243673000000110
  0
ARC
  8
0
  6
CONTINUOUS
 62
256
 10
54.153208999999997
 20
-202.297378000000010
 40
3.000000000000000
 50
180.000000000000000
 51
271.000000000000000
  0
ARC
  8
0
  6
CONTINUOUS
 62
256
 10
21.153209000000000
 20
-205.762925000000000
 40
7.000000000000000
 50
270.000000000000000
 51
0.000000000000000
  0
ARC
  8
0
  6
CONTINUOUS
 62
256
 10
48.153208999999997
 20
-182.655091000000000
 40
3.000000000000000
 50
270.000000000000000
 51
0.000000000000000
  0
ARC
  8
0
  6
CONTINUOUS
 62
256
 10
48.153208999999997
 20
-199.262925000000000
 40
3.000000000000000
 50
0.000000000000000
 51
90.000000000000000
  0
ARC
  8
0
  6
CONTINUOUS
 62
256
 10
49.153208999999997
 20
-191.192576000000000
 40
2.000000000000000
 50
270.000000000000000
 51
0.000000000000000
  0
ARC
  8
0
  6
CONTINUOUS
 62
256
 10
43.153208999999997
 20
-188.192576000000000
 40
5.000000000000000
 50
180.000000000000000
 51
270.000000000000000
  0
ARC
  8
0
  6
CONTINUOUS
 62
256
 10
43.153208999999997
 20
-191.262925000000000
 40
5.000000000000000
 50
180.000000000000000
 51
270.000000000000000
  0
ARC
  8
0
  6
CONTINUOUS
 62
256
 10
21.153209000000000
 20
-205.762925000000000
 40
5.500000000000000
 50
270.000000000000000
 51
0.000000000000000
  0
ARC
  8
0
  6
CONTINUOUS
 62
256
 10
31.137353999999998
 20
-208.700035000000010
 40
3.000000000000011
 50
91.000000000000014
 51
183.226826000000240
  0
LINE
  8
0
  6
CONTINUOUS
 62
256
 10
31.084997000000001
 20
-205.700492000000000
 11
56.153208999999997
 21
-205.262925000000000
  0
LINE
  8
0
  6
CONTINUOUS
 62
256
 10
38.153208999999997
 20
-202.524294000000000
 11
38.153208999999997
 21
-151.762925000000000
  0
ARC
  8
0
  6
CONTINUOUS
 62
256
 10
41.153208999999997
 20
-202.524294000000000
 40
3.000000000000000
 50
180.000000000000000
 51
271.000000000000000
  0
ARC
  8
0
  6
CONTINUOUS
 62
256
 10
41.153208999999997
 20
-182.655091000000000
 40
3.000000000000000
 50
180.000000000000000
 51
270.000000000000000
  0
ARC
  8
0
  6
CONTINUOUS
 62
256
 10
41.153208999999997
 20
-182.655091000000000
 40
3.000000000000000
 50
180.000000000000000
 51
270.000000000000000
  0
ARC
  8
0
  6
CONTINUOUS
 62
256
 10
41.153208999999997
 20
-202.524294000000000
 40
3.000000000000000
 50
180.000000000000000
 51
271.000000000000000
  0
LINE
  8
0
  6
CONTINUOUS
 62
256
 10
38.153208999999997
 20
-202.524294000000000
 11
38.153208999999997
 21
-151.762925000000000
  0
ARC
  8
0
  6
CONTINUOUS
 62
256
 10
49.153208999999997
 20
-191.192576000000000
 40
2.000000000000000
 50
270.000000000000000
 51
0.000000000000000
  0
ARC
  8
0
  6
CONTINUOUS
 62
256
 10
48.153208999999997
 20
-199.262925000000000
 40
3.000000000000000
 50
0.000000000000000
 51
90.000000000000000
  0
ARC
  8
0
  6
CONTINUOUS
 62
256
 10
43.153208999999997
 20
-191.262925000000000
 40
5.000000000000000
 50
180.000000000000000
 51
270.000000000000000
  0
ARC
  8
0
  6
CONTINUOUS
 62
256
 10
43.153208999999997
 20
-188.192576000000000
 40
5.000000000000000
 50
180.000000000000000
 51
270.000000000000000
  0
ARC
  8
0
  6
CONTINUOUS
 62
256
 10
48.153208999999997
 20
-182.655091000000000
 40
3.000000000000000
 50
270.000000000000000
 51
0.000000000000000
  0
ARC
  8
0
  6
CONTINUOUS
 62
256
 10
54.153208999999997
 20
-202.297378000000010
 40
3.000000000000000
 50
180.000000000000000
 51
271.000000000000000
  0
LINE
  8
0
  6
CONTINUOUS
 62
256
 10
51.153208999999997
 20
-199.262925000000000
 11
51.153208999999997
 21
-202.297378000000010
  0
LINE
  8
0
  6
CONTINUOUS
 62
256
 10
49.153208999999997
 20
-193.192576000000000
 11
43.153208999999997
 21
-193.192576000000000
  0
LINE
  8
0
  6
CONTINUOUS
 62
256
 10
48.153208999999997
 20
-196.262925000000000
 11
43.153208999999997
 21
-196.262925000000000
  0
LINE
  8
0
  6
CONTINUOUS
 62
256
 10
51.153208999999997
 20
-151.762925000000000
 11
51.153208999999997
 21
-191.192576000000000
  0
LINE
  8
0
  6
CONTINUOUS
 62
256
 10
41.153208999999997
 20
-185.655091000000000
 11
48.153208999999997
 21
-185.655091000000000
  0
LINE
  8
0
  6
CONTINUOUS
 62
256
 10
38.153208999999997
 20
-188.655091000000000
 11
38.153208999999997
 21
-191.262925000000000
  0
LINE
  8
0
  6
CONTINUOUS
 62
256
 10
51.153208999999997
 20
-171.762925000000000
 11
56.153208999999997
 21
-171.762925000000000
  0
LINE
  8
0
  6
CONTINUOUS
 62
256
 10
-0.728734000000000
 20
-203.262925000000000
 11
-84.964848000000003
 21
-203.262925000000000
  0
LINE
  8
0
  6
CONTINUOUS
 62
256
 10
-0.728734000000000
 20
-205.762925000000000
 11
-84.964848000000003
 21
-205.762925000000000
  0
LINE
  8
0
  6
DASHDOT
 62
256
 10
-110.203199000000000
 20
-201.762925000000000
 11
-92.950334999999995
 21
-201.762925000000000
  0
LINE
  8
0
  6
DASHDOT
 62
256
 10
-101.846791000000000
 20
-192.911014999999990
 11
-101.846791000000000
 21
-210.470094999999990
  0
LINE
  8
0
  6
CONTINUOUS
 62
256
 10
-105.846791000000000
 20
-212.762925000000000
 11
21.153209000000000
 21
-212.762925000000000
  0
LINE
  8
0
  6
CONTINUOUS
 62
256
 10
-111.346791000000000
 20
-138.762925000000000
 11
-111.346791000000000
 21
-205.762925000000000
  0
LINE
  8
0
  6
CONTINUOUS
 62
256
 10
-59.846791000000003
 20
-211.262925000000000
 11
21.153209000000000
 21
-211.262925000000000
  0
LINE
  8
0
  6
CONTINUOUS
 62
256
 10
-105.846791000000000
 20
-211.262925000000000
 11
-59.846791000000003
 21
-211.262925000000000
  0
ARC
  8
0
  6
CONTINUOUS
 62
256
 10
-59.846791000000003
 20
-138.762925000000000
 40
41.499999999999993
 50
180.000000000000000
 51
270.000000000000000
  0
ARC
  8
0
  6
CONTINUOUS
 62
256
 10
-84.964848000000003
 20
-199.762925000000000
 40
3.499999999999996
 50
186.756327000000200
 51
270.000000000000000
  0
ARC
  8
0
  6
CONTINUOUS
 62
256
 10
-101.846791000000000
 20
-201.762925000000000
 40
13.500000000000005
 50
6.756327000000003
 51
86.627712999999972
  0
ARC
  8
0
  6
CONTINUOUS
 62
256
 10
-100.846791000000000
 20
-184.792362000000000
 40
3.500000000000000
 50
180.000000000000000
 51
266.627713000000030
  0
ARC
  8
0
  6
CONTINUOUS
 62
256
 10
-84.964848000000003
 20
-199.762925000000000
 40
5.999999999999996
 50
186.756326999999890
 51
270.000000000000000
  0
ARC
  8
0
  6
CONTINUOUS
 62
256
 10
-101.846791000000000
 20
-201.762925000000000
 40
11.000000000000002
 50
6.756326999999983
 51
86.627712999999986
  0
ARC
  8
0
  6
CONTINUOUS
 62
256
 10
-100.846791000000000
 20
-184.792362000000000
 40
6.000000000000000
 50
180.000000000000000
 51
266.627712999999970
  0
ARC
  8
0
  6
CONTINUOUS
 62
256
 10
-105.846791000000000
 20
-205.762925000000000
 40
7.000000000000000
 50
180.000000000000000
 51
270.000000000000000
  0
ARC
  8
0
  6
CONTINUOUS
 62
256
 10
-105.846791000000000
 20
-205.762925000000000
 40
5.500000000000000
 50
180.000000000000000
 51
270.000000000000000
  0
LINE
  8
0
  6
CONTINUOUS
 62
256
 10
18.653209000000000
 20
-184.792362000000000
 11
18.653209000000000
 21
-113.733487000000000
  0
LINE
  8
0
  6
CONTINUOUS
 62
256
 10
-104.346791000000000
 20
-113.733487000000000
 11
-104.346791000000000
 21
-184.792362000000000
  0
LINE
  8
0
  6
CONTINUOUS
 62
256
 10
-0.728734000000000
 20
-95.262924999999996
 11
-53.232413000000001
 21
-95.262924999999996
  0
LINE
  8
0
  6
CONTINUOUS
 62
256
 10
21.153209000000000
 20
-184.792362000000000
 11
21.153209000000000
 21
-113.733487000000000
  0
LINE
  8
0
  6
CONTINUOUS
 62
256
 10
-106.846791000000000
 20
-113.733487000000000
 11
-106.846791000000000
 21
-184.792362000000000
  0
LINE
  8
0
  6
CONTINUOUS
 62
256
 10
-0.728734000000000
 20
-92.762924999999996
 11
-84.964848000000003
 21
-92.762924999999996
  0
LINE
  8
0
  6
CONTINUOUS
 62
256
 10
-89.191722999999996
 20
-109.417993000000000
 11
-89.232774000000006
 21
-109.459044000000010
  0
LINE
  8
0
  6
DASHDOT
 62
256
 10
16.153209000000000
 20
-88.046397999999996
 11
16.153209000000000
 21
-105.470095000000000
  0
LINE
  8
0
  6
DASHDOT
 62
256
 10
7.722173000000000
 20
-96.762924999999996
 11
25.049665000000001
 21
-96.762924999999996
  0
LINE
  8
0
  6
DASHDOT
 62
256
 10
-110.392484999999990
 20
-96.762924999999996
 11
-92.950334999999995
 21
-96.762924999999996
  0
LINE
  8
0
  6
DASHDOT
 62
256
 10
-101.846791000000000
 20
-87.667824999999993
 11
-101.846791000000000
 21
-105.470095000000000
  0
LINE
  8
0
  6
CONTINUOUS
 62
256
 10
-112.846791000000000
 20
-92.762924999999996
 11
-112.846791000000000
 21
-205.762925000000000
  0
LINE
  8
0
  6
CONTINUOUS
 62
256
 10
21.153209000000000
 20
-85.762924999999996
 11
-105.846791000000000
 21
-85.762924999999996
  0
LINE
  8
0
  6
CONTINUOUS
 62
256
 10
38.153208999999997
 20
-114.870759000000010
 11
38.153208999999997
 21
-112.262925000000000
  0
LINE
  8
0
  6
CONTINUOUS
 62
256
 10
41.153208999999997
 20
-117.870759000000010
 11
48.153208999999997
 21
-117.870759000000010
  0
LINE
  8
0
  6
CONTINUOUS
 62
256
 10
51.153208999999997
 20
-151.762925000000000
 11
51.153208999999997
 21
-112.333273000000010
  0
LINE
  8
0
  6
CONTINUOUS
 62
256
 10
48.153208999999997
 20
-107.262925000000000
 11
43.153208999999997
 21
-107.262925000000000
  0
LINE
  8
0
  6
CONTINUOUS
 62
256
 10
49.153208999999997
 20
-110.333273000000010
 11
43.153208999999997
 21
-110.333273000000010
  0
LINE
  8
0
  6
CONTINUOUS
 62
256
 10
51.153208999999997
 20
-104.262925000000000
 11
51.153208999999997
 21
-101.228471000000000
  0
LINE
  8
0
  6
CONTINUOUS
 62
256
 10
26.653209000000000
 20
-205.762925000000000
 11
26.653209000000000
 21
-92.762924999999996
  0
LINE
  8
0
  6
CONTINUOUS
 62
256
 10
21.153209000000000
 20
-87.262924999999996
 11
-59.846791000000003
 21
-87.262924999999996
  0
LINE
  8
0
  6
CONTINUOUS
 62
256
 10
-59.846791000000003
 20
-87.262924999999996
 11
-105.846791000000000
 21
-87.262924999999996
  0
LINE
  8
0
  6
CONTINUOUS
 62
256
 10
-111.346791000000000
 20
-92.762924999999996
 11
-111.346791000000000
 21
-138.762925000000000
  0
ARC
  8
0
  6
CONTINUOUS
 62
256
 10
-59.846791000000003
 20
-138.762925000000000
 40
43.999999999999993
 50
180.000000000000000
 51
81.354135999999997
  0
ARC
  8
0
  6
CONTINUOUS
 62
256
 10
-100.846791000000000
 20
-113.733487000000000
 40
3.500000000000003
 50
93.372286999999972
 51
180.000000000000000
  0
ARC
  8
0
  6
CONTINUOUS
 62
256
 10
-101.846791000000000
 20
-96.762924999999996
 40
13.500000000000004
 50
273.372286999999970
 51
353.243673000000000
  0
ARC
  8
0
  6
CONTINUOUS
 62
256
 10
-84.964848000000003
 20
-98.762924999999996
 40
3.500000000000000
 50
90.000000000000000
 51
173.243673000000030
  0
ARC
  8
0
  6
CONTINUOUS
 62
256
 10
-0.728734000000000
 20
-98.762924999999996
 40
3.500000000000000
 50
6.756326999999962
 51
90.000000000000000
  0
ARC
  8
0
  6
CONTINUOUS
 62
256
 10
16.153209000000000
 20
-96.762924999999996
 40
13.500000000000002
 50
186.756327000000000
 51
266.627713000000030
  0
ARC
  8
0
  6
CONTINUOUS
 62
256
 10
15.153209000000000
 20
-113.733487000000000
 40
3.500000000000000
 50
0.000000000000000
 51
86.627712999999986
  0
ARC
  8
0
  6
CONTINUOUS
 62
256
 10
-100.846791000000000
 20
-113.733487000000000
 40
6.000000000000006
 50
93.372287000000000
 51
180.000000000000000
  0
ARC
  8
0
  6
CONTINUOUS
 62
256
 10
-101.846791000000000
 20
-96.762924999999996
 40
11.000000000000000
 50
273.372286999999970
 51
353.243673000000000
  0
ARC
  8
0
  6
CONTINUOUS
 62
256
 10
-84.964848000000003
 20
-98.762924999999996
 40
6.000000000000000
 50
90.000000000000000
 51
173.243672999999970
  0
ARC
  8
0
  6
CONTINUOUS
 62
256
 10
15.153209000000000
 20
-113.733487000000000
 40
6.000000000000000
 50
0.000000000000000
 51
86.627713000000000
  0
ARC
  8
0
  6
CONTINUOUS
 62
256
 10
16.153209000000000
 20
-96.762924999999996
 40
11.000000000000000
 50
186.756326999999970
 51
266.627713000000030
  0
ARC
  8
0
  6
CONTINUOUS
 62
256
 10
-0.728734000000000
 20
-98.762924999999996
 40
6.000000000000000
 50
6.756327000000021
 51
90.000000000000000
  0
ARC
  8
0
  6
CONTINUOUS
 62
256
 10
54.153208999999997
 20
-101.228471000000000
 40
2.999999999999997
 50
88.999999999999986
 51
180.000000000000000
  0
ARC
  8
0
  6
CONTINUOUS
 62
256
 10
21.153209000000000
 20
-92.762924999999996
 40
7.000000000000000
 50
0.000000000000000
 51
90.000000000000000
  0
CIRCLE
  8
0
  6
CONTINUOUS
 62
256
 10
-59.846791000000003
 20
-138.762925000000000
 40
25.000000000000000
  0
ARC
  8
0
  6
CONTINUOUS
 62
256
 10
-59.846791000000003
 20
-138.762925000000000
 40
37.500000000000000
 50
90.000000000000000
 51
180.000000000000000
  0
ARC
  8
0
  6
CONTINUOUS
 62
256
 10
-105.846791000000000
 20
-92.762924999999996
 40
7.000000000000000
 50
90.000000000000000
 51
180.000000000000000
  0
ARC
  8
0
  6
CONTINUOUS
 62
256
 10
48.153208999999997
 20
-120.870759000000010
 40
3.000000000000000
 50
0.000000000000000
 51
90.000000000000000
  0
ARC
  8
0
  6
CONTINUOUS
 62
256
 10
43.153208999999997
 20
-115.333273000000010
 40
5.000000000000000
 50
90.000000000000000
 51
180.000000000000000
  0
ARC
  8
0
  6
CONTINUOUS
 62
256
 10
43.153208999999997
 20
-112.262925000000000
 40
5.000000000000000
 50
90.000000000000000
 51
180.000000000000000
  0
ARC
  8
0
  6
CONTINUOUS
 62
256
 10
48.153208999999997
 20
-104.262925000000000
 40
3.000000000000000
 50
270.000000000000000
 51
0.000000000000000
  0
ARC
  8
0
  6
CONTINUOUS
 62
256
 10
49.153208999999997
 20
-112.333273000000010
 40
2.000000000000000
 50
0.000000000000000
 51
90.000000000000000
  0
ARC
  8
0
  6
CONTINUOUS
 62
256
 10
21.153209000000000
 20
-92.762924999999996
 40
5.500000000000000
 50
0.000000000000000
 51
90.000000000000000
  0
ARC
  8
0
  6
CONTINUOUS
 62
256
 10
-105.846791000000000
 20
-92.762924999999996
 40
5.500000000000000
 50
90.000000000000000
 51
180.000000000000000
  0
LINE
  8
0
  6
CONTINUOUS
 62
256
 10
28.153209000000000
 20
-205.762925000000000
 11
28.153209000000000
 21
-92.762924999999996
  0
ARC
  8
0
  6
CONTINUOUS
 62
256
 10
-59.846791000000003
 20
-138.762925000000000
 40
37.499999999999993
 50
180.000000000000000
 51
90.000000000000000
  0
LINE
  8
0
  6
CONTINUOUS
 62
256
 10
-66.461169999999996
 20
-95.262924999999996
 11
-84.964848000000003
 21
-95.262924999999996
  0
ARC
  8
0
  6
CONTINUOUS
 62
256
 10
-59.846791000000003
 20
-138.762925000000000
 40
43.999999999999993
 50
98.645864000000003
 51
180.000000000000000
  0
ARC
  8
0
  6
CONTINUOUS
 62
256
 10
31.049181999999998
 20
-94.824275000000000
 40
3.000000000000000
 50
188.271555999999890
 51
268.999999999999940
  0
LINE
  8
0
  6
CONTINUOUS
 62
256
 10
30.996825000000001
 20
-97.823818000000003
 11
56.153208999999997
 21
-98.262924999999996
  0
LINE
  8
0
  6
CONTINUOUS
 62
256
 10
38.153208999999997
 20
-101.001555999999990
 11
38.153208999999997
 21
-151.762925000000000
  0
ARC
  8
0
  6
CONTINUOUS
 62
256
 10
41.153208999999997
 20
-101.001555999999990
 40
2.999999999999997
 50
88.999999999999986
 51
180.000000000000000
  0
ARC
  8
0
  6
CONTINUOUS
 62
256
 10
41.153208999999997
 20
-120.870759000000010
 40
3.000000000000000
 50
90.000000000000000
 51
180.000000000000000
  0
ARC
  8
0
  6
CONTINUOUS
 62
256
 10
-59.846791000000003
 20
-138.762925000000000
 40
41.500000000000000
 50
270.000000000000000
 51
180.000000000000000
  0
ARC
  8
0
  6
CONTINUOUS
 62
256
 10
41.153208999999997
 20
-120.870759000000010
 40
3.000000000000000
 50
90.000000000000000
 51
180.000000000000000
  0
ARC
  8
0
  6
CONTINUOUS
 62
256
 10
41.153208999999997
 20
-101.001555999999990
 40
2.999999999999997
 50
88.999999999999986
 51
180.000000000000000
  0
LINE
  8
0
  6
CONTINUOUS
 62
256
 10
38.153208999999997
 20
-101.001555999999990
 11
38.153208999999997
 21
-151.762925000000000
  0
ARC
  8
0
  6
CONTINUOUS
 62
256
 10
43.153208999999997
 20
-112.262925000000000
 40
5.000000000000000
 50
90.000000000000000
 51
180.000000000000000
  0
ARC
  8
0
  6
CONTINUOUS
 62
256
 10
43.153208999999997
 20
-115.333273000000010
 40
5.000000000000000
 50
90.000000000000000
 51
180.000000000000000
  0
ARC
  8
0
  6
CONTINUOUS
 62
256
 10
49.153208999999997
 20
-112.333273000000010
 40
2.000000000000000
 50
0.000000000000000
 51
90.000000000000000
  0
ARC
  8
0
  6
CONTINUOUS
 62
256
 10
48.153208999999997
 20
-104.262925000000000
 40
3.000000000000000
 50
270.000000000000000
 51
0.000000000000000
  0
ARC
  8
0
  6
CONTINUOUS
 62
256
 10
48.153208999999997
 20
-120.870759000000010
 40
3.000000000000000
 50
0.000000000000000
 51
90.000000000000000
  0
ARC
  8
0
  6
CONTINUOUS
 62
256
 10
54.153208999999997
 20
-101.228471000000000
 40
2.999999999999997
 50
88.999999999999986
 51
180.000000000000000
  0
LINE
  8
0
  6
CONTINUOUS
 62
256
 10
51.153208999999997
 20
-151.762925000000000
 11
51.153208999999997
 21
-112.333273000000010
  0
LINE
  8
0
  6
CONTINUOUS
 62
256
 10
41.153208999999997
 20
-117.870759000000010
 11
48.153208999999997
 21
-117.870759000000010
  0
LINE
  8
0
  6
CONTINUOUS
 62
256
 10
38.153208999999997
 20
-114.870759000000010
 11
38.153208999999997
 21
-112.262925000000000
  0
LINE
  8
0
  6
CONTINUOUS
 62
256
 10
49.153208999999997
 20
-110.333273000000010
 11
43.153208999999997
 21
-110.333273000000010
  0
LINE
  8
0
  6
CONTINUOUS
 62
256
 10
48.153208999999997
 20
-107.262925000000000
 11
43.153208999999997
 21
-107.262925000000000
  0
LINE
  8
0
  6
CONTINUOUS
 62
256
 10
51.153208999999997
 20
-104.262925000000000
 11
51.153208999999997
 21
-101.228471000000000
  0
LINE
  8
0
  6
DASHDOT
 62
256
 10
-117.148223000000000
 20
-138.762925000000000
 11
-10.330413999999999
 21
-138.762925000000000
  0
LINE
  8
0
  6
DASHDOT
 62
256
 10
-59.846791000000003
 20
-88.343271999999999
 11
-59.846791000000003
 21
-191.651305000000010
  0
CIRCLE
  8
0
  6
CONTINUOUS
 62
256
 10
-59.846791000000003
 20
-138.762925000000000
 40
3.500000000000000
  0
CIRCLE
  8
0
  6
CONTINUOUS
 62
256
 10
-59.846791000000003
 20
-138.762925000000000
 40
4.000000000000000
  0
ARC
  8
0
  6
CONTINUOUS
 62
256
 10
-59.846791000000003
 20
-138.762925000000000
 40
10.999999999999989
 50
105.826620000000020
 51
74.173379999999995
  0
LINE
  8
0
  6
CONTINUOUS
 62
256
 10
-62.846791000000003
 20
-125.262925000000000
 11
-62.846791000000003
 21
-131.262925000000000
  0
LINE
  8
0
  6
CONTINUOUS
 62
256
 10
-62.846791000000003
 20
-125.262925000000000
 11
-56.846791000000003
 21
-125.262925000000000
  0
LINE
  8
0
  6
CONTINUOUS
 62
256
 10
-62.846791000000003
 20
-131.262925000000000
 11
-56.846791000000003
 21
-131.262925000000000
  0
LINE
  8
0
  6
CONTINUOUS
 62
256
 10
-56.846791000000003
 20
-125.262925000000000
 11
-56.846791000000003
 21
-131.262925000000000
  0
ARC
  8
0
  6
CONTINUOUS
 62
256
 10
217.658053999999990
 20
-113.362925000000000
 40
20.600000000000001
 50
55.000000000000028
 51
90.000000000000000
  0
ARC
  8
0
  6
CONTINUOUS
 62
256
 10
235.553209000000010
 20
-103.919304000000000
 40
2.599999999999994
 50
0.000000000000000
 51
54.999999999999979
  0
LINE
  8
0
  6
CONTINUOUS
 62
256
 10
229.473727999999990
 20
-96.488392000000005
 11
237.044507000000010
 21
-101.789509000000000
  0
LINE
  8
0
  6
CONTINUOUS
 62
256
 10
238.153209000000000
 20
-103.919304000000000
 11
238.153209000000000
 21
-151.762925000000000
  0
LINE
  8
0
  6
CONTINUOUS
 62
256
 10
140.153209000000000
 20
-110.721011000000000
 11
56.153208999999997
 21
-110.721011000000000
  0
LINE
  8
0
  6
CONTINUOUS
 62
256
 10
140.153209000000000
 20
-105.629842000000000
 11
56.153208999999997
 21
-105.629842000000000
  0
LINE
  8
0
  6
CONTINUOUS
 62
256
 10
140.153209000000000
 20
-101.262925000000000
 11
56.153208999999997
 21
-101.262925000000000
  0
LINE
  8
0
  6
CONTINUOUS
 62
256
 10
140.153209000000000
 20
-100.762925000000000
 11
56.153208999999997
 21
-100.762925000000000
  0
LINE
  8
0
  6
CONTINUOUS
 62
256
 10
56.153208999999997
 20
-98.262924999999996
 11
57.953209000000001
 21
-98.262924999999996
  0
LINE
  8
0
  6
CONTINUOUS
 62
256
 10
57.953209000000001
 20
-99.262924999999996
 11
57.953209000000001
 21
-61.262925000000003
  0
ARC
  8
0
  6
CONTINUOUS
 62
256
 10
58.953209000000001
 20
-61.262925000000003
 40
1.000000000000000
 50
90.000000000000000
 51
180.000000000000000
  0
LINE
  8
0
  6
CONTINUOUS
 62
256
 10
146.953208999999990
 20
-60.262925000000003
 11
58.953209000000001
 21
-60.262925000000003
  0
ARC
  8
0
  6
CONTINUOUS
 62
256
 10
146.953208999999990
 20
-61.262925000000003
 40
1.000000000000000
 50
0.000000000000000
 51
90.000000000000000
  0
LINE
  8
0
  6
CONTINUOUS
 62
256
 10
140.953208999999990
 20
-59.762925000000003
 11
132.953208999999990
 21
-59.762925000000003
  0
LINE
  8
0
  6
CONTINUOUS
 62
256
 10
72.953209000000001
 20
-59.762925000000003
 11
64.953209000000001
 21
-59.762925000000003
  0
LINE
  8
0
  6
CONTINUOUS
 62
256
 10
72.953209000000001
 20
-60.262925000000003
 11
72.953209000000001
 21
-59.762925000000003
  0
LINE
  8
0
  6
CONTINUOUS
 62
256
 10
64.953209000000001
 20
-60.262925000000003
 11
64.953209000000001
 21
-59.762925000000003
  0
LINE
  8
0
  6
CONTINUOUS
 62
256
 10
132.953208999999990
 20
-60.262925000000003
 11
132.953208999999990
 21
-59.762925000000003
  0
LINE
  8
0
  6
CONTINUOUS
 62
256
 10
140.953208999999990
 20
-60.262925000000003
 11
140.953208999999990
 21
-59.762925000000003
  0
LINE
  8
0
  6
CONTINUOUS
 62
256
 10
57.953209000000001
 20
-99.262924999999996
 11
140.153209000000000
 21
-99.262924999999996
  0
POLYLINE
  8
0
  6
CONTINUOUS
 62
256
 66
1
 70
1
  0
VERTEX
  8
0
  6
CONTINUOUS
 62
256
 10
155.853208999999990
 20
-104.435593999999990
  0
VERTEX
  8
0
  6
CONTINUOUS
 62
256
 10
155.762899817895170
 20
-103.732637489441830
  0
VERTEX
  8
0
  6
CONTINUOUS
 62
256
 10
155.495442802803040
 20
-103.056695203361850
  0
VERTEX
  8
0
  6
CONTINUOUS
 62
256
 10
155.061116177821960
 20
-102.433743224741330
  0
VERTEX
  8
0
  6
CONTINUOUS
 62
256
 10
154.476610871576780
 20
-101.887721248763140
  0
VERTEX
  8
0
  6
CONTINUOUS
 62
256
 10
153.764389095192120
 20
-101.439612593751510
  0
VERTEX
  8
0
  6
CONTINUOUS
 62
256
 10
152.951821132115920
 20
-101.106637824016250
  0
VERTEX
  8
0
  6
CONTINUOUS
 62
256
 10
152.070133513475810
 20
-100.901592973223930
  0
VERTEX
  8
0
  6
CONTINUOUS
 62
256
 10
151.153209000000000
 20
-100.832357800000000
  0
VERTEX
  8
0
  6
CONTINUOUS
 62
256
 10
150.236284486524200
 20
-100.901592973223930
  0
VERTEX
  8
0
  6
CONTINUOUS
 62
256
 10
149.354596867884080
 20
-101.106637824016250
  0
VERTEX
  8
0
  6
CONTINUOUS
 62
256
 10
148.542028904807890
 20
-101.439612593751510
  0
VERTEX
  8
0
  6
CONTINUOUS
 62
256
 10
147.829807128423230
 20
-101.887721248763140
  0
VERTEX
  8
0
  6
CONTINUOUS
 62
256
 10
147.245301822178050
 20
-102.433743224741330
  0
VERTEX
  8
0
  6
CONTINUOUS
 62
256
 10
146.810975197196970
 20
-103.056695203361850
  0
VERTEX
  8
0
  6
CONTINUOUS
 62
256
 10
146.543518182104830
 20
-103.732637489441830
  0
VERTEX
  8
0
  6
CONTINUOUS
 62
256
 10
146.453209000000020
 20
-104.435593999999990
  0
VERTEX
  8
0
  6
CONTINUOUS
 62
256
 10
146.543518182104830
 20
-105.138550510558160
  0
VERTEX
  8
0
  6
CONTINUOUS
 62
256
 10
146.810975197196970
 20
-105.814492796638130
  0
VERTEX
  8
0
  6
CONTINUOUS
 62
256
 10
147.245301822178050
 20
-106.437444775258650
  0
VERTEX
  8
0
  6
CONTINUOUS
 62
256
 10
147.829807128423230
 20
-106.983466751236830
  0
VERTEX
  8
0
  6
CONTINUOUS
 62
256
 10
148.542028904807890
 20
-107.431575406248480
  0
VERTEX
  8
0
  6
CONTINUOUS
 62
256
 10
149.354596867884080
 20
-107.764550175983740
  0
VERTEX
  8
0
  6
CONTINUOUS
 62
256
 10
150.236284486524200
 20
-107.969595026776060
  0
VERTEX
  8
0
  6
CONTINUOUS
 62
256
 10
151.153209000000000
 20
-108.038830199999990
  0
VERTEX
  8
0
  6
CONTINUOUS
 62
256
 10
152.070133513475810
 20
-107.969595026776060
  0
VERTEX
  8
0
  6
CONTINUOUS
 62
256
 10
152.951821132115920
 20
-107.764550175983740
  0
VERTEX
  8
0
  6
CONTINUOUS
 62
256
 10
153.764389095192120
 20
-107.431575406248480
  0
VERTEX
  8
0
  6
CONTINUOUS
 62
256
 10
154.476610871576750
 20
-106.983466751236850
  0
VERTEX
  8
0
  6
CONTINUOUS
 62
256
 10
155.061116177821960
 20
-106.437444775258650
  0
VERTEX
  8
0
  6
CONTINUOUS
 62
256
 10
155.495442802803040
 20
-105.814492796638130
  0
VERTEX
  8
0
  6
CONTINUOUS
 62
256
 10
155.762899817895170
 20
-105.138550510558160
  0
SEQEND
  8
0
  6
CONTINUOUS
 62
256
  0
LINE
  8
0
  6
CONTINUOUS
 62
256
 10
153.153209000000000
 20
-101.443218000000000
 11
151.153209000000000
 21
-102.619004000000000
  0
LINE
  8
0
  6
CONTINUOUS
 62
256
 10
151.153209000000000
 20
-102.619004000000000
 11
149.153209000000000
 21
-104.271645000000010
  0
LINE
  8
0
  6
CONTINUOUS
 62
256
 10
149.153209000000000
 20
-101.443218000000000
 11
151.153209000000000
 21
-102.619004000000000
  0
LINE
  8
0
  6
CONTINUOUS
 62
256
 10
151.153209000000000
 20
-102.619004000000000
 11
153.153209000000000
 21
-104.271645000000010
  0
LINE
  8
0
  6
CONTINUOUS
 62
256
 10
140.153209000000000
 20
-100.423227999999990
 11
140.153209000000000
 21
-151.762925000000000
  0
ARC
  8
0
  6
CONTINUOUS
 62
256
 10
143.153209000000000
 20
-100.423227999999990
 40
3.000000000000000
 50
90.000000000000000
 51
180.000000000000000
  0
LINE
  8
0
  6
CONTINUOUS
 62
256
 10
147.153209000000000
 20
-97.423227999999995
 11
143.153209000000000
 21
-97.423227999999995
  0
ARC
  8
0
  6
CONTINUOUS
 62
256
 10
147.153209000000000
 20
-94.423227999999995
 40
3.000000000000000
 50
270.000000000000000
 51
0.000000000000000
  0
LINE
  8
0
  6
CONTINUOUS
 62
256
 10
150.153209000000000
 20
-92.762924999999996
 11
217.658053999999990
 21
-92.762924999999996
  0
LINE
  8
0
  6
CONTINUOUS
 62
256
 10
150.153209000000000
 20
-92.762924999999996
 11
150.153209000000000
 21
-94.423227999999995
  0
LINE
  8
0
  6
CONTINUOUS
 62
256
 10
147.953208999999990
 20
-97.314594999999997
 11
147.953208999999990
 21
-61.262925000000003
  0
LINE
  8
0
  6
CONTINUOUS
 62
256
 10
147.953208999999990
 20
-94.262924999999996
 11
57.953209000000001
 21
-94.262924999999996
  0
POLYLINE
  8
0
  6
CONTINUOUS
 62
256
 66
1
 70
1
  0
VERTEX
  8
0
  6
CONTINUOUS
 62
256
 10
155.853208999999990
 20
-199.090256000000010
  0
VERTEX
  8
0
  6
CONTINUOUS
 62
256
 10
155.762899817895170
 20
-198.387299489441830
  0
VERTEX
  8
0
  6
CONTINUOUS
 62
256
 10
155.495442802803040
 20
-197.711357203361870
  0
VERTEX
  8
0
  6
CONTINUOUS
 62
256
 10
155.061116177821960
 20
-197.088405224741340
  0
VERTEX
  8
0
  6
CONTINUOUS
 62
256
 10
154.476610871576780
 20
-196.542383248763170
  0
VERTEX
  8
0
  6
CONTINUOUS
 62
256
 10
153.764389095192120
 20
-196.094274593751520
  0
VERTEX
  8
0
  6
CONTINUOUS
 62
256
 10
152.951821132115920
 20
-195.761299824016280
  0
VERTEX
  8
0
  6
CONTINUOUS
 62
256
 10
152.070133513475810
 20
-195.556254973223930
  0
VERTEX
  8
0
  6
CONTINUOUS
 62
256
 10
151.153209000000000
 20
-195.487019800000010
  0
VERTEX
  8
0
  6
CONTINUOUS
 62
256
 10
150.236284486524200
 20
-195.556254973223930
  0
VERTEX
  8
0
  6
CONTINUOUS
 62
256
 10
149.354596867884080
 20
-195.761299824016280
  0
VERTEX
  8
0
  6
CONTINUOUS
 62
256
 10
148.542028904807890
 20
-196.094274593751520
  0
VERTEX
  8
0
  6
CONTINUOUS
 62
256
 10
147.829807128423230
 20
-196.542383248763170
  0
VERTEX
  8
0
  6
CONTINUOUS
 62
256
 10
147.245301822178050
 20
-197.088405224741340
  0
VERTEX
  8
0
  6
CONTINUOUS
 62
256
 10
146.810975197196970
 20
-197.711357203361870
  0
VERTEX
  8
0
  6
CONTINUOUS
 62
256
 10
146.543518182104830
 20
-198.387299489441830
  0
VERTEX
  8
0
  6
CONTINUOUS
 62
256
 10
146.453209000000020
 20
-199.090256000000010
  0
VERTEX
  8
0
  6
CONTINUOUS
 62
256
 10
146.543518182104830
 20
-199.793212510558190
  0
VERTEX
  8
0
  6
CONTINUOUS
 62
256
 10
146.810975197196970
 20
-200.469154796638150
  0
VERTEX
  8
0
  6
CONTINUOUS
 62
256
 10
147.245301822178050
 20
-201.092106775258690
  0
VERTEX
  8
0
  6
CONTINUOUS
 62
256
 10
147.829807128423230
 20
-201.638128751236850
  0
VERTEX
  8
0
  6
CONTINUOUS
 62
256
 10
148.542028904807890
 20
-202.086237406248500
  0
VERTEX
  8
0
  6
CONTINUOUS
 62
256
 10
149.354596867884080
 20
-202.419212175983740
  0
VERTEX
  8
0
  6
CONTINUOUS
 62
256
 10
150.236284486524200
 20
-202.624257026776060
  0
VERTEX
  8
0
  6
CONTINUOUS
 62
256
 10
151.153209000000000
 20
-202.693492200000010
  0
VERTEX
  8
0
  6
CONTINUOUS
 62
256
 10
152.070133513475810
 20
-202.624257026776060
  0
VERTEX
  8
0
  6
CONTINUOUS
 62
256
 10
152.951821132115920
 20
-202.419212175983740
  0
VERTEX
  8
0
  6
CONTINUOUS
 62
256
 10
153.764389095192120
 20
-202.086237406248500
  0
VERTEX
  8
0
  6
CONTINUOUS
 62
256
 10
154.476610871576750
 20
-201.638128751236850
  0
VERTEX
  8
0
  6
CONTINUOUS
 62
256
 10
155.061116177821960
 20
-201.092106775258690
  0
VERTEX
  8
0
  6
CONTINUOUS
 62
256
 10
155.495442802803040
 20
-200.469154796638150
  0
VERTEX
  8
0
  6
CONTINUOUS
 62
256
 10
155.762899817895170
 20
-199.793212510558190
  0
SEQEND
  8
0
  6
CONTINUOUS
 62
256
  0
LINE
  8
0
  6
CONTINUOUS
 62
256
 10
153.153209000000000
 20
-202.082630999999990
 11
151.153209000000000
 21
-200.906846000000000
  0
LINE
  8
0
  6
CONTINUOUS
 62
256
 10
151.153209000000000
 20
-200.906846000000000
 11
149.153209000000000
 21
-199.254203999999990
  0
LINE
  8
0
  6
CONTINUOUS
 62
256
 10
149.153209000000000
 20
-202.082630999999990
 11
151.153209000000000
 21
-200.906846000000000
  0
LINE
  8
0
  6
CONTINUOUS
 62
256
 10
151.153209000000000
 20
-200.906846000000000
 11
153.153209000000000
 21
-199.254203999999990
  0
LINE
  8
0
  6
CONTINUOUS
 62
256
 10
140.153209000000000
 20
-210.762925000000000
 11
140.153209000000000
 21
-151.762925000000000
  0
ARC
  8
0
  6
CONTINUOUS
 62
256
 10
217.658053999999990
 20
-190.162925000000000
 40
20.599999999999994
 50
270.000000000000000
 51
305.000000000000000
  0
ARC
  8
0
  6
CONTINUOUS
 62
256
 10
235.553209000000010
 20
-199.606545000000010
 40
2.599999999999996
 50
305.000000000000230
 51
0.000000000000000
  0
LINE
  8
0
  6
CONTINUOUS
 62
256
 10
238.153209000000000
 20
-199.606545000000010
 11
238.153209000000000
 21
-151.762925000000000
  0
LINE
  8
0
  6
CONTINUOUS
 62
256
 10
229.473727999999990
 20
-207.037456999999990
 11
237.044507000000010
 21
-201.736340000000010
  0
LINE
  8
0
  6
CONTINUOUS
 62
256
 10
140.153209000000000
 20
-210.762925000000000
 11
217.658053999999990
 21
-210.762925000000000
  0
LINE
  8
0
  6
CONTINUOUS
 62
256
 10
56.153208999999997
 20
-98.262924999999996
 11
56.153208999999997
 21
-151.762925000000000
  0
LINE
  8
0
  6
CONTINUOUS
 62
256
 10
140.153209000000000
 20
-137.762925000000000
 11
56.153208999999997
 21
-137.762925000000000
  0
LINE
  8
0
  6
CONTINUOUS
 62
256
 10
140.153209000000000
 20
-133.376810000000010
 11
56.153208999999997
 21
-133.376810000000010
  0
LINE
  8
0
  6
CONTINUOUS
 62
256
 10
140.153209000000000
 20
-132.134890000000010
 11
56.153208999999997
 21
-132.134890000000010
  0
LINE
  8
0
  6
CONTINUOUS
 62
256
 10
140.153209000000000
 20
-128.924685000000010
 11
56.153208999999997
 21
-128.924685000000010
  0
LINE
  8
0
  6
CONTINUOUS
 62
256
 10
140.153209000000000
 20
-127.578283000000000
 11
56.153208999999997
 21
-127.578283000000000
  0
LINE
  8
0
  6
CONTINUOUS
 62
256
 10
140.153209000000000
 20
-124.485552000000000
 11
56.153208999999997
 21
-124.485552000000000
  0
LINE
  8
0
  6
CONTINUOUS
 62
256
 10
140.153209000000000
 20
-123.006529000000000
 11
56.153208999999997
 21
-123.006529000000000
  0
LINE
  8
0
  6
CONTINUOUS
 62
256
 10
140.153209000000000
 20
-120.048533000000010
 11
56.153208999999997
 21
-120.048533000000010
  0
LINE
  8
0
  6
CONTINUOUS
 62
256
 10
140.153209000000000
 20
-118.459324000000000
 11
56.153208999999997
 21
-118.459324000000000
  0
LINE
  8
0
  6
CONTINUOUS
 62
256
 10
56.153208999999997
 20
-205.262925000000000
 11
56.153208999999997
 21
-151.762925000000000
  0
LINE
  8
0
  6
CONTINUOUS
 62
256
 10
140.153209000000000
 20
-202.762925000000000
 11
56.153208999999997
 21
-202.762925000000000
  0
LINE
  8
0
  6
CONTINUOUS
 62
256
 10
140.153209000000000
 20
-202.262925000000000
 11
56.153208999999997
 21
-202.262925000000000
  0
LINE
  8
0
  6
CONTINUOUS
 62
256
 10
140.153209000000000
 20
-197.896007000000000
 11
56.153208999999997
 21
-197.896007000000000
  0
LINE
  8
0
  6
CONTINUOUS
 62
256
 10
140.153209000000000
 20
-192.804837999999990
 11
56.153208999999997
 21
-192.804837999999990
  0
LINE
  8
0
  6
CONTINUOUS
 62
256
 10
140.153209000000000
 20
-185.066526000000010
 11
56.153208999999997
 21
-185.066526000000010
  0
LINE
  8
0
  6
CONTINUOUS
 62
256
 10
140.153209000000000
 20
-183.477316000000000
 11
56.153208999999997
 21
-183.477316000000000
  0
LINE
  8
0
  6
CONTINUOUS
 62
256
 10
140.153209000000000
 20
-180.519319999999990
 11
56.153208999999997
 21
-180.519319999999990
  0
LINE
  8
0
  6
CONTINUOUS
 62
256
 10
140.153209000000000
 20
-179.040297000000010
 11
56.153208999999997
 21
-179.040297000000010
  0
LINE
  8
0
  6
CONTINUOUS
 62
256
 10
140.153209000000000
 20
-175.947565999999990
 11
56.153208999999997
 21
-175.947565999999990
  0
LINE
  8
0
  6
CONTINUOUS
 62
256
 10
140.153209000000000
 20
-174.601164000000010
 11
56.153208999999997
 21
-174.601164000000010
  0
LINE
  8
0
  6
CONTINUOUS
 62
256
 10
140.153209000000000
 20
-170.149038999999990
 11
56.153208999999997
 21
-170.149038999999990
  0
LINE
  8
0
  6
CONTINUOUS
 62
256
 10
140.153209000000000
 20
-171.390959000000010
 11
56.153208999999997
 21
-171.390959000000010
  0
LINE
  8
0
  6
CONTINUOUS
 62
256
 10
140.153209000000000
 20
-165.762925000000000
 11
56.153208999999997
 21
-165.762925000000000
  0
LINE
  8
0
  6
CONTINUOUS
 62
256
 10
56.153208999999997
 20
-205.262925000000000
 11
140.153209000000000
 21
-205.262925000000000
  0
LINE
  8
0
  6
DASHDOT
 62
256
 10
-363.015828000000000
 20
-151.762925000000000
 11
-378.516390000000000
 21
-151.762925000000000
  0
ARC
  8
0
  6
CONTINUOUS
 62
256
 10
-423.923898000000010
 20
-171.262925000000000
 40
0.500000000000000
 50
180.000000000000000
 51
270.000000000000000
  0
ARC
  8
0
  6
CONTINUOUS
 62
256
 10
-423.923898000000010
 20
-132.262925000000000
 40
0.500000000000000
 50
90.000000000000000
 51
180.000000000000000
  0
ARC
  8
0
  6
CONTINUOUS
 62
256
 10
-423.923898000000010
 20
-131.262925000000000
 40
0.500000000000000
 50
270.000000000000000
 51
0.000000000000000
  0
ARC
  8
0
  6
CONTINUOUS
 62
256
 10
-423.923898000000010
 20
-172.262925000000000
 40
0.500000000000000
 50
0.000000000000000
 51
90.000000000000000
  0
ARC
  8
0
  6
CONTINUOUS
 62
256
 10
-317.923898000000010
 20
-171.262925000000000
 40
0.500000000000000
 50
270.000000000000000
 51
0.000000000000000
  0
ARC
  8
0
  6
CONTINUOUS
 62
256
 10
-317.923898000000010
 20
-172.262925000000000
 40
0.500000000000000
 50
90.000000000000000
 51
180.000000000000000
  0
ARC
  8
0
  6
CONTINUOUS
 62
256
 10
-415.956253000000000
 20
-192.552639000000000
 40
3.000000000000004
 50
135.000000000000370
 51
217.162520000000170
  0
ARC
  8
0
  6
CONTINUOUS
 62
256
 10
-414.015617000000020
 20
-194.783823000000010
 40
3.000000000000027
 50
224.869578999999760
 51
262.178139999999590
  0
ARC
  8
0
  6
CONTINUOUS
 62
256
 10
-327.832178000000000
 20
-194.783823000000010
 40
2.999999999999995
 50
277.821860000000410
 51
315.130421000000180
  0
ARC
  8
0
  6
CONTINUOUS
 62
256
 10
-325.891542000000020
 20
-192.552639000000000
 40
2.999999999999989
 50
322.837479999999800
 51
44.999999999999616
  0
ARC
  8
0
  6
CONTINUOUS
 62
256
 10
-325.891542000000020
 20
-110.973209999999990
 40
2.999999999999977
 50
325.340699999999860
 51
34.659300000000187
  0
ARC
  8
0
  6
CONTINUOUS
 62
256
 10
-23.423898000000001
 20
-131.762925000000000
 40
400.000000000000000
 50
178.568016000000000
 51
179.928470000000000
  0
ARC
  8
0
  6
CONTINUOUS
 62
256
 10
-398.423898000000010
 20
-124.262925000000000
 40
25.000000000000011
 50
143.130101999999990
 51
174.269825000000000
  0
ARC
  8
0
  6
CONTINUOUS
 62
256
 10
-23.423898000000001
 20
-171.762925000000000
 40
400.000000000000000
 50
180.071529999999970
 51
180.859540999999980
  0
ARC
  8
0
  6
CONTINUOUS
 62
256
 10
-398.423898000000010
 20
-179.262925000000000
 40
25.000000000000007
 50
176.561350000000030
 51
230.208180999999880
  0
ARC
  8
0
  6
CONTINUOUS
 62
256
 10
-718.423898000000010
 20
-171.762925000000000
 40
400.000000000000000
 50
358.568016000000060
 51
359.928470000000000
  0
ARC
  8
0
  6
CONTINUOUS
 62
256
 10
-343.423898000000010
 20
-179.262925000000000
 40
24.999999999999986
 50
309.791818999999920
 51
354.269824999999970
  0
ARC
  8
0
  6
CONTINUOUS
 62
256
 10
-718.423898000000010
 20
-131.762925000000000
 40
400.000000000000060
 50
0.572967000000000
 51
1.431984000000000
  0
ARC
  8
0
  6
CONTINUOUS
 62
256
 10
-343.423898000000010
 20
-124.262925000000000
 40
24.999999999999979
 50
5.730175000000014
 51
36.869897999999978
  0
LINE
  8
0
  6
CONTINUOUS
 62
256
 10
-424.423898000000010
 20
-132.262925000000000
 11
-424.423898000000010
 21
-171.262925000000000
  0
LINE
  8
0
  6
CONTINUOUS
 62
256
 10
-317.423898000000010
 20
-171.262925000000000
 11
-317.423898000000010
 21
-149.762925000000000
  0
LINE
  8
0
  6
CONTINUOUS
 62
256
 10
-414.423898000000010
 20
-186.777643000000010
 11
-418.077572999999970
 21
-190.431319000000000
  0
LINE
  8
0
  6
CONTINUOUS
 62
256
 10
-327.423898000000010
 20
-186.777643000000010
 11
-323.770221999999990
 21
-190.431319000000000
  0
ARC
  8
0
  6
CONTINUOUS
 62
256
 10
-415.956253000000000
 20
-110.973209999999990
 40
2.999999999999977
 50
145.340699999999830
 51
214.659300000000170
  0
LINE
  8
0
  6
CONTINUOUS
 62
256
 10
-418.423898000000010
 20
-101.262925000000000
 11
-418.423898000000010
 21
-176.262925000000000
  0
LINE
  8
0
  6
CONTINUOUS
 62
256
 10
-418.423898000000010
 20
-101.262925000000000
 11
-414.423898000000010
 21
-101.262925000000000
  0
LINE
  8
0
  6
CONTINUOUS
 62
256
 10
-414.423898000000010
 20
-85.954930000000004
 11
-414.423898000000010
 21
-212.570919000000000
  0
LINE
  8
0
  6
CONTINUOUS
 62
256
 10
-418.423898000000010
 20
-176.262925000000000
 11
-414.423898000000010
 21
-176.262925000000000
  0
LINE
  8
0
  6
CONTINUOUS
 62
256
 10
-327.423898000000010
 20
-101.271652000000000
 11
-323.423898000000010
 21
-101.271652000000000
  0
LINE
  8
0
  6
CONTINUOUS
 62
256
 10
-323.423898000000010
 20
-101.271652000000000
 11
-323.423898000000010
 21
-176.254197000000000
  0
LINE
  8
0
  6
CONTINUOUS
 62
256
 10
-336.923898000000010
 20
-86.932413999999994
 11
-327.423898000000010
 21
-86.932413999999994
  0
LINE
  8
0
  6
CONTINUOUS
 62
256
 10
-327.423898000000010
 20
-198.044565000000010
 11
-327.423898000000010
 21
-86.932413999999994
  0
LINE
  8
0
  6
CONTINUOUS
 62
256
 10
-403.923898000000010
 20
-85.754197000000005
 11
-403.923898000000010
 21
-90.262924999999996
  0
LINE
  8
0
  6
CONTINUOUS
 62
256
 10
-403.923898000000010
 20
-203.650420999999990
 11
-403.923898000000010
 21
-89.254197000000005
  0
LINE
  8
0
  6
CONTINUOUS
 62
256
 10
-403.923898000000010
 20
-85.762924999999996
 11
-336.923898000000010
 21
-86.932413999999994
  0
LINE
  8
0
  6
CONTINUOUS
 62
256
 10
-403.923898000000010
 20
-85.771652000000003
 11
-414.423898000000010
 21
-85.954930000000004
  0
LINE
  8
0
  6
CONTINUOUS
 62
256
 10
-327.423898000000010
 20
-176.254197000000000
 11
-323.423898000000010
 21
-176.254197000000000
  0
LINE
  8
0
  6
CONTINUOUS
 62
256
 10
-336.923898000000010
 20
-211.610890000000010
 11
-327.423898000000010
 21
-211.610890000000010
  0
LINE
  8
0
  6
CONTINUOUS
 62
256
 10
-327.423898000000010
 20
-211.610890000000010
 11
-327.423898000000010
 21
-198.044565000000010
  0
LINE
  8
0
  6
CONTINUOUS
 62
256
 10
-403.923898000000010
 20
-212.780380000000010
 11
-336.923898000000010
 21
-211.610890000000010
  0
LINE
  8
0
  6
CONTINUOUS
 62
256
 10
-403.923898000000010
 20
-212.780380000000010
 11
-403.923898000000010
 21
-208.271651999999990
  0
LINE
  8
0
  6
CONTINUOUS
 62
256
 10
-403.923898000000010
 20
-212.780380000000010
 11
-403.923898000000010
 21
-203.650420999999990
  0
LINE
  8
0
  6
CONTINUOUS
 62
256
 10
-403.173898000000010
 20
-212.767288000000010
 11
-414.423898000000010
 21
-212.570919000000000
  0
ARC
  8
0
  6
CONTINUOUS
 62
256
 10
-370.923898000000010
 20
-151.762925000000000
 40
53.500000000000007
 50
152.604368000000020
 51
215.601639000000010
  0
ARC
  8
0
  6
CONTINUOUS
 62
256
 10
-370.923898000000010
 20
-151.762925000000000
 40
53.499999999999986
 50
324.398360999999970
 51
2.142396999999993
  0
LINE
  8
0
  6
DASHDOT
 62
256
 10
-370.923898000000010
 20
-215.003412000000000
 11
-370.923898000000010
 21
-57.258532000000002
  0
LINE
  8
0
  6
CONTINUOUS
 62
256
 10
-406.923898000000010
 20
-85.824016999999998
 11
-406.923898000000010
 21
-66.896259999999998
  0
LINE
  8
0
  6
CONTINUOUS
 62
256
 10
-334.923898000000010
 20
-86.932413999999994
 11
-334.923898000000010
 21
-66.896259999999998
  0
LINE
  8
0
  6
CONTINUOUS
 62
256
 10
-373.423898000000010
 20
-59.762925000000003
 11
-373.423898000000010
 21
-60.273341000000002
  0
LINE
  8
0
  6
CONTINUOUS
 62
256
 10
-368.423898000000010
 20
-59.762925000000003
 11
-373.423898000000010
 21
-59.762925000000003
  0
LINE
  8
0
  6
CONTINUOUS
 62
256
 10
-368.423898000000010
 20
-59.762925000000003
 11
-368.423898000000010
 21
-60.273341000000002
  0
ARC
  8
0
  6
CONTINUOUS
 62
256
 10
-339.923898000000010
 20
-66.896259999999998
 40
5.000000000000000
 50
0.000000000000000
 51
83.967950999999999
  0
ARC
  8
0
  6
CONTINUOUS
 62
256
 10
-401.923898000000010
 20
-66.896259999999998
 40
5.000000000000002
 50
96.032049000000001
 51
180.000000000000000
  0
ARC
  8
0
  6
CONTINUOUS
 62
256
 10
-370.923898000000010
 20
-360.262925000000000
 40
300.000000000000000
 50
83.967950999999999
 51
96.032049000000001
  0
ARC
  8
0
  6
CONTINUOUS
 62
256
 10
-24.323898000000000
 20
-151.762925000000000
 40
400.600000000000080
 50
174.256317999999990
 51
180.000000000000000
  0
ARC
  8
0
  6
CONTINUOUS
 62
256
 10
-416.345845000000000
 20
-112.332058000000000
 40
6.600000000000017
 50
135.000000000000170
 51
174.256317999999940
  0
LINE
  8
0
  6
CONTINUOUS
 62
256
 10
-418.423898000000010
 20
-105.076301000000000
 11
-421.012748999999990
 21
-107.665153000000000
  0
LINE
  8
0
  6
CONTINUOUS
 62
256
 10
-323.423898000000010
 20
-105.076301000000000
 11
-320.835045999999980
 21
-107.665153000000000
  0
ARC
  8
0
  6
CONTINUOUS
 62
256
 10
-717.523898000000030
 20
-151.762925000000000
 40
400.600000000000020
 50
0.000000000000000
 51
0.286050999999998
  0
ARC
  8
0
  6
CONTINUOUS
 62
256
 10
-325.501951000000020
 20
-112.332058000000000
 40
6.599999999999973
 50
5.743682000000063
 51
44.999999999999829
  0
LINE
  8
0
  6
CONTINUOUS
 62
256
 10
-327.423898000000010
 20
-202.449547999999990
 11
-320.835045999999980
 21
-195.860695999999990
  0
ARC
  8
0
  6
CONTINUOUS
 62
256
 10
-717.523898000000030
 20
-151.762925000000000
 40
400.600000000000020
 50
354.256318000000020
 51
0.000000000000000
  0
ARC
  8
0
  6
CONTINUOUS
 62
256
 10
-325.501951000000020
 20
-191.193792000000000
 40
6.600000000000017
 50
315.000000000000170
 51
354.256318000000020
  0
LINE
  8
0
  6
CONTINUOUS
 62
256
 10
-414.423898000000010
 20
-202.449547999999990
 11
-421.012748999999990
 21
-195.860695999999990
  0
ARC
  8
0
  6
CONTINUOUS
 62
256
 10
-24.323898000000000
 20
-151.762925000000000
 40
400.600000000000020
 50
180.000000000000000
 51
185.743681999999980
  0
ARC
  8
0
  6
CONTINUOUS
 62
256
 10
-416.345845000000000
 20
-191.193792000000000
 40
6.599999999999971
 50
185.743681999999920
 51
224.999999999999830
  0
LINE
  8
0
  6
DASHDOT
 62
256
 10
-276.577991000000000
 20
-138.762925000000000
 11
-428.837399000000000
 21
-138.762925000000000
  0
LINE
  8
0
  6
CONTINUOUS
 62
256
 10
-313.423970999999990
 20
-125.262925000000000
 11
-313.423970999999990
 21
-127.762925000000000
  0
LINE
  8
0
  6
CONTINUOUS
 62
256
 10
-321.423970999999990
 20
-127.762925000000000
 11
-281.423970999999990
 21
-127.762925000000000
  0
LINE
  8
0
  6
CONTINUOUS
 62
256
 10
-281.423970999999990
 20
-149.762925000000000
 11
-281.423970999999990
 21
-125.262925000000000
  0
LINE
  8
0
  6
CONTINUOUS
 62
256
 10
-313.423970999999990
 20
-125.262925000000000
 11
-281.423989000000010
 21
-125.262925000000000
  0
LINE
  8
0
  6
CONTINUOUS
 62
256
 10
-321.423970999999990
 20
-149.762925000000000
 11
-281.423970999999990
 21
-149.762925000000000
  0
LINE
  8
0
  6
CONTINUOUS
 62
256
 10
-323.423898000000010
 20
-126.762925000000000
 11
-321.423970999999990
 21
-126.762925000000000
  0
LINE
  8
0
  6
CONTINUOUS
 62
256
 10
-321.423970999999990
 20
-150.762925000000000
 11
-321.423970999999990
 21
-126.762925000000000
  0
LINE
  8
0
  6
CONTINUOUS
 62
256
 10
-323.423898000000010
 20
-150.762925000000000
 11
-321.423970999999990
 21
-150.762925000000000
  0
LINE
  8
0
  6
DASHDOT
 62
256
 10
-325.886127999999990
 20
-96.762924999999996
 11
-415.703081999999990
 21
-96.762924999999996
  0
LINE
  8
0
  6
DASHDOT
 62
256
 10
-325.963089000000020
 20
-201.762925000000000
 11
-416.187064000000020
 21
-201.762925000000000
  0
ARC
  8
0
  6
CONTINUOUS
 62
256
 10
-717.523898000000030
 20
-151.762925000000000
 40
400.599999999999970
 50
3.434655000000000
 51
5.743682000000000
  0
CIRCLE
  8
0
  6
CONTINUOUS
 62
256
 10
-101.846791000000000
 20
-96.762924999999996
 40
3.323499999999996
  0
CIRCLE
  8
0
  6
CONTINUOUS
 62
256
 10
-101.846791000000000
 20
-96.762924999999996
 40
4.000000000000000
  0
ARC
  8
0
  6
CONTINUOUS
 62
256
 10
411.807397999999980
 20
-155.262925000000000
 40
1.000000000000000
 50
90.000000000000000
 51
174.260829999999570
  0
ARC
  8
0
  6
CONTINUOUS
 62
256
 10
414.821309999999980
 20
-155.262925000000000
 40
1.000000000000027
 50
354.715267000000210
 51
90.000000000000000
  0
ARC
  8
0
  6
CONTINUOUS
 62
256
 10
406.274475000000000
 20
-155.262925000000000
 40
1.000000000000020
 50
353.186145999999440
 51
90.000000000000000
  0
LINE
  8
0
  6
CONTINUOUS
 62
256
 10
414.821309999999980
 20
-154.262925000000000
 11
411.807397999999980
 21
-154.262925000000000
  0
ARC
  8
0
  6
CONTINUOUS
 62
256
 10
382.779970999999990
 20
-168.803853000000000
 40
0.999999999999984
 50
30.000000000000544
 51
108.787729000000750
  0
LINE
  8
0
  6
CONTINUOUS
 62
256
 10
385.170913999999980
 20
-170.945088000000000
 11
383.645996000000030
 21
-168.303853000000000
  0
ARC
  8
0
  6
CONTINUOUS
 62
256
 10
384.304889000000000
 20
-171.445088000000000
 40
0.999999999999993
 50
290.405931999999840
 51
30.000000000000544
  0
ARC
  8
0
  6
CONTINUOUS
 62
256
 10
387.085673999999980
 20
-176.261551000000000
 40
0.999999999999984
 50
30.000000000000544
 51
112.410458000000460
  0
ARC
  8
0
  6
CONTINUOUS
 62
256
 10
391.364029000000020
 20
-183.671877999999990
 40
0.999999999999984
 50
30.000000000000544
 51
114.260829999998650
  0
LINE
  8
0
  6
CONTINUOUS
 62
256
 10
389.463593000000000
 20
-178.380225999999990
 11
387.951700000000020
 21
-175.761551000000000
  0
ARC
  8
0
  6
CONTINUOUS
 62
256
 10
388.597567000000030
 20
-178.880225999999990
 40
1.000000000000000
 50
293.186146000000120
 51
30.000000000000544
  0
LINE
  8
0
  6
CONTINUOUS
 62
256
 10
393.737011000000000
 20
-185.782003000000000
 11
392.230054000000000
 21
-183.171877999999990
  0
ARC
  8
0
  6
CONTINUOUS
 62
256
 10
392.870985000000020
 20
-186.282003000000000
 40
1.000000000000004
 50
294.715267000000150
 51
30.000000000000544
  0
ARC
  8
0
  6
CONTINUOUS
 62
256
 10
398.933162999999980
 20
-182.782003000000000
 40
0.999999999999984
 50
210.000000000000510
 51
305.284733000000980
  0
ARC
  8
0
  6
CONTINUOUS
 62
256
 10
397.426206999999980
 20
-180.171877999999990
 40
0.999999999999998
 50
125.739170000000210
 51
210.000000000000510
  0
ARC
  8
0
  6
CONTINUOUS
 62
256
 10
403.250689000000020
 20
-155.262925000000000
 40
1.000000000000000
 50
90.000000000000000
 51
172.410458000000010
  0
ARC
  8
0
  6
CONTINUOUS
 62
256
 10
394.659744999999990
 20
-175.380225999999990
 40
0.999999999999984
 50
210.000000000000510
 51
306.813854000001190
  0
ARC
  8
0
  6
CONTINUOUS
 62
256
 10
393.147852000000000
 20
-172.761551000000000
 40
0.999999999999993
 50
127.589541999998830
 51
210.000000000000510
  0
ARC
  8
0
  6
CONTINUOUS
 62
256
 10
397.689117000000010
 20
-155.262925000000000
 40
0.999999999999980
 50
350.405931999999210
 51
90.000000000000000
  0
ARC
  8
0
  6
CONTINUOUS
 62
256
 10
394.639280999999980
 20
-155.262925000000000
 40
1.000000000000000
 50
90.000000000000000
 51
168.787729000000270
  0
ARC
  8
0
  6
CONTINUOUS
 62
256
 10
390.367066000000020
 20
-167.945088000000000
 40
0.999999999999984
 50
210.000000000000510
 51
309.594067999998800
  0
ARC
  8
0
  6
CONTINUOUS
 62
256
 10
388.842149000000010
 20
-165.303853000000000
 40
1.000000000000006
 50
131.212270999999760
 51
210.000000000000510
  0
ARC
  8
0
  6
CONTINUOUS
 62
256
 10
386.013927000000020
 20
-160.405228999999990
 40
0.999999999999984
 50
210.000000000000510
 51
316.260205000000780
  0
ARC
  8
0
  6
CONTINUOUS
 62
256
 10
388.982838000000020
 20
-155.262925000000000
 40
0.999999999999976
 50
343.739794999999330
 51
90.000000000000000
  0
ARC
  8
0
  6
CONTINUOUS
 62
256
 10
385.814598999999990
 20
-155.262925000000000
 40
1.000000000000000
 50
90.000000000000000
 51
158.381727999999780
  0
ARC
  8
0
  6
CONTINUOUS
 62
256
 10
384.429806999999980
 20
-157.661453999999990
 40
0.999999999999985
 50
141.618271999999000
 51
210.000000000000510
  0
ARC
  8
0
  6
CONTINUOUS
 62
256
 10
376.982838000000020
 20
-151.762925000000000
 40
39.000000000000000
 50
305.284733000000020
 51
354.715266999999980
  0
ARC
  8
0
  6
CONTINUOUS
 62
256
 10
376.982838000000020
 20
-151.762925000000000
 40
30.500000000000025
 50
306.813854000000050
 51
353.186146000000010
  0
ARC
  8
0
  6
CONTINUOUS
 62
256
 10
376.982838000000020
 20
-151.762925000000000
 40
33.999999999999972
 50
305.739169999999940
 51
354.260830000000000
  0
ARC
  8
0
  6
CONTINUOUS
 62
256
 10
376.982838000000020
 20
-151.762925000000000
 40
25.499999999999986
 50
307.589541999999990
 51
352.410458000000010
  0
ARC
  8
0
  6
CONTINUOUS
 62
256
 10
376.982838000000020
 20
-151.762925000000000
 40
21.999999999999975
 50
309.594067999999940
 51
350.405932000000010
  0
ARC
  8
0
  6
CONTINUOUS
 62
256
 10
376.982838000000020
 20
-151.762925000000000
 40
17.000000000000014
 50
311.212270999999990
 51
348.787729000000010
  0
ARC
  8
0
  6
CONTINUOUS
 62
256
 10
376.982838000000020
 20
-151.762925000000000
 40
13.500000000000014
 50
316.260204999999930
 51
343.739795000000020
  0
ARC
  8
0
  6
CONTINUOUS
 62
256
 10
376.982838000000020
 20
-151.762925000000000
 40
8.500000000000014
 50
321.618271999999990
 51
338.381728000000010
  0
LINE
  8
0
  6
CONTINUOUS
 62
256
 10
393.793720000000010
 20
-175.880225999999990
 11
392.281827000000020
 21
-173.261551000000000
  0
LINE
  8
0
  6
CONTINUOUS
 62
256
 10
398.067138000000000
 20
-183.282003000000000
 11
396.560182000000000
 21
-180.671877999999990
  0
LINE
  8
0
  6
CONTINUOUS
 62
256
 10
389.501040999999990
 20
-168.445088000000000
 11
387.976122999999970
 21
-165.803853000000000
  0
LINE
  8
0
  6
CONTINUOUS
 62
256
 10
385.147900999999990
 20
-160.905228999999990
 11
383.563782000000000
 21
-158.161453999999990
  0
LINE
  8
0
  6
CONTINUOUS
 62
256
 10
388.982838000000020
 20
-154.262925000000000
 11
385.814598999999990
 21
-154.262925000000000
  0
LINE
  8
0
  6
CONTINUOUS
 62
256
 10
397.689117000000010
 20
-154.262925000000000
 11
394.639280999999980
 21
-154.262925000000000
  0
LINE
  8
0
  6
CONTINUOUS
 62
256
 10
406.274475000000000
 20
-154.262925000000000
 11
403.250689000000020
 21
-154.262925000000000
  0
ARC
  8
0
  6
CONTINUOUS
 62
256
 10
378.367629000000020
 20
-161.161453999999990
 40
0.999999999999984
 50
30.000000000000544
 51
98.381727999999029
  0
ARC
  8
0
  6
CONTINUOUS
 62
256
 10
376.982838000000020
 20
-151.762925000000000
 40
8.499999999999988
 50
261.618271999999930
 51
278.381728000000070
  0
LINE
  8
0
  6
CONTINUOUS
 62
256
 10
380.817773999999990
 20
-163.405228999999990
 11
379.233655000000000
 21
-160.661453999999990
  0
ARC
  8
0
  6
CONTINUOUS
 62
256
 10
379.951749000000010
 20
-163.905228999999990
 40
0.999999999999997
 50
283.739795000001440
 51
30.000000000000544
  0
ARC
  8
0
  6
CONTINUOUS
 62
256
 10
359.326393999999990
 20
-155.262925000000000
 40
1.000000000000016
 50
11.212270999999729
 51
90.000000000000000
  0
LINE
  8
0
  6
CONTINUOUS
 62
256
 10
356.276559000000020
 20
-154.262925000000000
 11
359.326393999999990
 21
-154.262925000000000
  0
ARC
  8
0
  6
CONTINUOUS
 62
256
 10
356.276559000000020
 20
-155.262925000000000
 40
1.000000000000000
 50
90.000000000000000
 51
189.594068000000760
  0
ARC
  8
0
  6
CONTINUOUS
 62
256
 10
350.714987000000010
 20
-155.262925000000000
 40
0.999999999999990
 50
7.589541999999997
 51
90.000000000000000
  0
LINE
  8
0
  6
CONTINUOUS
 62
256
 10
347.691200999999980
 20
-154.262925000000000
 11
350.714987000000010
 21
-154.262925000000000
  0
ARC
  8
0
  6
CONTINUOUS
 62
256
 10
347.691200999999980
 20
-155.262925000000000
 40
1.000000000000000
 50
90.000000000000000
 51
186.813854000000530
  0
ARC
  8
0
  6
CONTINUOUS
 62
256
 10
342.158278000000000
 20
-155.262925000000000
 40
0.999999999999978
 50
5.739170000000447
 51
90.000000000000000
  0
LINE
  8
0
  6
CONTINUOUS
 62
256
 10
339.144364999999990
 20
-154.262925000000000
 11
342.158278000000000
 21
-154.262925000000000
  0
ARC
  8
0
  6
CONTINUOUS
 62
256
 10
339.144364999999990
 20
-155.262925000000000
 40
1.000000000000000
 50
90.000000000000000
 51
185.284732999999760
  0
ARC
  8
0
  6
CONTINUOUS
 62
256
 10
359.305929999999990
 20
-175.380225999999990
 40
1.000000000000000
 50
233.186145999998760
 51
329.999999999999490
  0
LINE
  8
0
  6
CONTINUOUS
 62
256
 10
360.171956000000020
 20
-175.880225999999990
 11
361.683849000000010
 21
-173.261551000000000
  0
ARC
  8
0
  6
CONTINUOUS
 62
256
 10
360.817822999999980
 20
-172.761551000000000
 40
0.999999999999984
 50
329.999999999999490
 51
52.410458000001171
  0
ARC
  8
0
  6
CONTINUOUS
 62
256
 10
355.032512999999990
 20
-182.782003000000000
 40
1.000000000000016
 50
234.715266999999020
 51
329.999999999999490
  0
LINE
  8
0
  6
CONTINUOUS
 62
256
 10
355.898537999999970
 20
-183.282003000000000
 11
357.405493999999980
 21
-180.671877999999990
  0
ARC
  8
0
  6
CONTINUOUS
 62
256
 10
356.539469000000000
 20
-180.171877999999990
 40
0.999999999999984
 50
329.999999999999490
 51
54.260829999999778
  0
ARC
  8
0
  6
CONTINUOUS
 62
256
 10
369.535868999999990
 20
-157.661453999999990
 40
0.999999999999984
 50
329.999999999999490
 51
38.381728000001026
  0
LINE
  8
0
  6
CONTINUOUS
 62
256
 10
368.817773999999990
 20
-160.905228999999990
 11
370.401894000000030
 21
-158.161453999999990
  0
ARC
  8
0
  6
CONTINUOUS
 62
256
 10
365.123527000000020
 20
-165.303853000000000
 40
0.999999999999984
 50
329.999999999999490
 51
48.787729000000247
  0
LINE
  8
0
  6
CONTINUOUS
 62
256
 10
364.464634999999990
 20
-168.445088000000000
 11
365.989553000000000
 21
-165.803853000000000
  0
ARC
  8
0
  6
CONTINUOUS
 62
256
 10
363.598609000000010
 20
-167.945088000000000
 40
0.999999999999999
 50
230.405932000001170
 51
329.999999999999490
  0
ARC
  8
0
  6
CONTINUOUS
 62
256
 10
368.151076999999990
 20
-155.262925000000000
 40
1.000000000000018
 50
21.618272000000232
 51
90.000000000000000
  0
ARC
  8
0
  6
CONTINUOUS
 62
256
 10
376.982838000000020
 20
-151.762925000000000
 40
8.500000000000016
 50
201.618271999999960
 51
218.381728000000040
  0
ARC
  8
0
  6
CONTINUOUS
 62
256
 10
367.951749000000010
 20
-160.405228999999990
 40
0.999999999999995
 50
223.739794999999160
 51
329.999999999999490
  0
LINE
  8
0
  6
CONTINUOUS
 62
256
 10
364.982838000000020
 20
-154.262925000000000
 11
368.151076999999990
 21
-154.262925000000000
  0
ARC
  8
0
  6
CONTINUOUS
 62
256
 10
364.982838000000020
 20
-155.262925000000000
 40
1.000000000000000
 50
90.000000000000000
 51
196.260205000000670
  0
ARC
  8
0
  6
CONTINUOUS
 62
256
 10
376.982838000000020
 20
-151.762925000000000
 40
13.499999999999993
 50
196.260205000000070
 51
223.739794999999960
  0
ARC
  8
0
  6
CONTINUOUS
 62
256
 10
376.982838000000020
 20
-151.762925000000000
 40
16.999999999999993
 50
191.212271000000020
 51
228.787728999999980
  0
ARC
  8
0
  6
CONTINUOUS
 62
256
 10
376.982838000000020
 20
-151.762925000000000
 40
21.999999999999975
 50
189.594067999999960
 51
230.405932000000060
  0
ARC
  8
0
  6
CONTINUOUS
 62
256
 10
376.982838000000020
 20
-151.762925000000000
 40
30.499999999999986
 50
186.813853999999990
 51
233.186146000000040
  0
ARC
  8
0
  6
CONTINUOUS
 62
256
 10
376.982838000000020
 20
-151.762925000000000
 40
25.500000000000011
 50
187.589541999999990
 51
232.410457999999980
  0
ARC
  8
0
  6
CONTINUOUS
 62
256
 10
376.982838000000020
 20
-151.762925000000000
 40
34.000000000000028
 50
185.739169999999970
 51
234.260829999999970
  0
ARC
  8
0
  6
CONTINUOUS
 62
256
 10
376.982838000000020
 20
-151.762925000000000
 40
38.999999999999986
 50
185.284732999999960
 51
234.715266999999980
  0
ARC
  8
0
  6
CONTINUOUS
 62
256
 10
365.368108000000010
 20
-178.880225999999990
 40
0.999999999999984
 50
149.999999999999460
 51
246.813853999999880
  0
LINE
  8
0
  6
CONTINUOUS
 62
256
 10
364.502083000000030
 20
-178.380225999999990
 11
366.013976000000010
 21
-175.761551000000000
  0
ARC
  8
0
  6
CONTINUOUS
 62
256
 10
366.880000999999990
 20
-176.261551000000000
 40
1.000000000000009
 50
67.589541999999554
 51
149.999999999999460
  0
ARC
  8
0
  6
CONTINUOUS
 62
256
 10
361.094691000000010
 20
-186.282003000000000
 40
0.999999999999984
 50
149.999999999999460
 51
245.284732999999870
  0
LINE
  8
0
  6
CONTINUOUS
 62
256
 10
360.228664999999980
 20
-185.782003000000000
 11
361.735620999999980
 21
-183.171877999999990
  0
ARC
  8
0
  6
CONTINUOUS
 62
256
 10
362.601647000000010
 20
-183.671877999999990
 40
0.999999999999992
 50
65.739170000001337
 51
149.999999999999460
  0
ARC
  8
0
  6
CONTINUOUS
 62
256
 10
375.598046000000010
 20
-161.161453999999990
 40
0.999999999999984
 50
81.618272000000985
 51
149.999999999999460
  0
LINE
  8
0
  6
CONTINUOUS
 62
256
 10
373.147900999999990
 20
-163.405228999999990
 11
374.732020999999970
 21
-160.661453999999990
  0
ARC
  8
0
  6
CONTINUOUS
 62
256
 10
371.185704999999980
 20
-168.803853000000000
 40
1.000000000000010
 50
71.212270999999262
 51
149.999999999999460
  0
LINE
  8
0
  6
CONTINUOUS
 62
256
 10
368.794761999999990
 20
-170.945088000000000
 11
370.319680000000010
 21
-168.303853000000000
  0
ARC
  8
0
  6
CONTINUOUS
 62
256
 10
369.660787000000030
 20
-171.445088000000000
 40
0.999999999999984
 50
149.999999999999460
 51
249.594068000000160
  0
ARC
  8
0
  6
CONTINUOUS
 62
256
 10
374.013927000000020
 20
-163.905228999999990
 40
0.999999999999984
 50
149.999999999999460
 51
256.260204999998510
  0
ARC
  8
0
  6
CONTINUOUS
 62
256
 10
376.982838000000020
 20
-151.762925000000000
 40
13.500000000000004
 50
256.260205000000040
 51
283.739794999999960
  0
ARC
  8
0
  6
CONTINUOUS
 62
256
 10
376.982838000000020
 20
-151.762925000000000
 40
17.000000000000004
 50
251.212271000000040
 51
288.787728999999960
  0
ARC
  8
0
  6
CONTINUOUS
 62
256
 10
376.982838000000020
 20
-151.762925000000000
 40
22.000000000000011
 50
249.594067999999990
 51
290.405932000000010
  0
ARC
  8
0
  6
CONTINUOUS
 62
256
 10
376.982838000000020
 20
-151.762925000000000
 40
30.500000000000011
 50
246.813853999999990
 51
293.186146000000010
  0
ARC
  8
0
  6
CONTINUOUS
 62
256
 10
376.982838000000020
 20
-151.762925000000000
 40
25.500000000000007
 50
247.589541999999940
 51
292.410458000000010
  0
ARC
  8
0
  6
CONTINUOUS
 62
256
 10
376.982838000000020
 20
-151.762925000000000
 40
34.000000000000014
 50
245.739170000000000
 51
294.260830000000000
  0
ARC
  8
0
  6
CONTINUOUS
 62
256
 10
376.982838000000020
 20
-151.762925000000000
 40
39.000000000000014
 50
245.284732999999960
 51
294.715266999999980
  0
LINE
  8
0
  6
CONTINUOUS
 62
256
 10
406.274475000000000
 20
-149.262925000000000
 11
403.250689000000020
 21
-149.262925000000000
  0
LINE
  8
0
  6
CONTINUOUS
 62
256
 10
397.689117000000010
 20
-149.262925000000000
 11
394.639280999999980
 21
-149.262925000000000
  0
LINE
  8
0
  6
CONTINUOUS
 62
256
 10
388.982838000000020
 20
-149.262925000000000
 11
385.814598999999990
 21
-149.262925000000000
  0
LINE
  8
0
  6
CONTINUOUS
 62
256
 10
385.147900999999990
 20
-142.620620000000000
 11
383.563782000000000
 21
-145.364395000000000
  0
LINE
  8
0
  6
CONTINUOUS
 62
256
 10
389.501040999999990
 20
-135.080761000000000
 11
387.976122999999970
 21
-137.721995999999990
  0
LINE
  8
0
  6
CONTINUOUS
 62
256
 10
398.067138000000000
 20
-120.243846000000000
 11
396.560182000000000
 21
-122.853971000000000
  0
LINE
  8
0
  6
CONTINUOUS
 62
256
 10
414.821309999999980
 20
-149.262925000000000
 11
411.807397999999980
 21
-149.262925000000000
  0
LINE
  8
0
  6
CONTINUOUS
 62
256
 10
393.793720000000010
 20
-127.645623000000000
 11
392.281827000000020
 21
-130.264298000000000
  0
ARC
  8
0
  6
CONTINUOUS
 62
256
 10
376.982838000000020
 20
-151.762925000000000
 40
8.500000000000016
 50
21.618271999999980
 51
38.381728000000038
  0
ARC
  8
0
  6
CONTINUOUS
 62
256
 10
376.982838000000020
 20
-151.762925000000000
 40
13.499999999999986
 50
16.260204999999978
 51
43.739794999999951
  0
ARC
  8
0
  6
CONTINUOUS
 62
256
 10
376.982838000000020
 20
-151.762925000000000
 40
16.999999999999993
 50
11.212271000000010
 51
48.787728999999999
  0
ARC
  8
0
  6
CONTINUOUS
 62
256
 10
376.982838000000020
 20
-151.762925000000000
 40
21.999999999999975
 50
9.594067999999984
 51
50.405932000000043
  0
ARC
  8
0
  6
CONTINUOUS
 62
256
 10
376.982838000000020
 20
-151.762925000000000
 40
25.500000000000011
 50
7.589542000000017
 51
52.410458000000006
  0
ARC
  8
0
  6
CONTINUOUS
 62
256
 10
376.982838000000020
 20
-151.762925000000000
 40
34.000000000000028
 50
5.739169999999980
 51
54.260829999999963
  0
ARC
  8
0
  6
CONTINUOUS
 62
256
 10
376.982838000000020
 20
-151.762925000000000
 40
30.499999999999986
 50
6.813854000000005
 51
53.186146000000043
  0
ARC
  8
0
  6
CONTINUOUS
 62
256
 10
376.982838000000020
 20
-151.762925000000000
 40
38.999999999999986
 50
5.284733000000007
 51
54.715266999999990
  0
ARC
  8
0
  6
CONTINUOUS
 62
256
 10
384.429806999999980
 20
-145.864395000000000
 40
0.999999999999984
 50
149.999999999999460
 51
218.381728000001000
  0
ARC
  8
0
  6
CONTINUOUS
 62
256
 10
385.814598999999990
 20
-148.262925000000000
 40
1.000000000000018
 50
201.618272000000220
 51
270.000000000000000
  0
ARC
  8
0
  6
CONTINUOUS
 62
256
 10
388.982838000000020
 20
-148.262925000000000
 40
1.000000000000000
 50
270.000000000000000
 51
16.260205000000671
  0
ARC
  8
0
  6
CONTINUOUS
 62
256
 10
386.013927000000020
 20
-143.120620000000000
 40
0.999999999999995
 50
43.739794999999177
 51
149.999999999999460
  0
ARC
  8
0
  6
CONTINUOUS
 62
256
 10
388.842149000000010
 20
-138.221995999999990
 40
0.999999999999984
 50
149.999999999999460
 51
228.787729000000240
  0
ARC
  8
0
  6
CONTINUOUS
 62
256
 10
390.367066000000020
 20
-135.580761000000000
 40
0.999999999999999
 50
50.405932000001201
 51
149.999999999999460
  0
ARC
  8
0
  6
CONTINUOUS
 62
256
 10
394.639280999999980
 20
-148.262925000000000
 40
1.000000000000016
 50
191.212270999999730
 51
270.000000000000000
  0
ARC
  8
0
  6
CONTINUOUS
 62
256
 10
397.689117000000010
 20
-148.262925000000000
 40
1.000000000000000
 50
270.000000000000000
 51
9.594068000000764
  0
ARC
  8
0
  6
CONTINUOUS
 62
256
 10
406.274475000000000
 20
-148.262925000000000
 40
1.000000000000000
 50
270.000000000000000
 51
6.813854000000560
  0
ARC
  8
0
  6
CONTINUOUS
 62
256
 10
393.147852000000000
 20
-130.764298000000000
 40
0.999999999999984
 50
149.999999999999460
 51
232.410458000001200
  0
ARC
  8
0
  6
CONTINUOUS
 62
256
 10
394.659744999999990
 20
-128.145623000000000
 40
1.000000000000011
 50
53.186145999999269
 51
149.999999999999460
  0
ARC
  8
0
  6
CONTINUOUS
 62
256
 10
403.250689000000020
 20
-148.262925000000000
 40
0.999999999999990
 50
187.589541999999990
 51
270.000000000000000
  0
ARC
  8
0
  6
CONTINUOUS
 62
256
 10
414.821309999999980
 20
-148.262925000000000
 40
1.000000000000000
 50
270.000000000000000
 51
5.284732999999778
  0
ARC
  8
0
  6
CONTINUOUS
 62
256
 10
411.807397999999980
 20
-148.262925000000000
 40
0.999999999999978
 50
185.739170000000430
 51
270.000000000000000
  0
ARC
  8
0
  6
CONTINUOUS
 62
256
 10
397.426206999999980
 20
-123.353971000000000
 40
0.999999999999984
 50
149.999999999999460
 51
234.260829999999740
  0
ARC
  8
0
  6
CONTINUOUS
 62
256
 10
398.933162999999980
 20
-120.743846000000000
 40
1.000000000000016
 50
54.715266999999017
 51
149.999999999999460
  0
CIRCLE
  8
0
  6
CONTINUOUS
 62
256
 10
376.982838000000020
 20
-151.762925000000000
 40
5.000000000000000
  0
ARC
  8
0
  6
CONTINUOUS
 62
256
 10
392.870985000000020
 20
-117.243846000000000
 40
0.999999999999984
 50
329.999999999999490
 51
65.284732999999861
  0
LINE
  8
0
  6
CONTINUOUS
 62
256
 10
393.737011000000000
 20
-117.743846000000000
 11
392.230054000000000
 21
-120.353971000000000
  0
ARC
  8
0
  6
CONTINUOUS
 62
256
 10
376.982838000000020
 20
-151.762925000000000
 40
38.999999999999993
 50
65.284733000000031
 51
114.715266999999980
  0
ARC
  8
0
  6
CONTINUOUS
 62
256
 10
376.982838000000020
 20
-151.762925000000000
 40
34.000000000000000
 50
65.739169999999987
 51
114.260830000000010
  0
ARC
  8
0
  6
CONTINUOUS
 62
256
 10
376.982838000000020
 20
-151.762925000000000
 40
25.500000000000007
 50
67.589541999999966
 51
112.410458000000050
  0
ARC
  8
0
  6
CONTINUOUS
 62
256
 10
376.982838000000020
 20
-151.762925000000000
 40
30.500000000000011
 50
66.813853999999992
 51
113.186146000000010
  0
ARC
  8
0
  6
CONTINUOUS
 62
256
 10
388.597567000000030
 20
-124.645623000000000
 40
0.999999999999984
 50
329.999999999999490
 51
66.813853999999878
  0
LINE
  8
0
  6
CONTINUOUS
 62
256
 10
389.463593000000000
 20
-125.145623000000000
 11
387.951700000000020
 21
-127.764298000000000
  0
ARC
  8
0
  6
CONTINUOUS
 62
256
 10
376.982838000000020
 20
-151.762925000000000
 40
22.000000000000011
 50
69.594068000000007
 51
110.405932000000010
  0
ARC
  8
0
  6
CONTINUOUS
 62
256
 10
391.364029000000020
 20
-119.853971000000000
 40
0.999999999999992
 50
245.739170000001340
 51
329.999999999999490
  0
ARC
  8
0
  6
CONTINUOUS
 62
256
 10
387.085673999999980
 20
-127.264298000000000
 40
1.000000000000009
 50
247.589541999999540
 51
329.999999999999490
  0
ARC
  8
0
  6
CONTINUOUS
 62
256
 10
384.304889000000000
 20
-132.080761000000000
 40
0.999999999999984
 50
329.999999999999490
 51
69.594068000000149
  0
ARC
  8
0
  6
CONTINUOUS
 62
256
 10
376.982838000000020
 20
-151.762925000000000
 40
17.000000000000004
 50
71.212271000000072
 51
108.787728999999940
  0
LINE
  8
0
  6
CONTINUOUS
 62
256
 10
385.170913999999980
 20
-132.580761000000000
 11
383.645996000000030
 21
-135.221995999999990
  0
ARC
  8
0
  6
CONTINUOUS
 62
256
 10
382.779970999999990
 20
-134.721995999999990
 40
1.000000000000010
 50
251.212270999999220
 51
329.999999999999490
  0
ARC
  8
0
  6
CONTINUOUS
 62
256
 10
376.982838000000020
 20
-151.762925000000000
 40
13.500000000000004
 50
76.260205000000070
 51
103.739794999999930
  0
ARC
  8
0
  6
CONTINUOUS
 62
256
 10
379.951749000000010
 20
-139.620620000000000
 40
0.999999999999984
 50
329.999999999999490
 51
76.260204999998550
  0
LINE
  8
0
  6
CONTINUOUS
 62
256
 10
380.817773999999990
 20
-140.120620000000000
 11
379.233655000000000
 21
-142.864395000000000
  0
ARC
  8
0
  6
CONTINUOUS
 62
256
 10
374.013927000000020
 20
-139.620620000000000
 40
0.999999999999997
 50
103.739795000001460
 51
210.000000000000510
  0
ARC
  8
0
  6
CONTINUOUS
 62
256
 10
376.982838000000020
 20
-151.762925000000000
 40
8.499999999999988
 50
81.618271999999934
 51
98.381728000000066
  0
ARC
  8
0
  6
CONTINUOUS
 62
256
 10
378.367629000000020
 20
-142.364395000000000
 40
0.999999999999984
 50
261.618272000000960
 51
329.999999999999490
  0
ARC
  8
0
  6
CONTINUOUS
 62
256
 10
369.660787000000030
 20
-132.080761000000000
 40
0.999999999999993
 50
110.405931999999860
 51
210.000000000000510
  0
LINE
  8
0
  6
CONTINUOUS
 62
256
 10
368.794761999999990
 20
-132.580761000000000
 11
370.319680000000010
 21
-135.221995999999990
  0
ARC
  8
0
  6
CONTINUOUS
 62
256
 10
371.185704999999980
 20
-134.721995999999990
 40
0.999999999999984
 50
210.000000000000510
 51
288.787729000000750
  0
LINE
  8
0
  6
CONTINUOUS
 62
256
 10
373.147900999999990
 20
-140.120620000000000
 11
374.732020999999970
 21
-142.864395000000000
  0
ARC
  8
0
  6
CONTINUOUS
 62
256
 10
375.598046000000010
 20
-142.364395000000000
 40
0.999999999999984
 50
210.000000000000510
 51
278.381727999999040
  0
ARC
  8
0
  6
CONTINUOUS
 62
256
 10
362.601647000000010
 20
-119.853971000000000
 40
0.999999999999984
 50
210.000000000000510
 51
294.260829999998690
  0
LINE
  8
0
  6
CONTINUOUS
 62
256
 10
360.228664999999980
 20
-117.743846000000000
 11
361.735620999999980
 21
-120.353971000000000
  0
ARC
  8
0
  6
CONTINUOUS
 62
256
 10
361.094691000000010
 20
-117.243846000000000
 40
1.000000000000004
 50
114.715267000000150
 51
210.000000000000510
  0
ARC
  8
0
  6
CONTINUOUS
 62
256
 10
366.880000999999990
 20
-127.264298000000000
 40
0.999999999999984
 50
210.000000000000510
 51
292.410458000000400
  0
LINE
  8
0
  6
CONTINUOUS
 62
256
 10
364.502083000000030
 20
-125.145623000000000
 11
366.013976000000010
 21
-127.764298000000000
  0
ARC
  8
0
  6
CONTINUOUS
 62
256
 10
365.368108000000010
 20
-124.645623000000000
 40
1.000000000000000
 50
113.186146000000120
 51
210.000000000000510
  0
ARC
  8
0
  6
CONTINUOUS
 62
256
 10
376.982838000000020
 20
-151.762925000000000
 40
39.000000000000000
 50
125.284733000000000
 51
174.715267000000010
  0
ARC
  8
0
  6
CONTINUOUS
 62
256
 10
376.982838000000020
 20
-151.762925000000000
 40
34.000000000000007
 50
125.739170000000040
 51
174.260830000000030
  0
ARC
  8
0
  6
CONTINUOUS
 62
256
 10
376.982838000000020
 20
-151.762925000000000
 40
25.499999999999986
 50
127.589541999999990
 51
172.410458000000010
  0
ARC
  8
0
  6
CONTINUOUS
 62
256
 10
376.982838000000020
 20
-151.762925000000000
 40
30.499999999999993
 50
126.813853999999980
 51
173.186145999999980
  0
ARC
  8
0
  6
CONTINUOUS
 62
256
 10
376.982838000000020
 20
-151.762925000000000
 40
21.999999999999975
 50
129.594067999999960
 51
170.405932000000040
  0
ARC
  8
0
  6
CONTINUOUS
 62
256
 10
376.982838000000020
 20
-151.762925000000000
 40
17.000000000000014
 50
131.212271000000020
 51
168.787728999999980
  0
ARC
  8
0
  6
CONTINUOUS
 62
256
 10
376.982838000000020
 20
-151.762925000000000
 40
13.499999999999995
 50
136.260205000000040
 51
163.739795000000020
  0
ARC
  8
0
  6
CONTINUOUS
 62
256
 10
364.982838000000020
 20
-148.262925000000000
 40
0.999999999999976
 50
163.739794999999330
 51
270.000000000000000
  0
LINE
  8
0
  6
CONTINUOUS
 62
256
 10
364.982838000000020
 20
-149.262925000000000
 11
368.151076999999990
 21
-149.262925000000000
  0
ARC
  8
0
  6
CONTINUOUS
 62
256
 10
367.951749000000010
 20
-143.120620000000000
 40
0.999999999999984
 50
30.000000000000544
 51
136.260205000000840
  0
ARC
  8
0
  6
CONTINUOUS
 62
256
 10
376.982838000000020
 20
-151.762925000000000
 40
8.500000000000014
 50
141.618271999999960
 51
158.381728000000040
  0
ARC
  8
0
  6
CONTINUOUS
 62
256
 10
368.151076999999990
 20
-148.262925000000000
 40
1.000000000000000
 50
270.000000000000000
 51
338.381727999999780
  0
ARC
  8
0
  6
CONTINUOUS
 62
256
 10
363.598609000000010
 20
-135.580761000000000
 40
0.999999999999984
 50
30.000000000000544
 51
129.594067999998800
  0
LINE
  8
0
  6
CONTINUOUS
 62
256
 10
364.464634999999990
 20
-135.080761000000000
 11
365.989553000000000
 21
-137.721995999999990
  0
ARC
  8
0
  6
CONTINUOUS
 62
256
 10
365.123527000000020
 20
-138.221995999999990
 40
1.000000000000006
 50
311.212270999999760
 51
30.000000000000544
  0
LINE
  8
0
  6
CONTINUOUS
 62
256
 10
368.817773999999990
 20
-142.620620000000000
 11
370.401894000000030
 21
-145.364395000000000
  0
ARC
  8
0
  6
CONTINUOUS
 62
256
 10
369.535868999999990
 20
-145.864395000000000
 40
0.999999999999985
 50
321.618271999998970
 51
30.000000000000544
  0
ARC
  8
0
  6
CONTINUOUS
 62
256
 10
356.539469000000000
 20
-123.353971000000000
 40
0.999999999999998
 50
305.739170000000230
 51
30.000000000000544
  0
LINE
  8
0
  6
CONTINUOUS
 62
256
 10
355.898537999999970
 20
-120.243846000000000
 11
357.405493999999980
 21
-122.853971000000000
  0
ARC
  8
0
  6
CONTINUOUS
 62
256
 10
355.032512999999990
 20
-120.743846000000000
 40
0.999999999999984
 50
30.000000000000544
 51
125.284733000000970
  0
ARC
  8
0
  6
CONTINUOUS
 62
256
 10
360.817822999999980
 20
-130.764298000000000
 40
0.999999999999993
 50
307.589541999998800
 51
30.000000000000544
  0
LINE
  8
0
  6
CONTINUOUS
 62
256
 10
360.171956000000020
 20
-127.645623000000000
 11
361.683849000000010
 21
-130.264298000000000
  0
ARC
  8
0
  6
CONTINUOUS
 62
256
 10
359.305929999999990
 20
-128.145623000000000
 40
0.999999999999984
 50
30.000000000000544
 51
126.813854000000730
  0
ARC
  8
0
  6
CONTINUOUS
 62
256
 10
339.144364999999990
 20
-148.262925000000000
 40
1.000000000000027
 50
174.715267000000240
 51
270.000000000000000
  0
LINE
  8
0
  6
CONTINUOUS
 62
256
 10
339.144364999999990
 20
-149.262925000000000
 11
342.158278000000000
 21
-149.262925000000000
  0
ARC
  8
0
  6
CONTINUOUS
 62
256
 10
342.158278000000000
 20
-148.262925000000000
 40
1.000000000000000
 50
270.000000000000000
 51
354.260829999999540
  0
ARC
  8
0
  6
CONTINUOUS
 62
256
 10
347.691200999999980
 20
-148.262925000000000
 40
1.000000000000020
 50
173.186145999999470
 51
270.000000000000000
  0
LINE
  8
0
  6
CONTINUOUS
 62
256
 10
347.691200999999980
 20
-149.262925000000000
 11
350.714987000000010
 21
-149.262925000000000
  0
ARC
  8
0
  6
CONTINUOUS
 62
256
 10
350.714987000000010
 20
-148.262925000000000
 40
1.000000000000000
 50
270.000000000000000
 51
352.410458000000010
  0
ARC
  8
0
  6
CONTINUOUS
 62
256
 10
356.276559000000020
 20
-148.262925000000000
 40
0.999999999999980
 50
170.405931999999240
 51
270.000000000000000
  0
LINE
  8
0
  6
CONTINUOUS
 62
256
 10
356.276559000000020
 20
-149.262925000000000
 11
359.326393999999990
 21
-149.262925000000000
  0
ARC
  8
0
  6
CONTINUOUS
 62
256
 10
359.326393999999990
 20
-148.262925000000000
 40
1.000000000000000
 50
270.000000000000000
 51
348.787729000000300
  0
ARC
  8
0
  6
CONTINUOUS
 62
256
 10
405.046594000000030
 20
-114.772857000000000
 40
10.797000000000006
 50
44.999999999999950
 51
84.247716999999980
  0
ARC
  8
0
  6
CONTINUOUS
 62
256
 10
405.046594000000030
 20
-188.752992000000010
 40
10.796999999999988
 50
275.752283000000030
 51
315.000000000000000
  0
ARC
  8
0
  6
CONTINUOUS
 62
256
 10
348.919081000000010
 20
-188.752992000000010
 40
10.797000000000015
 50
225.000000000000000
 51
264.247716999999970
  0
ARC
  8
0
  6
CONTINUOUS
 62
256
 10
348.919081000000010
 20
-114.772857000000000
 40
10.797000000000002
 50
95.752283000000034
 51
135.000000000000060
  0
ARC
  8
0
  6
CONTINUOUS
 62
256
 10
348.919081000000010
 20
-188.752992000000010
 40
20.599999999999991
 50
225.000000000000000
 51
264.247716999999910
  0
ARC
  8
0
  6
CONTINUOUS
 62
256
 10
405.046594000000030
 20
-188.752992000000010
 40
20.599999999999991
 50
275.752282999999860
 51
315.000000000000000
  0
ARC
  8
0
  6
CONTINUOUS
 62
256
 10
405.046594000000030
 20
-114.772857000000000
 40
20.600000000000001
 50
45.000000000000028
 51
84.247716999999938
  0
ARC
  8
0
  6
CONTINUOUS
 62
256
 10
348.919081000000010
 20
-114.772857000000000
 40
20.600000000000009
 50
95.752283000000077
 51
134.999999999999970
  0
LINE
  8
0
  6
CONTINUOUS
 62
256
 10
346.990339000000010
 20
-94.262924999999996
 11
340.982838000000020
 21
-94.262924999999996
  0
LINE
  8
0
  6
CONTINUOUS
 62
256
 10
412.982838000000020
 20
-94.262924999999996
 11
406.970823999999990
 21
-94.262924999999996
  0
LINE
  8
0
  6
CONTINUOUS
 62
256
 10
334.352682000000020
 20
-100.206458000000000
 11
326.893985999999980
 21
-107.665153000000000
  0
LINE
  8
0
  6
DASHDOT
 62
256
 10
376.982838000000020
 20
-215.003412000000000
 11
376.982838000000020
 21
-55.281537000000000
  0
LINE
  8
0
  6
DASHDOT
 62
256
 10
438.706568000000000
 20
-151.762925000000000
 11
313.488609000000000
 21
-151.762925000000000
  0
ARC
  8
0
  6
CONTINUOUS
 62
256
 10
376.982838000000020
 20
-393.362925000000020
 40
300.600000000000020
 50
90.000000000000000
 51
95.752283000000006
  0
ARC
  8
0
  6
CONTINUOUS
 62
256
 10
723.582838000000040
 20
-151.762925000000000
 40
400.600000000000080
 50
174.256317999999990
 51
180.000000000000000
  0
ARC
  8
0
  6
CONTINUOUS
 62
256
 10
331.560891000000030
 20
-112.332058000000000
 40
6.600000000000017
 50
135.000000000000170
 51
174.256317999999940
  0
ARC
  8
0
  6
CONTINUOUS
 62
256
 10
422.404785000000000
 20
-112.332058000000000
 40
6.599999999999973
 50
5.743682000000063
 51
44.999999999999829
  0
ARC
  8
0
  6
CONTINUOUS
 62
256
 10
30.382838000000000
 20
-151.762925000000000
 40
400.600000000000020
 50
0.000000000000000
 51
5.743682000000000
  0
LINE
  8
0
  6
CONTINUOUS
 62
256
 10
419.612994000000010
 20
-100.206458000000000
 11
427.071688999999990
 21
-107.665153000000000
  0
ARC
  8
0
  6
CONTINUOUS
 62
256
 10
376.982838000000020
 20
-393.362925000000020
 40
300.600000000000020
 50
84.247716999999994
 51
90.000000000000000
  0
ARC
  8
0
  6
CONTINUOUS
 62
256
 10
422.404785000000000
 20
-191.193792000000000
 40
6.600000000000017
 50
315.000000000000170
 51
354.256318000000020
  0
ARC
  8
0
  6
CONTINUOUS
 62
256
 10
30.382838000000000
 20
-151.762925000000000
 40
400.600000000000020
 50
354.256318000000020
 51
0.000000000000000
  0
LINE
  8
0
  6
CONTINUOUS
 62
256
 10
419.612994000000010
 20
-203.319391999999990
 11
427.071688999999990
 21
-195.860695999999990
  0
ARC
  8
0
  6
CONTINUOUS
 62
256
 10
376.982838000000020
 20
89.837074999999999
 40
300.600000000000020
 50
270.000000000000000
 51
275.752282999999980
  0
ARC
  8
0
  6
CONTINUOUS
 62
256
 10
331.560891000000030
 20
-191.193792000000000
 40
6.599999999999971
 50
185.743681999999920
 51
224.999999999999830
  0
ARC
  8
0
  6
CONTINUOUS
 62
256
 10
723.582838000000040
 20
-151.762925000000000
 40
400.600000000000020
 50
180.000000000000000
 51
185.743681999999980
  0
ARC
  8
0
  6
CONTINUOUS
 62
256
 10
376.982838000000020
 20
89.837074999999999
 40
300.600000000000020
 50
264.247717000000020
 51
270.000000000000000
  0
LINE
  8
0
  6
CONTINUOUS
 62
256
 10
341.284449000000000
 20
-107.138225000000010
 11
335.397035000000020
 21
-113.025639000000000
  0
ARC
  8
0
  6
CONTINUOUS
 62
256
 10
723.582838000000040
 20
-151.762925000000000
 40
390.797000000000030
 50
174.582035999999990
 51
180.000000000000000
  0
ARC
  8
0
  6
CONTINUOUS
 62
256
 10
337.518355999999980
 20
-115.146960000000010
 40
3.000000000000014
 50
135.000000000000200
 51
174.582036000000070
  0
ARC
  8
0
  6
CONTINUOUS
 62
256
 10
376.982838000000020
 20
-393.362925000000020
 40
290.797000000000030
 50
90.000000000000000
 51
95.752283000000006
  0
ARC
  8
0
  6
CONTINUOUS
 62
256
 10
416.447319999999990
 20
-115.146960000000010
 40
2.999999999999996
 50
5.417963999999932
 51
44.999999999999808
  0
ARC
  8
0
  6
CONTINUOUS
 62
256
 10
30.382838000000000
 20
-151.762925000000000
 40
390.797000000000030
 50
0.000000000000000
 51
5.417963999999998
  0
LINE
  8
0
  6
CONTINUOUS
 62
256
 10
412.681225999999980
 20
-107.138225000000010
 11
418.568640000000020
 21
-113.025639000000000
  0
ARC
  8
0
  6
CONTINUOUS
 62
256
 10
376.982838000000020
 20
-393.362925000000020
 40
290.797000000000030
 50
84.247716999999994
 51
90.000000000000000
  0
ARC
  8
0
  6
CONTINUOUS
 62
256
 10
416.447319999999990
 20
-188.378890000000010
 40
3.000000000000004
 50
315.000000000000340
 51
354.582035999999790
  0
ARC
  8
0
  6
CONTINUOUS
 62
256
 10
30.382838000000000
 20
-151.762925000000000
 40
390.797000000000030
 50
354.582036000000020
 51
0.000000000000000
  0
LINE
  8
0
  6
CONTINUOUS
 62
256
 10
412.681225999999980
 20
-196.387623999999990
 11
418.568640000000020
 21
-190.500210000000010
  0
ARC
  8
0
  6
CONTINUOUS
 62
256
 10
376.982838000000020
 20
89.837074999999999
 40
290.797000000000030
 50
270.000000000000000
 51
275.752282999999980
  0
ARC
  8
0
  6
CONTINUOUS
 62
256
 10
337.518355999999980
 20
-188.378890000000010
 40
2.999999999999998
 50
185.417964000000180
 51
224.999999999999630
  0
ARC
  8
0
  6
CONTINUOUS
 62
256
 10
723.582838000000040
 20
-151.762925000000000
 40
390.797000000000030
 50
180.000000000000000
 51
185.417963999999980
  0
LINE
  8
0
  6
CONTINUOUS
 62
256
 10
341.284449000000000
 20
-196.387623999999990
 11
335.397035000000020
 21
-190.500210000000010
  0
ARC
  8
0
  6
CONTINUOUS
 62
256
 10
376.982838000000020
 20
89.837074999999999
 40
290.797000000000030
 50
264.247717000000020
 51
270.000000000000000
  0
LINE
  8
0
  6
CONTINUOUS
 62
256
 10
340.982838000000020
 20
-95.762963999999997
 11
340.982838000000020
 21
-66.896259999999998
  0
LINE
  8
0
  6
CONTINUOUS
 62
256
 10
412.982838000000020
 20
-95.762963999999997
 11
412.982838000000020
 21
-66.896259999999998
  0
LINE
  8
0
  6
CONTINUOUS
 62
256
 10
374.482838000000020
 20
-59.762925000000003
 11
374.482838000000020
 21
-60.273341000000002
  0
LINE
  8
0
  6
CONTINUOUS
 62
256
 10
379.482838000000020
 20
-59.762925000000003
 11
374.482838000000020
 21
-59.762925000000003
  0
LINE
  8
0
  6
CONTINUOUS
 62
256
 10
379.482838000000020
 20
-59.762925000000003
 11
379.482838000000020
 21
-60.273341000000002
  0
ARC
  8
0
  6
CONTINUOUS
 62
256
 10
407.982838000000020
 20
-66.896259999999998
 40
5.000000000000000
 50
0.000000000000000
 51
83.967950999999999
  0
ARC
  8
0
  6
CONTINUOUS
 62
256
 10
345.982838000000020
 20
-66.896259999999998
 40
5.000000000000002
 50
96.032049000000001
 51
180.000000000000000
  0
ARC
  8
0
  6
CONTINUOUS
 62
256
 10
376.982838000000020
 20
-360.262925000000000
 40
300.000000000000000
 50
83.967950999999999
 51
96.032049000000001
  0
LINE
  8
0
  6
CONTINUOUS
 62
256
 10
334.352682000000020
 20
-203.319391999999990
 11
326.893985999999980
 21
-195.860695999999990
  0
TEXT
  8
0
  6
CONTINUOUS
 62
256
 10
460.918304443359370
 20
-251.500320434570310
 40
3.299999952316284
  1
1/1
 50
0.000002504478167
 41
0.850909097352304
  7
STANDARD1
  0
TEXT
  8
0
  6
CONTINUOUS
 62
256
 10
458.500305175781250
 20
-251.500320434570310
 40
3.299999952316284
  1
 
 50
0.000002504478167
 41
1.733333298293026
  7
STANDARD1
  0
TEXT
  8
0
  6
CONTINUOUS
 62
256
 10
445.449676513671870
 20
-251.500320434570310
 40
3.299999952316284
  1
SCALE
 50
0.000002504478167
 41
0.821052645401140
  7
STANDARD1
  0
TEXT
  8
0
  6
CONTINUOUS
 62
256
 10
442.198303222656250
 20
-251.500320434570310
 40
3.299999952316284
  1
 
 50
0.000002504478167
 41
1.733333298293026
  7
STANDARD1
  0
TEXT
  8
0
  6
CONTINUOUS
 62
256
 10
457.061492919921870
 20
-246.200317382812500
 40
3.299999952316284
  1
1/60
 50
0.000002504478167
 41
0.832000075658163
  7
STANDARD1
  0
TEXT
  8
0
  6
CONTINUOUS
 62
256
 10
453.270477294921870
 20
-246.200317382812500
 40
3.299999952316284
  1
ü`
 50
0.000002504478167
 41
1.176000019651471
  7
STANDARD1
  0
TEXT
  8
0
  6
CONTINUOUS
 62
256
 10
445.474304199218750
 20
-246.200317382812500
 40
3.299999952316284
  1
1/5
 50
0.000002504478167
 41
0.850909097352304
  7
STANDARD1
  0
TEXT
  8
0
  6
CONTINUOUS
 62
256
 10
442.198303222656250
 20
-246.200317382812500
 40
3.299999952316284
  1
 
 50
0.000002504478167
 41
1.733333298293026
  7
STANDARD1
  0
TEXT
  8
0
  6
CONTINUOUS
 62
256
 10
442.198303222656250
 20
-240.900314331054690
 40
3.299999952316284
  1
GM-SHYMB-RL
 50
0.000002504478167
 41
0.798139564113939
  7
STANDARD1
  0
TEXT
  8
0
  6
CONTINUOUS
 62
256
 10
448.023681640625000
 20
-235.600326538085940
 40
3.299999952316284
  1
0.2kW
 50
0.000002504478167
 41
0.821052645401140
  7
STANDARD1
  0
TEXT
  8
0
  6
CONTINUOUS
 62
256
 10
442.198303222656250
 20
-235.600326538085940
 40
3.299999952316284
  1
  
 50
0.000002504478167
 41
1.485714400175845
  7
STANDARD1
  0
TEXT
  8
0
  6
CONTINUOUS
 62
256
 10
448.017791748046870
 20
-230.300323486328120
 40
3.299999952316284
  1
SHY072
 50
0.000002504478167
 41
0.813913121261144
  7
STANDARD1
  0
TEXT
  8
0
  6
CONTINUOUS
 62
256
 10
442.198303222656250
 20
-230.300323486328120
 40
3.299999952316284
  1
  
 50
0.000002504478167
 41
1.485714400175845
  7
STANDARD1
  0
LINE
  8
0
  6
CONTINUOUS
 62
256
 10
424.482838000000020
 20
-101.262925000000000
 11
420.482838000000020
 21
-101.262925000000000
  0
LINE
  8
0
  6
CONTINUOUS
 62
256
 10
424.482838000000020
 20
-101.262925000000000
 11
424.482838000000020
 21
-105.076301000000000
  0
LINE
  8
0
  6
CONTINUOUS
 62
256
 10
420.482838000000020
 20
-85.954930000000004
 11
420.482838000000020
 21
-101.076301000000000
  0
LINE
  8
0
  6
CONTINUOUS
 62
256
 10
424.482838000000020
 20
-101.262925000000000
 11
420.669461000000010
 21
-101.262925000000000
  0
LINE
  8
0
  6
CONTINUOUS
 62
256
 10
424.482838000000020
 20
-101.262925000000000
 11
424.482838000000020
 21
-105.076301000000000
  0
LINE
  8
0
  6
CONTINUOUS
 62
256
 10
412.982838000000020
 20
-85.824016999999998
 11
420.482838000000020
 21
-85.954930000000004
  0
LINE
  8
0
  6
CONTINUOUS
 62
256
 10
333.482838000000020
 20
-101.076301000000000
 11
333.482838000000020
 21
-86.932413999999994
  0
LINE
  8
0
  6
CONTINUOUS
 62
256
 10
333.482838000000020
 20
-101.076301000000000
 11
333.482838000000020
 21
-86.932413999999994
  0
LINE
  8
0
  6
CONTINUOUS
 62
256
 10
340.982838000000020
 20
-86.932413999999994
 11
333.482838000000020
 21
-86.932413999999994
  0
LINE
  8
0
  6
CONTINUOUS
 62
256
 10
333.482838000000020
 20
-101.271652000000000
 11
329.482838000000020
 21
-101.271652000000000
  0
LINE
  8
0
  6
CONTINUOUS
 62
256
 10
329.482838000000020
 20
-101.271652000000000
 11
329.482838000000020
 21
-105.076301000000000
  0
LINE
  8
0
  6
CONTINUOUS
 62
256
 10
333.287487000000000
 20
-101.271652000000000
 11
329.482838000000020
 21
-101.271652000000000
  0
LINE
  8
0
  6
CONTINUOUS
 62
256
 10
287.482911000000000
 20
-149.762925000000000
 11
287.482911000000000
 21
-125.262925000000000
  0
LINE
  8
0
  6
CONTINUOUS
 62
256
 10
287.482911000000000
 20
-149.762925000000000
 11
287.482911000000000
 21
-125.262925000000000
  0
LINE
  8
0
  6
CONTINUOUS
 62
256
 10
323.702406000000000
 20
-127.762925000000000
 11
287.482911000000000
 21
-127.762925000000000
  0
LINE
  8
0
  6
CONTINUOUS
 62
256
 10
319.482911000000000
 20
-125.262925000000000
 11
287.482929000000010
 21
-125.262925000000000
  0
LINE
  8
0
  6
CONTINUOUS
 62
256
 10
319.482911000000000
 20
-125.262925000000000
 11
319.482911000000000
 21
-127.762925000000000
  0
LINE
  8
0
  6
CONTINUOUS
 62
256
 10
319.482911000000000
 20
-125.262925000000000
 11
287.482929000000010
 21
-125.262925000000000
  0
LINE
  8
0
  6
CONTINUOUS
 62
256
 10
319.482911000000000
 20
-125.262925000000000
 11
319.482911000000000
 21
-127.762925000000000
  0
LINE
  8
0
  6
CONTINUOUS
 62
256
 10
322.987829999999970
 20
-149.762925000000000
 11
287.482911000000000
 21
-149.762925000000000
  0
LINE
  8
0
  6
CONTINUOUS
 62
256
 10
409.982838000000020
 20
-212.780380000000010
 11
342.982838000000020
 21
-211.610890000000010
  0
LINE
  8
0
  6
CONTINUOUS
 62
256
 10
333.482838000000020
 20
-211.610890000000010
 11
333.482838000000020
 21
-202.449547999999990
  0
LINE
  8
0
  6
CONTINUOUS
 62
256
 10
342.982838000000020
 20
-211.610890000000010
 11
333.482838000000020
 21
-211.610890000000010
  0
LINE
  8
0
  6
CONTINUOUS
 62
256
 10
409.982838000000020
 20
-212.780380000000010
 11
342.982838000000020
 21
-211.610890000000010
  0
LINE
  8
0
  6
CONTINUOUS
 62
256
 10
342.982838000000020
 20
-211.610890000000010
 11
333.482838000000020
 21
-211.610890000000010
  0
LINE
  8
0
  6
CONTINUOUS
 62
256
 10
409.232838000000020
 20
-212.767288000000010
 11
420.482838000000020
 21
-212.570919000000000
  0
LINE
  8
0
  6
CONTINUOUS
 62
256
 10
409.232838000000020
 20
-212.767288000000010
 11
420.482838000000020
 21
-212.570919000000000
  0
LINE
  8
0
  6
CONTINUOUS
 62
256
 10
409.982838000000020
 20
-212.780380000000010
 11
409.982838000000020
 21
-208.752828999999990
  0
LINE
  8
0
  6
DASHDOT
 62
256
 10
282.222156999999980
 20
-138.762925000000000
 11
439.688132999999990
 21
-138.762925000000000
  0
LINE
  8
0
  6
CONTINUOUS
 62
256
 10
420.482838000000020
 20
-202.449547999999990
 11
420.482838000000020
 21
-212.570919000000000
  0
ARC
  8
0
  6
CONTINUOUS
 62
256
 10
217.658053999999990
 20
62.725526000000002
 40
20.600000000000001
 50
270.000000000000000
 51
304.999999999999940
  0
ARC
  8
0
  6
CONTINUOUS
 62
256
 10
235.553209000000010
 20
53.281905999999999
 40
2.600000000000001
 50
305.000000000000110
 51
0.000000000000000
  0
LINE
  8
0
  6
CONTINUOUS
 62
256
 10
238.153209000000000
 20
53.281905999999999
 11
238.153209000000000
 21
96.125525999999994
  0
LINE
  8
0
  6
CONTINUOUS
 62
256
 10
229.473727999999990
 20
45.850994000000000
 11
237.044507000000010
 21
51.152110999999998
  0
ARC
  8
0
  6
CONTINUOUS
 62
256
 10
147.153209000000000
 20
61.125526000000001
 40
3.000000000000000
 50
270.000000000000000
 51
0.000000000000000
  0
LINE
  8
0
  6
CONTINUOUS
 62
256
 10
143.153209000000000
 20
58.125526000000001
 11
147.153209000000000
 21
58.125526000000001
  0
ARC
  8
0
  6
CONTINUOUS
 62
256
 10
143.153209000000000
 20
55.125526000000001
 40
3.000000000000000
 50
90.000000000000000
 51
180.000000000000000
  0
LINE
  8
0
  6
CONTINUOUS
 62
256
 10
147.953208999999990
 20
61.125526000000001
 11
147.953208999999990
 21
96.125525999999994
  0
ARC
  8
0
  6
CONTINUOUS
 62
256
 10
146.953208999999990
 20
61.125526000000001
 40
1.000000000000000
 50
270.000000000000000
 51
0.000000000000000
  0
LINE
  8
0
  6
CONTINUOUS
 62
256
 10
57.953209000000001
 20
61.125526000000001
 11
57.953209000000001
 21
96.125525999999994
  0
LINE
  8
0
  6
CONTINUOUS
 62
256
 10
58.953209000000001
 20
60.125526000000001
 11
146.953208999999990
 21
60.125526000000001
  0
ARC
  8
0
  6
CONTINUOUS
 62
256
 10
58.953209000000001
 20
61.125526000000001
 40
1.000000000000000
 50
180.000000000000000
 51
270.000000000000000
  0
LINE
  8
0
  6
CONTINUOUS
 62
256
 10
57.953209000000001
 20
62.821925000000000
 11
56.153208999999997
 21
62.821925000000000
  0
LINE
  8
0
  6
CONTINUOUS
 62
256
 10
57.953209000000001
 20
64.411135000000002
 11
56.153208999999997
 21
64.411135000000002
  0
LINE
  8
0
  6
CONTINUOUS
 62
256
 10
57.953209000000001
 20
76.125525999999994
 11
56.153208999999997
 21
76.125525999999994
  0
LINE
  8
0
  6
CONTINUOUS
 62
256
 10
57.953209000000001
 20
73.287287000000006
 11
56.153208999999997
 21
73.287287000000006
  0
LINE
  8
0
  6
CONTINUOUS
 62
256
 10
57.953209000000001
 20
71.940884999999994
 11
56.153208999999997
 21
71.940884999999994
  0
LINE
  8
0
  6
CONTINUOUS
 62
256
 10
57.953209000000001
 20
68.848153999999994
 11
56.153208999999997
 21
68.848153999999994
  0
LINE
  8
0
  6
CONTINUOUS
 62
256
 10
57.953209000000001
 20
67.369130999999996
 11
56.153208999999997
 21
67.369130999999996
  0
LINE
  8
0
  6
CONTINUOUS
 62
256
 10
150.153209000000000
 20
76.125525999999994
 11
147.953208999999990
 21
76.125525999999994
  0
LINE
  8
0
  6
CONTINUOUS
 62
256
 10
150.153209000000000
 20
73.287287000000006
 11
147.953208999999990
 21
73.287287000000006
  0
LINE
  8
0
  6
CONTINUOUS
 62
256
 10
150.153209000000000
 20
71.940884999999994
 11
147.953208999999990
 21
71.940884999999994
  0
LINE
  8
0
  6
CONTINUOUS
 62
256
 10
150.153209000000000
 20
68.848153999999994
 11
147.953208999999990
 21
68.848153999999994
  0
LINE
  8
0
  6
CONTINUOUS
 62
256
 10
150.153209000000000
 20
67.369130999999996
 11
147.953208999999990
 21
67.369130999999996
  0
LINE
  8
0
  6
CONTINUOUS
 62
256
 10
150.153209000000000
 20
64.411135000000002
 11
147.953208999999990
 21
64.411135000000002
  0
LINE
  8
0
  6
CONTINUOUS
 62
256
 10
150.153209000000000
 20
62.821925000000000
 11
147.953208999999990
 21
62.821925000000000
  0
LINE
  8
0
  6
CONTINUOUS
 62
256
 10
140.310809000000010
 20
56.085090999999998
 11
56.153208999999997
 21
56.085090999999998
  0
LINE
  8
0
  6
CONTINUOUS
 62
256
 10
140.153209000000000
 20
55.083613000000000
 11
56.153208999999997
 21
55.083613000000000
  0
LINE
  8
0
  6
CONTINUOUS
 62
256
 10
140.153209000000000
 20
51.620871000000001
 11
56.153208999999997
 21
51.620871000000001
  0
LINE
  8
0
  6
CONTINUOUS
 62
256
 10
140.153209000000000
 20
49.992443999999999
 11
56.153208999999997
 21
49.992443999999999
  0
LINE
  8
0
  6
CONTINUOUS
 62
256
 10
140.153209000000000
 20
45.125526000000001
 11
56.153208999999997
 21
45.125526000000001
  0
LINE
  8
0
  6
CONTINUOUS
 62
256
 10
140.153209000000000
 20
45.625526000000001
 11
56.153208999999997
 21
45.625526000000001
  0
LINE
  8
0
  6
CONTINUOUS
 62
256
 10
56.153208999999997
 20
43.625526000000001
 11
140.153209000000000
 21
43.625526000000001
  0
LINE
  8
0
  6
CONTINUOUS
 62
256
 10
150.153209000000000
 20
96.125525999999994
 11
150.153209000000000
 21
61.125526000000001
  0
ARC
  8
0
  6
CONTINUOUS
 62
256
 10
217.658053999999990
 20
129.525526000000010
 40
20.599999999999991
 50
55.000000000000007
 51
90.000000000000000
  0
ARC
  8
0
  6
CONTINUOUS
 62
256
 10
235.553209000000010
 20
138.969146999999990
 40
2.599999999999994
 50
0.000000000000000
 51
54.999999999999801
  0
LINE
  8
0
  6
CONTINUOUS
 62
256
 10
238.153209000000000
 20
138.969146999999990
 11
238.153209000000000
 21
96.125525999999994
  0
LINE
  8
0
  6
CONTINUOUS
 62
256
 10
229.473727999999990
 20
146.400058000000000
 11
237.044507000000010
 21
141.098941999999990
  0
ARC
  8
0
  6
CONTINUOUS
 62
256
 10
147.153209000000000
 20
131.125526000000010
 40
3.000000000000000
 50
0.000000000000000
 51
90.000000000000000
  0
LINE
  8
0
  6
CONTINUOUS
 62
256
 10
143.153209000000000
 20
134.125526000000010
 11
147.153209000000000
 21
134.125526000000010
  0
ARC
  8
0
  6
CONTINUOUS
 62
256
 10
143.153209000000000
 20
137.125526000000010
 40
3.000000000000000
 50
180.000000000000000
 51
270.000000000000000
  0
LINE
  8
0
  6
CONTINUOUS
 62
256
 10
147.953208999999990
 20
131.125526000000010
 11
147.953208999999990
 21
96.125525999999994
  0
ARC
  8
0
  6
CONTINUOUS
 62
256
 10
146.953208999999990
 20
131.125526000000010
 40
1.000000000000000
 50
0.000000000000000
 51
90.000000000000000
  0
LINE
  8
0
  6
CONTINUOUS
 62
256
 10
57.953209000000001
 20
131.125526000000010
 11
57.953209000000001
 21
96.125525999999994
  0
LINE
  8
0
  6
CONTINUOUS
 62
256
 10
58.953209000000001
 20
132.125526000000010
 11
146.953208999999990
 21
132.125526000000010
  0
ARC
  8
0
  6
CONTINUOUS
 62
256
 10
58.953209000000001
 20
131.125526000000010
 40
1.000000000000000
 50
90.000000000000000
 51
180.000000000000000
  0
LINE
  8
0
  6
CONTINUOUS
 62
256
 10
57.953209000000001
 20
129.429126999999990
 11
56.153208999999997
 21
129.429126999999990
  0
LINE
  8
0
  6
CONTINUOUS
 62
256
 10
57.953209000000001
 20
127.839918000000000
 11
56.153208999999997
 21
127.839918000000000
  0
LINE
  8
0
  6
CONTINUOUS
 62
256
 10
57.953209000000001
 20
116.125525999999990
 11
56.153208999999997
 21
116.125525999999990
  0
LINE
  8
0
  6
CONTINUOUS
 62
256
 10
57.953209000000001
 20
118.963766000000010
 11
56.153208999999997
 21
118.963766000000010
  0
LINE
  8
0
  6
CONTINUOUS
 62
256
 10
57.953209000000001
 20
120.310168000000000
 11
56.153208999999997
 21
120.310168000000000
  0
LINE
  8
0
  6
CONTINUOUS
 62
256
 10
57.953209000000001
 20
123.402899000000010
 11
56.153208999999997
 21
123.402899000000010
  0
LINE
  8
0
  6
CONTINUOUS
 62
256
 10
57.953209000000001
 20
124.881922000000000
 11
56.153208999999997
 21
124.881922000000000
  0
LINE
  8
0
  6
CONTINUOUS
 62
256
 10
150.153209000000000
 20
116.125525999999990
 11
147.953208999999990
 21
116.125525999999990
  0
LINE
  8
0
  6
CONTINUOUS
 62
256
 10
150.153209000000000
 20
118.963766000000010
 11
147.953208999999990
 21
118.963766000000010
  0
LINE
  8
0
  6
CONTINUOUS
 62
256
 10
150.153209000000000
 20
120.310168000000000
 11
147.953208999999990
 21
120.310168000000000
  0
LINE
  8
0
  6
CONTINUOUS
 62
256
 10
150.153209000000000
 20
123.402899000000010
 11
147.953208999999990
 21
123.402899000000010
  0
LINE
  8
0
  6
CONTINUOUS
 62
256
 10
150.153209000000000
 20
124.881922000000000
 11
147.953208999999990
 21
124.881922000000000
  0
LINE
  8
0
  6
CONTINUOUS
 62
256
 10
150.153209000000000
 20
127.839918000000000
 11
147.953208999999990
 21
127.839918000000000
  0
LINE
  8
0
  6
CONTINUOUS
 62
256
 10
150.153209000000000
 20
129.429126999999990
 11
147.953208999999990
 21
129.429126999999990
  0
LINE
  8
0
  6
CONTINUOUS
 62
256
 10
140.310809000000010
 20
136.165962000000010
 11
56.153208999999997
 21
136.165962000000010
  0
LINE
  8
0
  6
CONTINUOUS
 62
256
 10
140.153209000000000
 20
137.167440000000000
 11
56.153208999999997
 21
137.167440000000000
  0
LINE
  8
0
  6
CONTINUOUS
 62
256
 10
140.153209000000000
 20
140.630181999999990
 11
56.153208999999997
 21
140.630181999999990
  0
LINE
  8
0
  6
CONTINUOUS
 62
256
 10
140.153209000000000
 20
142.258609000000010
 11
56.153208999999997
 21
142.258609000000010
  0
LINE
  8
0
  6
CONTINUOUS
 62
256
 10
140.153209000000000
 20
147.125526000000010
 11
56.153208999999997
 21
147.125526000000010
  0
LINE
  8
0
  6
CONTINUOUS
 62
256
 10
140.153209000000000
 20
146.625526000000010
 11
56.153208999999997
 21
146.625526000000010
  0
LINE
  8
0
  6
CONTINUOUS
 62
256
 10
56.153208999999997
 20
148.625526000000010
 11
140.153209000000000
 21
148.625526000000010
  0
LINE
  8
0
  6
CONTINUOUS
 62
256
 10
150.153209000000000
 20
96.125525999999994
 11
150.153209000000000
 21
131.125526000000010
  0
LINE
  8
0
  6
DASHDOT
 62
256
 10
-119.279428000000000
 20
96.125525999999994
 11
248.154102999999990
 21
96.125525999999994
  0
POLYLINE
  8
0
  6
CONTINUOUS
 62
256
 66
1
 70
1
  0
VERTEX
  8
0
  6
CONTINUOUS
 62
256
 10
155.853208999999990
 20
143.452856999999990
  0
VERTEX
  8
0
  6
CONTINUOUS
 62
256
 10
155.762899817895170
 20
144.155813510558180
  0
VERTEX
  8
0
  6
CONTINUOUS
 62
256
 10
155.495442802803040
 20
144.831755796638130
  0
VERTEX
  8
0
  6
CONTINUOUS
 62
256
 10
155.061116177821960
 20
145.454707775258670
  0
VERTEX
  8
0
  6
CONTINUOUS
 62
256
 10
154.476610871576780
 20
146.000729751236830
  0
VERTEX
  8
0
  6
CONTINUOUS
 62
256
 10
153.764389095192120
 20
146.448838406248480
  0
VERTEX
  8
0
  6
CONTINUOUS
 62
256
 10
152.951821132115920
 20
146.781813175983730
  0
VERTEX
  8
0
  6
CONTINUOUS
 62
256
 10
152.070133513475810
 20
146.986858026776080
  0
VERTEX
  8
0
  6
CONTINUOUS
 62
256
 10
151.153209000000000
 20
147.056093199999990
  0
VERTEX
  8
0
  6
CONTINUOUS
 62
256
 10
150.236284486524200
 20
146.986858026776080
  0
VERTEX
  8
0
  6
CONTINUOUS
 62
256
 10
149.354596867884080
 20
146.781813175983730
  0
VERTEX
  8
0
  6
CONTINUOUS
 62
256
 10
148.542028904807890
 20
146.448838406248480
  0
VERTEX
  8
0
  6
CONTINUOUS
 62
256
 10
147.829807128423230
 20
146.000729751236830
  0
VERTEX
  8
0
  6
CONTINUOUS
 62
256
 10
147.245301822178050
 20
145.454707775258670
  0
VERTEX
  8
0
  6
CONTINUOUS
 62
256
 10
146.810975197196970
 20
144.831755796638130
  0
VERTEX
  8
0
  6
CONTINUOUS
 62
256
 10
146.543518182104830
 20
144.155813510558180
  0
VERTEX
  8
0
  6
CONTINUOUS
 62
256
 10
146.453209000000020
 20
143.452856999999990
  0
VERTEX
  8
0
  6
CONTINUOUS
 62
256
 10
146.543518182104830
 20
142.749900489441810
  0
VERTEX
  8
0
  6
CONTINUOUS
 62
256
 10
146.810975197196970
 20
142.073958203361850
  0
VERTEX
  8
0
  6
CONTINUOUS
 62
256
 10
147.245301822178050
 20
141.451006224741320
  0
VERTEX
  8
0
  6
CONTINUOUS
 62
256
 10
147.829807128423230
 20
140.904984248763160
  0
VERTEX
  8
0
  6
CONTINUOUS
 62
256
 10
148.542028904807890
 20
140.456875593751500
  0
VERTEX
  8
0
  6
CONTINUOUS
 62
256
 10
149.354596867884080
 20
140.123900824016260
  0
VERTEX
  8
0
  6
CONTINUOUS
 62
256
 10
150.236284486524200
 20
139.918855973223940
  0
VERTEX
  8
0
  6
CONTINUOUS
 62
256
 10
151.153209000000000
 20
139.849620800000000
  0
VERTEX
  8
0
  6
CONTINUOUS
 62
256
 10
152.070133513475810
 20
139.918855973223940
  0
VERTEX
  8
0
  6
CONTINUOUS
 62
256
 10
152.951821132115920
 20
140.123900824016260
  0
VERTEX
  8
0
  6
CONTINUOUS
 62
256
 10
153.764389095192120
 20
140.456875593751500
  0
VERTEX
  8
0
  6
CONTINUOUS
 62
256
 10
154.476610871576750
 20
140.904984248763160
  0
VERTEX
  8
0
  6
CONTINUOUS
 62
256
 10
155.061116177821960
 20
141.451006224741320
  0
VERTEX
  8
0
  6
CONTINUOUS
 62
256
 10
155.495442802803040
 20
142.073958203361850
  0
VERTEX
  8
0
  6
CONTINUOUS
 62
256
 10
155.762899817895170
 20
142.749900489441810
  0
SEQEND
  8
0
  6
CONTINUOUS
 62
256
  0
LINE
  8
0
  6
CONTINUOUS
 62
256
 10
153.153209000000000
 20
146.445233000000000
 11
151.153209000000000
 21
145.269447000000010
  0
LINE
  8
0
  6
CONTINUOUS
 62
256
 10
151.153209000000000
 20
145.269447000000010
 11
149.153209000000000
 21
143.616806000000000
  0
LINE
  8
0
  6
CONTINUOUS
 62
256
 10
149.153209000000000
 20
146.445233000000000
 11
151.153209000000000
 21
145.269447000000010
  0
LINE
  8
0
  6
CONTINUOUS
 62
256
 10
151.153209000000000
 20
145.269447000000010
 11
153.153209000000000
 21
143.616806000000000
  0
POLYLINE
  8
0
  6
CONTINUOUS
 62
256
 66
1
 70
1
  0
VERTEX
  8
0
  6
CONTINUOUS
 62
256
 10
155.853208999999990
 20
48.798195000000000
  0
VERTEX
  8
0
  6
CONTINUOUS
 62
256
 10
155.762899817895170
 20
49.501151510558167
  0
VERTEX
  8
0
  6
CONTINUOUS
 62
256
 10
155.495442802803040
 20
50.177093796638140
  0
VERTEX
  8
0
  6
CONTINUOUS
 62
256
 10
155.061116177821960
 20
50.800045775258660
  0
VERTEX
  8
0
  6
CONTINUOUS
 62
256
 10
154.476610871576780
 20
51.346067751236838
  0
VERTEX
  8
0
  6
CONTINUOUS
 62
256
 10
153.764389095192120
 20
51.794176406248489
  0
VERTEX
  8
0
  6
CONTINUOUS
 62
256
 10
152.951821132115920
 20
52.127151175983734
  0
VERTEX
  8
0
  6
CONTINUOUS
 62
256
 10
152.070133513475810
 20
52.332196026776060
  0
VERTEX
  8
0
  6
CONTINUOUS
 62
256
 10
151.153209000000000
 20
52.401431199999990
  0
VERTEX
  8
0
  6
CONTINUOUS
 62
256
 10
150.236284486524200
 20
52.332196026776060
  0
VERTEX
  8
0
  6
CONTINUOUS
 62
256
 10
149.354596867884080
 20
52.127151175983734
  0
VERTEX
  8
0
  6
CONTINUOUS
 62
256
 10
148.542028904807890
 20
51.794176406248489
  0
VERTEX
  8
0
  6
CONTINUOUS
 62
256
 10
147.829807128423230
 20
51.346067751236838
  0
VERTEX
  8
0
  6
CONTINUOUS
 62
256
 10
147.245301822178050
 20
50.800045775258660
  0
VERTEX
  8
0
  6
CONTINUOUS
 62
256
 10
146.810975197196970
 20
50.177093796638140
  0
VERTEX
  8
0
  6
CONTINUOUS
 62
256
 10
146.543518182104830
 20
49.501151510558167
  0
VERTEX
  8
0
  6
CONTINUOUS
 62
256
 10
146.453209000000020
 20
48.798195000000000
  0
VERTEX
  8
0
  6
CONTINUOUS
 62
256
 10
146.543518182104830
 20
48.095238489441833
  0
VERTEX
  8
0
  6
CONTINUOUS
 62
256
 10
146.810975197196970
 20
47.419296203361860
  0
VERTEX
  8
0
  6
CONTINUOUS
 62
256
 10
147.245301822178050
 20
46.796344224741340
  0
VERTEX
  8
0
  6
CONTINUOUS
 62
256
 10
147.829807128423230
 20
46.250322248763162
  0
VERTEX
  8
0
  6
CONTINUOUS
 62
256
 10
148.542028904807890
 20
45.802213593751510
  0
VERTEX
  8
0
  6
CONTINUOUS
 62
256
 10
149.354596867884080
 20
45.469238824016266
  0
VERTEX
  8
0
  6
CONTINUOUS
 62
256
 10
150.236284486524200
 20
45.264193973223939
  0
VERTEX
  8
0
  6
CONTINUOUS
 62
256
 10
151.153209000000000
 20
45.194958800000009
  0
VERTEX
  8
0
  6
CONTINUOUS
 62
256
 10
152.070133513475810
 20
45.264193973223939
  0
VERTEX
  8
0
  6
CONTINUOUS
 62
256
 10
152.951821132115920
 20
45.469238824016266
  0
VERTEX
  8
0
  6
CONTINUOUS
 62
256
 10
153.764389095192120
 20
45.802213593751510
  0
VERTEX
  8
0
  6
CONTINUOUS
 62
256
 10
154.476610871576750
 20
46.250322248763162
  0
VERTEX
  8
0
  6
CONTINUOUS
 62
256
 10
155.061116177821960
 20
46.796344224741340
  0
VERTEX
  8
0
  6
CONTINUOUS
 62
256
 10
155.495442802803040
 20
47.419296203361860
  0
VERTEX
  8
0
  6
CONTINUOUS
 62
256
 10
155.762899817895170
 20
48.095238489441833
  0
SEQEND
  8
0
  6
CONTINUOUS
 62
256
  0
LINE
  8
0
  6
CONTINUOUS
 62
256
 10
153.153209000000000
 20
45.805819999999997
 11
151.153209000000000
 21
46.981605000000002
  0
LINE
  8
0
  6
CONTINUOUS
 62
256
 10
151.153209000000000
 20
46.981605000000002
 11
149.153209000000000
 21
48.634247000000002
  0
LINE
  8
0
  6
CONTINUOUS
 62
256
 10
149.153209000000000
 20
45.805819999999997
 11
151.153209000000000
 21
46.981605000000002
  0
LINE
  8
0
  6
CONTINUOUS
 62
256
 10
151.153209000000000
 20
46.981605000000002
 11
153.153209000000000
 21
48.634247000000002
  0
LINE
  8
0
  6
CONTINUOUS
 62
256
 10
140.153209000000000
 20
150.125526000000010
 11
217.658053999999990
 21
150.125526000000010
  0
LINE
  8
0
  6
CONTINUOUS
 62
256
 10
140.153209000000000
 20
150.125526000000010
 11
140.153209000000000
 21
137.125526000000010
  0
LINE
  8
0
  6
CONTINUOUS
 62
256
 10
140.153209000000000
 20
42.125526000000001
 11
140.153209000000000
 21
55.125526000000001
  0
LINE
  8
0
  6
CONTINUOUS
 62
256
 10
140.153209000000000
 20
42.125526000000001
 11
217.658053999999990
 21
42.125526000000001
  0
LINE
  8
0
  6
CONTINUOUS
 62
256
 10
56.153208999999997
 20
96.125525999999994
 11
56.153208999999997
 21
42.677892000000000
  0
LINE
  8
0
  6
CONTINUOUS
 62
256
 10
56.153208999999997
 20
96.125525999999994
 11
56.153208999999997
 21
149.573161000000000
  0
LINE
  8
0
  6
CONTINUOUS
 62
256
 10
-70.846790999999996
 20
6.625599000000000
 11
-48.846791000000003
 21
6.625599000000000
  0
LINE
  8
0
  6
CONTINUOUS
 62
256
 10
-62.846791000000003
 20
6.625599000000000
 11
-62.846791000000003
 21
38.625599000000001
  0
LINE
  8
0
  6
CONTINUOUS
 62
256
 10
-62.846791000000003
 20
38.625599000000001
 11
-56.846791000000003
 21
38.625599000000001
  0
ARC
  8
0
  6
CONTINUOUS
 62
256
 10
-59.846791000000003
 20
38.625599000000001
 40
3.000000000000000
 50
0.000000000000000
 51
180.000000000000000
  0
LINE
  8
0
  6
CONTINUOUS
 62
256
 10
-56.846791000000003
 20
6.625599000000000
 11
-56.846791000000003
 21
38.625599000000001
  0
LINE
  8
0
  6
DASHDOT
 62
256
 10
-59.846791000000003
 20
150.158537000000000
 11
-59.846791000000003
 21
3.614632000000000
  0
LINE
  8
0
  6
CONTINUOUS
 62
256
 10
-48.846791000000003
 20
46.625599000000001
 11
-48.846791000000003
 21
38.625599000000001
  0
LINE
  8
0
  6
CONTINUOUS
 62
256
 10
-47.846791000000003
 20
48.625526000000001
 11
-47.846791000000003
 21
46.625599000000001
  0
LINE
  8
0
  6
CONTINUOUS
 62
256
 10
-71.846790999999996
 20
46.625599000000001
 11
-47.846791000000003
 21
46.625599000000001
  0
LINE
  8
0
  6
CONTINUOUS
 62
256
 10
-48.846791000000003
 20
38.625599000000001
 11
-48.846791000000003
 21
6.625599000000000
  0
LINE
  8
0
  6
CONTINUOUS
 62
256
 10
-70.846790999999996
 20
46.625599000000001
 11
-70.846790999999996
 21
6.625599000000000
  0
LINE
  8
0
  6
CONTINUOUS
 62
256
 10
-71.846790999999996
 20
48.625526000000001
 11
-71.846790999999996
 21
46.625599000000001
  0
LINE
  8
0
  6
CONTINUOUS
 62
256
 10
-59.846791000000003
 20
52.625526000000001
 11
-111.869308000000000
 21
52.625526000000001
  0
LINE
  8
0
  6
CONTINUOUS
 62
256
 10
-111.869308000000000
 20
62.125526000000001
 11
-111.869308000000000
 21
52.625526000000001
  0
LINE
  8
0
  6
CONTINUOUS
 62
256
 10
-113.030069999999990
 20
128.625526000000010
 11
-111.869308000000000
 21
62.125526000000001
  0
LINE
  8
0
  6
CONTINUOUS
 62
256
 10
28.144786000000000
 20
128.625526000000010
 11
-113.038797000000000
 21
128.625526000000010
  0
LINE
  8
0
  6
CONTINUOUS
 62
256
 10
26.983719000000001
 20
52.625526000000001
 11
-59.846791000000003
 21
52.625526000000001
  0
LINE
  8
0
  6
CONTINUOUS
 62
256
 10
-97.346790999999996
 20
143.625526000000010
 11
-22.346791000000000
 21
143.625526000000010
  0
LINE
  8
0
  6
CONTINUOUS
 62
256
 10
13.278001000000000
 20
139.625526000000010
 11
-0.757157000000000
 21
139.625526000000010
  0
LINE
  8
0
  6
CONTINUOUS
 62
256
 10
-97.346790999999996
 20
143.625526000000010
 11
-97.346790999999996
 21
139.625526000000010
  0
LINE
  8
0
  6
CONTINUOUS
 62
256
 10
-22.346791000000000
 20
143.625526000000010
 11
-22.346791000000000
 21
139.625526000000010
  0
LINE
  8
0
  6
CONTINUOUS
 62
256
 10
-97.346790999999996
 20
52.625526000000001
 11
-97.346790999999996
 21
48.625526000000001
  0
LINE
  8
0
  6
CONTINUOUS
 62
256
 10
-97.346790999999996
 20
48.625526000000001
 11
-22.346791000000000
 21
48.625526000000001
  0
LINE
  8
0
  6
CONTINUOUS
 62
256
 10
-22.346791000000000
 20
52.625526000000001
 11
-22.346791000000000
 21
48.625526000000001
  0
LINE
  8
0
  6
CONTINUOUS
 62
256
 10
-113.038797000000000
 20
128.625526000000010
 11
-112.846791000000000
 21
139.625526000000010
  0
LINE
  8
0
  6
CONTINUOUS
 62
256
 10
-112.846791000000000
 20
139.625526000000010
 11
27.943747999999999
 21
139.625526000000010
  0
LINE
  8
0
  6
CONTINUOUS
 62
256
 10
28.144480999999999
 20
128.625526000000010
 11
26.983719000000001
 21
62.125526000000001
  0
LINE
  8
0
  6
CONTINUOUS
 62
256
 10
26.983719000000001
 20
62.125526000000001
 11
26.983719000000001
 21
52.625526000000001
  0
LINE
  8
0
  6
CONTINUOUS
 62
256
 10
40.646703000000002
 20
149.843828000000000
 11
56.153208999999997
 21
149.573161000000000
  0
LINE
  8
0
  6
CONTINUOUS
 62
256
 10
40.646703000000002
 20
42.407224999999997
 11
56.153208999999997
 21
42.677892000000000
  0
ARC
  8
0
  6
CONTINUOUS
 62
256
 10
30.144786000000000
 20
128.625526000000010
 40
2.000000000000000
 50
180.000000000000000
 51
270.000000000000000
  0
ARC
  8
0
  6
CONTINUOUS
 62
256
 10
28.983719000000001
 20
52.625526000000001
 40
2.000000000000000
 50
90.000000000000000
 51
180.000000000000000
  0
LINE
  8
0
  6
CONTINUOUS
 62
256
 10
28.135753000000001
 20
128.625526000000010
 11
27.943747999999999
 21
139.625526000000010
  0
LINE
  8
0
  6
CONTINUOUS
 62
256
 10
28.983719000000001
 20
54.625526000000001
 11
35.153208999999997
 21
54.625526000000001
  0
ARC
  8
0
  6
CONTINUOUS
 62
256
 10
35.153208999999997
 20
51.625526000000001
 40
3.000000000000000
 50
0.000000000000000
 51
90.000000000000000
  0
ARC
  8
0
  6
CONTINUOUS
 62
256
 10
41.153208999999997
 20
146.886895000000010
 40
3.000000000000011
 50
89.000000000000000
 51
180.000000000000000
  0
LINE
  8
0
  6
CONTINUOUS
 62
256
 10
30.144786000000000
 20
126.625525999999990
 11
35.153208999999997
 21
126.625525999999990
  0
ARC
  8
0
  6
CONTINUOUS
 62
256
 10
35.153208999999997
 20
129.625526000000010
 40
3.000000000000000
 50
270.000000000000000
 51
0.000000000000000
  0
ARC
  8
0
  6
CONTINUOUS
 62
256
 10
41.153208999999997
 20
45.364156999999999
 40
3.000000000000000
 50
180.000000000000000
 51
271.000000000000060
  0
LINE
  8
0
  6
CONTINUOUS
 62
256
 10
38.153208999999997
 20
45.364156999999999
 11
38.153208999999997
 21
62.625526000000001
  0
LINE
  8
0
  6
CONTINUOUS
 62
256
 10
38.153208999999997
 20
146.886895000000010
 11
38.153208999999997
 21
140.625526000000010
  0
ARC
  8
0
  6
CONTINUOUS
 62
256
 10
41.153208999999997
 20
65.233360000000005
 40
3.000000000000000
 50
180.000000000000000
 51
270.000000000000000
  0
ARC
  8
0
  6
CONTINUOUS
 62
256
 10
41.153208999999997
 20
127.017692000000000
 40
3.000000000000014
 50
90.000000000000000
 51
180.000000000000000
  0
ARC
  8
0
  6
CONTINUOUS
 62
256
 10
41.153208999999997
 20
45.364156999999999
 40
3.000000000000000
 50
180.000000000000000
 51
271.000000000000060
  0
ARC
  8
0
  6
CONTINUOUS
 62
256
 10
41.153208999999997
 20
146.886895000000010
 40
3.000000000000011
 50
89.000000000000000
 51
180.000000000000000
  0
LINE
  8
0
  6
CONTINUOUS
 62
256
 10
38.153208999999997
 20
146.886895000000010
 11
38.153208999999997
 21
96.125525999999994
  0
LINE
  8
0
  6
CONTINUOUS
 62
256
 10
38.153208999999997
 20
45.364156999999999
 11
38.153208999999997
 21
96.125525999999994
  0
ARC
  8
0
  6
CONTINUOUS
 62
256
 10
49.153208999999997
 20
135.555178000000010
 40
2.000000000000000
 50
0.000000000000000
 51
90.000000000000000
  0
ARC
  8
0
  6
CONTINUOUS
 62
256
 10
48.153208999999997
 20
143.625526000000010
 40
3.000000000000000
 50
270.000000000000000
 51
0.000000000000000
  0
ARC
  8
0
  6
CONTINUOUS
 62
256
 10
43.153208999999997
 20
135.625526000000010
 40
5.000000000000000
 50
90.000000000000000
 51
180.000000000000000
  0
ARC
  8
0
  6
CONTINUOUS
 62
256
 10
43.153208999999997
 20
132.555178000000010
 40
5.000000000000000
 50
90.000000000000000
 51
180.000000000000000
  0
ARC
  8
0
  6
CONTINUOUS
 62
256
 10
48.153208999999997
 20
127.017692000000000
 40
3.000000000000000
 50
0.000000000000000
 51
90.000000000000000
  0
ARC
  8
0
  6
CONTINUOUS
 62
256
 10
43.153208999999997
 20
56.625526000000001
 40
5.000000000000000
 50
180.000000000000000
 51
270.000000000000000
  0
ARC
  8
0
  6
CONTINUOUS
 62
256
 10
43.153208999999997
 20
59.695875000000001
 40
5.000000000000000
 50
180.000000000000000
 51
270.000000000000000
  0
ARC
  8
0
  6
CONTINUOUS
 62
256
 10
49.153208999999997
 20
56.695875000000001
 40
2.000000000000000
 50
270.000000000000000
 51
0.000000000000000
  0
ARC
  8
0
  6
CONTINUOUS
 62
256
 10
48.153208999999997
 20
48.625526000000001
 40
3.000000000000000
 50
0.000000000000000
 51
90.000000000000000
  0
ARC
  8
0
  6
CONTINUOUS
 62
256
 10
48.153208999999997
 20
65.233360000000005
 40
3.000000000000000
 50
270.000000000000000
 51
0.000000000000000
  0
ARC
  8
0
  6
CONTINUOUS
 62
256
 10
54.153208999999997
 20
146.659979999999990
 40
3.000000000000011
 50
89.000000000000000
 51
180.000000000000000
  0
ARC
  8
0
  6
CONTINUOUS
 62
256
 10
54.153208999999997
 20
45.591073000000002
 40
3.000000000000000
 50
180.000000000000000
 51
271.000000000000060
  0
LINE
  8
0
  6
CONTINUOUS
 62
256
 10
51.153208999999997
 20
143.625526000000010
 11
51.153208999999997
 21
146.659979999999990
  0
LINE
  8
0
  6
CONTINUOUS
 62
256
 10
49.153208999999997
 20
137.555178000000010
 11
43.153208999999997
 21
137.555178000000010
  0
LINE
  8
0
  6
CONTINUOUS
 62
256
 10
48.153208999999997
 20
140.625526000000010
 11
43.153208999999997
 21
140.625526000000010
  0
LINE
  8
0
  6
CONTINUOUS
 62
256
 10
51.153208999999997
 20
96.125525999999994
 11
51.153208999999997
 21
135.555178000000010
  0
LINE
  8
0
  6
CONTINUOUS
 62
256
 10
41.153208999999997
 20
130.017692000000010
 11
48.153208999999997
 21
130.017692000000010
  0
LINE
  8
0
  6
CONTINUOUS
 62
256
 10
38.153208999999997
 20
133.017692000000010
 11
38.153208999999997
 21
135.625526000000010
  0
LINE
  8
0
  6
CONTINUOUS
 62
256
 10
51.153208999999997
 20
116.125525999999990
 11
56.153208999999997
 21
116.125525999999990
  0
LINE
  8
0
  6
CONTINUOUS
 62
256
 10
51.153208999999997
 20
96.125525999999994
 11
51.153208999999997
 21
56.695875000000001
  0
LINE
  8
0
  6
CONTINUOUS
 62
256
 10
51.153208999999997
 20
76.125525999999994
 11
56.153208999999997
 21
76.125525999999994
  0
LINE
  8
0
  6
CONTINUOUS
 62
256
 10
41.153208999999997
 20
62.233359999999998
 11
48.153208999999997
 21
62.233359999999998
  0
LINE
  8
0
  6
CONTINUOUS
 62
256
 10
38.153208999999997
 20
59.233359999999998
 11
38.153208999999997
 21
56.625526000000001
  0
LINE
  8
0
  6
CONTINUOUS
 62
256
 10
49.153208999999997
 20
54.695875000000001
 11
43.153208999999997
 21
54.695875000000001
  0
LINE
  8
0
  6
CONTINUOUS
 62
256
 10
48.153208999999997
 20
51.625526000000001
 11
43.153208999999997
 21
51.625526000000001
  0
LINE
  8
0
  6
CONTINUOUS
 62
256
 10
51.153208999999997
 20
48.625526000000001
 11
51.153208999999997
 21
45.591073000000002
  0
ENDSEC
  0
EOF
