  0
SECTION
  2
HEADER
  9
$TEXTSIZE
 40
2.5
  9
$ACADVER
  1
AC1009
  9
$DIMASZ
 40
1.931851648807023
  9
$DIMEXE
 40
2.000000000000000
  9
$DIMEXO
 40
1.000000000000000
  9
$DIMLFAC
 40
1.000000000000000
  9
$DIMSCALE
 40
1.000000000000000
  9
$DIMTAD
 70
1
  9
$DIMTFAC
 40
0.625000000000000
  9
$DIMTXT
 40
2.799999952316284
  9
$LUPREC
 70
3
  9
$REGENMODE
 70
1
  9
$TEXTSTYLE
  7
STANDARD1
  0
ENDSEC
  0
SECTION
  2
TABLES
  0
TABLE
  2
LTYPE
 70
4
  0
LTYPE
  2
CONTINUOUS
 70
64
  3
Solid line
 72
65
 73
0
 40
0.0
  0
LTYPE
  2
DASHED
 70
64
  3
-- -- -- -- -- -- -- -- -- -- -- -- -- -- --
 72
65
 73
2
 40
0.75
 49
0.5
 49
-0.25
  0
LTYPE
  2
DASHDOT
 70
64
  3
__ . __ . __ . __ . __ . __ . __ . __ . __ . __
 72
65
 73
4
 40
1.0
 49
0.5
 49
-0.25
 49
0.0
 49
-0.25
  0
LTYPE
  2
DIVIDE
 70
64
  3
__ . . __ . . __ . . __ . . __ . . __ . . __
 72
65
 73
6
 40
1.25
 49
0.5
 49
-0.25
 49
0.0
 49
-0.25
 49
0.0
 49
-0.25
  0
ENDTAB
  0
TABLE
  2
LAYER
 70
3
  0
LAYER
  2
0
 70
64
 62
53
  6
CONTINUOUS
  0
LAYER
  2
1
 70
64
 62
102
  6
CONTINUOUS
  0
LAYER
  2
2
 70
64
 62
102
  6
CONTINUOUS
  0
ENDTAB
  0
TABLE
  2
STYLE
 70
4
  0
STYLE
  2
STANDARD1
 70
64
 40
0.0
 41
1.0
 50
0.0
 71
0
 42
3.200000047683716
  3
MONOTXT
  4
BIGFONT
  0
STYLE
  2
STANDARD2
 70
68
 40
0.0
 41
1.0
 50
0.0
 71
0
 42
3.200000047683716
  3
MONOTXT
  4
BIGFONT
  0
STYLE
  2
STANDARD3
 70
64
 40
0.0
 41
1.0
 50
0.0
 71
0
 42
3.200000047683716
  3
MONOTXT
  4

  0
STYLE
  2
STANDARD4
 70
68
 40
0.0
 41
1.0
 50
0.0
 71
0
 42
3.200000047683716
  3
MONOTXT
  4

  0
ENDTAB
  0
TABLE
  2
VIEW
 70
0
  0
ENDTAB
  0
ENDSEC
  0
SECTION
  2
BLOCKS
  0
ENDSEC
  0
SECTION
  2
ENTITIES
  0
CIRCLE
  8
0
  6
CONTINUOUS
 62
256
 10
-126.977048000000000
 20
-41.585825000000000
 40
5.000000000000000
  0
CIRCLE
  8
0
  6
CONTINUOUS
 62
256
 10
7.022952000000000
 20
-41.585825000000000
 40
4.187999999999999
  0
CIRCLE
  8
0
  6
CONTINUOUS
 62
256
 10
7.022952000000000
 20
-41.585825000000000
 40
5.000000000000000
  0
CIRCLE
  8
0
  6
CONTINUOUS
 62
256
 10
-126.977048000000000
 20
-41.585825000000000
 40
4.188000000000002
  0
CIRCLE
  8
0
  6
CONTINUOUS
 62
256
 10
7.022952000000000
 20
-163.585825000000000
 40
4.187999999999999
  0
CIRCLE
  8
0
  6
CONTINUOUS
 62
256
 10
7.022952000000000
 20
-163.585825000000000
 40
5.000000000000000
  0
CIRCLE
  8
0
  6
CONTINUOUS
 62
256
 10
-126.977048000000000
 20
-163.585825000000000
 40
4.188000000000002
  0
CIRCLE
  8
0
  6
CONTINUOUS
 62
256
 10
-126.977048000000000
 20
-163.585825000000000
 40
5.000000000000000
  0
POINT
  8
0
  6
DASHED
 62
256
 10
-228.236155999999990
 20
-75.585825000000000
  0
LINE
  8
0
  6
CONTINUOUS
 62
256
 10
48.522951999999997
 20
-158.085825000000000
 11
132.522952000000000
 21
-158.085825000000000
  0
LINE
  8
0
  6
CONTINUOUS
 62
256
 10
132.522952000000000
 20
-118.585825000000000
 11
48.522951999999997
 21
-118.585825000000000
  0
LINE
  8
0
  6
CONTINUOUS
 62
256
 10
132.522952000000000
 20
-124.213860000000000
 11
48.522951999999997
 21
-124.213860000000000
  0
LINE
  8
0
  6
CONTINUOUS
 62
256
 10
132.522952000000000
 20
-122.971940000000000
 11
48.522951999999997
 21
-122.971940000000000
  0
LINE
  8
0
  6
CONTINUOUS
 62
256
 10
132.522952000000000
 20
-127.424065000000000
 11
48.522951999999997
 21
-127.424065000000000
  0
LINE
  8
0
  6
CONTINUOUS
 62
256
 10
132.522952000000000
 20
-128.770466000000000
 11
48.522951999999997
 21
-128.770466000000000
  0
LINE
  8
0
  6
CONTINUOUS
 62
256
 10
132.522952000000000
 20
-131.863197000000010
 11
48.522951999999997
 21
-131.863197000000010
  0
LINE
  8
0
  6
CONTINUOUS
 62
256
 10
132.522952000000000
 20
-133.342220000000000
 11
48.522951999999997
 21
-133.342220000000000
  0
LINE
  8
0
  6
CONTINUOUS
 62
256
 10
132.522952000000000
 20
-136.300216000000010
 11
48.522951999999997
 21
-136.300216000000010
  0
LINE
  8
0
  6
CONTINUOUS
 62
256
 10
132.522952000000000
 20
-137.889425999999990
 11
48.522951999999997
 21
-137.889425999999990
  0
LINE
  8
0
  6
CONTINUOUS
 62
256
 10
132.522952000000000
 20
-145.627738999999990
 11
48.522951999999997
 21
-145.627738999999990
  0
LINE
  8
0
  6
CONTINUOUS
 62
256
 10
132.522952000000000
 20
-150.718908000000000
 11
48.522951999999997
 21
-150.718908000000000
  0
LINE
  8
0
  6
CONTINUOUS
 62
256
 10
132.522952000000000
 20
-155.085825000000000
 11
48.522951999999997
 21
-155.085825000000000
  0
LINE
  8
0
  6
CONTINUOUS
 62
256
 10
132.522952000000000
 20
-155.585825000000000
 11
48.522951999999997
 21
-155.585825000000000
  0
LINE
  8
0
  6
CONTINUOUS
 62
256
 10
48.522951999999997
 20
-158.085825000000000
 11
48.522951999999997
 21
-104.585825000000000
  0
LINE
  8
0
  6
CONTINUOUS
 62
256
 10
132.522952000000000
 20
-71.282223999999999
 11
48.522951999999997
 21
-71.282223999999999
  0
LINE
  8
0
  6
CONTINUOUS
 62
256
 10
132.522952000000000
 20
-72.871433999999994
 11
48.522951999999997
 21
-72.871433999999994
  0
LINE
  8
0
  6
CONTINUOUS
 62
256
 10
132.522952000000000
 20
-75.829429000000005
 11
48.522951999999997
 21
-75.829429000000005
  0
LINE
  8
0
  6
CONTINUOUS
 62
256
 10
132.522952000000000
 20
-77.308453000000000
 11
48.522951999999997
 21
-77.308453000000000
  0
LINE
  8
0
  6
CONTINUOUS
 62
256
 10
132.522952000000000
 20
-80.401184000000001
 11
48.522951999999997
 21
-80.401184000000001
  0
LINE
  8
0
  6
CONTINUOUS
 62
256
 10
132.522952000000000
 20
-81.747585000000001
 11
48.522951999999997
 21
-81.747585000000001
  0
LINE
  8
0
  6
CONTINUOUS
 62
256
 10
132.522952000000000
 20
-84.957790000000003
 11
48.522951999999997
 21
-84.957790000000003
  0
LINE
  8
0
  6
CONTINUOUS
 62
256
 10
132.522952000000000
 20
-86.199709999999996
 11
48.522951999999997
 21
-86.199709999999996
  0
LINE
  8
0
  6
CONTINUOUS
 62
256
 10
132.522952000000000
 20
-90.585825000000000
 11
48.522951999999997
 21
-90.585825000000000
  0
LINE
  8
0
  6
DASHDOT
 62
256
 10
1.555674000000000
 20
-104.585825000000000
 11
238.840916999999990
 21
-104.585825000000000
  0
LINE
  8
0
  6
CONTINUOUS
 62
256
 10
48.522951999999997
 20
-51.085825000000000
 11
48.522951999999997
 21
-104.585825000000000
  0
LINE
  8
0
  6
CONTINUOUS
 62
256
 10
132.522952000000000
 20
-163.585825000000000
 11
210.027796999999990
 21
-163.585825000000000
  0
LINE
  8
0
  6
CONTINUOUS
 62
256
 10
221.843471999999990
 20
-159.860356999999990
 11
229.414251000000010
 21
-154.559239999999990
  0
LINE
  8
0
  6
CONTINUOUS
 62
256
 10
230.522952000000000
 20
-152.429444999999990
 11
230.522952000000000
 21
-104.585825000000000
  0
ARC
  8
0
  6
CONTINUOUS
 62
256
 10
227.922952000000010
 20
-152.429444999999990
 40
2.599999999999996
 50
305.000000000000230
 51
0.000000000000000
  0
ARC
  8
0
  6
CONTINUOUS
 62
256
 10
210.027796999999990
 20
-142.985825000000010
 40
20.599999999999994
 50
270.000000000000000
 51
305.000000000000000
  0
LINE
  8
0
  6
CONTINUOUS
 62
256
 10
132.522952000000000
 20
-163.585825000000000
 11
132.522952000000000
 21
-104.585825000000000
  0
LINE
  8
0
  6
CONTINUOUS
 62
256
 10
143.522952000000000
 20
-153.729746000000010
 11
145.522952000000000
 21
-152.077103999999990
  0
LINE
  8
0
  6
CONTINUOUS
 62
256
 10
141.522952000000000
 20
-154.905531000000000
 11
143.522952000000000
 21
-153.729746000000010
  0
LINE
  8
0
  6
CONTINUOUS
 62
256
 10
143.522952000000000
 20
-153.729746000000010
 11
141.522952000000000
 21
-152.077103999999990
  0
LINE
  8
0
  6
CONTINUOUS
 62
256
 10
145.522952000000000
 20
-154.905531000000000
 11
143.522952000000000
 21
-153.729746000000010
  0
POLYLINE
  8
0
  6
CONTINUOUS
 62
256
 66
1
 70
1
  0
VERTEX
  8
0
  6
CONTINUOUS
 62
256
 10
148.222951999999990
 20
-151.913155999999990
  0
VERTEX
  8
0
  6
CONTINUOUS
 62
256
 10
148.132642817895170
 20
-151.210199489441810
  0
VERTEX
  8
0
  6
CONTINUOUS
 62
256
 10
147.865185802803040
 20
-150.534257203361850
  0
VERTEX
  8
0
  6
CONTINUOUS
 62
256
 10
147.430859177821960
 20
-149.911305224741310
  0
VERTEX
  8
0
  6
CONTINUOUS
 62
256
 10
146.846353871576780
 20
-149.365283248763150
  0
VERTEX
  8
0
  6
CONTINUOUS
 62
256
 10
146.134132095192110
 20
-148.917174593751500
  0
VERTEX
  8
0
  6
CONTINUOUS
 62
256
 10
145.321564132115920
 20
-148.584199824016250
  0
VERTEX
  8
0
  6
CONTINUOUS
 62
256
 10
144.439876513475810
 20
-148.379154973223900
  0
VERTEX
  8
0
  6
CONTINUOUS
 62
256
 10
143.522952000000000
 20
-148.309919799999990
  0
VERTEX
  8
0
  6
CONTINUOUS
 62
256
 10
142.606027486524200
 20
-148.379154973223900
  0
VERTEX
  8
0
  6
CONTINUOUS
 62
256
 10
141.724339867884080
 20
-148.584199824016250
  0
VERTEX
  8
0
  6
CONTINUOUS
 62
256
 10
140.911771904807890
 20
-148.917174593751500
  0
VERTEX
  8
0
  6
CONTINUOUS
 62
256
 10
140.199550128423230
 20
-149.365283248763150
  0
VERTEX
  8
0
  6
CONTINUOUS
 62
256
 10
139.615044822178050
 20
-149.911305224741310
  0
VERTEX
  8
0
  6
CONTINUOUS
 62
256
 10
139.180718197196970
 20
-150.534257203361850
  0
VERTEX
  8
0
  6
CONTINUOUS
 62
256
 10
138.913261182104830
 20
-151.210199489441810
  0
VERTEX
  8
0
  6
CONTINUOUS
 62
256
 10
138.822952000000020
 20
-151.913155999999990
  0
VERTEX
  8
0
  6
CONTINUOUS
 62
256
 10
138.913261182104830
 20
-152.616112510558170
  0
VERTEX
  8
0
  6
CONTINUOUS
 62
256
 10
139.180718197196970
 20
-153.292054796638130
  0
VERTEX
  8
0
  6
CONTINUOUS
 62
256
 10
139.615044822178050
 20
-153.915006775258660
  0
VERTEX
  8
0
  6
CONTINUOUS
 62
256
 10
140.199550128423230
 20
-154.461028751236820
  0
VERTEX
  8
0
  6
CONTINUOUS
 62
256
 10
140.911771904807890
 20
-154.909137406248480
  0
VERTEX
  8
0
  6
CONTINUOUS
 62
256
 10
141.724339867884080
 20
-155.242112175983720
  0
VERTEX
  8
0
  6
CONTINUOUS
 62
256
 10
142.606027486524200
 20
-155.447157026776040
  0
VERTEX
  8
0
  6
CONTINUOUS
 62
256
 10
143.522952000000000
 20
-155.516392199999980
  0
VERTEX
  8
0
  6
CONTINUOUS
 62
256
 10
144.439876513475810
 20
-155.447157026776040
  0
VERTEX
  8
0
  6
CONTINUOUS
 62
256
 10
145.321564132115920
 20
-155.242112175983720
  0
VERTEX
  8
0
  6
CONTINUOUS
 62
256
 10
146.134132095192110
 20
-154.909137406248480
  0
VERTEX
  8
0
  6
CONTINUOUS
 62
256
 10
146.846353871576750
 20
-154.461028751236820
  0
VERTEX
  8
0
  6
CONTINUOUS
 62
256
 10
147.430859177821960
 20
-153.915006775258660
  0
VERTEX
  8
0
  6
CONTINUOUS
 62
256
 10
147.865185802803040
 20
-153.292054796638130
  0
VERTEX
  8
0
  6
CONTINUOUS
 62
256
 10
148.132642817895170
 20
-152.616112510558170
  0
SEQEND
  8
0
  6
CONTINUOUS
 62
256
  0
LINE
  8
0
  6
CONTINUOUS
 62
256
 10
140.322951999999990
 20
-47.085825000000000
 11
50.322952000000001
 21
-47.085825000000000
  0
LINE
  8
0
  6
CONTINUOUS
 62
256
 10
140.322951999999990
 20
-50.137495000000001
 11
140.322951999999990
 21
-14.085825000000000
  0
LINE
  8
0
  6
CONTINUOUS
 62
256
 10
142.522952000000000
 20
-45.585825000000000
 11
142.522952000000000
 21
-47.246129000000003
  0
LINE
  8
0
  6
CONTINUOUS
 62
256
 10
142.522952000000000
 20
-45.585825000000000
 11
210.027796999999990
 21
-45.585825000000000
  0
ARC
  8
0
  6
CONTINUOUS
 62
256
 10
139.522952000000000
 20
-47.246129000000003
 40
3.000000000000000
 50
270.000000000000000
 51
0.000000000000000
  0
LINE
  8
0
  6
CONTINUOUS
 62
256
 10
139.522952000000000
 20
-50.246129000000003
 11
135.522952000000000
 21
-50.246129000000003
  0
ARC
  8
0
  6
CONTINUOUS
 62
256
 10
135.522952000000000
 20
-53.246129000000003
 40
3.000000000000000
 50
90.000000000000000
 51
180.000000000000000
  0
LINE
  8
0
  6
CONTINUOUS
 62
256
 10
132.522952000000000
 20
-53.246129000000003
 11
132.522952000000000
 21
-104.585825000000000
  0
LINE
  8
0
  6
CONTINUOUS
 62
256
 10
143.522952000000000
 20
-55.441904000000001
 11
145.522952000000000
 21
-57.094546000000001
  0
LINE
  8
0
  6
CONTINUOUS
 62
256
 10
141.522952000000000
 20
-54.266117999999999
 11
143.522952000000000
 21
-55.441904000000001
  0
LINE
  8
0
  6
CONTINUOUS
 62
256
 10
143.522952000000000
 20
-55.441904000000001
 11
141.522952000000000
 21
-57.094546000000001
  0
LINE
  8
0
  6
CONTINUOUS
 62
256
 10
145.522952000000000
 20
-54.266117999999999
 11
143.522952000000000
 21
-55.441904000000001
  0
POLYLINE
  8
0
  6
CONTINUOUS
 62
256
 66
1
 70
1
  0
VERTEX
  8
0
  6
CONTINUOUS
 62
256
 10
148.222951999999990
 20
-57.258493999999999
  0
VERTEX
  8
0
  6
CONTINUOUS
 62
256
 10
148.132642817895170
 20
-56.555537489441832
  0
VERTEX
  8
0
  6
CONTINUOUS
 62
256
 10
147.865185802803040
 20
-55.879595203361859
  0
VERTEX
  8
0
  6
CONTINUOUS
 62
256
 10
147.430859177821960
 20
-55.256643224741339
  0
VERTEX
  8
0
  6
CONTINUOUS
 62
256
 10
146.846353871576780
 20
-54.710621248763161
  0
VERTEX
  8
0
  6
CONTINUOUS
 62
256
 10
146.134132095192110
 20
-54.262512593751509
  0
VERTEX
  8
0
  6
CONTINUOUS
 62
256
 10
145.321564132115920
 20
-53.929537824016265
  0
VERTEX
  8
0
  6
CONTINUOUS
 62
256
 10
144.439876513475810
 20
-53.724492973223938
  0
VERTEX
  8
0
  6
CONTINUOUS
 62
256
 10
143.522952000000000
 20
-53.655257800000008
  0
VERTEX
  8
0
  6
CONTINUOUS
 62
256
 10
142.606027486524200
 20
-53.724492973223938
  0
VERTEX
  8
0
  6
CONTINUOUS
 62
256
 10
141.724339867884080
 20
-53.929537824016265
  0
VERTEX
  8
0
  6
CONTINUOUS
 62
256
 10
140.911771904807890
 20
-54.262512593751509
  0
VERTEX
  8
0
  6
CONTINUOUS
 62
256
 10
140.199550128423230
 20
-54.710621248763161
  0
VERTEX
  8
0
  6
CONTINUOUS
 62
256
 10
139.615044822178050
 20
-55.256643224741339
  0
VERTEX
  8
0
  6
CONTINUOUS
 62
256
 10
139.180718197196970
 20
-55.879595203361859
  0
VERTEX
  8
0
  6
CONTINUOUS
 62
256
 10
138.913261182104830
 20
-56.555537489441832
  0
VERTEX
  8
0
  6
CONTINUOUS
 62
256
 10
138.822952000000020
 20
-57.258493999999999
  0
VERTEX
  8
0
  6
CONTINUOUS
 62
256
 10
138.913261182104830
 20
-57.961450510558166
  0
VERTEX
  8
0
  6
CONTINUOUS
 62
256
 10
139.180718197196970
 20
-58.637392796638139
  0
VERTEX
  8
0
  6
CONTINUOUS
 62
256
 10
139.615044822178050
 20
-59.260344775258659
  0
VERTEX
  8
0
  6
CONTINUOUS
 62
256
 10
140.199550128423230
 20
-59.806366751236837
  0
VERTEX
  8
0
  6
CONTINUOUS
 62
256
 10
140.911771904807890
 20
-60.254475406248488
  0
VERTEX
  8
0
  6
CONTINUOUS
 62
256
 10
141.724339867884080
 20
-60.587450175983733
  0
VERTEX
  8
0
  6
CONTINUOUS
 62
256
 10
142.606027486524200
 20
-60.792495026776059
  0
VERTEX
  8
0
  6
CONTINUOUS
 62
256
 10
143.522952000000000
 20
-60.861730199999990
  0
VERTEX
  8
0
  6
CONTINUOUS
 62
256
 10
144.439876513475810
 20
-60.792495026776059
  0
VERTEX
  8
0
  6
CONTINUOUS
 62
256
 10
145.321564132115920
 20
-60.587450175983733
  0
VERTEX
  8
0
  6
CONTINUOUS
 62
256
 10
146.134132095192110
 20
-60.254475406248488
  0
VERTEX
  8
0
  6
CONTINUOUS
 62
256
 10
146.846353871576750
 20
-59.806366751236837
  0
VERTEX
  8
0
  6
CONTINUOUS
 62
256
 10
147.430859177821960
 20
-59.260344775258659
  0
VERTEX
  8
0
  6
CONTINUOUS
 62
256
 10
147.865185802803040
 20
-58.637392796638139
  0
VERTEX
  8
0
  6
CONTINUOUS
 62
256
 10
148.132642817895170
 20
-57.961450510558166
  0
SEQEND
  8
0
  6
CONTINUOUS
 62
256
  0
LINE
  8
0
  6
CONTINUOUS
 62
256
 10
50.322952000000001
 20
-52.085825000000000
 11
132.522952000000000
 21
-52.085825000000000
  0
LINE
  8
0
  6
CONTINUOUS
 62
256
 10
133.322951999999990
 20
-13.085825000000000
 11
133.322951999999990
 21
-12.585825000000000
  0
LINE
  8
0
  6
CONTINUOUS
 62
256
 10
125.322952000000000
 20
-13.085825000000000
 11
125.322952000000000
 21
-12.585825000000000
  0
LINE
  8
0
  6
CONTINUOUS
 62
256
 10
57.322952000000001
 20
-13.085825000000000
 11
57.322952000000001
 21
-12.585825000000000
  0
LINE
  8
0
  6
CONTINUOUS
 62
256
 10
65.322952000000001
 20
-13.085825000000000
 11
65.322952000000001
 21
-12.585825000000000
  0
LINE
  8
0
  6
CONTINUOUS
 62
256
 10
65.322952000000001
 20
-12.585825000000000
 11
57.322952000000001
 21
-12.585825000000000
  0
LINE
  8
0
  6
CONTINUOUS
 62
256
 10
133.322951999999990
 20
-12.585825000000000
 11
125.322952000000000
 21
-12.585825000000000
  0
ARC
  8
0
  6
CONTINUOUS
 62
256
 10
139.322951999999990
 20
-14.085825000000000
 40
1.000000000000000
 50
0.000000000000000
 51
90.000000000000000
  0
LINE
  8
0
  6
CONTINUOUS
 62
256
 10
139.322951999999990
 20
-13.085825000000000
 11
51.322952000000001
 21
-13.085825000000000
  0
ARC
  8
0
  6
CONTINUOUS
 62
256
 10
51.322952000000001
 20
-14.085825000000000
 40
1.000000000000000
 50
90.000000000000000
 51
180.000000000000000
  0
LINE
  8
0
  6
CONTINUOUS
 62
256
 10
50.322952000000001
 20
-52.085825000000000
 11
50.322952000000001
 21
-14.085825000000000
  0
LINE
  8
0
  6
CONTINUOUS
 62
256
 10
48.522951999999997
 20
-51.085825000000000
 11
50.322952000000001
 21
-51.085825000000000
  0
LINE
  8
0
  6
CONTINUOUS
 62
256
 10
132.522952000000000
 20
-53.585825000000000
 11
48.522951999999997
 21
-53.585825000000000
  0
LINE
  8
0
  6
CONTINUOUS
 62
256
 10
132.522952000000000
 20
-54.085825000000000
 11
48.522951999999997
 21
-54.085825000000000
  0
LINE
  8
0
  6
CONTINUOUS
 62
256
 10
132.522952000000000
 20
-58.452742000000001
 11
48.522951999999997
 21
-58.452742000000001
  0
LINE
  8
0
  6
CONTINUOUS
 62
256
 10
132.522952000000000
 20
-63.543911000000001
 11
48.522951999999997
 21
-63.543911000000001
  0
LINE
  8
0
  6
CONTINUOUS
 62
256
 10
230.522952000000000
 20
-56.742204999999998
 11
230.522952000000000
 21
-104.585825000000000
  0
LINE
  8
0
  6
CONTINUOUS
 62
256
 10
221.843471999999990
 20
-49.311292999999999
 11
229.414251000000010
 21
-54.612409000000000
  0
ARC
  8
0
  6
CONTINUOUS
 62
256
 10
227.922952000000010
 20
-56.742204999999998
 40
2.599999999999994
 50
0.000000000000000
 51
54.999999999999886
  0
ARC
  8
0
  6
CONTINUOUS
 62
256
 10
210.027796999999990
 20
-66.185824999999994
 40
20.600000000000001
 50
55.000000000000028
 51
90.000000000000000
  0
LINE
  8
0
  6
DASHDOT
 62
256
 10
-448.500238000000020
 20
-163.585825000000000
 11
-347.417024000000030
 21
-163.585825000000000
  0
LINE
  8
0
  6
DASHDOT
 62
256
 10
-448.500238000000020
 20
-41.585825000000000
 11
-347.417024000000030
 21
-41.585825000000000
  0
LINE
  8
0
  6
DASHDOT
 62
256
 10
-460.132886999999980
 20
-89.585825000000000
 11
-293.967603999999990
 21
-89.585825000000000
  0
LINE
  8
0
  6
CONTINUOUS
 62
256
 10
-343.054153999999980
 20
-103.585825000000000
 11
-298.054153999999980
 21
-103.585825000000000
  0
LINE
  8
0
  6
CONTINUOUS
 62
256
 10
-343.054153999999980
 20
-89.585825000000000
 11
-343.054153999999980
 21
-104.085825000000000
  0
LINE
  8
0
  6
CONTINUOUS
 62
256
 10
-343.054153999999980
 20
-89.585825000000000
 11
-343.054153999999980
 21
-104.085825000000000
  0
LINE
  8
0
  6
CONTINUOUS
 62
256
 10
-343.054153999999980
 20
-75.585825000000000
 11
-298.054153999999980
 21
-75.585825000000000
  0
LINE
  8
0
  6
CONTINUOUS
 62
256
 10
-343.054153999999980
 20
-89.585825000000000
 11
-343.054153999999980
 21
-75.085825000000000
  0
LINE
  8
0
  6
CONTINUOUS
 62
256
 10
-343.054153999999980
 20
-89.585825000000000
 11
-343.054153999999980
 21
-75.085825000000000
  0
LINE
  8
0
  6
CONTINUOUS
 62
256
 10
-343.054153999999980
 20
-75.085825000000000
 11
-345.054153999999980
 21
-75.085825000000000
  0
LINE
  8
0
  6
CONTINUOUS
 62
256
 10
-343.054153999999980
 20
-104.085825000000000
 11
-345.054153999999980
 21
-104.085825000000000
  0
LINE
  8
0
  6
CONTINUOUS
 62
256
 10
-334.054153999999980
 20
-72.585825000000000
 11
-298.054153999999980
 21
-72.585825000000000
  0
LINE
  8
0
  6
CONTINUOUS
 62
256
 10
-334.054153999999980
 20
-75.585825000000000
 11
-334.054153999999980
 21
-72.585825000000000
  0
LINE
  8
0
  6
CONTINUOUS
 62
256
 10
-298.054153999999980
 20
-89.585825000000000
 11
-298.054153999999980
 21
-103.585825000000000
  0
LINE
  8
0
  6
CONTINUOUS
 62
256
 10
-298.054153999999980
 20
-89.585825000000000
 11
-298.054153999999980
 21
-72.585825000000000
  0
ARC
  8
0
  6
CONTINUOUS
 62
256
 10
-443.476101000000030
 20
-143.999236999999990
 40
6.599999999999971
 50
185.743681999999920
 51
224.999999999999830
  0
ARC
  8
0
  6
CONTINUOUS
 62
256
 10
-51.454154000000003
 20
-104.568370000000000
 40
400.600000000000020
 50
180.000000000000000
 51
185.743681999999980
  0
LINE
  8
0
  6
CONTINUOUS
 62
256
 10
-447.054153999999980
 20
-149.754993000000010
 11
-448.143005000000020
 21
-148.666142000000010
  0
ARC
  8
0
  6
CONTINUOUS
 62
256
 10
-51.454154000000003
 20
-104.568370000000000
 40
400.600000000000080
 50
175.950769000000010
 51
180.000000000000000
  0
ARC
  8
0
  6
CONTINUOUS
 62
256
 10
-352.632206999999990
 20
-143.999236999999990
 40
6.600000000000017
 50
315.000000000000170
 51
354.256318000000020
  0
ARC
  8
0
  6
CONTINUOUS
 62
256
 10
-744.654153999999950
 20
-104.568370000000000
 40
400.600000000000020
 50
354.256318000000020
 51
0.000000000000000
  0
LINE
  8
0
  6
CONTINUOUS
 62
256
 10
-349.054153999999980
 20
-149.754993000000010
 11
-347.965302000000010
 21
-148.666142000000010
  0
ARC
  8
0
  6
CONTINUOUS
 62
256
 10
-744.654153999999950
 20
-104.568370000000000
 40
400.600000000000020
 50
0.000000000000000
 51
0.069015999999999
  0
ARC
  8
0
  6
CONTINUOUS
 62
256
 10
-398.054153999999980
 20
-313.068370000000020
 40
300.000000000000000
 50
83.967950999999999
 51
96.032049000000001
  0
ARC
  8
0
  6
CONTINUOUS
 62
256
 10
-429.054153999999980
 20
-19.701705000000000
 40
5.000000000000000
 50
96.032049000000015
 51
180.000000000000000
  0
ARC
  8
0
  6
CONTINUOUS
 62
256
 10
-367.054153999999980
 20
-19.701705000000000
 40
5.000000000000000
 50
0.000000000000000
 51
83.967950999999999
  0
LINE
  8
0
  6
CONTINUOUS
 62
256
 10
-395.554153999999980
 20
-12.568370000000000
 11
-395.554153999999980
 21
-13.078787000000000
  0
LINE
  8
0
  6
CONTINUOUS
 62
256
 10
-395.554153999999980
 20
-12.568370000000000
 11
-400.554153999999980
 21
-12.568370000000000
  0
LINE
  8
0
  6
CONTINUOUS
 62
256
 10
-400.554153999999980
 20
-12.568370000000000
 11
-400.554153999999980
 21
-13.078787000000000
  0
LINE
  8
0
  6
CONTINUOUS
 62
256
 10
-362.054153999999980
 20
-29.850628000000000
 11
-362.054153999999980
 21
-19.701705000000000
  0
LINE
  8
0
  6
CONTINUOUS
 62
256
 10
-434.054153999999980
 20
-28.577327000000000
 11
-434.054153999999980
 21
-19.701705000000000
  0
LINE
  8
0
  6
CONTINUOUS
 62
256
 10
-138.377048000000000
 20
-167.585825000000000
 11
-138.377048000000000
 21
-37.585825000000000
  0
ARC
  8
0
  6
CONTINUOUS
 62
256
 10
-130.977048000000000
 20
-37.585825000000000
 40
7.399999999999999
 50
90.000000000000000
 51
180.000000000000000
  0
LINE
  8
0
  6
CONTINUOUS
 62
256
 10
-130.977048000000000
 20
-30.185825000000001
 11
11.022952000000000
 21
-30.185825000000001
  0
ARC
  8
0
  6
CONTINUOUS
 62
256
 10
-130.977048000000000
 20
-167.585825000000000
 40
7.400000000000006
 50
180.000000000000000
 51
270.000000000000000
  0
LINE
  8
0
  6
CONTINUOUS
 62
256
 10
11.022952000000000
 20
-174.985825000000010
 11
-130.977048000000000
 21
-174.985825000000010
  0
ARC
  8
0
  6
CONTINUOUS
 62
256
 10
11.022952000000000
 20
-167.585825000000000
 40
7.400000000000006
 50
270.000000000000000
 51
0.000000000000000
  0
LINE
  8
0
  6
CONTINUOUS
 62
256
 10
18.422951999999999
 20
-37.585825000000000
 11
18.422951999999999
 21
-167.585825000000000
  0
ARC
  8
0
  6
CONTINUOUS
 62
256
 10
11.022952000000000
 20
-37.585825000000000
 40
7.400000000000002
 50
0.000000000000000
 51
90.000000000000000
  0
ARC
  8
0
  6
CONTINUOUS
 62
256
 10
33.522951999999997
 20
-63.085825000000000
 40
3.000000000000000
 50
90.000000000000000
 51
180.000000000000000
  0
ARC
  8
0
  6
CONTINUOUS
 62
256
 10
33.522951999999997
 20
-66.156172999999995
 40
3.000000000000000
 50
90.000000000000000
 51
180.000000000000000
  0
ARC
  8
0
  6
CONTINUOUS
 62
256
 10
33.522951999999997
 20
-146.085825000000000
 40
3.000000000000000
 50
180.000000000000000
 51
270.000000000000000
  0
ARC
  8
0
  6
CONTINUOUS
 62
256
 10
33.522951999999997
 20
-143.015477000000000
 40
3.000000000000000
 50
180.000000000000000
 51
270.000000000000000
  0
ARC
  8
0
  6
CONTINUOUS
 62
256
 10
33.522951999999997
 20
-155.312286000000000
 40
3.000000000000000
 50
180.000000000000000
 51
271.000000000000000
  0
ARC
  8
0
  6
CONTINUOUS
 62
256
 10
33.522951999999997
 20
-53.859363000000002
 40
2.999999999999997
 50
88.999999999999986
 51
180.000000000000000
  0
LINE
  8
0
  6
CONTINUOUS
 62
256
 10
30.522952000000000
 20
-53.859363000000002
 11
30.522952000000000
 21
-155.312286000000000
  0
CIRCLE
  8
0
  6
CONTINUOUS
 62
256
 10
-78.977047999999996
 20
-89.585825000000000
 40
47.000000000000000
  0
ARC
  8
0
  6
CONTINUOUS
 62
256
 10
-104.644336000000000
 20
-158.085825000000000
 40
9.999999999999996
 50
193.835224000000070
 51
270.000000000000000
  0
ARC
  8
0
  6
CONTINUOUS
 62
256
 10
-126.977048000000000
 20
-163.585825000000000
 40
13.000000000000002
 50
13.835223999999982
 51
76.164776000000032
  0
ARC
  8
0
  6
CONTINUOUS
 62
256
 10
-121.477048000000000
 20
-141.253114000000010
 40
10.000000000000000
 50
180.000000000000000
 51
256.164776000000020
  0
ARC
  8
0
  6
CONTINUOUS
 62
256
 10
-121.477048000000000
 20
-63.918536000000003
 40
9.999999999999998
 50
103.835224000000000
 51
180.000000000000000
  0
ARC
  8
0
  6
CONTINUOUS
 62
256
 10
-126.977048000000000
 20
-41.585825000000000
 40
13.000000000000002
 50
283.835223999999980
 51
346.164776000000020
  0
ARC
  8
0
  6
CONTINUOUS
 62
256
 10
-104.644336000000000
 20
-47.085825000000000
 40
10.000000000000000
 50
90.000000000000000
 51
166.164775999999990
  0
ARC
  8
0
  6
CONTINUOUS
 62
256
 10
-15.309759000000000
 20
-158.085825000000000
 40
7.500000000000000
 50
270.000000000000000
 51
346.164776000000020
  0
ARC
  8
0
  6
CONTINUOUS
 62
256
 10
-15.309759000000000
 20
-47.085825000000000
 40
7.500000000000000
 50
13.835224000000018
 51
90.000000000000000
  0
ARC
  8
0
  6
CONTINUOUS
 62
256
 10
-104.644336000000000
 20
-47.085825000000000
 40
7.500000000000000
 50
90.000000000000000
 51
166.164775999999990
  0
ARC
  8
0
  6
CONTINUOUS
 62
256
 10
-126.977048000000000
 20
-41.585825000000000
 40
15.500000000000004
 50
283.835223999999930
 51
346.164776000000020
  0
ARC
  8
0
  6
CONTINUOUS
 62
256
 10
-121.477048000000000
 20
-63.918536000000003
 40
7.499999999999998
 50
103.835224000000030
 51
180.000000000000000
  0
ARC
  8
0
  6
CONTINUOUS
 62
256
 10
-121.477048000000000
 20
-141.253114000000010
 40
7.500000000000000
 50
180.000000000000000
 51
256.164775999999960
  0
ARC
  8
0
  6
CONTINUOUS
 62
256
 10
-126.977048000000000
 20
-163.585825000000000
 40
15.500000000000005
 50
13.835224000000020
 51
76.164775999999975
  0
ARC
  8
0
  6
CONTINUOUS
 62
256
 10
-104.644336000000000
 20
-158.085825000000000
 40
7.500000000000005
 50
193.835224000000010
 51
270.000000000000000
  0
CIRCLE
  8
0
  6
CONTINUOUS
 62
256
 10
-78.977047999999996
 20
-89.585825000000000
 40
49.500000000000000
  0
CIRCLE
  8
0
  6
CONTINUOUS
 62
256
 10
-78.977047999999996
 20
-89.585825000000000
 40
30.000000000000000
  0
ARC
  8
0
  6
CONTINUOUS
 62
256
 10
-130.977048000000000
 20
-167.585825000000000
 40
9.000000000000000
 50
180.000000000000000
 51
270.000000000000000
  0
ARC
  8
0
  6
CONTINUOUS
 62
256
 10
-130.977048000000000
 20
-37.585825000000000
 40
9.000000000000000
 50
90.000000000000000
 51
180.000000000000000
  0
ARC
  8
0
  6
CONTINUOUS
 62
256
 10
7.022952000000000
 20
-41.585825000000000
 40
15.500000000000000
 50
193.835224000000010
 51
256.164776000000020
  0
ARC
  8
0
  6
CONTINUOUS
 62
256
 10
7.022952000000000
 20
-163.585825000000000
 40
15.499999999999989
 50
103.835224000000010
 51
166.164775999999960
  0
ARC
  8
0
  6
CONTINUOUS
 62
256
 10
-15.309759000000000
 20
-158.085825000000000
 40
10.000000000000000
 50
270.000000000000000
 51
346.164775999999960
  0
ARC
  8
0
  6
CONTINUOUS
 62
256
 10
7.022952000000000
 20
-163.585825000000000
 40
13.000000000000002
 50
103.835224000000000
 51
166.164776000000020
  0
ARC
  8
0
  6
CONTINUOUS
 62
256
 10
7.022952000000000
 20
-41.585825000000000
 40
13.000000000000000
 50
193.835224000000010
 51
256.164776000000020
  0
ARC
  8
0
  6
CONTINUOUS
 62
256
 10
-15.309759000000000
 20
-47.085825000000000
 40
9.999999999999998
 50
13.835223999999991
 51
90.000000000000000
  0
ARC
  8
0
  6
CONTINUOUS
 62
256
 10
40.522951999999997
 20
-152.085825000000000
 40
3.000000000000000
 50
0.000000000000000
 51
90.000000000000000
  0
ARC
  8
0
  6
CONTINUOUS
 62
256
 10
41.522951999999997
 20
-144.015477000000000
 40
2.000000000000000
 50
270.000000000000000
 51
0.000000000000000
  0
ARC
  8
0
  6
CONTINUOUS
 62
256
 10
40.522951999999997
 20
-135.477991000000000
 40
3.000000000000000
 50
270.000000000000000
 51
0.000000000000000
  0
ARC
  8
0
  6
CONTINUOUS
 62
256
 10
45.522951999999997
 20
-156.137885000000010
 40
2.000000000000000
 50
180.000000000000000
 51
270.999999999999940
  0
ARC
  8
0
  6
CONTINUOUS
 62
256
 10
40.522951999999997
 20
-73.693658999999997
 40
3.000000000000000
 50
0.000000000000000
 51
90.000000000000000
  0
ARC
  8
0
  6
CONTINUOUS
 62
256
 10
45.522951999999997
 20
-53.033763999999998
 40
1.999999999999998
 50
89.000000000000057
 51
180.000000000000000
  0
ARC
  8
0
  6
CONTINUOUS
 62
256
 10
40.522951999999997
 20
-57.085825000000000
 40
3.000000000000000
 50
270.000000000000000
 51
0.000000000000000
  0
ARC
  8
0
  6
CONTINUOUS
 62
256
 10
41.522951999999997
 20
-65.156172999999995
 40
2.000000000000000
 50
0.000000000000000
 51
90.000000000000000
  0
ARC
  8
0
  6
CONTINUOUS
 62
256
 10
11.022952000000000
 20
-167.585825000000000
 40
9.000000000000000
 50
270.000000000000000
 51
0.000000000000000
  0
ARC
  8
0
  6
CONTINUOUS
 62
256
 10
1.522952000000000
 20
-63.918536000000003
 40
7.500000000000000
 50
0.000000000000000
 51
76.164776000000003
  0
ARC
  8
0
  6
CONTINUOUS
 62
256
 10
1.522952000000000
 20
-141.253114000000010
 40
7.499999999999990
 50
283.835223999999980
 51
0.000000000000000
  0
ARC
  8
0
  6
CONTINUOUS
 62
256
 10
1.522952000000000
 20
-141.253114000000010
 40
10.000000000000005
 50
283.835223999999980
 51
0.000000000000000
  0
ARC
  8
0
  6
CONTINUOUS
 62
256
 10
1.522952000000000
 20
-63.918536000000003
 40
10.000000000000000
 50
0.000000000000000
 51
76.164776000000003
  0
ARC
  8
0
  6
CONTINUOUS
 62
256
 10
11.022952000000000
 20
-37.585825000000000
 40
9.000000000000000
 50
0.000000000000000
 51
90.000000000000000
  0
ARC
  8
0
  6
CONTINUOUS
 62
256
 10
23.022952000000000
 20
-47.675170999999999
 40
3.000000000000000
 50
180.000000000000000
 51
268.999999999999940
  0
ARC
  8
0
  6
CONTINUOUS
 62
256
 10
23.022952000000000
 20
-161.496478999999990
 40
3.000000000000011
 50
91.000000000000014
 51
180.000000000000000
  0
LINE
  8
0
  6
CONTINUOUS
 62
256
 10
20.022952000000000
 20
-37.585825000000000
 11
20.022952000000000
 21
-167.585825000000000
  0
LINE
  8
0
  6
CONTINUOUS
 62
256
 10
43.522951999999997
 20
-57.085825000000000
 11
43.522951999999997
 21
-53.033763999999998
  0
LINE
  8
0
  6
CONTINUOUS
 62
256
 10
48.522951999999997
 20
-51.068367000000002
 11
22.970594999999999
 21
-50.674714000000002
  0
LINE
  8
0
  6
CONTINUOUS
 62
256
 10
43.522951999999997
 20
-104.585825000000000
 11
43.522951999999997
 21
-65.156172999999995
  0
LINE
  8
0
  6
CONTINUOUS
 62
256
 10
35.457940999999998
 20
-70.693658999999997
 11
40.522951999999997
 21
-70.693658999999997
  0
LINE
  8
0
  6
CONTINUOUS
 62
256
 10
43.522951999999997
 20
-84.585825000000000
 11
48.522951999999997
 21
-84.585825000000000
  0
LINE
  8
0
  6
CONTINUOUS
 62
256
 10
43.522951999999997
 20
-124.585825000000000
 11
48.522951999999997
 21
-124.585825000000000
  0
LINE
  8
0
  6
CONTINUOUS
 62
256
 10
43.522951999999997
 20
-104.585825000000000
 11
43.522951999999997
 21
-144.015477000000000
  0
LINE
  8
0
  6
CONTINUOUS
 62
256
 10
35.218271000000001
 20
-138.477991000000000
 11
40.522951999999997
 21
-138.477991000000000
  0
LINE
  8
0
  6
CONTINUOUS
 62
256
 10
43.522951999999997
 20
-152.085825000000000
 11
43.522951999999997
 21
-156.137885000000010
  0
LINE
  8
0
  6
CONTINUOUS
 62
256
 10
48.522951999999997
 20
-158.103283000000000
 11
22.970594999999999
 21
-158.496936000000010
  0
LINE
  8
0
  6
CONTINUOUS
 62
256
 10
11.522952000000000
 20
-63.918536000000003
 11
11.522952000000000
 21
-141.253114000000010
  0
LINE
  8
0
  6
CONTINUOUS
 62
256
 10
-130.977048000000000
 20
-28.585825000000000
 11
11.022952000000000
 21
-28.585825000000000
  0
LINE
  8
0
  6
CONTINUOUS
 62
256
 10
-139.977048000000000
 20
-167.585825000000000
 11
-139.977048000000000
 21
-37.585825000000000
  0
LINE
  8
0
  6
CONTINUOUS
 62
256
 10
11.022952000000000
 20
-176.585825000000000
 11
-130.977048000000000
 21
-176.585825000000000
  0
LINE
  8
0
  6
DASHDOT
 62
256
 10
-143.435706000000010
 20
-89.585825000000000
 11
-20.287054000000001
 21
-89.585825000000000
  0
LINE
  8
0
  6
CONTINUOUS
 62
256
 10
-128.977048000000000
 20
-63.918536000000003
 11
-128.977048000000000
 21
-141.253114000000010
  0
LINE
  8
0
  6
CONTINUOUS
 62
256
 10
-15.309759000000000
 20
-39.585825000000000
 11
-104.644336000000000
 21
-39.585825000000000
  0
LINE
  8
0
  6
CONTINUOUS
 62
256
 10
9.022952000000000
 20
-141.253114000000010
 11
9.022952000000000
 21
-63.918536000000003
  0
LINE
  8
0
  6
CONTINUOUS
 62
256
 10
-104.644336000000000
 20
-165.585825000000000
 11
-15.309759000000000
 21
-165.585825000000000
  0
LINE
  8
0
  6
CONTINUOUS
 62
256
 10
-104.644336000000000
 20
-37.085825000000000
 11
-15.309759000000000
 21
-37.085825000000000
  0
LINE
  8
0
  6
CONTINUOUS
 62
256
 10
-131.477048000000000
 20
-141.253114000000010
 11
-131.477048000000000
 21
-63.918536000000003
  0
LINE
  8
0
  6
CONTINUOUS
 62
256
 10
-15.309759000000000
 20
-168.085825000000000
 11
-104.644336000000000
 21
-168.085825000000000
  0
LINE
  8
0
  6
DASHDOT
 62
256
 10
-78.977047999999996
 20
-26.190341000000000
 11
-78.977047999999996
 21
-186.262862000000010
  0
LINE
  8
0
  6
DASHDOT
 62
256
 10
-2.477048000000000
 20
-163.585825000000000
 11
16.522952000000000
 21
-163.585825000000000
  0
LINE
  8
0
  6
DASHDOT
 62
256
 10
7.022952000000000
 20
-154.085825000000000
 11
7.022952000000000
 21
-173.085825000000000
  0
LINE
  8
0
  6
DASHDOT
 62
256
 10
-2.477048000000000
 20
-41.585825000000000
 11
16.522952000000000
 21
-41.585825000000000
  0
LINE
  8
0
  6
DASHDOT
 62
256
 10
7.022952000000000
 20
-32.085825000000000
 11
7.022952000000000
 21
-51.085825000000000
  0
LINE
  8
0
  6
DASHDOT
 62
256
 10
-136.477048000000000
 20
-163.585825000000000
 11
-117.477048000000000
 21
-163.585825000000000
  0
LINE
  8
0
  6
DASHDOT
 62
256
 10
-126.977048000000000
 20
-154.085825000000000
 11
-126.977048000000000
 21
-173.085825000000000
  0
LINE
  8
0
  6
CONTINUOUS
 62
256
 10
40.522951999999997
 20
-60.085825000000000
 11
33.522951999999997
 21
-60.085825000000000
  0
LINE
  8
0
  6
CONTINUOUS
 62
256
 10
41.522951999999997
 20
-63.156173000000003
 11
33.522951999999997
 21
-63.156173000000003
  0
LINE
  8
0
  6
CONTINUOUS
 62
256
 10
41.522951999999997
 20
-146.015477000000000
 11
33.522951999999997
 21
-146.015477000000000
  0
LINE
  8
0
  6
CONTINUOUS
 62
256
 10
40.522951999999997
 20
-149.085825000000000
 11
33.522951999999997
 21
-149.085825000000000
  0
LINE
  8
0
  6
CONTINUOUS
 62
256
 10
-74.977047999999996
 20
-72.585825000000000
 11
-74.977047999999996
 21
-79.585825000000000
  0
LINE
  8
0
  6
CONTINUOUS
 62
256
 10
-82.977047999999996
 20
-72.585825000000000
 11
-82.977047999999996
 21
-79.585825000000000
  0
LINE
  8
0
  6
CONTINUOUS
 62
256
 10
-82.977047999999996
 20
-79.585825000000000
 11
-74.977047999999996
 21
-79.585825000000000
  0
LINE
  8
0
  6
CONTINUOUS
 62
256
 10
-82.977047999999996
 20
-72.585825000000000
 11
-74.977047999999996
 21
-72.585825000000000
  0
ARC
  8
0
  6
CONTINUOUS
 62
256
 10
-78.977047999999996
 20
-89.585825000000000
 40
13.999999999999998
 50
106.601550000000000
 51
73.398450000000011
  0
CIRCLE
  8
0
  6
CONTINUOUS
 62
256
 10
-78.977047999999996
 20
-89.585825000000000
 40
3.500000000000000
  0
CIRCLE
  8
0
  6
CONTINUOUS
 62
256
 10
-78.977047999999996
 20
-89.585825000000000
 40
4.000000000000000
  0
LINE
  8
0
  6
CONTINUOUS
 62
256
 10
48.522951999999997
 20
-158.085825000000000
 11
48.522951999999997
 21
-104.585825000000000
  0
LINE
  8
0
  6
CONTINUOUS
 62
256
 10
48.522951999999997
 20
-51.085825000000000
 11
48.522951999999997
 21
-104.585825000000000
  0
LINE
  8
0
  6
CONTINUOUS
 62
256
 10
-349.054153999999980
 20
-132.085825000000000
 11
-345.054153999999980
 21
-132.085825000000000
  0
LINE
  8
0
  6
CONTINUOUS
 62
256
 10
-349.054153999999980
 20
-47.085825000000000
 11
-345.054153999999980
 21
-47.085825000000000
  0
LINE
  8
0
  6
CONTINUOUS
 62
256
 10
-345.054153999999980
 20
-132.085825000000000
 11
-345.054153999999980
 21
-47.085825000000000
  0
LINE
  8
0
  6
CONTINUOUS
 62
256
 10
-435.054153999999980
 20
-176.585825000000000
 11
-447.054153999999980
 21
-176.376364000000000
  0
LINE
  8
0
  6
CONTINUOUS
 62
256
 10
-451.054153999999980
 20
-47.085825000000000
 11
-447.054153999999980
 21
-47.085825000000000
  0
LINE
  8
0
  6
CONTINUOUS
 62
256
 10
-435.054153999999980
 20
-28.559642000000000
 11
-359.054153999999980
 21
-29.903682000000000
  0
LINE
  8
0
  6
CONTINUOUS
 62
256
 10
-447.054153999999980
 20
-28.795286000000001
 11
-435.054153999999980
 21
-28.585825000000000
  0
LINE
  8
0
  6
CONTINUOUS
 62
256
 10
-359.054153999999980
 20
-29.903682000000000
 11
-349.054153999999980
 21
-29.903682000000000
  0
LINE
  8
0
  6
CONTINUOUS
 62
256
 10
-359.054153999999980
 20
-175.233057000000000
 11
-349.054153999999980
 21
-175.233057000000000
  0
LINE
  8
0
  6
CONTINUOUS
 62
256
 10
-435.054153999999980
 20
-176.577097000000010
 11
-359.054153999999980
 21
-175.233057000000000
  0
LINE
  8
0
  6
CONTINUOUS
 62
256
 10
-349.054153999999980
 20
-175.233057000000000
 11
-349.054153999999980
 21
-143.942712000000000
  0
LINE
  8
0
  6
CONTINUOUS
 62
256
 10
-451.054153999999980
 20
-47.085825000000000
 11
-451.054153999999980
 21
-132.085825000000000
  0
LINE
  8
0
  6
CONTINUOUS
 62
256
 10
-447.054153999999980
 20
-176.376364000000000
 11
-447.054153999999980
 21
-143.942712000000000
  0
LINE
  8
0
  6
CONTINUOUS
 62
256
 10
-349.054153999999980
 20
-143.942712000000000
 11
-349.054153999999980
 21
-29.903682000000000
  0
LINE
  8
0
  6
CONTINUOUS
 62
256
 10
-447.054153999999980
 20
-143.942712000000000
 11
-447.054153999999980
 21
-28.795286000000001
  0
LINE
  8
0
  6
CONTINUOUS
 62
256
 10
-451.054153999999980
 20
-132.085825000000000
 11
-447.054153999999980
 21
-132.085825000000000
  0
LINE
  8
0
  6
CONTINUOUS
 62
256
 10
-435.054153999999980
 20
-28.559642000000000
 11
-435.054153999999980
 21
-176.577097000000010
  0
LINE
  8
0
  6
DASHDOT
 62
256
 10
-389.056305000000010
 20
-104.568370000000000
 11
-409.044244999999990
 21
-104.568370000000000
  0
LINE
  8
0
  6
DASHDOT
 62
256
 10
-398.054153999999980
 20
-178.997515999999990
 11
-398.054153999999980
 21
-9.479649000000000
  0
LINE
  8
0
  6
CONTINUOUS
 62
256
 10
-345.054153999999980
 20
-124.068370000000000
 11
-345.054153999999980
 21
-85.068370000000002
  0
LINE
  8
0
  6
CONTINUOUS
 62
256
 10
-451.054153999999980
 20
-85.068370000000002
 11
-451.054153999999980
 21
-124.068370000000000
  0
CIRCLE
  8
0
  6
CONTINUOUS
 62
256
 10
-228.236155999999990
 20
-89.585825000000000
 40
4.000000000000000
  0
CIRCLE
  8
0
  6
CONTINUOUS
 62
256
 10
-228.236155999999990
 20
-89.585825000000000
 40
3.500000000000000
  0
LINE
  8
0
  6
DASHDOT
 62
256
 10
-247.439086000000000
 20
-89.585825000000000
 11
-205.707494999999990
 21
-89.585825000000000
  0
LINE
  8
0
  6
DASHDOT
 62
256
 10
-228.236155999999990
 20
-110.634148000000000
 11
-228.236155999999990
 21
-68.902557000000002
  0
LINE
  8
0
  6
CONTINUOUS
 62
256
 10
-232.236155999999990
 20
-72.585825000000000
 11
-224.236155999999990
 21
-72.585825000000000
  0
LINE
  8
0
  6
CONTINUOUS
 62
256
 10
-232.236155999999990
 20
-72.585825000000000
 11
-232.236155999999990
 21
-79.585825000000000
  0
LINE
  8
0
  6
CONTINUOUS
 62
256
 10
-232.236155999999990
 20
-79.585825000000000
 11
-224.236155999999990
 21
-79.585825000000000
  0
LINE
  8
0
  6
CONTINUOUS
 62
256
 10
-224.236155999999990
 20
-72.585825000000000
 11
-224.236155999999990
 21
-79.585825000000000
  0
ARC
  8
0
  6
CONTINUOUS
 62
256
 10
-228.236155999999990
 20
-89.585825000000000
 40
13.999999999999998
 50
106.601550000000000
 51
73.398450000000011
  0
LINE
  8
0
  6
DASHDOT
 62
256
 10
-136.477048000000000
 20
-41.585825000000000
 11
-117.477048000000000
 21
-41.585825000000000
  0
LINE
  8
0
  6
DASHDOT
 62
256
 10
-126.977048000000000
 20
-32.085825000000000
 11
-126.977048000000000
 21
-51.085825000000000
  0
LINE
  8
0
  6
DASHDOT
 62
256
 10
399.121982000000000
 20
-180.654929000000010
 11
399.121982000000000
 21
-6.930245000000000
  0
LINE
  8
0
  6
DASHDOT
 62
256
 10
459.979517999999980
 20
-104.585825000000000
 11
335.627752999999980
 21
-104.585825000000000
  0
LINE
  8
0
  6
CONTINUOUS
 62
256
 10
363.121982000000000
 20
-47.085825000000000
 11
363.121982000000000
 21
-19.719159999999999
  0
LINE
  8
0
  6
CONTINUOUS
 62
256
 10
435.121982000000000
 20
-47.085825000000000
 11
435.121982000000000
 21
-19.719159999999999
  0
LINE
  8
0
  6
CONTINUOUS
 62
256
 10
396.621982000000000
 20
-12.585825000000000
 11
396.621982000000000
 21
-13.096242000000000
  0
LINE
  8
0
  6
CONTINUOUS
 62
256
 10
401.621982000000000
 20
-12.585825000000000
 11
396.621982000000000
 21
-12.585825000000000
  0
LINE
  8
0
  6
CONTINUOUS
 62
256
 10
401.621982000000000
 20
-12.585825000000000
 11
401.621982000000000
 21
-13.096242000000000
  0
ARC
  8
0
  6
CONTINUOUS
 62
256
 10
430.121982000000000
 20
-19.719159999999999
 40
5.000000000000000
 50
0.000000000000000
 51
83.967950999999999
  0
ARC
  8
0
  6
CONTINUOUS
 62
256
 10
368.121982000000000
 20
-19.719159999999999
 40
5.000000000000000
 50
96.032049000000015
 51
180.000000000000000
  0
ARC
  8
0
  6
CONTINUOUS
 62
256
 10
399.121982000000000
 20
-313.085825000000000
 40
300.000000000000000
 50
83.967950999999999
 51
96.032049000000001
  0
ARC
  8
0
  6
CONTINUOUS
 62
256
 10
381.465538999999980
 20
-101.085825000000000
 40
1.000000000000000
 50
270.000000000000000
 51
348.787729000000300
  0
LINE
  8
0
  6
CONTINUOUS
 62
256
 10
378.415703000000010
 20
-102.085825000000000
 11
381.465538999999980
 21
-102.085825000000000
  0
ARC
  8
0
  6
CONTINUOUS
 62
256
 10
378.415703000000010
 20
-101.085825000000000
 40
0.999999999999978
 50
170.405932000000040
 51
270.000000000000000
  0
ARC
  8
0
  6
CONTINUOUS
 62
256
 10
372.854131000000000
 20
-101.085825000000000
 40
1.000000000000000
 50
270.000000000000000
 51
352.410458000000010
  0
LINE
  8
0
  6
CONTINUOUS
 62
256
 10
369.830345000000020
 20
-102.085825000000000
 11
372.854131000000000
 21
-102.085825000000000
  0
ARC
  8
0
  6
CONTINUOUS
 62
256
 10
369.830345000000020
 20
-101.085825000000000
 40
1.000000000000019
 50
173.186146000000240
 51
270.000000000000000
  0
ARC
  8
0
  6
CONTINUOUS
 62
256
 10
364.297421999999980
 20
-101.085825000000000
 40
1.000000000000000
 50
270.000000000000000
 51
354.260829999999540
  0
LINE
  8
0
  6
CONTINUOUS
 62
256
 10
361.283509999999980
 20
-102.085825000000000
 11
364.297421999999980
 21
-102.085825000000000
  0
ARC
  8
0
  6
CONTINUOUS
 62
256
 10
361.283509999999980
 20
-101.085825000000000
 40
1.000000000000027
 50
174.715267000000240
 51
270.000000000000000
  0
ARC
  8
0
  6
CONTINUOUS
 62
256
 10
381.445074999999970
 20
-80.968523000000005
 40
0.999999999999984
 50
30.000000000000544
 51
126.813854000000730
  0
LINE
  8
0
  6
CONTINUOUS
 62
256
 10
382.311100000000010
 20
-80.468523000000005
 11
383.822993000000000
 21
-83.087198999999998
  0
ARC
  8
0
  6
CONTINUOUS
 62
256
 10
382.956968000000020
 20
-83.587198999999998
 40
0.999999999999993
 50
307.589541999998800
 51
30.000000000000544
  0
ARC
  8
0
  6
CONTINUOUS
 62
256
 10
377.171656999999980
 20
-73.566747000000007
 40
0.999999999999984
 50
30.000000000000544
 51
125.284733000000970
  0
LINE
  8
0
  6
CONTINUOUS
 62
256
 10
378.037682000000020
 20
-73.066747000000007
 11
379.544638000000020
 21
-75.676871000000006
  0
ARC
  8
0
  6
CONTINUOUS
 62
256
 10
378.678612999999980
 20
-76.176871000000006
 40
0.999999999999998
 50
305.739170000000230
 51
30.000000000000544
  0
ARC
  8
0
  6
CONTINUOUS
 62
256
 10
391.675012999999980
 20
-98.687296000000003
 40
0.999999999999985
 50
321.618271999998970
 51
30.000000000000544
  0
LINE
  8
0
  6
CONTINUOUS
 62
256
 10
390.956919000000030
 20
-95.443520000000007
 11
392.541038000000010
 21
-98.187296000000003
  0
ARC
  8
0
  6
CONTINUOUS
 62
256
 10
387.262671000000010
 20
-91.044895999999994
 40
1.000000000000006
 50
311.212270999999760
 51
30.000000000000544
  0
LINE
  8
0
  6
CONTINUOUS
 62
256
 10
386.603778999999970
 20
-87.903661000000000
 11
388.128696999999990
 21
-90.544895999999994
  0
ARC
  8
0
  6
CONTINUOUS
 62
256
 10
385.737754000000000
 20
-88.403661000000000
 40
0.999999999999984
 50
30.000000000000544
 51
129.594067999999310
  0
ARC
  8
0
  6
CONTINUOUS
 62
256
 10
390.290220999999970
 20
-101.085825000000000
 40
1.000000000000000
 50
270.000000000000000
 51
338.381728000000520
  0
ARC
  8
0
  6
CONTINUOUS
 62
256
 10
399.121982000000000
 20
-104.585825000000000
 40
8.500000000000005
 50
141.618272000000020
 51
158.381728000000040
  0
ARC
  8
0
  6
CONTINUOUS
 62
256
 10
390.090892999999990
 20
-95.943520000000007
 40
0.999999999999984
 50
30.000000000000544
 51
136.260205000000240
  0
LINE
  8
0
  6
CONTINUOUS
 62
256
 10
387.121982000000000
 20
-102.085825000000000
 11
390.290220999999970
 21
-102.085825000000000
  0
ARC
  8
0
  6
CONTINUOUS
 62
256
 10
387.121982000000000
 20
-101.085825000000000
 40
0.999999999999976
 50
163.739794999999330
 51
270.000000000000000
  0
ARC
  8
0
  6
CONTINUOUS
 62
256
 10
399.121982000000000
 20
-104.585825000000000
 40
13.500000000000004
 50
136.260205000000010
 51
163.739794999999960
  0
ARC
  8
0
  6
CONTINUOUS
 62
256
 10
399.121982000000000
 20
-104.585825000000000
 40
17.000000000000014
 50
131.212271000000020
 51
168.787728999999980
  0
ARC
  8
0
  6
CONTINUOUS
 62
256
 10
399.121982000000000
 20
-104.585825000000000
 40
21.999999999999986
 50
129.594067999999940
 51
170.405931999999980
  0
ARC
  8
0
  6
CONTINUOUS
 62
256
 10
399.121982000000000
 20
-104.585825000000000
 40
30.499999999999993
 50
126.813853999999980
 51
173.186145999999980
  0
ARC
  8
0
  6
CONTINUOUS
 62
256
 10
399.121982000000000
 20
-104.585825000000000
 40
25.499999999999996
 50
127.589541999999970
 51
172.410458000000010
  0
ARC
  8
0
  6
CONTINUOUS
 62
256
 10
399.121982000000000
 20
-104.585825000000000
 40
34.000000000000007
 50
125.739170000000040
 51
174.260830000000000
  0
ARC
  8
0
  6
CONTINUOUS
 62
256
 10
399.121982000000000
 20
-104.585825000000000
 40
39.000000000000000
 50
125.284733000000000
 51
174.715267000000010
  0
ARC
  8
0
  6
CONTINUOUS
 62
256
 10
387.507252999999990
 20
-77.468523000000005
 40
1.000000000000000
 50
113.186146000000120
 51
210.000000000000510
  0
LINE
  8
0
  6
CONTINUOUS
 62
256
 10
386.641227000000010
 20
-77.968523000000005
 11
388.153120000000000
 21
-80.587198999999998
  0
ARC
  8
0
  6
CONTINUOUS
 62
256
 10
389.019144999999980
 20
-80.087198999999998
 40
0.999999999999984
 50
210.000000000000510
 51
292.410458000000400
  0
ARC
  8
0
  6
CONTINUOUS
 62
256
 10
383.233835000000000
 20
-70.066747000000007
 40
1.000000000000004
 50
114.715267000000150
 51
210.000000000000510
  0
LINE
  8
0
  6
CONTINUOUS
 62
256
 10
382.367809000000020
 20
-70.566747000000007
 11
383.874765000000020
 21
-73.176871000000006
  0
ARC
  8
0
  6
CONTINUOUS
 62
256
 10
384.740791000000000
 20
-72.676871000000006
 40
0.999999999999984
 50
210.000000000000510
 51
294.260829999998690
  0
ARC
  8
0
  6
CONTINUOUS
 62
256
 10
397.737191000000000
 20
-95.187296000000003
 40
0.999999999999984
 50
210.000000000000510
 51
278.381727999998870
  0
LINE
  8
0
  6
CONTINUOUS
 62
256
 10
395.287045999999980
 20
-92.943520000000007
 11
396.871165000000020
 21
-95.687296000000003
  0
ARC
  8
0
  6
CONTINUOUS
 62
256
 10
393.324848999999970
 20
-87.544895999999994
 40
0.999999999999984
 50
210.000000000000510
 51
288.787729000000750
  0
LINE
  8
0
  6
CONTINUOUS
 62
256
 10
390.933905999999980
 20
-85.403661000000000
 11
392.458823999999990
 21
-88.044895999999994
  0
ARC
  8
0
  6
CONTINUOUS
 62
256
 10
391.799931000000020
 20
-84.903661000000000
 40
0.999999999999993
 50
110.405931999999860
 51
210.000000000000510
  0
ARC
  8
0
  6
CONTINUOUS
 62
256
 10
400.506774000000010
 20
-95.187296000000003
 40
0.999999999999998
 50
261.618272000001130
 51
329.999999999999490
  0
ARC
  8
0
  6
CONTINUOUS
 62
256
 10
399.121982000000000
 20
-104.585825000000000
 40
8.500000000000002
 50
81.618271999999948
 51
98.381728000000052
  0
ARC
  8
0
  6
CONTINUOUS
 62
256
 10
396.153071000000010
 20
-92.443520000000007
 40
1.000000000000011
 50
103.739795000001280
 51
210.000000000000510
  0
LINE
  8
0
  6
CONTINUOUS
 62
256
 10
402.956919000000030
 20
-92.943520000000007
 11
401.372798999999990
 21
-95.687296000000003
  0
ARC
  8
0
  6
CONTINUOUS
 62
256
 10
402.090892999999990
 20
-92.443520000000007
 40
0.999999999999984
 50
329.999999999999490
 51
76.260204999998734
  0
ARC
  8
0
  6
CONTINUOUS
 62
256
 10
399.121982000000000
 20
-104.585825000000000
 40
13.500000000000004
 50
76.260205000000070
 51
103.739794999999930
  0
ARC
  8
0
  6
CONTINUOUS
 62
256
 10
404.919114999999980
 20
-87.544895999999994
 40
1.000000000000010
 50
251.212270999999220
 51
329.999999999999490
  0
LINE
  8
0
  6
CONTINUOUS
 62
256
 10
407.310058000000030
 20
-85.403661000000000
 11
405.785140000000010
 21
-88.044895999999994
  0
ARC
  8
0
  6
CONTINUOUS
 62
256
 10
399.121982000000000
 20
-104.585825000000000
 40
16.999999999999993
 50
71.212271000000044
 51
108.787728999999960
  0
ARC
  8
0
  6
CONTINUOUS
 62
256
 10
406.444032999999990
 20
-84.903661000000000
 40
0.999999999999984
 50
329.999999999999490
 51
69.594068000000149
  0
ARC
  8
0
  6
CONTINUOUS
 62
256
 10
409.224819000000020
 20
-80.087198999999998
 40
1.000000000000009
 50
247.589541999999540
 51
329.999999999999490
  0
ARC
  8
0
  6
CONTINUOUS
 62
256
 10
413.503173000000000
 20
-72.676871000000006
 40
0.999999999999992
 50
245.739170000001340
 51
329.999999999999490
  0
ARC
  8
0
  6
CONTINUOUS
 62
256
 10
399.121982000000000
 20
-104.585825000000000
 40
21.999999999999996
 50
69.594067999999993
 51
110.405932000000020
  0
LINE
  8
0
  6
CONTINUOUS
 62
256
 10
411.602736999999990
 20
-77.968523000000005
 11
410.090844000000000
 21
-80.587198999999998
  0
ARC
  8
0
  6
CONTINUOUS
 62
256
 10
410.736712000000010
 20
-77.468523000000005
 40
0.999999999999984
 50
329.999999999999490
 51
66.813853999999878
  0
ARC
  8
0
  6
CONTINUOUS
 62
256
 10
399.121982000000000
 20
-104.585825000000000
 40
30.500000000000011
 50
66.813853999999992
 51
113.186146000000010
  0
ARC
  8
0
  6
CONTINUOUS
 62
256
 10
399.121982000000000
 20
-104.585825000000000
 40
25.500000000000007
 50
67.589541999999966
 51
112.410458000000050
  0
ARC
  8
0
  6
CONTINUOUS
 62
256
 10
399.121982000000000
 20
-104.585825000000000
 40
34.000000000000000
 50
65.739169999999987
 51
114.260830000000010
  0
ARC
  8
0
  6
CONTINUOUS
 62
256
 10
399.121982000000000
 20
-104.585825000000000
 40
38.999999999999993
 50
65.284733000000031
 51
114.715266999999980
  0
LINE
  8
0
  6
CONTINUOUS
 62
256
 10
415.876154999999980
 20
-70.566747000000007
 11
414.369198999999980
 21
-73.176871000000006
  0
ARC
  8
0
  6
CONTINUOUS
 62
256
 10
415.010129000000010
 20
-70.066747000000007
 40
0.999999999999984
 50
329.999999999999490
 51
65.284732999999861
  0
CIRCLE
  8
0
  6
CONTINUOUS
 62
256
 10
399.121982000000000
 20
-104.585825000000000
 40
5.000000000000000
  0
ARC
  8
0
  6
CONTINUOUS
 62
256
 10
421.072307000000020
 20
-73.566747000000007
 40
1.000000000000016
 50
54.715266999999017
 51
149.999999999999460
  0
ARC
  8
0
  6
CONTINUOUS
 62
256
 10
419.565351000000020
 20
-76.176871000000006
 40
0.999999999999984
 50
149.999999999999460
 51
234.260829999999740
  0
ARC
  8
0
  6
CONTINUOUS
 62
256
 10
433.946542000000020
 20
-101.085825000000000
 40
0.999999999999978
 50
185.739170000000430
 51
270.000000000000000
  0
ARC
  8
0
  6
CONTINUOUS
 62
256
 10
436.960455000000020
 20
-101.085825000000000
 40
1.000000000000000
 50
270.000000000000000
 51
5.284732999999778
  0
ARC
  8
0
  6
CONTINUOUS
 62
256
 10
425.389833000000010
 20
-101.085825000000000
 40
0.999999999999990
 50
187.589541999999990
 51
270.000000000000000
  0
ARC
  8
0
  6
CONTINUOUS
 62
256
 10
416.798889999999970
 20
-80.968523000000005
 40
1.000000000000011
 50
53.186145999999269
 51
149.999999999999460
  0
ARC
  8
0
  6
CONTINUOUS
 62
256
 10
415.286996999999990
 20
-83.587198999999998
 40
0.999999999999984
 50
149.999999999999460
 51
232.410458000001200
  0
ARC
  8
0
  6
CONTINUOUS
 62
256
 10
428.413618999999980
 20
-101.085825000000000
 40
1.000000000000000
 50
270.000000000000000
 51
6.813853999999752
  0
ARC
  8
0
  6
CONTINUOUS
 62
256
 10
419.828261000000000
 20
-101.085825000000000
 40
1.000000000000000
 50
270.000000000000000
 51
9.594067999999961
  0
ARC
  8
0
  6
CONTINUOUS
 62
256
 10
416.778426000000020
 20
-101.085825000000000
 40
1.000000000000016
 50
191.212270999999730
 51
270.000000000000000
  0
ARC
  8
0
  6
CONTINUOUS
 62
256
 10
412.506211000000010
 20
-88.403661000000000
 40
0.999999999999988
 50
50.405932000000682
 51
149.999999999999460
  0
ARC
  8
0
  6
CONTINUOUS
 62
256
 10
410.981292999999990
 20
-91.044895999999994
 40
0.999999999999984
 50
149.999999999999460
 51
228.787729000000240
  0
ARC
  8
0
  6
CONTINUOUS
 62
256
 10
408.153071000000010
 20
-95.943520000000007
 40
1.000000000000005
 50
43.739794999999773
 51
149.999999999999460
  0
ARC
  8
0
  6
CONTINUOUS
 62
256
 10
411.121982000000000
 20
-101.085825000000000
 40
1.000000000000000
 50
270.000000000000000
 51
16.260205000000671
  0
ARC
  8
0
  6
CONTINUOUS
 62
256
 10
407.953742999999970
 20
-101.085825000000000
 40
1.000000000000013
 50
201.618271999999450
 51
270.000000000000000
  0
ARC
  8
0
  6
CONTINUOUS
 62
256
 10
406.568951000000030
 20
-98.687296000000003
 40
0.999999999999984
 50
149.999999999999460
 51
218.381728000001000
  0
ARC
  8
0
  6
CONTINUOUS
 62
256
 10
399.121982000000000
 20
-104.585825000000000
 40
38.999999999999986
 50
5.284733000000007
 51
54.715266999999990
  0
ARC
  8
0
  6
CONTINUOUS
 62
256
 10
399.121982000000000
 20
-104.585825000000000
 40
30.499999999999986
 50
6.813854000000005
 51
53.186146000000043
  0
ARC
  8
0
  6
CONTINUOUS
 62
256
 10
399.121982000000000
 20
-104.585825000000000
 40
34.000000000000028
 50
5.739170000000004
 51
54.260829999999963
  0
ARC
  8
0
  6
CONTINUOUS
 62
256
 10
399.121982000000000
 20
-104.585825000000000
 40
25.500000000000011
 50
7.589541999999985
 51
52.410458000000027
  0
ARC
  8
0
  6
CONTINUOUS
 62
256
 10
399.121982000000000
 20
-104.585825000000000
 40
21.999999999999979
 50
9.594068000000020
 51
50.405932000000043
  0
ARC
  8
0
  6
CONTINUOUS
 62
256
 10
399.121982000000000
 20
-104.585825000000000
 40
16.999999999999993
 50
11.212271000000010
 51
48.787728999999970
  0
ARC
  8
0
  6
CONTINUOUS
 62
256
 10
399.121982000000000
 20
-104.585825000000000
 40
13.499999999999989
 50
16.260205000000035
 51
43.739795000000001
  0
ARC
  8
0
  6
CONTINUOUS
 62
256
 10
399.121982000000000
 20
-104.585825000000000
 40
8.500000000000016
 50
21.618271999999980
 51
38.381727999999960
  0
LINE
  8
0
  6
CONTINUOUS
 62
256
 10
415.932864000000000
 20
-80.468523000000005
 11
414.420971000000010
 21
-83.087198999999998
  0
LINE
  8
0
  6
CONTINUOUS
 62
256
 10
436.960455000000020
 20
-102.085825000000000
 11
433.946542000000020
 21
-102.085825000000000
  0
LINE
  8
0
  6
CONTINUOUS
 62
256
 10
420.206281999999990
 20
-73.066747000000007
 11
418.699325999999990
 21
-75.676871000000006
  0
LINE
  8
0
  6
CONTINUOUS
 62
256
 10
411.640184999999970
 20
-87.903661000000000
 11
410.115267000000020
 21
-90.544895999999994
  0
LINE
  8
0
  6
CONTINUOUS
 62
256
 10
407.287045999999980
 20
-95.443520000000007
 11
405.702925999999990
 21
-98.187296000000003
  0
LINE
  8
0
  6
CONTINUOUS
 62
256
 10
411.121982000000000
 20
-102.085825000000000
 11
407.953742999999970
 21
-102.085825000000000
  0
LINE
  8
0
  6
CONTINUOUS
 62
256
 10
419.828261000000000
 20
-102.085825000000000
 11
416.778426000000020
 21
-102.085825000000000
  0
LINE
  8
0
  6
CONTINUOUS
 62
256
 10
428.413618999999980
 20
-102.085825000000000
 11
425.389833000000010
 21
-102.085825000000000
  0
ARC
  8
0
  6
CONTINUOUS
 62
256
 10
399.121982000000000
 20
-104.585825000000000
 40
39.000000000000014
 50
245.284732999999960
 51
294.715266999999980
  0
ARC
  8
0
  6
CONTINUOUS
 62
256
 10
399.121982000000000
 20
-104.585825000000000
 40
34.000000000000014
 50
245.739170000000000
 51
294.260830000000000
  0
ARC
  8
0
  6
CONTINUOUS
 62
256
 10
399.121982000000000
 20
-104.585825000000000
 40
25.500000000000007
 50
247.589541999999940
 51
292.410458000000010
  0
ARC
  8
0
  6
CONTINUOUS
 62
256
 10
399.121982000000000
 20
-104.585825000000000
 40
30.500000000000011
 50
246.813853999999990
 51
293.186146000000010
  0
ARC
  8
0
  6
CONTINUOUS
 62
256
 10
399.121982000000000
 20
-104.585825000000000
 40
21.999999999999996
 50
249.594067999999990
 51
290.405932000000010
  0
ARC
  8
0
  6
CONTINUOUS
 62
256
 10
399.121982000000000
 20
-104.585825000000000
 40
16.999999999999993
 50
251.212271000000040
 51
288.787728999999960
  0
ARC
  8
0
  6
CONTINUOUS
 62
256
 10
399.121982000000000
 20
-104.585825000000000
 40
13.500000000000004
 50
256.260205000000040
 51
283.739794999999960
  0
ARC
  8
0
  6
CONTINUOUS
 62
256
 10
396.153071000000010
 20
-116.728129999999990
 40
0.999999999999984
 50
149.999999999999460
 51
256.260204999998730
  0
ARC
  8
0
  6
CONTINUOUS
 62
256
 10
391.799931000000020
 20
-124.267989000000000
 40
0.999999999999984
 50
149.999999999999460
 51
249.594068000000160
  0
LINE
  8
0
  6
CONTINUOUS
 62
256
 10
390.933905999999980
 20
-123.767989000000000
 11
392.458823999999990
 21
-121.126754000000010
  0
ARC
  8
0
  6
CONTINUOUS
 62
256
 10
393.324848999999970
 20
-121.626754000000010
 40
1.000000000000010
 50
71.212270999999262
 51
149.999999999999460
  0
LINE
  8
0
  6
CONTINUOUS
 62
256
 10
395.287045999999980
 20
-116.228129999999990
 11
396.871165000000020
 21
-113.484354000000000
  0
ARC
  8
0
  6
CONTINUOUS
 62
256
 10
397.737191000000000
 20
-113.984354000000000
 40
0.999999999999998
 50
81.618272000001099
 51
149.999999999999460
  0
ARC
  8
0
  6
CONTINUOUS
 62
256
 10
384.740791000000000
 20
-136.494778999999990
 40
0.999999999999992
 50
65.739170000001337
 51
149.999999999999460
  0
LINE
  8
0
  6
CONTINUOUS
 62
256
 10
382.367809000000020
 20
-138.604903000000010
 11
383.874765000000020
 21
-135.994778999999990
  0
ARC
  8
0
  6
CONTINUOUS
 62
256
 10
383.233835000000000
 20
-139.104903000000010
 40
0.999999999999984
 50
149.999999999999460
 51
245.284732999999870
  0
ARC
  8
0
  6
CONTINUOUS
 62
256
 10
389.019144999999980
 20
-129.084451000000000
 40
1.000000000000009
 50
67.589541999999554
 51
149.999999999999460
  0
LINE
  8
0
  6
CONTINUOUS
 62
256
 10
386.641227000000010
 20
-131.203126999999990
 11
388.153120000000000
 21
-128.584451000000000
  0
ARC
  8
0
  6
CONTINUOUS
 62
256
 10
387.507252999999990
 20
-131.703126999999990
 40
0.999999999999984
 50
149.999999999999460
 51
246.813853999999880
  0
ARC
  8
0
  6
CONTINUOUS
 62
256
 10
399.121982000000000
 20
-104.585825000000000
 40
38.999999999999986
 50
185.284732999999990
 51
234.715266999999980
  0
ARC
  8
0
  6
CONTINUOUS
 62
256
 10
399.121982000000000
 20
-104.585825000000000
 40
34.000000000000028
 50
185.739169999999970
 51
234.260829999999970
  0
ARC
  8
0
  6
CONTINUOUS
 62
256
 10
399.121982000000000
 20
-104.585825000000000
 40
25.500000000000011
 50
187.589541999999990
 51
232.410458000000030
  0
ARC
  8
0
  6
CONTINUOUS
 62
256
 10
399.121982000000000
 20
-104.585825000000000
 40
30.499999999999986
 50
186.813853999999990
 51
233.186146000000040
  0
ARC
  8
0
  6
CONTINUOUS
 62
256
 10
399.121982000000000
 20
-104.585825000000000
 40
21.999999999999975
 50
189.594067999999960
 51
230.405932000000060
  0
ARC
  8
0
  6
CONTINUOUS
 62
256
 10
399.121982000000000
 20
-104.585825000000000
 40
16.999999999999993
 50
191.212271000000020
 51
228.787728999999980
  0
ARC
  8
0
  6
CONTINUOUS
 62
256
 10
399.121982000000000
 20
-104.585825000000000
 40
13.499999999999989
 50
196.260205000000010
 51
223.739794999999960
  0
ARC
  8
0
  6
CONTINUOUS
 62
256
 10
387.121982000000000
 20
-108.085825000000000
 40
1.000000000000000
 50
90.000000000000000
 51
196.260205000000670
  0
LINE
  8
0
  6
CONTINUOUS
 62
256
 10
387.121982000000000
 20
-107.085825000000000
 11
390.290220999999970
 21
-107.085825000000000
  0
ARC
  8
0
  6
CONTINUOUS
 62
256
 10
390.090892999999990
 20
-113.228129999999990
 40
1.000000000000005
 50
223.739794999999760
 51
329.999999999999490
  0
ARC
  8
0
  6
CONTINUOUS
 62
256
 10
399.121982000000000
 20
-104.585825000000000
 40
8.500000000000016
 50
201.618271999999960
 51
218.381727999999950
  0
ARC
  8
0
  6
CONTINUOUS
 62
256
 10
390.290220999999970
 20
-108.085825000000000
 40
1.000000000000013
 50
21.618271999999475
 51
90.000000000000000
  0
ARC
  8
0
  6
CONTINUOUS
 62
256
 10
385.737754000000000
 20
-120.767989000000000
 40
0.999999999999988
 50
230.405932000000690
 51
329.999999999999490
  0
LINE
  8
0
  6
CONTINUOUS
 62
256
 10
386.603778999999970
 20
-121.267989000000000
 11
388.128696999999990
 21
-118.626754000000010
  0
ARC
  8
0
  6
CONTINUOUS
 62
256
 10
387.262671000000010
 20
-118.126754000000010
 40
0.999999999999984
 50
329.999999999999490
 51
48.787728999999715
  0
LINE
  8
0
  6
CONTINUOUS
 62
256
 10
390.956919000000030
 20
-113.728129999999990
 11
392.541038000000010
 21
-110.984354000000000
  0
ARC
  8
0
  6
CONTINUOUS
 62
256
 10
391.675012999999980
 20
-110.484354000000000
 40
0.999999999999984
 50
329.999999999999490
 51
38.381728000001026
  0
ARC
  8
0
  6
CONTINUOUS
 62
256
 10
378.678612999999980
 20
-132.994778999999990
 40
0.999999999999984
 50
329.999999999999490
 51
54.260829999999778
  0
LINE
  8
0
  6
CONTINUOUS
 62
256
 10
378.037682000000020
 20
-136.104903000000010
 11
379.544638000000020
 21
-133.494778999999990
  0
ARC
  8
0
  6
CONTINUOUS
 62
256
 10
377.171656999999980
 20
-135.604903000000010
 40
1.000000000000016
 50
234.715266999999020
 51
329.999999999999490
  0
ARC
  8
0
  6
CONTINUOUS
 62
256
 10
382.956968000000020
 20
-125.584451000000000
 40
0.999999999999984
 50
329.999999999999490
 51
52.410458000001171
  0
LINE
  8
0
  6
CONTINUOUS
 62
256
 10
382.311100000000010
 20
-128.703126999999990
 11
383.822993000000000
 21
-126.084451000000000
  0
ARC
  8
0
  6
CONTINUOUS
 62
256
 10
381.445074999999970
 20
-128.203126999999990
 40
1.000000000000000
 50
233.186145999998760
 51
329.999999999999490
  0
ARC
  8
0
  6
CONTINUOUS
 62
256
 10
361.283509999999980
 20
-108.085825000000000
 40
1.000000000000000
 50
90.000000000000000
 51
185.284732999999760
  0
LINE
  8
0
  6
CONTINUOUS
 62
256
 10
361.283509999999980
 20
-107.085825000000000
 11
364.297421999999980
 21
-107.085825000000000
  0
ARC
  8
0
  6
CONTINUOUS
 62
256
 10
364.297421999999980
 20
-108.085825000000000
 40
0.999999999999978
 50
5.739170000000447
 51
90.000000000000000
  0
ARC
  8
0
  6
CONTINUOUS
 62
256
 10
369.830345000000020
 20
-108.085825000000000
 40
1.000000000000000
 50
90.000000000000000
 51
186.813853999999760
  0
LINE
  8
0
  6
CONTINUOUS
 62
256
 10
369.830345000000020
 20
-107.085825000000000
 11
372.854131000000000
 21
-107.085825000000000
  0
ARC
  8
0
  6
CONTINUOUS
 62
256
 10
372.854131000000000
 20
-108.085825000000000
 40
0.999999999999990
 50
7.589541999999997
 51
90.000000000000000
  0
ARC
  8
0
  6
CONTINUOUS
 62
256
 10
378.415703000000010
 20
-108.085825000000000
 40
1.000000000000000
 50
90.000000000000000
 51
189.594067999999960
  0
LINE
  8
0
  6
CONTINUOUS
 62
256
 10
378.415703000000010
 20
-107.085825000000000
 11
381.465538999999980
 21
-107.085825000000000
  0
ARC
  8
0
  6
CONTINUOUS
 62
256
 10
381.465538999999980
 20
-108.085825000000000
 40
1.000000000000016
 50
11.212270999999729
 51
90.000000000000000
  0
ARC
  8
0
  6
CONTINUOUS
 62
256
 10
402.090892999999990
 20
-116.728129999999990
 40
1.000000000000011
 50
283.739795000001270
 51
30.000000000000544
  0
LINE
  8
0
  6
CONTINUOUS
 62
256
 10
402.956919000000030
 20
-116.228129999999990
 11
401.372798999999990
 21
-113.484354000000000
  0
ARC
  8
0
  6
CONTINUOUS
 62
256
 10
399.121982000000000
 20
-104.585825000000000
 40
8.500000000000002
 50
261.618271999999930
 51
278.381728000000070
  0
ARC
  8
0
  6
CONTINUOUS
 62
256
 10
400.506774000000010
 20
-113.984354000000000
 40
0.999999999999984
 50
30.000000000000544
 51
98.381727999998901
  0
LINE
  8
0
  6
CONTINUOUS
 62
256
 10
428.413618999999980
 20
-107.085825000000000
 11
425.389833000000010
 21
-107.085825000000000
  0
LINE
  8
0
  6
CONTINUOUS
 62
256
 10
419.828261000000000
 20
-107.085825000000000
 11
416.778426000000020
 21
-107.085825000000000
  0
LINE
  8
0
  6
CONTINUOUS
 62
256
 10
411.121982000000000
 20
-107.085825000000000
 11
407.953742999999970
 21
-107.085825000000000
  0
LINE
  8
0
  6
CONTINUOUS
 62
256
 10
407.287045999999980
 20
-113.728129999999990
 11
405.702925999999990
 21
-110.984354000000000
  0
LINE
  8
0
  6
CONTINUOUS
 62
256
 10
411.640184999999970
 20
-121.267989000000000
 11
410.115267000000020
 21
-118.626754000000010
  0
LINE
  8
0
  6
CONTINUOUS
 62
256
 10
420.206281999999990
 20
-136.104903000000010
 11
418.699325999999990
 21
-133.494778999999990
  0
LINE
  8
0
  6
CONTINUOUS
 62
256
 10
415.932864000000000
 20
-128.703126999999990
 11
414.420971000000010
 21
-126.084451000000000
  0
ARC
  8
0
  6
CONTINUOUS
 62
256
 10
399.121982000000000
 20
-104.585825000000000
 40
8.500000000000005
 50
321.618272000000050
 51
338.381728000000010
  0
ARC
  8
0
  6
CONTINUOUS
 62
256
 10
399.121982000000000
 20
-104.585825000000000
 40
13.500000000000004
 50
316.260204999999980
 51
343.739794999999960
  0
ARC
  8
0
  6
CONTINUOUS
 62
256
 10
399.121982000000000
 20
-104.585825000000000
 40
17.000000000000014
 50
311.212270999999990
 51
348.787729000000010
  0
ARC
  8
0
  6
CONTINUOUS
 62
256
 10
399.121982000000000
 20
-104.585825000000000
 40
21.999999999999986
 50
309.594067999999940
 51
350.405932000000010
  0
ARC
  8
0
  6
CONTINUOUS
 62
256
 10
399.121982000000000
 20
-104.585825000000000
 40
25.499999999999986
 50
307.589541999999990
 51
352.410458000000010
  0
ARC
  8
0
  6
CONTINUOUS
 62
256
 10
399.121982000000000
 20
-104.585825000000000
 40
33.999999999999972
 50
305.739169999999940
 51
354.260830000000000
  0
ARC
  8
0
  6
CONTINUOUS
 62
256
 10
399.121982000000000
 20
-104.585825000000000
 40
30.500000000000025
 50
306.813854000000050
 51
353.186146000000010
  0
ARC
  8
0
  6
CONTINUOUS
 62
256
 10
399.121982000000000
 20
-104.585825000000000
 40
39.000000000000000
 50
305.284733000000020
 51
354.715266999999980
  0
ARC
  8
0
  6
CONTINUOUS
 62
256
 10
406.568951000000030
 20
-110.484354000000000
 40
0.999999999999985
 50
141.618271999999000
 51
210.000000000000510
  0
ARC
  8
0
  6
CONTINUOUS
 62
256
 10
407.953742999999970
 20
-108.085825000000000
 40
1.000000000000000
 50
90.000000000000000
 51
158.381728000000550
  0
ARC
  8
0
  6
CONTINUOUS
 62
256
 10
411.121982000000000
 20
-108.085825000000000
 40
0.999999999999976
 50
343.739794999999330
 51
90.000000000000000
  0
ARC
  8
0
  6
CONTINUOUS
 62
256
 10
408.153071000000010
 20
-113.228129999999990
 40
0.999999999999984
 50
210.000000000000510
 51
316.260205000000270
  0
ARC
  8
0
  6
CONTINUOUS
 62
256
 10
410.981292999999990
 20
-118.126754000000010
 40
1.000000000000006
 50
131.212270999999760
 51
210.000000000000510
  0
ARC
  8
0
  6
CONTINUOUS
 62
256
 10
412.506211000000010
 20
-120.767989000000000
 40
0.999999999999984
 50
210.000000000000510
 51
309.594067999999310
  0
ARC
  8
0
  6
CONTINUOUS
 62
256
 10
416.778426000000020
 20
-108.085825000000000
 40
1.000000000000000
 50
90.000000000000000
 51
168.787729000000270
  0
ARC
  8
0
  6
CONTINUOUS
 62
256
 10
419.828261000000000
 20
-108.085825000000000
 40
0.999999999999978
 50
350.405932000000010
 51
90.000000000000000
  0
ARC
  8
0
  6
CONTINUOUS
 62
256
 10
415.286996999999990
 20
-125.584451000000000
 40
0.999999999999993
 50
127.589541999998830
 51
210.000000000000510
  0
ARC
  8
0
  6
CONTINUOUS
 62
256
 10
416.798889999999970
 20
-128.203126999999990
 40
0.999999999999984
 50
210.000000000000510
 51
306.813854000001190
  0
ARC
  8
0
  6
CONTINUOUS
 62
256
 10
425.389833000000010
 20
-108.085825000000000
 40
1.000000000000000
 50
90.000000000000000
 51
172.410458000000010
  0
ARC
  8
0
  6
CONTINUOUS
 62
256
 10
419.565351000000020
 20
-132.994778999999990
 40
0.999999999999998
 50
125.739170000000210
 51
210.000000000000510
  0
ARC
  8
0
  6
CONTINUOUS
 62
256
 10
421.072307000000020
 20
-135.604903000000010
 40
0.999999999999984
 50
210.000000000000510
 51
305.284733000000980
  0
ARC
  8
0
  6
CONTINUOUS
 62
256
 10
415.010129000000010
 20
-139.104903000000010
 40
1.000000000000004
 50
294.715267000000150
 51
30.000000000000544
  0
LINE
  8
0
  6
CONTINUOUS
 62
256
 10
415.876154999999980
 20
-138.604903000000010
 11
414.369198999999980
 21
-135.994778999999990
  0
ARC
  8
0
  6
CONTINUOUS
 62
256
 10
410.736712000000010
 20
-131.703126999999990
 40
1.000000000000000
 50
293.186146000000120
 51
30.000000000000544
  0
LINE
  8
0
  6
CONTINUOUS
 62
256
 10
411.602736999999990
 20
-131.203126999999990
 11
410.090844000000000
 21
-128.584451000000000
  0
ARC
  8
0
  6
CONTINUOUS
 62
256
 10
413.503173000000000
 20
-136.494778999999990
 40
0.999999999999984
 50
30.000000000000544
 51
114.260829999998650
  0
ARC
  8
0
  6
CONTINUOUS
 62
256
 10
409.224819000000020
 20
-129.084451000000000
 40
0.999999999999984
 50
30.000000000000544
 51
112.410458000000460
  0
ARC
  8
0
  6
CONTINUOUS
 62
256
 10
406.444032999999990
 20
-124.267989000000000
 40
0.999999999999993
 50
290.405931999999840
 51
30.000000000000544
  0
LINE
  8
0
  6
CONTINUOUS
 62
256
 10
407.310058000000030
 20
-123.767989000000000
 11
405.785140000000010
 21
-121.126754000000010
  0
ARC
  8
0
  6
CONTINUOUS
 62
256
 10
404.919114999999980
 20
-121.626754000000010
 40
0.999999999999984
 50
30.000000000000544
 51
108.787729000000750
  0
LINE
  8
0
  6
CONTINUOUS
 62
256
 10
436.960455000000020
 20
-107.085825000000000
 11
433.946542000000020
 21
-107.085825000000000
  0
ARC
  8
0
  6
CONTINUOUS
 62
256
 10
428.413618999999980
 20
-108.085825000000000
 40
1.000000000000019
 50
353.186146000000240
 51
90.000000000000000
  0
ARC
  8
0
  6
CONTINUOUS
 62
256
 10
436.960455000000020
 20
-108.085825000000000
 40
1.000000000000027
 50
354.715267000000210
 51
90.000000000000000
  0
ARC
  8
0
  6
CONTINUOUS
 62
256
 10
433.946542000000020
 20
-108.085825000000000
 40
1.000000000000000
 50
90.000000000000000
 51
174.260829999999570
  0
ARC
  8
0
  6
CONTINUOUS
 62
256
 10
745.721982000000030
 20
-104.585825000000000
 40
400.600000000000080
 50
174.256317999999990
 51
180.000000000000000
  0
ARC
  8
0
  6
CONTINUOUS
 62
256
 10
353.700035000000010
 20
-65.154957999999993
 40
6.600000000000017
 50
135.000000000000170
 51
174.256317999999940
  0
ARC
  8
0
  6
CONTINUOUS
 62
256
 10
745.721982000000030
 20
-104.585825000000000
 40
390.797000000000030
 50
174.582035999999990
 51
180.000000000000000
  0
ARC
  8
0
  6
CONTINUOUS
 62
256
 10
359.657500000000030
 20
-67.969859999999997
 40
3.000000000000014
 50
135.000000000000200
 51
174.582036000000070
  0
ARC
  8
0
  6
CONTINUOUS
 62
256
 10
438.586463999999980
 20
-67.969859999999997
 40
2.999999999999996
 50
5.417963999999932
 51
44.999999999999808
  0
ARC
  8
0
  6
CONTINUOUS
 62
256
 10
52.521982000000001
 20
-104.585825000000000
 40
390.797000000000030
 50
0.000000000000000
 51
5.417963999999998
  0
ARC
  8
0
  6
CONTINUOUS
 62
256
 10
422.661780000000020
 20
-77.213933999999995
 40
20.797000000000008
 50
44.999999999999972
 51
84.998349999999959
  0
LINE
  8
0
  6
CONTINUOUS
 62
256
 10
437.367480000000000
 20
-62.508234999999999
 11
440.707785000000000
 21
-65.848540000000000
  0
ARC
  8
0
  6
CONTINUOUS
 62
256
 10
399.121982000000000
 20
-346.185825000000020
 40
290.797000000000030
 50
84.998350000000002
 51
90.000000000000000
  0
ARC
  8
0
  6
CONTINUOUS
 62
256
 10
438.586463999999980
 20
-141.201789999999990
 40
3.000000000000004
 50
315.000000000000340
 51
354.582035999999790
  0
ARC
  8
0
  6
CONTINUOUS
 62
256
 10
52.521982000000001
 20
-104.585825000000000
 40
390.797000000000030
 50
354.582036000000020
 51
0.000000000000000
  0
ARC
  8
0
  6
CONTINUOUS
 62
256
 10
422.661780000000020
 20
-131.957716000000000
 40
20.796999999999990
 50
275.001650000000040
 51
315.000000000000000
  0
LINE
  8
0
  6
CONTINUOUS
 62
256
 10
437.367480000000000
 20
-146.663414999999990
 11
440.707785000000000
 21
-143.323110000000010
  0
ARC
  8
0
  6
CONTINUOUS
 62
256
 10
399.121982000000000
 20
137.014174999999990
 40
290.797000000000030
 50
270.000000000000000
 51
275.001649999999980
  0
ARC
  8
0
  6
CONTINUOUS
 62
256
 10
359.657500000000030
 20
-141.201789999999990
 40
2.999999999999998
 50
185.417964000000180
 51
224.999999999999630
  0
ARC
  8
0
  6
CONTINUOUS
 62
256
 10
745.721982000000030
 20
-104.585825000000000
 40
390.797000000000030
 50
180.000000000000000
 51
185.417963999999980
  0
ARC
  8
0
  6
CONTINUOUS
 62
256
 10
375.582183999999980
 20
-131.957716000000000
 40
20.797000000000015
 50
225.000000000000000
 51
264.998350000000070
  0
LINE
  8
0
  6
CONTINUOUS
 62
256
 10
360.876485000000000
 20
-146.663414999999990
 11
357.536180000000000
 21
-143.323110000000010
  0
ARC
  8
0
  6
CONTINUOUS
 62
256
 10
399.121982000000000
 20
137.014174999999990
 40
290.797000000000030
 50
264.998350000000070
 51
270.000000000000000
  0
ARC
  8
0
  6
CONTINUOUS
 62
256
 10
371.058224999999990
 20
-67.595758000000004
 40
20.600000000000009
 50
95.752283000000077
 51
135.000000000000000
  0
LINE
  8
0
  6
CONTINUOUS
 62
256
 10
356.491826000000000
 20
-53.029358000000002
 11
349.033131000000030
 21
-60.488053000000001
  0
ARC
  8
0
  6
CONTINUOUS
 62
256
 10
399.121982000000000
 20
-346.185825000000020
 40
300.600000000000020
 50
90.000000000000000
 51
95.752283000000006
  0
ARC
  8
0
  6
CONTINUOUS
 62
256
 10
371.058224999999990
 20
-67.595758000000004
 40
10.797000000000002
 50
95.752283000000034
 51
135.000000000000030
  0
LINE
  8
0
  6
CONTINUOUS
 62
256
 10
363.423593999999980
 20
-59.961126000000000
 11
357.536180000000000
 21
-65.848540000000000
  0
ARC
  8
0
  6
CONTINUOUS
 62
256
 10
399.121982000000000
 20
-346.185825000000020
 40
290.797000000000030
 50
90.000000000000000
 51
95.752283000000006
  0
ARC
  8
0
  6
CONTINUOUS
 62
256
 10
399.121982000000000
 20
-346.185825000000020
 40
300.600000000000020
 50
84.247716999999994
 51
90.000000000000000
  0
LINE
  8
0
  6
CONTINUOUS
 62
256
 10
441.752138000000000
 20
-53.029358000000002
 11
449.210833999999980
 21
-60.488053000000001
  0
ARC
  8
0
  6
CONTINUOUS
 62
256
 10
427.185739000000010
 20
-67.595758000000004
 40
20.599999999999994
 50
45.000000000000014
 51
84.247716999999938
  0
ARC
  8
0
  6
CONTINUOUS
 62
256
 10
52.521982000000001
 20
-104.585825000000000
 40
400.600000000000020
 50
0.000000000000000
 51
5.743682000000000
  0
ARC
  8
0
  6
CONTINUOUS
 62
256
 10
444.543928999999990
 20
-65.154957999999993
 40
6.599999999999973
 50
5.743682000000063
 51
44.999999999999829
  0
ARC
  8
0
  6
CONTINUOUS
 62
256
 10
399.121982000000000
 20
137.014174999999990
 40
300.600000000000020
 50
270.000000000000000
 51
275.752282999999980
  0
LINE
  8
0
  6
CONTINUOUS
 62
256
 10
441.752138000000000
 20
-156.142292000000000
 11
449.210833999999980
 21
-148.683596999999990
  0
ARC
  8
0
  6
CONTINUOUS
 62
256
 10
427.185739000000010
 20
-141.575892000000010
 40
20.599999999999991
 50
275.752282999999860
 51
315.000000000000000
  0
ARC
  8
0
  6
CONTINUOUS
 62
256
 10
52.521982000000001
 20
-104.585825000000000
 40
400.600000000000020
 50
354.256318000000020
 51
0.000000000000000
  0
ARC
  8
0
  6
CONTINUOUS
 62
256
 10
444.543928999999990
 20
-144.016692000000010
 40
6.600000000000017
 50
315.000000000000170
 51
354.256318000000020
  0
ARC
  8
0
  6
CONTINUOUS
 62
256
 10
399.121982000000000
 20
137.014174999999990
 40
300.600000000000020
 50
264.247717000000020
 51
270.000000000000000
  0
LINE
  8
0
  6
CONTINUOUS
 62
256
 10
356.491826000000000
 20
-156.142292000000000
 11
349.033131000000030
 21
-148.683596999999990
  0
ARC
  8
0
  6
CONTINUOUS
 62
256
 10
371.058224999999990
 20
-141.575892000000010
 40
20.599999999999991
 50
225.000000000000000
 51
264.247716999999910
  0
ARC
  8
0
  6
CONTINUOUS
 62
256
 10
745.721982000000030
 20
-104.585825000000000
 40
400.600000000000020
 50
180.000000000000000
 51
185.743681999999980
  0
ARC
  8
0
  6
CONTINUOUS
 62
256
 10
353.700035000000010
 20
-144.016692000000010
 40
6.599999999999971
 50
185.743681999999920
 51
224.999999999999830
  0
LINE
  8
0
  6
CONTINUOUS
 62
256
 10
369.133996000000020
 20
-47.085825000000000
 11
363.121982000000000
 21
-47.085825000000000
  0
LINE
  8
0
  6
CONTINUOUS
 62
256
 10
363.121982000000000
 20
-48.585864000000001
 11
363.121982000000000
 21
-47.085825000000000
  0
LINE
  8
0
  6
CONTINUOUS
 62
256
 10
435.121982000000000
 20
-48.585864000000001
 11
435.121982000000000
 21
-47.085825000000000
  0
LINE
  8
0
  6
CONTINUOUS
 62
256
 10
435.121982000000000
 20
-47.085825000000000
 11
429.114481000000010
 21
-47.085825000000000
  0
LINE
  8
0
  6
CONTINUOUS
 62
256
 10
344.121982000000000
 20
-89.603279999999998
 11
344.121982000000000
 21
-104.103280000000000
  0
LINE
  8
0
  6
CONTINUOUS
 62
256
 10
344.121982000000000
 20
-89.603279999999998
 11
344.121982000000000
 21
-104.103280000000000
  0
LINE
  8
0
  6
CONTINUOUS
 62
256
 10
344.121982000000000
 20
-75.103279999999998
 11
346.121982000000000
 21
-75.103279999999998
  0
LINE
  8
0
  6
CONTINUOUS
 62
256
 10
344.121982000000000
 20
-89.603279999999998
 11
344.121982000000000
 21
-75.103279999999998
  0
LINE
  8
0
  6
CONTINUOUS
 62
256
 10
344.121982000000000
 20
-89.603279999999998
 11
344.121982000000000
 21
-75.103279999999998
  0
LINE
  8
0
  6
CONTINUOUS
 62
256
 10
299.121982000000000
 20
-89.603279999999998
 11
299.121982000000000
 21
-72.603279999999998
  0
LINE
  8
0
  6
CONTINUOUS
 62
256
 10
299.121982000000000
 20
-89.603279999999998
 11
299.121982000000000
 21
-103.603280000000000
  0
LINE
  8
0
  6
CONTINUOUS
 62
256
 10
335.121982000000000
 20
-75.603279999999998
 11
335.121982000000000
 21
-72.603279999999998
  0
LINE
  8
0
  6
CONTINUOUS
 62
256
 10
335.121982000000000
 20
-72.603279999999998
 11
299.121982000000000
 21
-72.603279999999998
  0
LINE
  8
0
  6
CONTINUOUS
 62
256
 10
344.121982000000000
 20
-75.603279999999998
 11
299.121982000000000
 21
-75.603279999999998
  0
LINE
  8
0
  6
CONTINUOUS
 62
256
 10
344.121982000000000
 20
-103.603280000000000
 11
299.121982000000000
 21
-103.603280000000000
  0
LINE
  8
0
  6
CONTINUOUS
 62
256
 10
344.121982000000000
 20
-104.103280000000000
 11
345.122273000000010
 21
-104.103280000000000
  0
LINE
  8
0
  6
DASHDOT
 62
256
 10
456.918465000000030
 20
-89.603279999999998
 11
294.986336999999990
 21
-89.603279999999998
  0
LINE
  8
0
  6
CONTINUOUS
 62
256
 10
350.121982000000000
 20
-47.103279999999998
 11
346.121982000000000
 21
-47.103279999999998
  0
LINE
  8
0
  6
CONTINUOUS
 62
256
 10
360.121982000000000
 20
-29.921137000000002
 11
350.121982000000000
 21
-29.921137000000002
  0
LINE
  8
0
  6
CONTINUOUS
 62
256
 10
346.121982000000000
 20
-76.298017999999999
 11
346.121982000000000
 21
-47.103279999999998
  0
LINE
  8
0
  6
CONTINUOUS
 62
256
 10
350.121982000000000
 20
-59.399202000000002
 11
350.121982000000000
 21
-29.921137000000002
  0
LINE
  8
0
  6
CONTINUOUS
 62
256
 10
363.121982000000000
 20
-29.868082999999999
 11
360.121982000000000
 21
-29.921137000000002
  0
LINE
  8
0
  6
CONTINUOUS
 62
256
 10
448.121982000000000
 20
-28.812740999999999
 11
436.121982000000000
 21
-28.603280000000002
  0
LINE
  8
0
  6
CONTINUOUS
 62
256
 10
448.121982000000000
 20
-59.399202000000002
 11
448.121982000000000
 21
-28.812740999999999
  0
LINE
  8
0
  6
CONTINUOUS
 62
256
 10
436.121982000000000
 20
-28.577096999999998
 11
436.121982000000000
 21
-49.034951000000000
  0
LINE
  8
0
  6
CONTINUOUS
 62
256
 10
436.121982000000000
 20
-28.577096999999998
 11
435.121982000000000
 21
-28.594781999999999
  0
LINE
  8
0
  6
CONTINUOUS
 62
256
 10
452.121982000000000
 20
-47.103279999999998
 11
448.121982000000000
 21
-47.103279999999998
  0
LINE
  8
0
  6
CONTINUOUS
 62
256
 10
452.121982000000000
 20
-47.103279999999998
 11
452.121982000000000
 21
-76.298017999999999
  0
LINE
  8
0
  6
CONTINUOUS
 62
256
 10
360.121982000000000
 20
-175.250511999999990
 11
350.121982000000000
 21
-175.250511999999990
  0
LINE
  8
0
  6
CONTINUOUS
 62
256
 10
436.121982000000000
 20
-176.594551999999990
 11
360.121982000000000
 21
-175.250511999999990
  0
LINE
  8
0
  6
CONTINUOUS
 62
256
 10
350.121982000000000
 20
-175.250511999999990
 11
350.121982000000000
 21
-149.772448000000000
  0
LINE
  8
0
  6
CONTINUOUS
 62
256
 10
436.121982000000000
 20
-176.603280000000010
 11
448.121982000000000
 21
-176.393819000000010
  0
LINE
  8
0
  6
CONTINUOUS
 62
256
 10
448.121982000000000
 20
-176.393819000000010
 11
448.121982000000000
 21
-149.772448000000000
  0
LINE
  8
0
  6
CONTINUOUS
 62
256
 10
436.121982000000000
 20
-160.136698999999990
 11
436.121982000000000
 21
-176.594551999999990
  0
TEXT
  8
0
  6
CONTINUOUS
 62
256
 10
503.093688964843750
 20
-208.992919921875000
 40
3.299999952316284
  1
1/1
 50
0.000002504478167
 41
0.850909097352304
  7
STANDARD1
  0
TEXT
  8
0
  6
CONTINUOUS
 62
256
 10
500.675689697265620
 20
-208.992919921875000
 40
3.299999952316284
  1
 
 50
0.000002504478167
 41
1.733333298293026
  7
STANDARD1
  0
TEXT
  8
0
  6
CONTINUOUS
 62
256
 10
487.625061035156250
 20
-208.992919921875000
 40
3.299999952316284
  1
SCALE
 50
0.000002504478167
 41
0.821052645401140
  7
STANDARD1
  0
TEXT
  8
0
  6
CONTINUOUS
 62
256
 10
484.373687744140620
 20
-208.992919921875000
 40
3.299999952316284
  1
 
 50
0.000002504478167
 41
1.733333298293026
  7
STANDARD1
  0
TEXT
  8
0
  6
CONTINUOUS
 62
256
 10
499.227844238281250
 20
-203.692916870117190
 40
3.299999952316284
  1
1/240
 50
0.000002504478167
 41
0.821052645401140
  7
STANDARD1
  0
TEXT
  8
0
  6
CONTINUOUS
 62
256
 10
495.445861816406250
 20
-203.692916870117190
 40
3.299999952316284
  1
ü`
 50
0.000002504478167
 41
1.176000019651471
  7
STANDARD1
  0
TEXT
  8
0
  6
CONTINUOUS
 62
256
 10
484.373687744140620
 20
-203.692916870117190
 40
3.299999952316284
  1
1/80
 50
0.000002504478167
 41
0.832000075658163
  7
STANDARD1
  0
TEXT
  8
0
  6
CONTINUOUS
 62
256
 10
484.373687744140620
 20
-198.392913818359370
 40
3.299999952316284
  1
GM-SHYMB-RL
 50
0.000002504478167
 41
0.798139564113939
  7
STANDARD1
  0
TEXT
  8
0
  6
CONTINUOUS
 62
256
 10
490.199066162109370
 20
-193.092926025390620
 40
3.299999952316284
  1
0.2kW
 50
0.000002504478167
 41
0.821052645401140
  7
STANDARD1
  0
TEXT
  8
0
  6
CONTINUOUS
 62
256
 10
484.373687744140620
 20
-193.092926025390620
 40
3.299999952316284
  1
  
 50
0.000002504478167
 41
1.485714400175845
  7
STANDARD1
  0
TEXT
  8
0
  6
CONTINUOUS
 62
256
 10
490.193176269531250
 20
-187.792922973632810
 40
3.299999952316284
  1
SHY073
 50
0.000002504478167
 41
0.813913121261144
  7
STANDARD1
  0
TEXT
  8
0
  6
CONTINUOUS
 62
256
 10
484.373687744140620
 20
-187.792922973632810
 40
3.299999952316284
  1
  
 50
0.000002504478167
 41
1.485714400175845
  7
STANDARD1
  0
ARC
  8
0
  6
CONTINUOUS
 62
256
 10
210.027796999999990
 20
129.356652999999990
 40
20.599999999999994
 50
270.000000000000000
 51
304.999999999999940
  0
ARC
  8
0
  6
CONTINUOUS
 62
256
 10
227.922952000000010
 20
119.913033000000000
 40
2.600000000000007
 50
305.000000000000000
 51
0.000000000000000
  0
LINE
  8
0
  6
CONTINUOUS
 62
256
 10
230.522952000000000
 20
119.913033000000000
 11
230.522952000000000
 21
162.756653000000000
  0
LINE
  8
0
  6
CONTINUOUS
 62
256
 10
221.843471999999990
 20
112.482121000000010
 11
229.414251000000010
 21
117.783238000000000
  0
ARC
  8
0
  6
CONTINUOUS
 62
256
 10
139.522952000000000
 20
127.756653000000000
 40
3.000000000000000
 50
270.000000000000000
 51
0.000000000000000
  0
LINE
  8
0
  6
CONTINUOUS
 62
256
 10
135.522952000000000
 20
124.756653000000000
 11
139.522952000000000
 21
124.756653000000000
  0
ARC
  8
0
  6
CONTINUOUS
 62
256
 10
135.522952000000000
 20
121.756653000000000
 40
3.000000000000000
 50
90.000000000000000
 51
180.000000000000000
  0
LINE
  8
0
  6
CONTINUOUS
 62
256
 10
140.322951999999990
 20
127.756653000000000
 11
140.322951999999990
 21
162.756653000000000
  0
ARC
  8
0
  6
CONTINUOUS
 62
256
 10
139.322951999999990
 20
127.756653000000000
 40
1.000000000000000
 50
270.000000000000000
 51
0.000000000000000
  0
LINE
  8
0
  6
CONTINUOUS
 62
256
 10
50.322952000000001
 20
127.756653000000000
 11
50.322952000000001
 21
162.756653000000000
  0
LINE
  8
0
  6
CONTINUOUS
 62
256
 10
51.322952000000001
 20
126.756653000000000
 11
139.322951999999990
 21
126.756653000000000
  0
ARC
  8
0
  6
CONTINUOUS
 62
256
 10
51.322952000000001
 20
127.756653000000000
 40
1.000000000000000
 50
180.000000000000000
 51
270.000000000000000
  0
LINE
  8
0
  6
CONTINUOUS
 62
256
 10
50.322952000000001
 20
129.453052000000010
 11
48.522951999999997
 21
129.453052000000010
  0
LINE
  8
0
  6
CONTINUOUS
 62
256
 10
50.322952000000001
 20
131.042261999999990
 11
48.522951999999997
 21
131.042261999999990
  0
LINE
  8
0
  6
CONTINUOUS
 62
256
 10
50.322952000000001
 20
142.756653000000000
 11
48.522951999999997
 21
142.756653000000000
  0
LINE
  8
0
  6
CONTINUOUS
 62
256
 10
50.322952000000001
 20
139.918412999999990
 11
48.522951999999997
 21
139.918412999999990
  0
LINE
  8
0
  6
CONTINUOUS
 62
256
 10
50.322952000000001
 20
138.572012000000000
 11
48.522951999999997
 21
138.572012000000000
  0
LINE
  8
0
  6
CONTINUOUS
 62
256
 10
50.322952000000001
 20
135.479280999999990
 11
48.522951999999997
 21
135.479280999999990
  0
LINE
  8
0
  6
CONTINUOUS
 62
256
 10
50.322952000000001
 20
134.000258000000000
 11
48.522951999999997
 21
134.000258000000000
  0
LINE
  8
0
  6
CONTINUOUS
 62
256
 10
142.522952000000000
 20
142.756653000000000
 11
140.322951999999990
 21
142.756653000000000
  0
LINE
  8
0
  6
CONTINUOUS
 62
256
 10
142.522952000000000
 20
139.918412999999990
 11
140.322951999999990
 21
139.918412999999990
  0
LINE
  8
0
  6
CONTINUOUS
 62
256
 10
142.522952000000000
 20
138.572012000000000
 11
140.322951999999990
 21
138.572012000000000
  0
LINE
  8
0
  6
CONTINUOUS
 62
256
 10
142.522952000000000
 20
135.479280999999990
 11
140.322951999999990
 21
135.479280999999990
  0
LINE
  8
0
  6
CONTINUOUS
 62
256
 10
142.522952000000000
 20
134.000258000000000
 11
140.322951999999990
 21
134.000258000000000
  0
LINE
  8
0
  6
CONTINUOUS
 62
256
 10
142.522952000000000
 20
131.042261999999990
 11
140.322951999999990
 21
131.042261999999990
  0
LINE
  8
0
  6
CONTINUOUS
 62
256
 10
142.522952000000000
 20
129.453052000000010
 11
140.322951999999990
 21
129.453052000000010
  0
LINE
  8
0
  6
CONTINUOUS
 62
256
 10
132.680553000000000
 20
122.716218000000000
 11
48.522951999999997
 21
122.716218000000000
  0
LINE
  8
0
  6
CONTINUOUS
 62
256
 10
132.522952000000000
 20
121.714738999999990
 11
48.522951999999997
 21
121.714738999999990
  0
LINE
  8
0
  6
CONTINUOUS
 62
256
 10
132.522952000000000
 20
118.251998000000000
 11
48.522951999999997
 21
118.251998000000000
  0
LINE
  8
0
  6
CONTINUOUS
 62
256
 10
132.522952000000000
 20
116.623570000000000
 11
48.522951999999997
 21
116.623570000000000
  0
LINE
  8
0
  6
CONTINUOUS
 62
256
 10
132.522952000000000
 20
111.756653000000000
 11
48.522951999999997
 21
111.756653000000000
  0
LINE
  8
0
  6
CONTINUOUS
 62
256
 10
132.522952000000000
 20
112.256653000000000
 11
48.522951999999997
 21
112.256653000000000
  0
LINE
  8
0
  6
CONTINUOUS
 62
256
 10
48.522951999999997
 20
110.256653000000000
 11
132.522952000000000
 21
110.256653000000000
  0
LINE
  8
0
  6
CONTINUOUS
 62
256
 10
142.522952000000000
 20
162.756653000000000
 11
142.522952000000000
 21
127.756653000000000
  0
ARC
  8
0
  6
CONTINUOUS
 62
256
 10
210.027796999999990
 20
196.156653000000010
 40
20.599999999999991
 50
55.000000000000007
 51
90.000000000000000
  0
ARC
  8
0
  6
CONTINUOUS
 62
256
 10
227.922952000000010
 20
205.600272999999990
 40
2.599999999999994
 50
0.000000000000000
 51
54.999999999999801
  0
LINE
  8
0
  6
CONTINUOUS
 62
256
 10
230.522952000000000
 20
205.600272999999990
 11
230.522952000000000
 21
162.756653000000000
  0
LINE
  8
0
  6
CONTINUOUS
 62
256
 10
221.843471999999990
 20
213.031184999999990
 11
229.414251000000010
 21
207.730068999999990
  0
ARC
  8
0
  6
CONTINUOUS
 62
256
 10
139.522952000000000
 20
197.756653000000000
 40
3.000000000000000
 50
0.000000000000000
 51
90.000000000000000
  0
LINE
  8
0
  6
CONTINUOUS
 62
256
 10
135.522952000000000
 20
200.756653000000000
 11
139.522952000000000
 21
200.756653000000000
  0
ARC
  8
0
  6
CONTINUOUS
 62
256
 10
135.522952000000000
 20
203.756653000000000
 40
3.000000000000000
 50
180.000000000000000
 51
270.000000000000000
  0
LINE
  8
0
  6
CONTINUOUS
 62
256
 10
140.322951999999990
 20
197.756653000000000
 11
140.322951999999990
 21
162.756653000000000
  0
ARC
  8
0
  6
CONTINUOUS
 62
256
 10
139.322951999999990
 20
197.756653000000000
 40
1.000000000000000
 50
0.000000000000000
 51
90.000000000000000
  0
LINE
  8
0
  6
CONTINUOUS
 62
256
 10
50.322952000000001
 20
197.756653000000000
 11
50.322952000000001
 21
162.756653000000000
  0
LINE
  8
0
  6
CONTINUOUS
 62
256
 10
51.322952000000001
 20
198.756653000000000
 11
139.322951999999990
 21
198.756653000000000
  0
ARC
  8
0
  6
CONTINUOUS
 62
256
 10
51.322952000000001
 20
197.756653000000000
 40
1.000000000000000
 50
90.000000000000000
 51
180.000000000000000
  0
LINE
  8
0
  6
CONTINUOUS
 62
256
 10
50.322952000000001
 20
196.060253999999990
 11
48.522951999999997
 21
196.060253999999990
  0
LINE
  8
0
  6
CONTINUOUS
 62
256
 10
50.322952000000001
 20
194.471044000000010
 11
48.522951999999997
 21
194.471044000000010
  0
LINE
  8
0
  6
CONTINUOUS
 62
256
 10
50.322952000000001
 20
182.756653000000000
 11
48.522951999999997
 21
182.756653000000000
  0
LINE
  8
0
  6
CONTINUOUS
 62
256
 10
50.322952000000001
 20
185.594893000000010
 11
48.522951999999997
 21
185.594893000000010
  0
LINE
  8
0
  6
CONTINUOUS
 62
256
 10
50.322952000000001
 20
186.941294000000000
 11
48.522951999999997
 21
186.941294000000000
  0
LINE
  8
0
  6
CONTINUOUS
 62
256
 10
50.322952000000001
 20
190.034025000000010
 11
48.522951999999997
 21
190.034025000000010
  0
LINE
  8
0
  6
CONTINUOUS
 62
256
 10
50.322952000000001
 20
191.513049000000000
 11
48.522951999999997
 21
191.513049000000000
  0
LINE
  8
0
  6
CONTINUOUS
 62
256
 10
142.522952000000000
 20
182.756653000000000
 11
140.322951999999990
 21
182.756653000000000
  0
LINE
  8
0
  6
CONTINUOUS
 62
256
 10
142.522952000000000
 20
185.594893000000010
 11
140.322951999999990
 21
185.594893000000010
  0
LINE
  8
0
  6
CONTINUOUS
 62
256
 10
142.522952000000000
 20
186.941294000000000
 11
140.322951999999990
 21
186.941294000000000
  0
LINE
  8
0
  6
CONTINUOUS
 62
256
 10
142.522952000000000
 20
190.034025000000010
 11
140.322951999999990
 21
190.034025000000010
  0
LINE
  8
0
  6
CONTINUOUS
 62
256
 10
142.522952000000000
 20
191.513049000000000
 11
140.322951999999990
 21
191.513049000000000
  0
LINE
  8
0
  6
CONTINUOUS
 62
256
 10
142.522952000000000
 20
194.471044000000010
 11
140.322951999999990
 21
194.471044000000010
  0
LINE
  8
0
  6
CONTINUOUS
 62
256
 10
142.522952000000000
 20
196.060253999999990
 11
140.322951999999990
 21
196.060253999999990
  0
LINE
  8
0
  6
CONTINUOUS
 62
256
 10
132.680553000000000
 20
202.797088000000000
 11
48.522951999999997
 21
202.797088000000000
  0
LINE
  8
0
  6
CONTINUOUS
 62
256
 10
132.522952000000000
 20
203.798566999999990
 11
48.522951999999997
 21
203.798566999999990
  0
LINE
  8
0
  6
CONTINUOUS
 62
256
 10
132.522952000000000
 20
207.261309000000010
 11
48.522951999999997
 21
207.261309000000010
  0
LINE
  8
0
  6
CONTINUOUS
 62
256
 10
132.522952000000000
 20
208.889736000000000
 11
48.522951999999997
 21
208.889736000000000
  0
LINE
  8
0
  6
CONTINUOUS
 62
256
 10
132.522952000000000
 20
213.756653000000000
 11
48.522951999999997
 21
213.756653000000000
  0
LINE
  8
0
  6
CONTINUOUS
 62
256
 10
132.522952000000000
 20
213.256653000000000
 11
48.522951999999997
 21
213.256653000000000
  0
LINE
  8
0
  6
CONTINUOUS
 62
256
 10
48.522951999999997
 20
215.256653000000000
 11
132.522952000000000
 21
215.256653000000000
  0
LINE
  8
0
  6
CONTINUOUS
 62
256
 10
142.522952000000000
 20
162.756653000000000
 11
142.522952000000000
 21
197.756653000000000
  0
POLYLINE
  8
0
  6
CONTINUOUS
 62
256
 66
1
 70
1
  0
VERTEX
  8
0
  6
CONTINUOUS
 62
256
 10
148.222951999999990
 20
210.083983999999990
  0
VERTEX
  8
0
  6
CONTINUOUS
 62
256
 10
148.132642817895170
 20
210.786940510558170
  0
VERTEX
  8
0
  6
CONTINUOUS
 62
256
 10
147.865185802803040
 20
211.462882796638130
  0
VERTEX
  8
0
  6
CONTINUOUS
 62
256
 10
147.430859177821960
 20
212.085834775258660
  0
VERTEX
  8
0
  6
CONTINUOUS
 62
256
 10
146.846353871576780
 20
212.631856751236820
  0
VERTEX
  8
0
  6
CONTINUOUS
 62
256
 10
146.134132095192110
 20
213.079965406248480
  0
VERTEX
  8
0
  6
CONTINUOUS
 62
256
 10
145.321564132115920
 20
213.412940175983720
  0
VERTEX
  8
0
  6
CONTINUOUS
 62
256
 10
144.439876513475810
 20
213.617985026776070
  0
VERTEX
  8
0
  6
CONTINUOUS
 62
256
 10
143.522952000000000
 20
213.687220199999980
  0
VERTEX
  8
0
  6
CONTINUOUS
 62
256
 10
142.606027486524200
 20
213.617985026776070
  0
VERTEX
  8
0
  6
CONTINUOUS
 62
256
 10
141.724339867884080
 20
213.412940175983720
  0
VERTEX
  8
0
  6
CONTINUOUS
 62
256
 10
140.911771904807890
 20
213.079965406248480
  0
VERTEX
  8
0
  6
CONTINUOUS
 62
256
 10
140.199550128423230
 20
212.631856751236820
  0
VERTEX
  8
0
  6
CONTINUOUS
 62
256
 10
139.615044822178050
 20
212.085834775258660
  0
VERTEX
  8
0
  6
CONTINUOUS
 62
256
 10
139.180718197196970
 20
211.462882796638130
  0
VERTEX
  8
0
  6
CONTINUOUS
 62
256
 10
138.913261182104830
 20
210.786940510558170
  0
VERTEX
  8
0
  6
CONTINUOUS
 62
256
 10
138.822952000000020
 20
210.083983999999990
  0
VERTEX
  8
0
  6
CONTINUOUS
 62
256
 10
138.913261182104830
 20
209.381027489441810
  0
VERTEX
  8
0
  6
CONTINUOUS
 62
256
 10
139.180718197196970
 20
208.705085203361850
  0
VERTEX
  8
0
  6
CONTINUOUS
 62
256
 10
139.615044822178050
 20
208.082133224741310
  0
VERTEX
  8
0
  6
CONTINUOUS
 62
256
 10
140.199550128423230
 20
207.536111248763150
  0
VERTEX
  8
0
  6
CONTINUOUS
 62
256
 10
140.911771904807890
 20
207.088002593751500
  0
VERTEX
  8
0
  6
CONTINUOUS
 62
256
 10
141.724339867884080
 20
206.755027824016250
  0
VERTEX
  8
0
  6
CONTINUOUS
 62
256
 10
142.606027486524200
 20
206.549982973223930
  0
VERTEX
  8
0
  6
CONTINUOUS
 62
256
 10
143.522952000000000
 20
206.480747799999990
  0
VERTEX
  8
0
  6
CONTINUOUS
 62
256
 10
144.439876513475810
 20
206.549982973223930
  0
VERTEX
  8
0
  6
CONTINUOUS
 62
256
 10
145.321564132115920
 20
206.755027824016250
  0
VERTEX
  8
0
  6
CONTINUOUS
 62
256
 10
146.134132095192110
 20
207.088002593751500
  0
VERTEX
  8
0
  6
CONTINUOUS
 62
256
 10
146.846353871576750
 20
207.536111248763150
  0
VERTEX
  8
0
  6
CONTINUOUS
 62
256
 10
147.430859177821960
 20
208.082133224741310
  0
VERTEX
  8
0
  6
CONTINUOUS
 62
256
 10
147.865185802803040
 20
208.705085203361850
  0
VERTEX
  8
0
  6
CONTINUOUS
 62
256
 10
148.132642817895170
 20
209.381027489441810
  0
SEQEND
  8
0
  6
CONTINUOUS
 62
256
  0
LINE
  8
0
  6
CONTINUOUS
 62
256
 10
145.522952000000000
 20
213.076359999999990
 11
143.522952000000000
 21
211.900574000000010
  0
LINE
  8
0
  6
CONTINUOUS
 62
256
 10
143.522952000000000
 20
211.900574000000010
 11
141.522952000000000
 21
210.247931999999990
  0
LINE
  8
0
  6
CONTINUOUS
 62
256
 10
141.522952000000000
 20
213.076359999999990
 11
143.522952000000000
 21
211.900574000000010
  0
LINE
  8
0
  6
CONTINUOUS
 62
256
 10
143.522952000000000
 20
211.900574000000010
 11
145.522952000000000
 21
210.247931999999990
  0
POLYLINE
  8
0
  6
CONTINUOUS
 62
256
 66
1
 70
1
  0
VERTEX
  8
0
  6
CONTINUOUS
 62
256
 10
148.222951999999990
 20
115.429322000000000
  0
VERTEX
  8
0
  6
CONTINUOUS
 62
256
 10
148.132642817895170
 20
116.132278510558170
  0
VERTEX
  8
0
  6
CONTINUOUS
 62
256
 10
147.865185802803040
 20
116.808220796638140
  0
VERTEX
  8
0
  6
CONTINUOUS
 62
256
 10
147.430859177821960
 20
117.431172775258660
  0
VERTEX
  8
0
  6
CONTINUOUS
 62
256
 10
146.846353871576780
 20
117.977194751236850
  0
VERTEX
  8
0
  6
CONTINUOUS
 62
256
 10
146.134132095192110
 20
118.425303406248490
  0
VERTEX
  8
0
  6
CONTINUOUS
 62
256
 10
145.321564132115920
 20
118.758278175983750
  0
VERTEX
  8
0
  6
CONTINUOUS
 62
256
 10
144.439876513475810
 20
118.963323026776070
  0
VERTEX
  8
0
  6
CONTINUOUS
 62
256
 10
143.522952000000000
 20
119.032558200000000
  0
VERTEX
  8
0
  6
CONTINUOUS
 62
256
 10
142.606027486524200
 20
118.963323026776070
  0
VERTEX
  8
0
  6
CONTINUOUS
 62
256
 10
141.724339867884080
 20
118.758278175983750
  0
VERTEX
  8
0
  6
CONTINUOUS
 62
256
 10
140.911771904807890
 20
118.425303406248490
  0
VERTEX
  8
0
  6
CONTINUOUS
 62
256
 10
140.199550128423230
 20
117.977194751236850
  0
VERTEX
  8
0
  6
CONTINUOUS
 62
256
 10
139.615044822178050
 20
117.431172775258660
  0
VERTEX
  8
0
  6
CONTINUOUS
 62
256
 10
139.180718197196970
 20
116.808220796638140
  0
VERTEX
  8
0
  6
CONTINUOUS
 62
256
 10
138.913261182104830
 20
116.132278510558170
  0
VERTEX
  8
0
  6
CONTINUOUS
 62
256
 10
138.822952000000020
 20
115.429322000000000
  0
VERTEX
  8
0
  6
CONTINUOUS
 62
256
 10
138.913261182104830
 20
114.726365489441830
  0
VERTEX
  8
0
  6
CONTINUOUS
 62
256
 10
139.180718197196970
 20
114.050423203361860
  0
VERTEX
  8
0
  6
CONTINUOUS
 62
256
 10
139.615044822178050
 20
113.427471224741340
  0
VERTEX
  8
0
  6
CONTINUOUS
 62
256
 10
140.199550128423230
 20
112.881449248763160
  0
VERTEX
  8
0
  6
CONTINUOUS
 62
256
 10
140.911771904807890
 20
112.433340593751510
  0
VERTEX
  8
0
  6
CONTINUOUS
 62
256
 10
141.724339867884080
 20
112.100365824016250
  0
VERTEX
  8
0
  6
CONTINUOUS
 62
256
 10
142.606027486524200
 20
111.895320973223930
  0
VERTEX
  8
0
  6
CONTINUOUS
 62
256
 10
143.522952000000000
 20
111.826085800000000
  0
VERTEX
  8
0
  6
CONTINUOUS
 62
256
 10
144.439876513475810
 20
111.895320973223930
  0
VERTEX
  8
0
  6
CONTINUOUS
 62
256
 10
145.321564132115920
 20
112.100365824016250
  0
VERTEX
  8
0
  6
CONTINUOUS
 62
256
 10
146.134132095192110
 20
112.433340593751510
  0
VERTEX
  8
0
  6
CONTINUOUS
 62
256
 10
146.846353871576750
 20
112.881449248763150
  0
VERTEX
  8
0
  6
CONTINUOUS
 62
256
 10
147.430859177821960
 20
113.427471224741340
  0
VERTEX
  8
0
  6
CONTINUOUS
 62
256
 10
147.865185802803040
 20
114.050423203361860
  0
VERTEX
  8
0
  6
CONTINUOUS
 62
256
 10
148.132642817895170
 20
114.726365489441830
  0
SEQEND
  8
0
  6
CONTINUOUS
 62
256
  0
LINE
  8
0
  6
CONTINUOUS
 62
256
 10
145.522952000000000
 20
112.436947000000000
 11
143.522952000000000
 21
113.612731999999990
  0
LINE
  8
0
  6
CONTINUOUS
 62
256
 10
143.522952000000000
 20
113.612731999999990
 11
141.522952000000000
 21
115.265373999999990
  0
LINE
  8
0
  6
CONTINUOUS
 62
256
 10
141.522952000000000
 20
112.436947000000000
 11
143.522952000000000
 21
113.612731999999990
  0
LINE
  8
0
  6
CONTINUOUS
 62
256
 10
143.522952000000000
 20
113.612731999999990
 11
145.522952000000000
 21
115.265373999999990
  0
LINE
  8
0
  6
CONTINUOUS
 62
256
 10
132.522952000000000
 20
216.756653000000000
 11
210.027796999999990
 21
216.756653000000000
  0
LINE
  8
0
  6
CONTINUOUS
 62
256
 10
132.522952000000000
 20
216.756653000000000
 11
132.522952000000000
 21
203.756653000000000
  0
LINE
  8
0
  6
CONTINUOUS
 62
256
 10
132.522952000000000
 20
108.756653000000000
 11
132.522952000000000
 21
121.756653000000000
  0
LINE
  8
0
  6
CONTINUOUS
 62
256
 10
132.522952000000000
 20
108.756653000000000
 11
210.027796999999990
 21
108.756653000000000
  0
LINE
  8
0
  6
CONTINUOUS
 62
256
 10
48.522951999999997
 20
162.756653000000000
 11
48.522951999999997
 21
110.256653000000000
  0
LINE
  8
0
  6
CONTINUOUS
 62
256
 10
48.522951999999997
 20
162.756653000000000
 11
48.522951999999997
 21
215.256653000000000
  0
LINE
  8
0
  6
CONTINUOUS
 62
256
 10
-82.977047999999996
 20
98.756653000000000
 11
-74.977047999999996
 21
98.756653000000000
  0
LINE
  8
0
  6
CONTINUOUS
 62
256
 10
-64.977047999999996
 20
62.756653000000000
 11
-92.977047999999996
 21
62.756653000000000
  0
LINE
  8
0
  6
CONTINUOUS
 62
256
 10
-82.977047999999996
 20
98.756653000000000
 11
-82.977047999999996
 21
62.756653000000000
  0
LINE
  8
0
  6
CONTINUOUS
 62
256
 10
-74.977047999999996
 20
98.756653000000000
 11
-74.977047999999996
 21
62.756653000000000
  0
ARC
  8
0
  6
CONTINUOUS
 62
256
 10
27.522952000000000
 20
120.256653000000000
 40
3.000000000000000
 50
0.000000000000000
 51
90.000000000000000
  0
LINE
  8
0
  6
CONTINUOUS
 62
256
 10
27.522952000000000
 20
197.756653000000000
 11
22.215263000000000
 21
197.756653000000000
  0
ARC
  8
0
  6
CONTINUOUS
 62
256
 10
27.522952000000000
 20
200.756653000000000
 40
3.000000000000000
 50
270.000000000000000
 51
0.000000000000000
  0
ARC
  8
0
  6
CONTINUOUS
 62
256
 10
33.522951999999997
 20
201.203759999999990
 40
3.000000000000000
 50
90.000000000000000
 51
180.000000000000000
  0
ARC
  8
0
  6
CONTINUOUS
 62
256
 10
33.522951999999997
 20
204.274108000000010
 40
3.000000000000000
 50
90.000000000000000
 51
180.000000000000000
  0
LINE
  8
0
  6
CONTINUOUS
 62
256
 10
40.522951999999997
 20
207.274108000000010
 11
33.522951999999997
 21
207.274108000000010
  0
LINE
  8
0
  6
CONTINUOUS
 62
256
 10
41.522951999999997
 20
204.203759999999990
 11
33.522951999999997
 21
204.203759999999990
  0
ARC
  8
0
  6
CONTINUOUS
 62
256
 10
45.522951999999997
 20
214.326168999999990
 40
1.999999999999998
 50
89.000000000000057
 51
180.000000000000000
  0
LINE
  8
0
  6
CONTINUOUS
 62
256
 10
43.522951999999997
 20
210.274108000000010
 11
43.522951999999997
 21
214.326168999999990
  0
ARC
  8
0
  6
CONTINUOUS
 62
256
 10
40.522951999999997
 20
193.666273999999990
 40
3.000000000000000
 50
0.000000000000000
 51
90.000000000000000
  0
ARC
  8
0
  6
CONTINUOUS
 62
256
 10
41.522951999999997
 20
202.203759999999990
 40
2.000000000000000
 50
0.000000000000000
 51
90.000000000000000
  0
LINE
  8
0
  6
CONTINUOUS
 62
256
 10
35.218271000000001
 20
196.666273999999990
 11
40.522951999999997
 21
196.666273999999990
  0
ARC
  8
0
  6
CONTINUOUS
 62
256
 10
40.522951999999997
 20
210.274108000000010
 40
3.000000000000000
 50
270.000000000000000
 51
0.000000000000000
  0
LINE
  8
0
  6
CONTINUOUS
 62
256
 10
43.522951999999997
 20
182.774108000000010
 11
48.522951999999997
 21
182.774108000000010
  0
LINE
  8
0
  6
CONTINUOUS
 62
256
 10
43.522951999999997
 20
162.774108000000010
 11
43.522951999999997
 21
202.203759999999990
  0
LINE
  8
0
  6
CONTINUOUS
 62
256
 10
30.522952000000000
 20
111.995281000000010
 11
30.522952000000000
 21
213.552934999999990
  0
ARC
  8
0
  6
CONTINUOUS
 62
256
 10
33.522951999999997
 20
124.344457000000010
 40
3.000000000000000
 50
180.000000000000000
 51
270.000000000000000
  0
ARC
  8
0
  6
CONTINUOUS
 62
256
 10
33.522951999999997
 20
121.274108000000000
 40
3.000000000000000
 50
180.000000000000000
 51
270.000000000000000
  0
LINE
  8
0
  6
CONTINUOUS
 62
256
 10
41.522951999999997
 20
121.344457000000010
 11
33.522951999999997
 21
121.344457000000010
  0
LINE
  8
0
  6
CONTINUOUS
 62
256
 10
40.522951999999997
 20
118.274108000000000
 11
33.522951999999997
 21
118.274108000000000
  0
LINE
  8
0
  6
CONTINUOUS
 62
256
 10
35.457940999999998
 20
128.881942000000010
 11
40.522951999999997
 21
128.881942000000010
  0
ARC
  8
0
  6
CONTINUOUS
 62
256
 10
40.522951999999997
 20
131.881942000000010
 40
3.000000000000000
 50
270.000000000000000
 51
0.000000000000000
  0
ARC
  8
0
  6
CONTINUOUS
 62
256
 10
41.522951999999997
 20
123.344457000000010
 40
2.000000000000000
 50
270.000000000000000
 51
0.000000000000000
  0
LINE
  8
0
  6
CONTINUOUS
 62
256
 10
43.522951999999997
 20
162.774108000000010
 11
43.522951999999997
 21
123.344457000000010
  0
ARC
  8
0
  6
CONTINUOUS
 62
256
 10
40.522951999999997
 20
115.274108000000000
 40
3.000000000000000
 50
0.000000000000000
 51
90.000000000000000
  0
ARC
  8
0
  6
CONTINUOUS
 62
256
 10
45.522951999999997
 20
111.222048000000000
 40
2.000000000000000
 50
180.000000000000000
 51
270.999999999999940
  0
LINE
  8
0
  6
CONTINUOUS
 62
256
 10
43.522951999999997
 20
115.274108000000000
 11
43.522951999999997
 21
111.222048000000000
  0
LINE
  8
0
  6
CONTINUOUS
 62
256
 10
20.232413000000001
 20
199.756653000000000
 11
20.022952000000000
 21
211.756653000000000
  0
LINE
  8
0
  6
CONTINUOUS
 62
256
 10
-139.767586999999990
 20
199.756653000000000
 11
-138.423547000000010
 21
123.756653000000000
  0
LINE
  8
0
  6
CONTINUOUS
 62
256
 10
-139.531943000000010
 20
211.756653000000000
 11
-139.741403999999990
 21
199.756653000000000
  0
LINE
  8
0
  6
CONTINUOUS
 62
256
 10
-138.423547000000010
 20
123.756653000000000
 11
-138.423547000000010
 21
113.756653000000000
  0
LINE
  8
0
  6
CONTINUOUS
 62
256
 10
18.879646000000001
 20
123.756653000000000
 11
18.879646000000001
 21
113.756653000000000
  0
LINE
  8
0
  6
CONTINUOUS
 62
256
 10
20.223686000000001
 20
199.756653000000000
 11
18.879646000000001
 21
123.756653000000000
  0
LINE
  8
0
  6
CONTINUOUS
 62
256
 10
18.879646000000001
 20
113.756653000000000
 11
-24.384516999999999
 21
113.756653000000000
  0
LINE
  8
0
  6
CONTINUOUS
 62
256
 10
-121.477048000000000
 20
215.756653000000000
 11
-36.477048000000003
 21
215.756653000000000
  0
LINE
  8
0
  6
CONTINUOUS
 62
256
 10
20.022952000000000
 20
211.756653000000000
 11
-24.384516999999999
 21
211.756653000000000
  0
LINE
  8
0
  6
CONTINUOUS
 62
256
 10
-24.384516999999999
 20
113.756653000000000
 11
-138.423547000000010
 21
113.756653000000000
  0
LINE
  8
0
  6
CONTINUOUS
 62
256
 10
-24.384516999999999
 20
211.756653000000000
 11
-139.531943000000010
 21
211.756653000000000
  0
LINE
  8
0
  6
CONTINUOUS
 62
256
 10
-36.477048000000003
 20
215.756653000000000
 11
-36.477048000000003
 21
211.756653000000000
  0
LINE
  8
0
  6
CONTINUOUS
 62
256
 10
-139.767586999999990
 20
199.756653000000000
 11
20.223686000000001
 21
199.756653000000000
  0
LINE
  8
0
  6
CONTINUOUS
 62
256
 10
-121.477048000000000
 20
113.756653000000000
 11
-121.477048000000000
 21
109.756653000000000
  0
LINE
  8
0
  6
CONTINUOUS
 62
256
 10
-121.477048000000000
 20
215.756653000000000
 11
-121.477048000000000
 21
211.756653000000000
  0
LINE
  8
0
  6
CONTINUOUS
 62
256
 10
-36.477048000000003
 20
113.756653000000000
 11
-36.477048000000003
 21
109.756653000000000
  0
LINE
  8
0
  6
CONTINUOUS
 62
256
 10
-36.477048000000003
 20
109.756653000000000
 11
-121.477048000000000
 21
109.756653000000000
  0
ARC
  8
0
  6
CONTINUOUS
 62
256
 10
22.215263000000000
 20
199.756653000000000
 40
2.000000000000001
 50
178.999999999999860
 51
270.000000000000000
  0
ARC
  8
0
  6
CONTINUOUS
 62
256
 10
20.879646000000001
 20
121.256653000000000
 40
2.000000000000000
 50
90.000000000000000
 51
180.000000000000000
  0
ARC
  8
0
  6
CONTINUOUS
 62
256
 10
33.522951999999997
 20
111.995281000000010
 40
3.000000000000000
 50
180.000000000000000
 51
271.000000000000060
  0
ARC
  8
0
  6
CONTINUOUS
 62
256
 10
33.522951999999997
 20
213.552934999999990
 40
3.000000000000011
 50
89.000000000000000
 51
180.000000000000000
  0
LINE
  8
0
  6
CONTINUOUS
 62
256
 10
20.879646000000001
 20
123.256653000000000
 11
27.522952000000000
 21
123.256653000000000
  0
LINE
  8
0
  6
CONTINUOUS
 62
256
 10
48.522951999999997
 20
216.291565999999990
 11
33.575310000000002
 21
216.552478000000010
  0
LINE
  8
0
  6
CONTINUOUS
 62
256
 10
48.522951999999997
 20
109.256649999999990
 11
33.575310000000002
 21
108.995738000000000
  0
LINE
  8
0
  6
DASHDOT
 62
256
 10
-78.977047999999996
 20
54.478448999999998
 11
-78.977047999999996
 21
224.929547000000010
  0
ARC
  8
0
  6
CONTINUOUS
 62
256
 10
-78.977047999999996
 20
98.756653000000000
 40
4.000000000000000
 50
0.000000000000000
 51
180.000000000000000
  0
LINE
  8
0
  6
CONTINUOUS
 62
256
 10
-64.977047999999996
 20
107.756653000000000
 11
-64.977047999999996
 21
62.756653000000000
  0
LINE
  8
0
  6
CONTINUOUS
 62
256
 10
-92.977047999999996
 20
107.756653000000000
 11
-92.977047999999996
 21
62.756653000000000
  0
LINE
  8
0
  6
CONTINUOUS
 62
256
 10
-78.977047999999996
 20
107.756653000000000
 11
-93.477047999999996
 21
107.756653000000000
  0
LINE
  8
0
  6
CONTINUOUS
 62
256
 10
-78.977047999999996
 20
107.756653000000000
 11
-93.477047999999996
 21
107.756653000000000
  0
LINE
  8
0
  6
CONTINUOUS
 62
256
 10
-93.477047999999996
 20
107.756653000000000
 11
-93.477047999999996
 21
109.756653000000000
  0
LINE
  8
0
  6
CONTINUOUS
 62
256
 10
-78.977047999999996
 20
107.756653000000000
 11
-64.477047999999996
 21
107.756653000000000
  0
LINE
  8
0
  6
CONTINUOUS
 62
256
 10
-78.977047999999996
 20
107.756653000000000
 11
-64.477047999999996
 21
107.756653000000000
  0
LINE
  8
0
  6
CONTINUOUS
 62
256
 10
-64.477047999999996
 20
107.756653000000000
 11
-64.477047999999996
 21
109.756653000000000
  0
LINE
  8
0
  6
DASHDOT
 62
256
 10
-147.858368000000010
 20
162.756653000000000
 11
239.696470000000010
 21
162.756653000000000
  0
LINE
  8
0
  6
CONTINUOUS
 62
256
 10
48.522951999999997
 20
162.756653000000000
 11
48.522951999999997
 21
216.256653000000000
  0
LINE
  8
0
  6
CONTINUOUS
 62
256
 10
48.522951999999997
 20
162.756653000000000
 11
48.522951999999997
 21
109.256653000000000
  0
ARC
  8
0
  6
CONTINUOUS
 62
256
 10
-51.454154000000003
 20
-104.568370000000000
 40
400.600000000000020
 50
180.000000000000000
 51
185.743681999999980
  0
ARC
  8
0
  6
CONTINUOUS
 62
256
 10
-443.476101000000030
 20
-143.999236999999990
 40
6.599999999999971
 50
185.743681999999920
 51
224.999999999999830
  0
ARC
  8
0
  6
CONTINUOUS
 62
256
 10
-352.632206999999990
 20
-143.999236999999990
 40
6.600000000000017
 50
315.000000000000170
 51
354.256318000000020
  0
ARC
  8
0
  6
CONTINUOUS
 62
256
 10
-744.654153999999950
 20
-104.568370000000000
 40
400.600000000000020
 50
354.256318000000020
 51
0.000000000000000
  0
ARC
  8
0
  6
CONTINUOUS
 62
256
 10
-744.654153999999950
 20
-104.568370000000000
 40
400.600000000000020
 50
0.000000000000000
 51
0.069015999999999
  0
LINE
  8
0
  6
CONTINUOUS
 62
256
 10
-349.054153999999980
 20
-149.754993000000010
 11
-347.965302000000010
 21
-148.666142000000010
  0
LINE
  8
0
  6
CONTINUOUS
 62
256
 10
-447.054153999999980
 20
-149.754993000000010
 11
-448.143005000000020
 21
-148.666142000000010
  0
ARC
  8
0
  6
CONTINUOUS
 62
256
 10
-51.454154000000003
 20
-104.568370000000000
 40
400.600000000000080
 50
175.950769000000010
 51
180.000000000000000
  0
ARC
  8
0
  6
DASHED
 62
256
 10
-425.054153999999980
 20
-132.068369999999990
 40
25.000000000000000
 50
208.357637000000040
 51
264.269825000000080
  0
LINE
  8
0
  6
DASHED
 62
256
 10
-417.554153999999980
 20
-158.068369999999990
 11
-378.554153999999980
 21
-158.068369999999990
  0
ARC
  8
0
  6
DASHED
 62
256
 10
-417.554153999999980
 20
242.931630000000010
 40
400.000000000000000
 50
268.568016000000060
 51
269.928470000000000
  0
ARC
  8
0
  6
DASHED
 62
256
 10
-418.554153999999980
 20
-157.568369999999990
 40
0.500000000000000
 50
0.000000000000000
 51
90.000000000000000
  0
ARC
  8
0
  6
DASHED
 62
256
 10
-417.554153999999980
 20
-157.568369999999990
 40
0.500000000000000
 50
180.000000000000000
 51
270.000000000000000
  0
ARC
  8
0
  6
CONTINUOUS
 62
256
 10
-425.054153999999980
 20
-132.068369999999990
 40
24.999999999999979
 50
185.730174999999970
 51
208.357637000000040
  0
ARC
  8
0
  6
CONTINUOUS
 62
256
 10
-50.054153999999997
 20
-124.568370000000000
 40
400.000000000000000
 50
181.076859999999980
 51
181.431983999999970
  0
ARC
  8
0
  6
DASHED
 62
256
 10
-450.554153999999980
 20
-125.068370000000000
 40
0.500000000000000
 50
0.000000000000000
 51
90.000000000000000
  0
ARC
  8
0
  6
DASHED
 62
256
 10
-50.054153999999997
 20
-124.568370000000000
 40
400.000000000000000
 50
180.071529999999970
 51
181.150994000000000
  0
ARC
  8
0
  6
DASHED
 62
256
 10
-450.554153999999980
 20
-124.068370000000000
 40
0.500000000000000
 50
180.000000000000000
 51
270.000000000000000
  0
LINE
  8
0
  6
CONTINUOUS
 62
256
 10
-451.054153999999980
 20
-85.068370000000002
 11
-451.054153999999980
 21
-124.068370000000000
  0
ARC
  8
0
  6
DASHED
 62
256
 10
-450.554153999999980
 20
-85.068370000000002
 40
0.500000000000000
 50
90.000000000000000
 51
180.000000000000000
  0
ARC
  8
0
  6
DASHED
 62
256
 10
-450.554153999999980
 20
-84.068370000000002
 40
0.500000000000000
 50
270.000000000000000
 51
0.000000000000000
  0
ARC
  8
0
  6
DASHED
 62
256
 10
-50.054153999999997
 20
-84.568370000000002
 40
400.000000000000000
 50
178.568016000000000
 51
179.928470000000000
  0
ARC
  8
0
  6
DASHED
 62
256
 10
-425.054153999999980
 20
-77.068370000000002
 40
25.000000000000000
 50
86.561350000000019
 51
174.269825000000000
  0
LINE
  8
0
  6
DASHED
 62
256
 10
-378.554153999999980
 20
-51.068370000000002
 11
-417.554153999999980
 21
-51.068370000000002
  0
ARC
  8
0
  6
DASHED
 62
256
 10
-417.554153999999980
 20
-452.068370000000020
 40
400.000000000000000
 50
90.071529999999996
 51
90.859540999999993
  0
ARC
  8
0
  6
DASHED
 62
256
 10
-418.554153999999980
 20
-51.568370000000002
 40
0.500000000000000
 50
270.000000000000000
 51
0.000000000000000
  0
ARC
  8
0
  6
DASHED
 62
256
 10
-417.554153999999980
 20
-51.568370000000002
 40
0.500000000000000
 50
90.000000000000000
 51
180.000000000000000
  0
ARC
  8
0
  6
DASHED
 62
256
 10
-378.554153999999980
 20
-452.068370000000020
 40
400.000000000000000
 50
89.140459000000007
 51
89.928470000000004
  0
ARC
  8
0
  6
DASHED
 62
256
 10
-378.554153999999980
 20
-51.568370000000002
 40
0.500000000000000
 50
0.000000000000000
 51
90.000000000000000
  0
ARC
  8
0
  6
DASHED
 62
256
 10
-377.554153999999980
 20
-51.568370000000002
 40
0.500000000000000
 50
180.000000000000000
 51
270.000000000000000
  0
ARC
  8
0
  6
DASHED
 62
256
 10
-371.054153999999980
 20
-77.068370000000002
 40
24.999999999999979
 50
5.730175000000014
 51
93.438649999999981
  0
ARC
  8
0
  6
DASHED
 62
256
 10
-746.054154000000040
 20
-84.568370000000002
 40
399.999999999999940
 50
0.053000000000000
 51
1.431984000000000
  0
ARC
  8
0
  6
DASHED
 62
256
 10
-345.554153999999980
 20
-84.068370000000002
 40
0.500000000000000
 50
180.000000000000000
 51
270.000000000000000
  0
ARC
  8
0
  6
CONTINUOUS
 62
256
 10
-345.554153999999980
 20
-124.068370000000000
 40
0.500000000000000
 50
270.000000000000000
 51
0.000000000000000
  0
ARC
  8
0
  6
DASHED
 62
256
 10
-746.054154000000040
 20
-124.568370000000000
 40
400.000000000000000
 50
358.849005999999970
 51
359.928470000000000
  0
ARC
  8
0
  6
DASHED
 62
256
 10
-345.554153999999980
 20
-125.068370000000000
 40
0.500000000000000
 50
90.000000000000000
 51
180.000000000000000
  0
ARC
  8
0
  6
CONTINUOUS
 62
256
 10
-371.054153999999980
 20
-132.068369999999990
 40
25.000000000000000
 50
331.642362999999990
 51
354.269824999999970
  0
ARC
  8
0
  6
CONTINUOUS
 62
256
 10
-746.054154000000040
 20
-124.568370000000000
 40
400.000000000000000
 50
358.568016000000060
 51
358.849005999999970
  0
ARC
  8
0
  6
DASHED
 62
256
 10
-371.054153999999980
 20
-132.068369999999990
 40
25.000000000000011
 50
275.730175000000030
 51
331.642362999999990
  0
ARC
  8
0
  6
DASHED
 62
256
 10
-378.554153999999980
 20
242.931630000000010
 40
400.000000000000000
 50
270.071530000000000
 51
271.431984000000000
  0
ARC
  8
0
  6
DASHED
 62
256
 10
-377.554153999999980
 20
-157.568369999999990
 40
0.500000000000000
 50
90.000000000000000
 51
180.000000000000000
  0
ARC
  8
0
  6
DASHED
 62
256
 10
-378.554153999999980
 20
-157.568369999999990
 40
0.500000000000000
 50
270.000000000000000
 51
0.000000000000000
  0
ARC
  8
0
  6
DASHED
 62
256
 10
-345.554153999999980
 20
-85.068370000000002
 40
0.500000000000000
 50
0.000000000000000
 51
90.000000000000000
  0
ENDSEC
  0
EOF
