  0
SECTION
  2
HEADER
  9
$TEXTSIZE
 40
2.5
  9
$ACADVER
  1
AC1009
  9
$DIMASZ
 40
3.863703297614046
  9
$DIMEXE
 40
2.000000000000000
  9
$DIMEXO
 40
1.000000000000000
  9
$DIMLFAC
 40
1.000000000000000
  9
$DIMSCALE
 40
1.000000000000000
  9
$DIMTAD
 70
1
  9
$DIMTFAC
 40
0.625000000000000
  9
$DIMTXT
 40
3.200000047683716
  9
$LUPREC
 70
3
  9
$REGENMODE
 70
1
  9
$TEXTSTYLE
  7
STANDARD1
  0
ENDSEC
  0
SECTION
  2
TABLES
  0
TABLE
  2
LTYPE
 70
4
  0
LTYPE
  2
CONTINUOUS
 70
64
  3
Solid line
 72
65
 73
0
 40
0.0
  0
LTYPE
  2
DASHED
 70
64
  3
-- -- -- -- -- -- -- -- -- -- -- -- -- -- --
 72
65
 73
2
 40
0.75
 49
0.5
 49
-0.25
  0
LTYPE
  2
DASHDOT
 70
64
  3
__ . __ . __ . __ . __ . __ . __ . __ . __ . __
 72
65
 73
4
 40
1.0
 49
0.5
 49
-0.25
 49
0.0
 49
-0.25
  0
LTYPE
  2
DIVIDE
 70
64
  3
__ . . __ . . __ . . __ . . __ . . __ . . __
 72
65
 73
6
 40
1.25
 49
0.5
 49
-0.25
 49
0.0
 49
-0.25
 49
0.0
 49
-0.25
  0
ENDTAB
  0
TABLE
  2
LAYER
 70
3
  0
LAYER
  2
0
 70
64
 62
53
  6
CONTINUOUS
  0
LAYER
  2
1
 70
64
 62
102
  6
CONTINUOUS
  0
LAYER
  2
2
 70
64
 62
102
  6
CONTINUOUS
  0
ENDTAB
  0
TABLE
  2
STYLE
 70
4
  0
STYLE
  2
STANDARD1
 70
64
 40
0.0
 41
1.0
 50
0.0
 71
0
 42
3.200000047683716
  3
MONOTXT
  4
BIGFONT
  0
STYLE
  2
STANDARD2
 70
68
 40
0.0
 41
1.0
 50
0.0
 71
0
 42
3.200000047683716
  3
MONOTXT
  4
BIGFONT
  0
STYLE
  2
STANDARD3
 70
64
 40
0.0
 41
1.0
 50
0.0
 71
0
 42
3.200000047683716
  3
MONOTXT
  4

  0
STYLE
  2
STANDARD4
 70
68
 40
0.0
 41
1.0
 50
0.0
 71
0
 42
3.200000047683716
  3
MONOTXT
  4

  0
ENDTAB
  0
TABLE
  2
VIEW
 70
0
  0
ENDTAB
  0
ENDSEC
  0
SECTION
  2
BLOCKS
  0
ENDSEC
  0
SECTION
  2
ENTITIES
  0
TEXT
  8
0
  6
CONTINUOUS
 62
256
 10
-70.375488281250000
 20
-13.156250000000000
 40
2.799999952316284
  1
ü@
 50
0.000002504478167
 41
0.996000017370497
  7
STANDARD1
  0
TEXT
  8
0
  6
CONTINUOUS
 62
256
 10
1.624511957168579
 20
-253.406250000000000
 40
2.799999952316284
  1
ü@
 50
0.000002504478167
 41
0.996000017370497
  7
STANDARD1
  0
POINT
  8
0
  6
DASHED
 62
256
 10
-260.203424999999980
 20
-96.174154000000001
  0
CIRCLE
  8
0
  6
CONTINUOUS
 62
256
 10
-138.944317000000010
 20
-184.174153999999990
 40
4.187999999999988
  0
CIRCLE
  8
0
  6
CONTINUOUS
 62
256
 10
-138.944317000000010
 20
-184.174153999999990
 40
5.000000000000000
  0
CIRCLE
  8
0
  6
CONTINUOUS
 62
256
 10
-4.944317000000000
 20
-184.174153999999990
 40
4.188000000000000
  0
CIRCLE
  8
0
  6
CONTINUOUS
 62
256
 10
-4.944317000000000
 20
-184.174153999999990
 40
5.000000000000000
  0
CIRCLE
  8
0
  6
CONTINUOUS
 62
256
 10
-4.944317000000000
 20
-62.174154000000001
 40
4.188000000000000
  0
CIRCLE
  8
0
  6
CONTINUOUS
 62
256
 10
-4.944317000000000
 20
-62.174154000000001
 40
5.000000000000000
  0
ARC
  8
0
  6
CONTINUOUS
 62
256
 10
-260.203424999999980
 20
-110.174154000000000
 40
13.999999999999998
 50
106.601550000000000
 51
73.398450000000011
  0
LINE
  8
0
  6
CONTINUOUS
 62
256
 10
-256.203424999999980
 20
-93.174154000000001
 11
-256.203424999999980
 21
-100.174154000000000
  0
LINE
  8
0
  6
CONTINUOUS
 62
256
 10
-264.203424999999980
 20
-100.174154000000000
 11
-256.203424999999980
 21
-100.174154000000000
  0
LINE
  8
0
  6
CONTINUOUS
 62
256
 10
-264.203424999999980
 20
-93.174154000000001
 11
-264.203424999999980
 21
-100.174154000000000
  0
LINE
  8
0
  6
CONTINUOUS
 62
256
 10
-264.203424999999980
 20
-93.174154000000001
 11
-256.203424999999980
 21
-93.174154000000001
  0
LINE
  8
0
  6
DASHDOT
 62
256
 10
-260.203424999999980
 20
-131.222476000000000
 11
-260.203424999999980
 21
-89.490886000000003
  0
LINE
  8
0
  6
DASHDOT
 62
256
 10
-279.406355000000020
 20
-110.174154000000000
 11
-237.674764000000010
 21
-110.174154000000000
  0
CIRCLE
  8
0
  6
CONTINUOUS
 62
256
 10
-260.203424999999980
 20
-110.174154000000000
 40
3.500000000000000
  0
CIRCLE
  8
0
  6
CONTINUOUS
 62
256
 10
-260.203424999999980
 20
-110.174154000000000
 40
4.000000000000000
  0
LINE
  8
0
  6
DASHDOT
 62
256
 10
-333.522581000000000
 20
-110.174154000000000
 11
-501.765844000000020
 21
-110.174154000000000
  0
LINE
  8
0
  6
DASHED
 62
256
 10
-388.758662000000020
 20
-174.451634000000010
 11
-389.021423000000030
 21
-174.188872000000000
  0
LINE
  8
0
  6
DASHDOT
 62
256
 10
-448.940655999999990
 20
-133.174153999999990
 11
-429.006622999999990
 21
-133.174153999999990
  0
LINE
  8
0
  6
CONTINUOUS
 62
256
 10
-379.021423000000030
 20
-133.174153999999990
 11
-379.021423000000030
 21
-124.174154000000000
  0
LINE
  8
0
  6
CONTINUOUS
 62
256
 10
-379.021423000000030
 20
-133.174153999999990
 11
-379.021423000000030
 21
-152.674153999999990
  0
LINE
  8
0
  6
CONTINUOUS
 62
256
 10
-379.521423000000030
 20
-153.174153999999990
 11
-381.046424000000000
 21
-153.174153999999990
  0
LINE
  8
0
  6
CONTINUOUS
 62
256
 10
-497.021423000000030
 20
-133.174153999999990
 11
-497.021423000000030
 21
-152.674153999999990
  0
LINE
  8
0
  6
CONTINUOUS
 62
256
 10
-496.521423000000030
 20
-153.174153999999990
 11
-494.996422999999990
 21
-153.174153999999990
  0
LINE
  8
0
  6
CONTINUOUS
 62
256
 10
-497.021423000000030
 20
-133.174153999999990
 11
-497.021423000000030
 21
-113.674154000000000
  0
LINE
  8
0
  6
CONTINUOUS
 62
256
 10
-496.521423000000030
 20
-113.174154000000000
 11
-494.996422999999990
 21
-113.174154000000000
  0
LINE
  8
0
  6
DASHDOT
 62
256
 10
-438.021423000000030
 20
-32.197217000000002
 11
-438.021423000000030
 21
-201.383568999999990
  0
LINE
  8
0
  6
DASHED
 62
256
 10
-487.284184999999980
 20
-174.451634000000010
 11
-487.021423000000030
 21
-174.188872000000000
  0
ARC
  8
0
  6
CONTINUOUS
 62
256
 10
-379.521423000000030
 20
-152.674153999999990
 40
0.500000000000000
 50
270.000000000000000
 51
0.000000000000000
  0
ARC
  8
0
  6
CONTINUOUS
 62
256
 10
-781.021423000000030
 20
-133.174153999999990
 40
399.999999999999940
 50
355.885654999999990
 51
357.065974999999980
  0
ARC
  8
0
  6
CONTINUOUS
 62
256
 10
-381.046424000000000
 20
-153.674153999999990
 40
0.500000000000000
 50
90.000000000000000
 51
177.065974999999950
  0
ARC
  8
0
  6
CONTINUOUS
 62
256
 10
-411.974968999999990
 20
-159.720608000000000
 40
30.000000000000004
 50
319.917507000000000
 51
355.885654999999990
  0
ARC
  8
0
  6
CONTINUOUS
 62
256
 10
-464.067878000000010
 20
-159.720608000000000
 40
30.000000000000018
 50
184.114344999999960
 51
220.082493000000030
  0
ARC
  8
0
  6
CONTINUOUS
 62
256
 10
-95.021422999999999
 20
-133.174153999999990
 40
399.999999999999940
 50
182.934025000000020
 51
184.114344999999960
  0
ARC
  8
0
  6
CONTINUOUS
 62
256
 10
-496.521423000000030
 20
-152.674153999999990
 40
0.500000000000000
 50
180.000000000000000
 51
270.000000000000000
  0
ARC
  8
0
  6
CONTINUOUS
 62
256
 10
-494.996422999999990
 20
-153.674153999999990
 40
0.500000000000028
 50
2.934025000000031
 51
90.000000000000000
  0
ARC
  8
0
  6
CONTINUOUS
 62
256
 10
-494.996422999999990
 20
-153.674153999999990
 40
0.500000000000028
 50
2.934025000000031
 51
90.000000000000000
  0
ARC
  8
0
  6
CONTINUOUS
 62
256
 10
-496.521423000000030
 20
-113.674154000000000
 40
0.500000000000000
 50
90.000000000000000
 51
180.000000000000000
  0
ARC
  8
0
  6
CONTINUOUS
 62
256
 10
-496.521423000000030
 20
-113.674154000000000
 40
0.500000000000000
 50
90.000000000000000
 51
180.000000000000000
  0
ARC
  8
0
  6
CONTINUOUS
 62
256
 10
-485.162864000000010
 20
-176.572954000000010
 40
3.000000000000004
 50
135.000000000000370
 51
218.620629999999860
  0
ARC
  8
0
  6
CONTINUOUS
 62
256
 10
-390.879981999999980
 20
-176.572954000000010
 40
2.999999999999993
 50
321.379370000000110
 51
44.999999999999616
  0
LINE
  8
0
  6
CONTINUOUS
 62
256
 10
-487.021423000000030
 20
-179.037305000000000
 11
-487.021423000000030
 21
-49.383614000000001
  0
LINE
  8
0
  6
CONTINUOUS
 62
256
 10
-487.021423000000030
 20
-196.964693000000010
 11
-487.021423000000030
 21
-179.037305000000000
  0
LINE
  8
0
  6
CONTINUOUS
 62
256
 10
-491.021423000000030
 20
-67.674154000000001
 11
-491.021423000000030
 21
-133.174153999999990
  0
LINE
  8
0
  6
CONTINUOUS
 62
256
 10
-491.021423000000030
 20
-67.674154000000001
 11
-487.021423000000030
 21
-67.674154000000001
  0
LINE
  8
0
  6
CONTINUOUS
 62
256
 10
-487.021423000000030
 20
-49.383614000000001
 11
-475.021423000000030
 21
-49.174154000000001
  0
LINE
  8
0
  6
CONTINUOUS
 62
256
 10
-491.021423000000030
 20
-152.674153999999990
 11
-487.021423000000030
 21
-152.674153999999990
  0
LINE
  8
0
  6
CONTINUOUS
 62
256
 10
-385.021423000000030
 20
-133.174153999999990
 11
-385.021423000000030
 21
-152.674153999999990
  0
LINE
  8
0
  6
CONTINUOUS
 62
256
 10
-491.021423000000030
 20
-152.674153999999990
 11
-491.021423000000030
 21
-133.174153999999990
  0
LINE
  8
0
  6
CONTINUOUS
 62
256
 10
-389.021423000000030
 20
-152.674153999999990
 11
-385.021423000000030
 21
-152.674153999999990
  0
LINE
  8
0
  6
CONTINUOUS
 62
256
 10
-475.021423000000030
 20
-49.165425999999997
 11
-399.021423000000030
 21
-50.509466000000003
  0
LINE
  8
0
  6
CONTINUOUS
 62
256
 10
-475.021423000000030
 20
-49.165425999999997
 11
-475.021423000000030
 21
-133.174153999999990
  0
LINE
  8
0
  6
CONTINUOUS
 62
256
 10
-389.021423000000030
 20
-179.037305000000000
 11
-389.021423000000030
 21
-50.509466000000003
  0
LINE
  8
0
  6
CONTINUOUS
 62
256
 10
-385.021423000000030
 20
-133.174153999999990
 11
-385.021423000000030
 21
-67.674154000000001
  0
LINE
  8
0
  6
CONTINUOUS
 62
256
 10
-389.021423000000030
 20
-67.674154000000001
 11
-385.021423000000030
 21
-67.674154000000001
  0
LINE
  8
0
  6
CONTINUOUS
 62
256
 10
-399.021423000000030
 20
-50.509466000000003
 11
-389.021423000000030
 21
-50.509466000000003
  0
LINE
  8
0
  6
CONTINUOUS
 62
256
 10
-475.021423000000030
 20
-197.182881000000010
 11
-399.021423000000030
 21
-195.838841000000000
  0
LINE
  8
0
  6
CONTINUOUS
 62
256
 10
-399.021423000000030
 20
-195.838841000000000
 11
-389.021423000000030
 21
-195.838841000000000
  0
LINE
  8
0
  6
CONTINUOUS
 62
256
 10
-389.021423000000030
 20
-195.838841000000000
 11
-389.021423000000030
 21
-179.037305000000000
  0
LINE
  8
0
  6
CONTINUOUS
 62
256
 10
-475.021423000000030
 20
-197.174153999999990
 11
-487.021423000000030
 21
-196.964693000000010
  0
LINE
  8
0
  6
CONTINUOUS
 62
256
 10
-475.021423000000030
 20
-133.174153999999990
 11
-475.021423000000030
 21
-197.182881000000010
  0
ARC
  8
0
  6
CONTINUOUS
 62
256
 10
-438.521423000000030
 20
-133.174153999999990
 40
58.499999999999993
 50
327.795772000000000
 51
8.849883000000006
  0
ARC
  8
0
  6
CONTINUOUS
 62
256
 10
-437.521423000000030
 20
-133.174153999999990
 40
58.500000000000014
 50
156.139057000000010
 51
212.204227999999970
  0
ARC
  8
0
  6
CONTINUOUS
 62
256
 10
-90.944316999999998
 20
-110.174154000000000
 40
13.999999999999998
 50
106.601550000000000
 51
73.398450000000011
  0
LINE
  8
0
  6
CONTINUOUS
 62
256
 10
-94.944316999999998
 20
-93.174154000000001
 11
-94.944316999999998
 21
-100.174154000000000
  0
LINE
  8
0
  6
CONTINUOUS
 62
256
 10
-86.944316999999998
 20
-93.174154000000001
 11
-86.944316999999998
 21
-100.174154000000000
  0
LINE
  8
0
  6
CONTINUOUS
 62
256
 10
-94.944316999999998
 20
-100.174154000000000
 11
-86.944316999999998
 21
-100.174154000000000
  0
LINE
  8
0
  6
CONTINUOUS
 62
256
 10
-94.944316999999998
 20
-93.174154000000001
 11
-86.944316999999998
 21
-93.174154000000001
  0
CIRCLE
  8
0
  6
CONTINUOUS
 62
256
 10
-90.944316999999998
 20
-110.174154000000000
 40
3.500000000000000
  0
CIRCLE
  8
0
  6
CONTINUOUS
 62
256
 10
-90.944316999999998
 20
-110.174154000000000
 40
4.000000000000000
  0
LINE
  8
0
  6
CONTINUOUS
 62
256
 10
-142.944317000000010
 20
-196.174153999999990
 11
-0.944317000000000
 21
-196.174153999999990
  0
LINE
  8
0
  6
CONTINUOUS
 62
256
 10
-0.944317000000000
 20
-50.174154000000001
 11
-142.944317000000010
 21
-50.174154000000001
  0
LINE
  8
0
  6
CONTINUOUS
 62
256
 10
7.055683000000000
 20
-188.174153999999990
 11
7.055683000000000
 21
-58.174154000000001
  0
LINE
  8
0
  6
CONTINUOUS
 62
256
 10
-0.444317000000000
 20
-84.506865000000005
 11
-0.444317000000000
 21
-161.841442000000000
  0
LINE
  8
0
  6
CONTINUOUS
 62
256
 10
-27.277028000000001
 20
-188.674153999999990
 11
-116.611605999999990
 21
-188.674153999999990
  0
LINE
  8
0
  6
CONTINUOUS
 62
256
 10
-143.444317000000010
 20
-161.841442000000000
 11
-143.444317000000010
 21
-84.506865000000005
  0
LINE
  8
0
  6
CONTINUOUS
 62
256
 10
-116.611605999999990
 20
-57.674154000000001
 11
-27.277028000000001
 21
-57.674154000000001
  0
LINE
  8
0
  6
CONTINUOUS
 62
256
 10
-116.611605999999990
 20
-186.174153999999990
 11
-27.277028000000001
 21
-186.174153999999990
  0
LINE
  8
0
  6
CONTINUOUS
 62
256
 10
-2.944317000000000
 20
-161.841442000000000
 11
-2.944317000000000
 21
-84.506865000000005
  0
LINE
  8
0
  6
CONTINUOUS
 62
256
 10
-27.277028000000001
 20
-60.174154000000001
 11
-116.611605999999990
 21
-60.174154000000001
  0
LINE
  8
0
  6
CONTINUOUS
 62
256
 10
-140.944317000000010
 20
-84.506865000000005
 11
-140.944317000000010
 21
-161.841442000000000
  0
LINE
  8
0
  6
DASHED
 62
256
 10
8.055683000000000
 20
-140.674153999999990
 11
8.055683000000000
 21
-141.674153999999990
  0
LINE
  8
0
  6
DASHED
 62
256
 10
8.055683000000000
 20
-121.674154000000000
 11
8.055683000000000
 21
-122.674154000000000
  0
LINE
  8
0
  6
DASHED
 62
256
 10
8.055683000000000
 20
-122.674154000000000
 11
8.055683000000000
 21
-140.674153999999990
  0
LINE
  8
0
  6
CONTINUOUS
 62
256
 10
8.055683000000000
 20
-58.174154000000001
 11
8.055683000000000
 21
-188.174153999999990
  0
LINE
  8
0
  6
CONTINUOUS
 62
256
 10
-0.944317000000000
 20
-197.174153999999990
 11
-142.944317000000010
 21
-197.174153999999990
  0
LINE
  8
0
  6
CONTINUOUS
 62
256
 10
-142.944317000000010
 20
-49.174154000000001
 11
-0.944317000000000
 21
-49.174154000000001
  0
LINE
  8
0
  6
CONTINUOUS
 62
256
 10
17.555682999999998
 20
-189.674153999999990
 11
17.555682999999998
 21
-76.674154000000001
  0
LINE
  8
0
  6
CONTINUOUS
 62
256
 10
8.423180000000000
 20
-192.674153999999990
 11
41.055683000000002
 21
-192.674153999999990
  0
LINE
  8
0
  6
CONTINUOUS
 62
256
 10
11.055683000000000
 20
-73.674154000000001
 11
41.055683000000002
 21
-73.674154000000001
  0
ARC
  8
0
  6
CONTINUOUS
 62
256
 10
-142.944317000000010
 20
-188.174153999999990
 40
8.000000000000000
 50
180.000000000000000
 51
270.000000000000000
  0
ARC
  8
0
  6
CONTINUOUS
 62
256
 10
-142.944317000000010
 20
-58.174154000000001
 40
8.000000000000000
 50
90.000000000000000
 51
180.000000000000000
  0
ARC
  8
0
  6
CONTINUOUS
 62
256
 10
-0.944317000000000
 20
-58.174154000000001
 40
8.000000000000000
 50
0.000000000000000
 51
90.000000000000000
  0
ARC
  8
0
  6
CONTINUOUS
 62
256
 10
-0.944317000000000
 20
-188.174153999999990
 40
8.000000000000000
 50
270.000000000000000
 51
0.000000000000000
  0
ARC
  8
0
  6
CONTINUOUS
 62
256
 10
8.423180000000000
 20
-195.674153999999990
 40
3.000000000000000
 50
90.000000000000000
 51
141.317813000000140
  0
ARC
  8
0
  6
CONTINUOUS
 62
256
 10
11.055683000000000
 20
-70.674154000000001
 40
3.000000000000000
 50
180.000000000000000
 51
270.000000000000000
  0
CIRCLE
  8
0
  6
CONTINUOUS
 62
256
 10
-90.944316999999998
 20
-110.174154000000000
 40
47.000000000000000
  0
ARC
  8
0
  6
CONTINUOUS
 62
256
 10
-27.277028000000001
 20
-67.674154000000001
 40
9.999999999999998
 50
13.835223999999991
 51
90.000000000000000
  0
ARC
  8
0
  6
CONTINUOUS
 62
256
 10
-4.944317000000000
 20
-62.174154000000001
 40
13.000000000000004
 50
193.835224000000040
 51
256.164776000000020
  0
ARC
  8
0
  6
CONTINUOUS
 62
256
 10
-10.444317000000000
 20
-84.506865000000005
 40
10.000000000000000
 50
0.000000000000000
 51
76.164776000000018
  0
ARC
  8
0
  6
CONTINUOUS
 62
256
 10
-10.444317000000000
 20
-161.841442000000000
 40
10.000000000000005
 50
283.835223999999980
 51
0.000000000000000
  0
ARC
  8
0
  6
CONTINUOUS
 62
256
 10
-4.944317000000000
 20
-184.174153999999990
 40
13.000000000000002
 50
103.835224000000000
 51
166.164776000000020
  0
ARC
  8
0
  6
CONTINUOUS
 62
256
 10
-27.277028000000001
 20
-178.674153999999990
 40
10.000000000000000
 50
270.000000000000000
 51
346.164775999999960
  0
ARC
  8
0
  6
CONTINUOUS
 62
256
 10
-116.611605999999990
 20
-178.674153999999990
 40
10.000000000000009
 50
193.835224000000040
 51
270.000000000000000
  0
ARC
  8
0
  6
CONTINUOUS
 62
256
 10
-138.944317000000010
 20
-184.174153999999990
 40
13.000000000000002
 50
13.835223999999982
 51
76.164776000000032
  0
ARC
  8
0
  6
CONTINUOUS
 62
256
 10
-133.444317000000010
 20
-161.841442000000000
 40
10.000000000000000
 50
180.000000000000000
 51
256.164775999999960
  0
ARC
  8
0
  6
CONTINUOUS
 62
256
 10
-133.444317000000010
 20
-84.506865000000005
 40
10.000000000000009
 50
103.835224000000070
 51
180.000000000000000
  0
ARC
  8
0
  6
CONTINUOUS
 62
256
 10
-138.944317000000010
 20
-62.174154000000001
 40
13.000000000000002
 50
283.835223999999980
 51
346.164776000000020
  0
ARC
  8
0
  6
CONTINUOUS
 62
256
 10
-116.611605999999990
 20
-67.674154000000001
 40
10.000000000000000
 50
90.000000000000000
 51
166.164776000000020
  0
ARC
  8
0
  6
CONTINUOUS
 62
256
 10
-27.277028000000001
 20
-178.674153999999990
 40
7.500000000000000
 50
270.000000000000000
 51
346.164776000000020
  0
ARC
  8
0
  6
CONTINUOUS
 62
256
 10
-4.944317000000000
 20
-184.174153999999990
 40
15.499999999999989
 50
103.835224000000000
 51
166.164775999999960
  0
ARC
  8
0
  6
CONTINUOUS
 62
256
 10
-10.444317000000000
 20
-161.841442000000000
 40
7.499999999999990
 50
283.835223999999980
 51
0.000000000000000
  0
ARC
  8
0
  6
CONTINUOUS
 62
256
 10
-10.444317000000000
 20
-84.506865000000005
 40
7.500000000000000
 50
0.000000000000000
 51
76.164776000000018
  0
ARC
  8
0
  6
CONTINUOUS
 62
256
 10
-4.944317000000000
 20
-62.174154000000001
 40
15.500000000000000
 50
193.835224000000010
 51
256.164776000000020
  0
ARC
  8
0
  6
CONTINUOUS
 62
256
 10
-27.277028000000001
 20
-67.674154000000001
 40
7.499999999999998
 50
13.835224000000022
 51
90.000000000000000
  0
ARC
  8
0
  6
CONTINUOUS
 62
256
 10
-116.611605999999990
 20
-67.674154000000001
 40
7.500000000000000
 50
90.000000000000000
 51
166.164775999999990
  0
ARC
  8
0
  6
CONTINUOUS
 62
256
 10
-138.944317000000010
 20
-62.174154000000001
 40
15.500000000000005
 50
283.835223999999980
 51
346.164776000000020
  0
ARC
  8
0
  6
CONTINUOUS
 62
256
 10
-133.444317000000010
 20
-84.506865000000005
 40
7.500000000000005
 50
103.835224000000010
 51
180.000000000000000
  0
ARC
  8
0
  6
CONTINUOUS
 62
256
 10
-133.444317000000010
 20
-161.841442000000000
 40
7.500000000000000
 50
180.000000000000000
 51
256.164775999999960
  0
ARC
  8
0
  6
CONTINUOUS
 62
256
 10
-138.944317000000010
 20
-184.174153999999990
 40
15.500000000000005
 50
13.835224000000020
 51
76.164775999999975
  0
ARC
  8
0
  6
CONTINUOUS
 62
256
 10
-116.611605999999990
 20
-178.674153999999990
 40
7.500000000000005
 50
193.835224000000010
 51
270.000000000000000
  0
CIRCLE
  8
0
  6
CONTINUOUS
 62
256
 10
-90.944316999999998
 20
-110.174154000000000
 40
49.500000000000000
  0
ARC
  8
0
  6
CONTINUOUS
 62
256
 10
-142.944317000000010
 20
-188.174153999999990
 40
9.000000000000000
 50
180.000000000000000
 51
270.000000000000000
  0
ARC
  8
0
  6
CONTINUOUS
 62
256
 10
-0.944317000000000
 20
-188.174153999999990
 40
9.000000000000000
 50
270.000000000000000
 51
0.000000000000000
  0
ARC
  8
0
  6
CONTINUOUS
 62
256
 10
-142.944317000000010
 20
-58.174154000000001
 40
9.000000000000000
 50
90.000000000000000
 51
180.000000000000000
  0
ARC
  8
0
  6
CONTINUOUS
 62
256
 10
-0.944317000000000
 20
-58.174154000000001
 40
9.000000000000000
 50
0.000000000000000
 51
90.000000000000000
  0
ARC
  8
0
  6
CONTINUOUS
 62
256
 10
20.555682999999998
 20
-189.674153999999990
 40
3.000000000000000
 50
180.000000000000000
 51
270.000000000000000
  0
ARC
  8
0
  6
CONTINUOUS
 62
256
 10
20.555682999999998
 20
-76.674154000000001
 40
3.000000000000000
 50
90.000000000000000
 51
180.000000000000000
  0
ARC
  8
0
  6
CONTINUOUS
 62
256
 10
16.055682999999998
 20
-86.077845999999994
 40
5.000000000000004
 50
287.457603000000010
 51
0.000000000000000
  0
ARC
  8
0
  6
CONTINUOUS
 62
256
 10
16.055682999999998
 20
-92.625366999999997
 40
5.000000000000004
 50
287.457603000000010
 51
0.000000000000000
  0
ARC
  8
0
  6
CONTINUOUS
 62
256
 10
16.055682999999998
 20
-173.722940999999990
 40
5.000000000000000
 50
0.000000000000000
 51
72.542397000000022
  0
ARC
  8
0
  6
CONTINUOUS
 62
256
 10
16.055682999999998
 20
-180.270461000000010
 40
5.000000000000000
 50
0.000000000000000
 51
72.542397000000022
  0
LINE
  8
0
  6
DASHDOT
 62
256
 10
-148.444317000000010
 20
-184.174153999999990
 11
-127.731634000000000
 21
-184.174153999999990
  0
LINE
  8
0
  6
DASHDOT
 62
256
 10
-4.944317000000000
 20
-172.442459000000010
 11
-4.944317000000000
 21
-193.674153999999990
  0
LINE
  8
0
  6
DASHDOT
 62
256
 10
-16.776447999999998
 20
-184.174153999999990
 11
4.555683000000000
 21
-184.174153999999990
  0
LINE
  8
0
  6
DASHDOT
 62
256
 10
-4.944317000000000
 20
-52.674154000000001
 11
-4.944317000000000
 21
-73.405328999999995
  0
LINE
  8
0
  6
DASHDOT
 62
256
 10
-15.897531000000001
 20
-62.174154000000001
 11
4.555683000000000
 21
-62.174154000000001
  0
LINE
  8
0
  6
DASHDOT
 62
256
 10
-148.444317000000010
 20
-62.174154000000001
 11
-127.642197000000000
 21
-62.174154000000001
  0
LINE
  8
0
  6
DASHDOT
 62
256
 10
-138.944317000000010
 20
-52.674154000000001
 11
-138.944317000000010
 21
-73.049454999999995
  0
LINE
  8
0
  6
DASHDOT
 62
256
 10
-138.944317000000010
 20
-172.338506000000000
 11
-138.944317000000010
 21
-193.674153999999990
  0
LINE
  8
0
  6
DASHDOT
 62
256
 10
-155.402976000000000
 20
-110.174154000000000
 11
-32.254323999999997
 21
-110.174154000000000
  0
LINE
  8
0
  6
DASHDOT
 62
256
 10
-90.944316999999998
 20
-46.778669000000001
 11
-90.944316999999998
 21
-201.643531999999990
  0
CIRCLE
  8
0
  6
CONTINUOUS
 62
256
 10
-90.944316999999998
 20
-110.174154000000000
 40
30.000000000000000
  0
CIRCLE
  8
0
  6
CONTINUOUS
 62
256
 10
-90.944316999999998
 20
-110.174154000000000
 40
42.500000000000000
  0
LINE
  8
0
  6
CONTINUOUS
 62
256
 10
41.055683000000002
 20
-192.674153999999990
 11
41.055683000000002
 21
-133.174153999999990
  0
LINE
  8
0
  6
CONTINUOUS
 62
256
 10
41.055683000000002
 20
-73.674154000000001
 11
41.055683000000002
 21
-133.174153999999990
  0
ARC
  8
0
  6
CONTINUOUS
 62
256
 10
26.055682999999998
 20
-92.989423000000002
 40
5.000000000000000
 50
90.000000000000000
 51
180.000000000000000
  0
ARC
  8
0
  6
CONTINUOUS
 62
256
 10
26.055682999999998
 20
-86.077845999999994
 40
5.000000000000000
 50
90.000000000000000
 51
180.000000000000000
  0
ARC
  8
0
  6
CONTINUOUS
 62
256
 10
37.055683000000002
 20
-76.674154000000001
 40
3.000000000000000
 50
90.000000000000000
 51
180.000000000000000
  0
ARC
  8
0
  6
CONTINUOUS
 62
256
 10
31.055682999999998
 20
-78.077845999999994
 40
3.000000000000000
 50
270.000000000000000
 51
0.000000000000000
  0
ARC
  8
0
  6
CONTINUOUS
 62
256
 10
31.055682999999998
 20
-90.989423000000002
 40
3.000000000000004
 50
0.000000000000000
 51
90.000000000000000
  0
ARC
  8
0
  6
CONTINUOUS
 62
256
 10
31.055682999999998
 20
-97.172887000000003
 40
3.000000000000004
 50
0.000000000000000
 51
90.000000000000000
  0
ARC
  8
0
  6
CONTINUOUS
 62
256
 10
26.055682999999998
 20
-180.270461000000010
 40
5.000000000000000
 50
180.000000000000000
 51
270.000000000000000
  0
ARC
  8
0
  6
CONTINUOUS
 62
256
 10
26.055682999999998
 20
-173.358884999999990
 40
5.000000000000000
 50
180.000000000000000
 51
270.000000000000000
  0
ARC
  8
0
  6
CONTINUOUS
 62
256
 10
37.055683000000002
 20
-189.674153999999990
 40
3.000000000000000
 50
180.000000000000000
 51
270.000000000000000
  0
ARC
  8
0
  6
CONTINUOUS
 62
256
 10
31.055682999999998
 20
-175.358884999999990
 40
3.000000000000000
 50
270.000000000000000
 51
0.000000000000000
  0
ARC
  8
0
  6
CONTINUOUS
 62
256
 10
31.055682999999998
 20
-188.270461000000010
 40
3.000000000000004
 50
0.000000000000000
 51
90.000000000000000
  0
ARC
  8
0
  6
CONTINUOUS
 62
256
 10
31.055682999999998
 20
-169.175421000000000
 40
3.000000000000000
 50
270.000000000000000
 51
0.000000000000000
  0
LINE
  8
0
  6
CONTINUOUS
 62
256
 10
34.055683000000002
 20
-77.674154000000001
 11
34.055683000000002
 21
-76.674154000000001
  0
LINE
  8
0
  6
CONTINUOUS
 62
256
 10
31.055682999999998
 20
-94.172887000000003
 11
26.055682999999998
 21
-94.172887000000003
  0
LINE
  8
0
  6
CONTINUOUS
 62
256
 10
34.055683000000002
 20
-90.989423000000002
 11
34.055683000000002
 21
-133.174153999999990
  0
LINE
  8
0
  6
CONTINUOUS
 62
256
 10
31.055682999999998
 20
-81.077845999999994
 11
26.055682999999998
 21
-81.077845999999994
  0
LINE
  8
0
  6
CONTINUOUS
 62
256
 10
34.055683000000002
 20
-77.674154000000001
 11
34.055683000000002
 21
-78.077845999999994
  0
LINE
  8
0
  6
CONTINUOUS
 62
256
 10
31.055682999999998
 20
-87.989423000000002
 11
26.055682999999998
 21
-87.989423000000002
  0
LINE
  8
0
  6
CONTINUOUS
 62
256
 10
34.055683000000002
 20
-188.674153999999990
 11
34.055683000000002
 21
-189.674153999999990
  0
LINE
  8
0
  6
CONTINUOUS
 62
256
 10
34.055683000000002
 20
-188.674153999999990
 11
34.055683000000002
 21
-188.270461000000010
  0
LINE
  8
0
  6
CONTINUOUS
 62
256
 10
34.055683000000002
 20
-188.674153999999990
 11
34.055683000000002
 21
-188.270461000000010
  0
LINE
  8
0
  6
CONTINUOUS
 62
256
 10
31.055682999999998
 20
-185.270461000000010
 11
26.055682999999998
 21
-185.270461000000010
  0
LINE
  8
0
  6
CONTINUOUS
 62
256
 10
31.055682999999998
 20
-178.358884999999990
 11
26.055682999999998
 21
-178.358884999999990
  0
LINE
  8
0
  6
CONTINUOUS
 62
256
 10
31.055682999999998
 20
-172.175421000000000
 11
26.055682999999998
 21
-172.175421000000000
  0
LINE
  8
0
  6
CONTINUOUS
 62
256
 10
34.055683000000002
 20
-175.358884999999990
 11
34.055683000000002
 21
-133.174153999999990
  0
LINE
  8
0
  6
CONTINUOUS
 62
256
 10
41.055683000000002
 20
-192.674153999999990
 11
41.055683000000002
 21
-189.424153999999990
  0
LINE
  8
0
  6
CONTINUOUS
 62
256
 10
-151.944317000000010
 20
-188.174153999999990
 11
-151.944317000000010
 21
-58.174154000000001
  0
LINE
  8
0
  6
CONTINUOUS
 62
256
 10
-150.944317000000010
 20
-58.174154000000001
 11
-150.944317000000010
 21
-188.174153999999990
  0
LINE
  8
0
  6
CONTINUOUS
 62
256
 10
41.055683000000002
 20
-113.174154000000000
 11
34.055683000000002
 21
-113.174154000000000
  0
LINE
  8
0
  6
CONTINUOUS
 62
256
 10
41.055683000000002
 20
-153.174153999999990
 11
34.055683000000002
 21
-153.174153999999990
  0
LINE
  8
0
  6
CONTINUOUS
 62
256
 10
145.855683000000000
 20
-69.674154000000001
 11
145.855683000000000
 21
-71.446298999999996
  0
LINE
  8
0
  6
CONTINUOUS
 62
256
 10
55.855682999999999
 20
-69.674154000000001
 11
145.855683000000000
 21
-69.674154000000001
  0
LINE
  8
0
  6
CONTINUOUS
 62
256
 10
55.855682999999999
 20
-69.674154000000001
 11
55.855682999999999
 21
-74.674154000000001
  0
LINE
  8
0
  6
CONTINUOUS
 62
256
 10
55.855682999999999
 20
-74.674154000000001
 11
138.055682999999990
 21
-74.674154000000001
  0
LINE
  8
0
  6
CONTINUOUS
 62
256
 10
144.855683000000000
 20
-35.674154000000001
 11
56.855682999999999
 21
-35.674154000000001
  0
LINE
  8
0
  6
CONTINUOUS
 62
256
 10
145.855683000000000
 20
-69.674154000000001
 11
145.855683000000000
 21
-36.674154000000001
  0
ARC
  8
0
  6
CONTINUOUS
 62
256
 10
144.855683000000000
 20
-36.674154000000001
 40
1.000000000000000
 50
0.000000000000000
 51
90.000000000000000
  0
LINE
  8
0
  6
CONTINUOUS
 62
256
 10
145.855683000000000
 20
-69.674154000000001
 11
55.855682999999999
 21
-69.674154000000001
  0
LINE
  8
0
  6
CONTINUOUS
 62
256
 10
55.855682999999999
 20
-69.674154000000001
 11
55.855682999999999
 21
-36.674154000000001
  0
ARC
  8
0
  6
CONTINUOUS
 62
256
 10
56.855682999999999
 20
-36.674154000000001
 40
1.000000000000000
 50
90.000000000000000
 51
180.000000000000000
  0
LINE
  8
0
  6
CONTINUOUS
 62
256
 10
70.855682999999999
 20
-35.174154000000001
 11
62.855682999999999
 21
-35.174154000000001
  0
LINE
  8
0
  6
CONTINUOUS
 62
256
 10
138.855683000000000
 20
-35.174154000000001
 11
130.855683000000000
 21
-35.174154000000001
  0
LINE
  8
0
  6
CONTINUOUS
 62
256
 10
62.855682999999999
 20
-35.674154000000001
 11
62.855682999999999
 21
-35.174154000000001
  0
LINE
  8
0
  6
CONTINUOUS
 62
256
 10
70.855682999999999
 20
-35.674154000000001
 11
70.855682999999999
 21
-35.174154000000001
  0
LINE
  8
0
  6
CONTINUOUS
 62
256
 10
130.855683000000000
 20
-35.674154000000001
 11
130.855683000000000
 21
-35.174154000000001
  0
LINE
  8
0
  6
CONTINUOUS
 62
256
 10
138.855683000000000
 20
-35.674154000000001
 11
138.855683000000000
 21
-35.174154000000001
  0
LINE
  8
0
  6
CONTINUOUS
 62
256
 10
136.355683000000000
 20
-35.674154000000001
 11
136.355683000000000
 21
-35.174154000000001
  0
LINE
  8
0
  6
CONTINUOUS
 62
256
 10
65.355682999999999
 20
-35.674154000000001
 11
65.355682999999999
 21
-35.174154000000001
  0
LINE
  8
0
  6
CONTINUOUS
 62
256
 10
145.055682999999990
 20
-71.554933000000005
 11
141.055682999999990
 21
-71.554933000000005
  0
LINE
  8
0
  6
CONTINUOUS
 62
256
 10
241.055682999999990
 20
-133.174153999999990
 11
241.055682999999990
 21
-80.730948999999995
  0
LINE
  8
0
  6
CONTINUOUS
 62
256
 10
41.055683000000002
 20
-73.674154000000001
 11
41.055683000000002
 21
-133.174153999999990
  0
LINE
  8
0
  6
CONTINUOUS
 62
256
 10
138.055682999999990
 20
-133.174153999999990
 11
138.055682999999990
 21
-74.554933000000005
  0
ARC
  8
0
  6
CONTINUOUS
 62
256
 10
145.055682999999990
 20
-68.554933000000005
 40
3.000000000000000
 50
270.000000000000000
 51
0.000000000000000
  0
ARC
  8
0
  6
CONTINUOUS
 62
256
 10
141.055682999999990
 20
-74.554933000000005
 40
3.000000000000000
 50
90.000000000000000
 51
180.000000000000000
  0
ARC
  8
0
  6
CONTINUOUS
 62
256
 10
238.455682999999990
 20
-185.617358999999990
 40
2.599999999999996
 50
305.000000000000230
 51
0.000000000000000
  0
LINE
  8
0
  6
CONTINUOUS
 62
256
 10
230.221236000000000
 20
-194.557195000000010
 11
239.946981999999990
 21
-187.747153999999990
  0
ARC
  8
0
  6
CONTINUOUS
 62
256
 10
218.749707000000000
 20
-178.174153999999990
 40
20.000000000000000
 50
270.000000000000000
 51
304.999999999999940
  0
LINE
  8
0
  6
CONTINUOUS
 62
256
 10
241.055682999999990
 20
-133.174153999999990
 11
241.055682999999990
 21
-185.617358999999990
  0
LINE
  8
0
  6
CONTINUOUS
 62
256
 10
138.055682999999990
 20
-198.174153999999990
 11
218.749707000000000
 21
-198.174153999999990
  0
LINE
  8
0
  6
CONTINUOUS
 62
256
 10
41.055683000000002
 20
-192.674153999999990
 11
41.055683000000002
 21
-133.174153999999990
  0
LINE
  8
0
  6
CONTINUOUS
 62
256
 10
71.055683000000002
 20
-192.674153999999990
 11
41.055683000000002
 21
-192.674153999999990
  0
LINE
  8
0
  6
CONTINUOUS
 62
256
 10
138.055682999999990
 20
-190.174153999999990
 11
41.055683000000002
 21
-190.174153999999990
  0
LINE
  8
0
  6
CONTINUOUS
 62
256
 10
138.055682999999990
 20
-189.174153999999990
 11
41.055683000000002
 21
-189.174153999999990
  0
LINE
  8
0
  6
CONTINUOUS
 62
256
 10
138.055682999999990
 20
-188.174153999999990
 11
41.055683000000002
 21
-188.174153999999990
  0
LINE
  8
0
  6
CONTINUOUS
 62
256
 10
138.055682999999990
 20
-133.174153999999990
 11
138.055682999999990
 21
-198.174153999999990
  0
LINE
  8
0
  6
CONTINUOUS
 62
256
 10
138.055682999999990
 20
-183.489688000000000
 11
41.055683000000002
 21
-183.489688000000000
  0
LINE
  8
0
  6
CONTINUOUS
 62
256
 10
138.055682999999990
 20
-178.539940000000000
 11
41.055683000000002
 21
-178.539940000000000
  0
LINE
  8
0
  6
CONTINUOUS
 62
256
 10
138.055682999999990
 20
-148.174153999999990
 11
41.055683000000002
 21
-148.174153999999990
  0
LINE
  8
0
  6
CONTINUOUS
 62
256
 10
138.055682999999990
 20
-152.547416000000000
 11
41.055683000000002
 21
-152.547416000000000
  0
LINE
  8
0
  6
CONTINUOUS
 62
256
 10
138.055682999999990
 20
-153.813652999999990
 11
41.055683000000002
 21
-153.813652999999990
  0
LINE
  8
0
  6
CONTINUOUS
 62
256
 10
138.055682999999990
 20
-158.004207000000010
 11
41.055683000000002
 21
-158.004207000000010
  0
LINE
  8
0
  6
CONTINUOUS
 62
256
 10
138.055682999999990
 20
-159.366086999999990
 11
41.055683000000002
 21
-159.366086999999990
  0
LINE
  8
0
  6
CONTINUOUS
 62
256
 10
138.055682999999990
 20
-163.456588000000010
 11
41.055683000000002
 21
-163.456588000000010
  0
LINE
  8
0
  6
CONTINUOUS
 62
256
 10
138.055682999999990
 20
-164.924945000000010
 11
41.055683000000002
 21
-164.924945000000010
  0
LINE
  8
0
  6
CONTINUOUS
 62
256
 10
138.055682999999990
 20
-168.888690999999990
 11
41.055683000000002
 21
-168.888690999999990
  0
LINE
  8
0
  6
CONTINUOUS
 62
256
 10
138.055682999999990
 20
-170.493338999999990
 11
41.055683000000002
 21
-170.493338999999990
  0
LINE
  8
0
  6
CONTINUOUS
 62
256
 10
138.055682999999990
 20
-118.174154000000000
 11
41.055683000000002
 21
-118.174154000000000
  0
LINE
  8
0
  6
CONTINUOUS
 62
256
 10
138.055682999999990
 20
-113.800892000000000
 11
41.055683000000002
 21
-113.800892000000000
  0
LINE
  8
0
  6
CONTINUOUS
 62
256
 10
138.055682999999990
 20
-112.534654000000000
 11
41.055683000000002
 21
-112.534654000000000
  0
LINE
  8
0
  6
CONTINUOUS
 62
256
 10
138.055682999999990
 20
-108.344100000000000
 11
41.055683000000002
 21
-108.344100000000000
  0
LINE
  8
0
  6
CONTINUOUS
 62
256
 10
138.055682999999990
 20
-106.982220000000000
 11
41.055683000000002
 21
-106.982220000000000
  0
LINE
  8
0
  6
CONTINUOUS
 62
256
 10
138.055682999999990
 20
-102.891718999999990
 11
41.055683000000002
 21
-102.891718999999990
  0
LINE
  8
0
  6
CONTINUOUS
 62
256
 10
138.055682999999990
 20
-101.423362000000000
 11
41.055683000000002
 21
-101.423362000000000
  0
LINE
  8
0
  6
CONTINUOUS
 62
256
 10
138.055682999999990
 20
-97.459616999999994
 11
41.055683000000002
 21
-97.459616999999994
  0
LINE
  8
0
  6
CONTINUOUS
 62
256
 10
138.055682999999990
 20
-95.854968999999997
 11
41.055683000000002
 21
-95.854968999999997
  0
LINE
  8
0
  6
CONTINUOUS
 62
256
 10
138.055682999999990
 20
-87.808367000000004
 11
41.055683000000002
 21
-87.808367000000004
  0
LINE
  8
0
  6
CONTINUOUS
 62
256
 10
138.055682999999990
 20
-78.174154000000001
 11
41.055683000000002
 21
-78.174154000000001
  0
LINE
  8
0
  6
CONTINUOUS
 62
256
 10
138.055682999999990
 20
-77.174154000000001
 11
41.055683000000002
 21
-77.174154000000001
  0
LINE
  8
0
  6
CONTINUOUS
 62
256
 10
138.055682999999990
 20
-76.174154000000001
 11
41.055683000000002
 21
-76.174154000000001
  0
LINE
  8
0
  6
CONTINUOUS
 62
256
 10
149.055682999999990
 20
-186.914268999999990
 11
151.055682999999990
 21
-185.261627000000000
  0
LINE
  8
0
  6
CONTINUOUS
 62
256
 10
147.055682999999990
 20
-188.090054000000010
 11
149.055682999999990
 21
-186.914268999999990
  0
LINE
  8
0
  6
CONTINUOUS
 62
256
 10
149.055682999999990
 20
-186.914268999999990
 11
147.055682999999990
 21
-185.261627000000000
  0
LINE
  8
0
  6
CONTINUOUS
 62
256
 10
151.055682999999990
 20
-188.090054000000010
 11
149.055682999999990
 21
-186.914268999999990
  0
POLYLINE
  8
0
  6
CONTINUOUS
 62
256
 66
1
 70
1
  0
VERTEX
  8
0
  6
CONTINUOUS
 62
256
 10
153.755682999999980
 20
-185.097679000000000
  0
VERTEX
  8
0
  6
CONTINUOUS
 62
256
 10
153.665373817895160
 20
-184.394722489441820
  0
VERTEX
  8
0
  6
CONTINUOUS
 62
256
 10
153.397916802803020
 20
-183.718780203361860
  0
VERTEX
  8
0
  6
CONTINUOUS
 62
256
 10
152.963590177821940
 20
-183.095828224741330
  0
VERTEX
  8
0
  6
CONTINUOUS
 62
256
 10
152.379084871576770
 20
-182.549806248763160
  0
VERTEX
  8
0
  6
CONTINUOUS
 62
256
 10
151.666863095192100
 20
-182.101697593751510
  0
VERTEX
  8
0
  6
CONTINUOUS
 62
256
 10
150.854295132115910
 20
-181.768722824016270
  0
VERTEX
  8
0
  6
CONTINUOUS
 62
256
 10
149.972607513475790
 20
-181.563677973223920
  0
VERTEX
  8
0
  6
CONTINUOUS
 62
256
 10
149.055682999999990
 20
-181.494442800000000
  0
VERTEX
  8
0
  6
CONTINUOUS
 62
256
 10
148.138758486524180
 20
-181.563677973223920
  0
VERTEX
  8
0
  6
CONTINUOUS
 62
256
 10
147.257070867884070
 20
-181.768722824016270
  0
VERTEX
  8
0
  6
CONTINUOUS
 62
256
 10
146.444502904807880
 20
-182.101697593751510
  0
VERTEX
  8
0
  6
CONTINUOUS
 62
256
 10
145.732281128423210
 20
-182.549806248763160
  0
VERTEX
  8
0
  6
CONTINUOUS
 62
256
 10
145.147775822178030
 20
-183.095828224741330
  0
VERTEX
  8
0
  6
CONTINUOUS
 62
256
 10
144.713449197196950
 20
-183.718780203361860
  0
VERTEX
  8
0
  6
CONTINUOUS
 62
256
 10
144.445992182104820
 20
-184.394722489441820
  0
VERTEX
  8
0
  6
CONTINUOUS
 62
256
 10
144.355683000000000
 20
-185.097679000000000
  0
VERTEX
  8
0
  6
CONTINUOUS
 62
256
 10
144.445992182104820
 20
-185.800635510558180
  0
VERTEX
  8
0
  6
CONTINUOUS
 62
256
 10
144.713449197196950
 20
-186.476577796638140
  0
VERTEX
  8
0
  6
CONTINUOUS
 62
256
 10
145.147775822178030
 20
-187.099529775258670
  0
VERTEX
  8
0
  6
CONTINUOUS
 62
256
 10
145.732281128423210
 20
-187.645551751236840
  0
VERTEX
  8
0
  6
CONTINUOUS
 62
256
 10
146.444502904807880
 20
-188.093660406248490
  0
VERTEX
  8
0
  6
CONTINUOUS
 62
256
 10
147.257070867884070
 20
-188.426635175983730
  0
VERTEX
  8
0
  6
CONTINUOUS
 62
256
 10
148.138758486524180
 20
-188.631680026776050
  0
VERTEX
  8
0
  6
CONTINUOUS
 62
256
 10
149.055682999999990
 20
-188.700915200000000
  0
VERTEX
  8
0
  6
CONTINUOUS
 62
256
 10
149.972607513475790
 20
-188.631680026776050
  0
VERTEX
  8
0
  6
CONTINUOUS
 62
256
 10
150.854295132115910
 20
-188.426635175983730
  0
VERTEX
  8
0
  6
CONTINUOUS
 62
256
 10
151.666863095192100
 20
-188.093660406248490
  0
VERTEX
  8
0
  6
CONTINUOUS
 62
256
 10
152.379084871576740
 20
-187.645551751236840
  0
VERTEX
  8
0
  6
CONTINUOUS
 62
256
 10
152.963590177821940
 20
-187.099529775258670
  0
VERTEX
  8
0
  6
CONTINUOUS
 62
256
 10
153.397916802803020
 20
-186.476577796638140
  0
VERTEX
  8
0
  6
CONTINUOUS
 62
256
 10
153.665373817895160
 20
-185.800635510558180
  0
SEQEND
  8
0
  6
CONTINUOUS
 62
256
  0
LINE
  8
0
  6
CONTINUOUS
 62
256
 10
149.055682999999990
 20
-79.434038999999999
 11
151.055682999999990
 21
-81.086680000000001
  0
LINE
  8
0
  6
CONTINUOUS
 62
256
 10
147.055682999999990
 20
-78.258252999999996
 11
149.055682999999990
 21
-79.434038999999999
  0
LINE
  8
0
  6
CONTINUOUS
 62
256
 10
55.855682999999999
 20
-73.674154000000001
 11
41.055683000000002
 21
-73.674154000000001
  0
ARC
  8
0
  6
CONTINUOUS
 62
256
 10
218.749707000000000
 20
-88.174154000000001
 40
19.999999999999993
 50
55.000000000000028
 51
90.000000000000000
  0
LINE
  8
0
  6
CONTINUOUS
 62
256
 10
149.055682999999990
 20
-79.434038999999999
 11
147.055682999999990
 21
-81.086680000000001
  0
LINE
  8
0
  6
CONTINUOUS
 62
256
 10
151.055682999999990
 20
-78.258252999999996
 11
149.055682999999990
 21
-79.434038999999999
  0
POLYLINE
  8
0
  6
CONTINUOUS
 62
256
 66
1
 70
1
  0
VERTEX
  8
0
  6
CONTINUOUS
 62
256
 10
153.755682999999980
 20
-81.250629000000004
  0
VERTEX
  8
0
  6
CONTINUOUS
 62
256
 10
153.665373817895160
 20
-80.547672489441837
  0
VERTEX
  8
0
  6
CONTINUOUS
 62
256
 10
153.397916802803020
 20
-79.871730203361864
  0
VERTEX
  8
0
  6
CONTINUOUS
 62
256
 10
152.963590177821940
 20
-79.248778224741343
  0
VERTEX
  8
0
  6
CONTINUOUS
 62
256
 10
152.379084871576770
 20
-78.702756248763166
  0
VERTEX
  8
0
  6
CONTINUOUS
 62
256
 10
151.666863095192100
 20
-78.254647593751514
  0
VERTEX
  8
0
  6
CONTINUOUS
 62
256
 10
150.854295132115910
 20
-77.921672824016255
  0
VERTEX
  8
0
  6
CONTINUOUS
 62
256
 10
149.972607513475790
 20
-77.716627973223936
  0
VERTEX
  8
0
  6
CONTINUOUS
 62
256
 10
149.055682999999990
 20
-77.647392800000006
  0
VERTEX
  8
0
  6
CONTINUOUS
 62
256
 10
148.138758486524180
 20
-77.716627973223936
  0
VERTEX
  8
0
  6
CONTINUOUS
 62
256
 10
147.257070867884070
 20
-77.921672824016255
  0
VERTEX
  8
0
  6
CONTINUOUS
 62
256
 10
146.444502904807880
 20
-78.254647593751514
  0
VERTEX
  8
0
  6
CONTINUOUS
 62
256
 10
145.732281128423210
 20
-78.702756248763166
  0
VERTEX
  8
0
  6
CONTINUOUS
 62
256
 10
145.147775822178030
 20
-79.248778224741343
  0
VERTEX
  8
0
  6
CONTINUOUS
 62
256
 10
144.713449197196950
 20
-79.871730203361864
  0
VERTEX
  8
0
  6
CONTINUOUS
 62
256
 10
144.445992182104820
 20
-80.547672489441837
  0
VERTEX
  8
0
  6
CONTINUOUS
 62
256
 10
144.355683000000000
 20
-81.250629000000004
  0
VERTEX
  8
0
  6
CONTINUOUS
 62
256
 10
144.445992182104820
 20
-81.953585510558170
  0
VERTEX
  8
0
  6
CONTINUOUS
 62
256
 10
144.713449197196950
 20
-82.629527796638143
  0
VERTEX
  8
0
  6
CONTINUOUS
 62
256
 10
145.147775822178030
 20
-83.252479775258664
  0
VERTEX
  8
0
  6
CONTINUOUS
 62
256
 10
145.732281128423210
 20
-83.798501751236842
  0
VERTEX
  8
0
  6
CONTINUOUS
 62
256
 10
146.444502904807880
 20
-84.246610406248493
  0
VERTEX
  8
0
  6
CONTINUOUS
 62
256
 10
147.257070867884070
 20
-84.579585175983738
  0
VERTEX
  8
0
  6
CONTINUOUS
 62
256
 10
148.138758486524180
 20
-84.784630026776071
  0
VERTEX
  8
0
  6
CONTINUOUS
 62
256
 10
149.055682999999990
 20
-84.853865200000001
  0
VERTEX
  8
0
  6
CONTINUOUS
 62
256
 10
149.972607513475790
 20
-84.784630026776071
  0
VERTEX
  8
0
  6
CONTINUOUS
 62
256
 10
150.854295132115910
 20
-84.579585175983752
  0
VERTEX
  8
0
  6
CONTINUOUS
 62
256
 10
151.666863095192100
 20
-84.246610406248493
  0
VERTEX
  8
0
  6
CONTINUOUS
 62
256
 10
152.379084871576740
 20
-83.798501751236842
  0
VERTEX
  8
0
  6
CONTINUOUS
 62
256
 10
152.963590177821940
 20
-83.252479775258664
  0
VERTEX
  8
0
  6
CONTINUOUS
 62
256
 10
153.397916802803020
 20
-82.629527796638143
  0
VERTEX
  8
0
  6
CONTINUOUS
 62
256
 10
153.665373817895160
 20
-81.953585510558170
  0
SEQEND
  8
0
  6
CONTINUOUS
 62
256
  0
LINE
  8
0
  6
CONTINUOUS
 62
256
 10
148.055682999999990
 20
-68.174154000000001
 11
218.749707000000000
 21
-68.174154000000001
  0
LINE
  8
0
  6
DASHDOT
 62
256
 10
2.371188000000000
 20
-133.174153999999990
 11
250.984895999999990
 21
-133.174153999999990
  0
ARC
  8
0
  6
CONTINUOUS
 62
256
 10
238.455682999999990
 20
-80.730948999999995
 40
2.599999999999994
 50
0.000000000000000
 51
54.999999999999979
  0
LINE
  8
0
  6
CONTINUOUS
 62
256
 10
230.221236000000000
 20
-71.791112999999996
 11
239.946981999999990
 21
-78.601152999999996
  0
LINE
  8
0
  6
CONTINUOUS
 62
256
 10
138.055682999999990
 20
-192.674153999999990
 11
41.055683000000002
 21
-192.674153999999990
  0
LINE
  8
0
  6
CONTINUOUS
 62
256
 10
148.055682999999990
 20
-68.174154000000001
 11
148.055682999999990
 21
-68.554933000000005
  0
LINE
  8
0
  6
CONTINUOUS
 62
256
 10
138.055682999999990
 20
-82.858620000000002
 11
41.055683000000002
 21
-82.858620000000002
  0
ARC
  8
0
  6
CONTINUOUS
 62
256
 10
-469.021423000000030
 20
-42.307488999999997
 40
5.000000000000002
 50
96.032049000000001
 51
180.000000000000000
  0
LINE
  8
0
  6
CONTINUOUS
 62
256
 10
-474.021423000000030
 20
-49.183110999999997
 11
-474.021423000000030
 21
-42.307488999999997
  0
LINE
  8
0
  6
CONTINUOUS
 62
256
 10
-402.021423000000030
 20
-50.456412000000000
 11
-402.021423000000030
 21
-42.307488999999997
  0
ARC
  8
0
  6
CONTINUOUS
 62
256
 10
-407.021423000000030
 20
-42.307488999999997
 40
5.000000000000000
 50
0.000000000000000
 51
83.967950999999999
  0
LINE
  8
0
  6
CONTINUOUS
 62
256
 10
-435.521423000000030
 20
-35.174154000000001
 11
-440.521423000000030
 21
-35.174154000000001
  0
LINE
  8
0
  6
CONTINUOUS
 62
256
 10
-440.521423000000030
 20
-35.674156000000004
 11
-440.521423000000030
 21
-35.174154000000001
  0
LINE
  8
0
  6
CONTINUOUS
 62
256
 10
-435.521423000000030
 20
-35.684570999999998
 11
-435.521423000000030
 21
-35.174154000000001
  0
ARC
  8
0
  6
CONTINUOUS
 62
256
 10
-438.021423000000030
 20
-335.674153999999990
 40
300.000000000000000
 50
83.967950999999999
 51
96.032049000000001
  0
ARC
  8
0
  6
CONTINUOUS
 62
256
 10
-678.621423000000050
 20
-133.174153999999990
 40
300.600000000000020
 50
0.000000000000000
 51
1.715699000000000
  0
ARC
  8
0
  6
CONTINUOUS
 62
256
 10
-387.924808999999980
 20
-89.225566000000001
 40
6.600000000000019
 50
8.597081999999919
 51
44.999999999999829
  0
ARC
  8
0
  6
CONTINUOUS
 62
256
 10
-678.621423000000050
 20
-133.174153999999990
 40
300.600000000000020
 50
351.402918000000000
 51
0.000000000000000
  0
ARC
  8
0
  6
CONTINUOUS
 62
256
 10
-387.924808999999980
 20
-177.122740999999990
 40
6.600000000000017
 50
315.000000000000170
 51
351.402917999999940
  0
LINE
  8
0
  6
CONTINUOUS
 62
256
 10
-383.257904000000000
 20
-181.789646000000000
 11
-389.021423000000030
 21
-187.553165000000010
  0
LINE
  8
0
  6
CONTINUOUS
 62
256
 10
-383.257904000000000
 20
-84.558661999999998
 11
-385.021423000000030
 21
-82.795141999999998
  0
ARC
  8
0
  6
CONTINUOUS
 62
256
 10
-438.021423000000030
 20
102.425846000000010
 40
300.600000000000020
 50
264.930522000000000
 51
276.051985000000000
  0
ARC
  8
0
  6
CONTINUOUS
 62
256
 10
-409.133394000000010
 20
-170.047055000000000
 40
26.600000000000009
 50
276.051984999999950
 51
283.542179999999920
  0
ARC
  8
0
  6
CONTINUOUS
 62
256
 10
-488.118038000000010
 20
-177.122740999999990
 40
6.600000000000022
 50
188.597082000000030
 51
224.999999999999830
  0
ARC
  8
0
  6
CONTINUOUS
 62
256
 10
-197.421423000000000
 20
-133.174153999999990
 40
300.600000000000020
 50
180.000000000000000
 51
188.597082000000000
  0
ARC
  8
0
  6
CONTINUOUS
 62
256
 10
-488.118038000000010
 20
-89.225566000000001
 40
6.600000000000017
 50
135.000000000000170
 51
171.402918000000080
  0
ARC
  8
0
  6
CONTINUOUS
 62
256
 10
-197.421423000000000
 20
-133.174153999999990
 40
300.600000000000020
 50
171.402918000000000
 51
180.000000000000000
  0
LINE
  8
0
  6
CONTINUOUS
 62
256
 10
-492.784943000000000
 20
-84.558661999999998
 11
-491.021423000000030
 21
-82.795141999999998
  0
LINE
  8
0
  6
CONTINUOUS
 62
256
 10
-492.784943000000000
 20
-181.789646000000000
 11
-487.021423000000030
 21
-187.553165000000010
  0
ARC
  8
0
  6
CONTINUOUS
 62
256
 10
-95.021422999999999
 20
-133.174153999999990
 40
400.000000000000060
 50
175.885655000000010
 51
177.065975000000010
  0
ARC
  8
0
  6
CONTINUOUS
 62
256
 10
-494.996422999999990
 20
-112.674154000000000
 40
0.500000000000000
 50
270.000000000000000
 51
357.065974999999980
  0
ARC
  8
0
  6
CONTINUOUS
 62
256
 10
-494.996422999999990
 20
-112.674154000000000
 40
0.500000000000000
 50
270.000000000000000
 51
357.065974999999980
  0
ARC
  8
0
  6
CONTINUOUS
 62
256
 10
-464.067878000000010
 20
-106.627699000000010
 40
29.999999999999979
 50
153.955265999999990
 51
175.885655000000010
  0
LINE
  8
0
  6
CONTINUOUS
 62
256
 10
-374.021423000000030
 20
-96.174154000000001
 11
-374.021423000000030
 21
-93.174154000000001
  0
LINE
  8
0
  6
CONTINUOUS
 62
256
 10
-338.021423000000030
 20
-110.174154000000000
 11
-338.021423000000030
 21
-93.174154000000001
  0
LINE
  8
0
  6
CONTINUOUS
 62
256
 10
-383.021423000000030
 20
-96.174154000000001
 11
-338.021423000000030
 21
-96.174154000000001
  0
LINE
  8
0
  6
CONTINUOUS
 62
256
 10
-374.021423000000030
 20
-93.174154000000001
 11
-338.021423000000030
 21
-93.174154000000001
  0
LINE
  8
0
  6
CONTINUOUS
 62
256
 10
-383.021423000000030
 20
-124.174154000000000
 11
-338.021423000000030
 21
-124.174154000000000
  0
LINE
  8
0
  6
CONTINUOUS
 62
256
 10
-338.021423000000030
 20
-110.174154000000000
 11
-338.021423000000030
 21
-124.174154000000000
  0
LINE
  8
0
  6
CONTINUOUS
 62
256
 10
-383.021423000000030
 20
-95.674154000000001
 11
-385.021423000000030
 21
-95.674154000000001
  0
LINE
  8
0
  6
CONTINUOUS
 62
256
 10
-383.021423000000030
 20
-110.174154000000000
 11
-383.021423000000030
 21
-95.674154000000001
  0
LINE
  8
0
  6
CONTINUOUS
 62
256
 10
-383.021423000000030
 20
-110.174154000000000
 11
-383.021423000000030
 21
-95.674154000000001
  0
LINE
  8
0
  6
CONTINUOUS
 62
256
 10
-383.021423000000030
 20
-110.174154000000000
 11
-383.021423000000030
 21
-124.674154000000000
  0
LINE
  8
0
  6
CONTINUOUS
 62
256
 10
-383.021423000000030
 20
-110.174154000000000
 11
-383.021423000000030
 21
-124.674154000000000
  0
LINE
  8
0
  6
CONTINUOUS
 62
256
 10
-383.021423000000030
 20
-124.674154000000000
 11
-385.021423000000030
 21
-124.674154000000000
  0
LINE
  8
0
  6
DASHDOT
 62
256
 10
-488.467508000000010
 20
-62.174154000000001
 11
-387.384294000000010
 21
-62.174154000000001
  0
LINE
  8
0
  6
DASHDOT
 62
256
 10
-488.467508000000010
 20
-184.174153999999990
 11
-387.384294000000010
 21
-184.174153999999990
  0
ARC
  8
0
  6
CONTINUOUS
 62
256
 10
-678.621423000000050
 20
-133.174153999999990
 40
300.600000000000020
 50
7.070305000000003
 51
8.597081999999999
  0
CIRCLE
  8
0
  6
CONTINUOUS
 62
256
 10
-138.944317000000010
 20
-62.174154000000001
 40
5.000000000000000
  0
CIRCLE
  8
0
  6
CONTINUOUS
 62
256
 10
-138.944317000000010
 20
-62.174154000000001
 40
4.187999999999988
  0
ARC
  8
0
  6
CONTINUOUS
 62
256
 10
673.178351000000020
 20
-133.174153999999990
 40
289.396999999999990
 50
180.000000000000000
 51
187.897988999999970
  0
ARC
  8
0
  6
CONTINUOUS
 62
256
 10
392.469574000000020
 20
-172.115671999999990
 40
5.999999999999990
 50
187.897989000000000
 51
225.000000000000170
  0
ARC
  8
0
  6
CONTINUOUS
 62
256
 10
382.481737000000010
 20
-177.122740999999990
 40
6.600000000000022
 50
188.597082000000030
 51
224.999999999999830
  0
ARC
  8
0
  6
CONTINUOUS
 62
256
 10
403.855538000000020
 20
-137.174153999999990
 40
1.500000000000004
 50
7.928142000000149
 51
90.000000000000000
  0
ARC
  8
0
  6
CONTINUOUS
 62
256
 10
432.578351000000000
 20
-133.174153999999990
 40
33.500000000000000
 50
187.180755999999970
 51
232.819244000000000
  0
ARC
  8
0
  6
CONTINUOUS
 62
256
 10
432.578351000000000
 20
-133.174153999999990
 40
42.999999999999979
 50
185.531071999999990
 51
234.468927999999950
  0
ARC
  8
0
  6
CONTINUOUS
 62
256
 10
432.578351000000000
 20
-133.174153999999990
 40
36.999999999999979
 50
185.963569999999980
 51
234.036429999999970
  0
ARC
  8
0
  6
CONTINUOUS
 62
256
 10
414.752842999999980
 20
-156.048840000000010
 40
1.499999999999975
 50
329.999999999999490
 51
52.071857999999288
  0
ARC
  8
0
  6
CONTINUOUS
 62
256
 10
413.239741999999980
 20
-158.669608000000010
 40
1.499999999999994
 50
232.819243999999940
 51
329.999999999999490
  0
ARC
  8
0
  6
CONTINUOUS
 62
256
 10
409.968428000000020
 20
-164.335690000000000
 40
1.499999999999975
 50
329.999999999999490
 51
54.036429999999186
  0
LINE
  8
0
  6
CONTINUOUS
 62
256
 10
416.051880999999980
 20
-156.798840000000010
 11
414.538779999999970
 21
-159.419608000000010
  0
LINE
  8
0
  6
CONTINUOUS
 62
256
 10
411.267466000000010
 20
-165.085690000000000
 11
409.759898000000020
 21
-167.696874000000010
  0
ARC
  8
0
  6
CONTINUOUS
 62
256
 10
408.460860000000030
 20
-166.946874000000010
 40
1.499999999999989
 50
234.468928000000520
 51
329.999999999999490
  0
ARC
  8
0
  6
CONTINUOUS
 62
256
 10
444.988757000000020
 20
-162.669608000000010
 40
1.499999999999976
 50
292.819243999999230
 51
30.000000000000544
  0
LINE
  8
0
  6
CONTINUOUS
 62
256
 10
446.287796000000010
 20
-161.919608000000010
 11
444.774694000000010
 21
-159.298840000000010
  0
ARC
  8
0
  6
CONTINUOUS
 62
256
 10
448.260071999999980
 20
-168.335690000000000
 40
1.499999999999975
 50
30.000000000000544
 51
114.036429999999850
  0
LINE
  8
0
  6
CONTINUOUS
 62
256
 10
451.066677000000030
 20
-170.196874000000010
 11
449.559109999999980
 21
-167.585690000000000
  0
ARC
  8
0
  6
CONTINUOUS
 62
256
 10
449.767638999999970
 20
-170.946874000000010
 40
1.499999999999989
 50
294.468928000000010
 51
30.000000000000544
  0
ARC
  8
0
  6
CONTINUOUS
 62
256
 10
443.475656000000010
 20
-160.048840000000010
 40
1.499999999999975
 50
30.000000000000544
 51
112.071857999999120
  0
ARC
  8
0
  6
CONTINUOUS
 62
256
 10
432.578351000000000
 20
-133.174153999999990
 40
33.500000000000007
 50
247.180756000000030
 51
292.819243999999970
  0
ARC
  8
0
  6
CONTINUOUS
 62
256
 10
432.578351000000000
 20
-133.174153999999990
 40
43.000000000000021
 50
245.531072000000020
 51
294.468927999999950
  0
ARC
  8
0
  6
CONTINUOUS
 62
256
 10
432.578351000000000
 20
-133.174153999999990
 40
37.000000000000021
 50
245.963569999999950
 51
294.036429999999940
  0
ARC
  8
0
  6
CONTINUOUS
 62
256
 10
432.578351000000000
 20
-133.174153999999990
 40
27.500000000000014
 50
247.928142000000040
 51
292.071857999999960
  0
ARC
  8
0
  6
CONTINUOUS
 62
256
 10
421.681045999999980
 20
-160.048840000000010
 40
1.499999999999998
 50
67.928142000000889
 51
149.999999999999460
  0
ARC
  8
0
  6
CONTINUOUS
 62
256
 10
420.167944999999970
 20
-162.669608000000010
 40
1.499999999999975
 50
149.999999999999460
 51
247.180756000001140
  0
ARC
  8
0
  6
CONTINUOUS
 62
256
 10
416.896631000000010
 20
-168.335690000000000
 40
1.499999999999986
 50
65.963570000000146
 51
149.999999999999460
  0
LINE
  8
0
  6
CONTINUOUS
 62
256
 10
420.382007999999980
 20
-159.298840000000010
 11
418.868906999999980
 21
-161.919608000000010
  0
LINE
  8
0
  6
CONTINUOUS
 62
256
 10
415.597593000000020
 20
-167.585690000000000
 11
414.090025000000030
 21
-170.196874000000010
  0
ARC
  8
0
  6
CONTINUOUS
 62
256
 10
415.389063000000020
 20
-170.946874000000010
 40
1.499999999999975
 50
149.999999999999460
 51
245.531072000000020
  0
ARC
  8
0
  6
CONTINUOUS
 62
256
 10
451.916961000000010
 20
-158.669608000000010
 40
1.499999999999975
 50
210.000000000000510
 51
307.180756000000090
  0
LINE
  8
0
  6
CONTINUOUS
 62
256
 10
450.617923000000020
 20
-159.419608000000010
 11
449.104821000000020
 21
-156.798840000000010
  0
ARC
  8
0
  6
CONTINUOUS
 62
256
 10
455.188274999999980
 20
-164.335690000000000
 40
1.500000000000007
 50
125.963570000000810
 51
210.000000000000510
  0
LINE
  8
0
  6
CONTINUOUS
 62
256
 10
455.396803999999970
 20
-167.696874000000010
 11
453.889236999999980
 21
-165.085690000000000
  0
ARC
  8
0
  6
CONTINUOUS
 62
256
 10
456.695842000000030
 20
-166.946874000000010
 40
1.499999999999975
 50
210.000000000000510
 51
305.531071999999480
  0
ARC
  8
0
  6
CONTINUOUS
 62
256
 10
450.403859000000010
 20
-156.048840000000010
 40
1.500000000000018
 50
127.928142000000730
 51
210.000000000000510
  0
ARC
  8
0
  6
CONTINUOUS
 62
256
 10
432.578351000000000
 20
-133.174153999999990
 40
33.499999999999972
 50
307.180755999999920
 51
352.819244000000030
  0
ARC
  8
0
  6
CONTINUOUS
 62
256
 10
432.578351000000000
 20
-133.174153999999990
 40
43.000000000000021
 50
305.531071999999990
 51
354.468928000000010
  0
ARC
  8
0
  6
CONTINUOUS
 62
256
 10
432.578351000000000
 20
-133.174153999999990
 40
36.999999999999993
 50
305.963570000000000
 51
354.036429999999940
  0
ARC
  8
0
  6
CONTINUOUS
 62
256
 10
432.578351000000000
 20
-133.174153999999990
 40
27.500000000000014
 50
307.928141999999980
 51
352.071858000000020
  0
ARC
  8
0
  6
CONTINUOUS
 62
256
 10
461.301164000000030
 20
-137.174153999999990
 40
1.500000000000000
 50
90.000000000000000
 51
172.071857999999850
  0
ARC
  8
0
  6
CONTINUOUS
 62
256
 10
464.327366999999980
 20
-137.174153999999990
 40
1.500000000000026
 50
352.819244000000480
 51
90.000000000000000
  0
ARC
  8
0
  6
CONTINUOUS
 62
256
 10
470.869995000000020
 20
-137.174153999999990
 40
1.500000000000000
 50
90.000000000000000
 51
174.036430000000220
  0
LINE
  8
0
  6
CONTINUOUS
 62
256
 10
461.301164000000030
 20
-135.674153999999990
 11
464.327366999999980
 21
-135.674153999999990
  0
LINE
  8
0
  6
CONTINUOUS
 62
256
 10
470.869995000000020
 20
-135.674153999999990
 11
473.885130000000000
 21
-135.674153999999990
  0
ARC
  8
0
  6
CONTINUOUS
 62
256
 10
473.885130000000000
 20
-137.174153999999990
 40
1.499999999999977
 50
354.468928000000290
 51
90.000000000000000
  0
ARC
  8
0
  6
CONTINUOUS
 62
256
 10
451.916961000000010
 20
-107.678700000000010
 40
1.499999999999994
 50
52.819243999999927
 51
150.000000000000540
  0
LINE
  8
0
  6
CONTINUOUS
 62
256
 10
450.617923000000020
 20
-106.928700000000010
 11
449.104821000000020
 21
-109.549468000000000
  0
ARC
  8
0
  6
CONTINUOUS
 62
256
 10
455.188274999999980
 20
-102.012617000000010
 40
1.500000000000025
 50
150.000000000000540
 51
234.036429999999170
  0
ARC
  8
0
  6
CONTINUOUS
 62
256
 10
450.403859000000010
 20
-110.299468000000000
 40
1.500000000000025
 50
150.000000000000540
 51
232.071857999999280
  0
ARC
  8
0
  6
CONTINUOUS
 62
256
 10
432.578351000000000
 20
-133.174153999999990
 40
33.500000000000007
 50
7.180756000000018
 51
52.819243999999983
  0
ARC
  8
0
  6
CONTINUOUS
 62
256
 10
432.578351000000000
 20
-133.174153999999990
 40
42.999999999999979
 50
5.531071999999997
 51
54.468927999999977
  0
ARC
  8
0
  6
CONTINUOUS
 62
256
 10
432.578351000000000
 20
-133.174153999999990
 40
36.999999999999979
 50
5.963569999999989
 51
54.036430000000010
  0
ARC
  8
0
  6
CONTINUOUS
 62
256
 10
432.578351000000000
 20
-133.174153999999990
 40
27.499999999999986
 50
7.928141999999994
 51
52.071858000000006
  0
ARC
  8
0
  6
CONTINUOUS
 62
256
 10
461.301164000000030
 20
-129.174153999999990
 40
1.500000000000004
 50
187.928142000000150
 51
270.000000000000000
  0
ARC
  8
0
  6
CONTINUOUS
 62
256
 10
464.327366999999980
 20
-129.174153999999990
 40
1.500000000000000
 50
270.000000000000000
 51
7.180755999999549
  0
ARC
  8
0
  6
CONTINUOUS
 62
256
 10
470.869995000000020
 20
-129.174153999999990
 40
1.500000000000012
 50
185.963569999999780
 51
270.000000000000000
  0
LINE
  8
0
  6
CONTINUOUS
 62
256
 10
461.301164000000030
 20
-130.674153999999990
 11
464.327366999999980
 21
-130.674153999999990
  0
LINE
  8
0
  6
CONTINUOUS
 62
256
 10
470.869995000000020
 20
-130.674153999999990
 11
473.885130000000000
 21
-130.674153999999990
  0
ARC
  8
0
  6
CONTINUOUS
 62
256
 10
473.885130000000000
 20
-129.174153999999990
 40
1.500000000000000
 50
270.000000000000000
 51
5.531071999999735
  0
ARC
  8
0
  6
CONTINUOUS
 62
256
 10
444.988757000000020
 20
-103.678700000000010
 40
1.499999999999975
 50
329.999999999999490
 51
67.180756000000954
  0
LINE
  8
0
  6
CONTINUOUS
 62
256
 10
446.287796000000010
 20
-104.428700000000010
 11
444.774694000000010
 21
-107.049468000000000
  0
ARC
  8
0
  6
CONTINUOUS
 62
256
 10
443.475656000000010
 20
-106.299468000000000
 40
1.499999999999998
 50
247.928142000000830
 51
329.999999999999490
  0
ARC
  8
0
  6
CONTINUOUS
 62
256
 10
432.578351000000000
 20
-133.174153999999990
 40
33.500000000000000
 50
67.180756000000002
 51
112.819244000000000
  0
ARC
  8
0
  6
CONTINUOUS
 62
256
 10
432.578351000000000
 20
-133.174153999999990
 40
27.499999999999989
 50
67.928142000000008
 51
112.071857999999980
  0
ARC
  8
0
  6
CONTINUOUS
 62
256
 10
421.681045999999980
 20
-106.299468000000000
 40
1.499999999999975
 50
210.000000000000510
 51
292.071857999999110
  0
ARC
  8
0
  6
CONTINUOUS
 62
256
 10
420.167944999999970
 20
-103.678700000000010
 40
1.499999999999989
 50
112.819243999999050
 51
210.000000000000510
  0
LINE
  8
0
  6
CONTINUOUS
 62
256
 10
420.382007999999980
 20
-107.049468000000000
 11
418.868906999999980
 21
-104.428700000000010
  0
ARC
  8
0
  6
CONTINUOUS
 62
256
 10
432.578351000000000
 20
-133.174153999999990
 40
33.500000000000007
 50
127.180756000000020
 51
172.819244000000000
  0
ARC
  8
0
  6
CONTINUOUS
 62
256
 10
432.578351000000000
 20
-133.174153999999990
 40
37.000000000000000
 50
125.963569999999990
 51
174.036429999999970
  0
ARC
  8
0
  6
CONTINUOUS
 62
256
 10
409.968428000000020
 20
-102.012617000000010
 40
1.500000000000007
 50
305.963570000000860
 51
29.999999999999456
  0
ARC
  8
0
  6
CONTINUOUS
 62
256
 10
413.239741999999980
 20
-107.678700000000010
 40
1.500000000000025
 50
29.999999999999456
 51
127.180756000000090
  0
ARC
  8
0
  6
CONTINUOUS
 62
256
 10
432.578351000000000
 20
-133.174153999999990
 40
27.500000000000004
 50
127.928141999999990
 51
172.071857999999990
  0
ARC
  8
0
  6
CONTINUOUS
 62
256
 10
403.855538000000020
 20
-129.174153999999990
 40
1.500000000000000
 50
270.000000000000000
 51
352.071857999999850
  0
LINE
  8
0
  6
CONTINUOUS
 62
256
 10
416.051880999999980
 20
-109.549468000000000
 11
414.538779999999970
 21
-106.928700000000010
  0
ARC
  8
0
  6
CONTINUOUS
 62
256
 10
414.752842999999980
 20
-110.299468000000000
 40
1.500000000000018
 50
307.928142000000720
 51
29.999999999999456
  0
CIRCLE
  8
0
  6
CONTINUOUS
 62
256
 10
432.578351000000000
 20
-133.174153999999990
 40
5.000000000000000
  0
ARC
  8
0
  6
CONTINUOUS
 62
256
 10
424.531674000000010
 20
-127.236900000000010
 40
1.500000000000000
 50
323.578178000000040
 51
30.000000000000544
  0
ARC
  8
0
  6
CONTINUOUS
 62
256
 10
423.413200000000020
 20
-129.174153999999990
 40
1.500000000000000
 50
270.000000000000000
 51
336.421822000000080
  0
ARC
  8
0
  6
CONTINUOUS
 62
256
 10
418.043454999999990
 20
-115.998974000000000
 40
1.500000000000025
 50
29.999999999999456
 51
130.240347999999780
  0
ARC
  8
0
  6
CONTINUOUS
 62
256
 10
420.209033999999970
 20
-129.174153999999990
 40
1.500000000000028
 50
162.079787000000040
 51
270.000000000000000
  0
ARC
  8
0
  6
CONTINUOUS
 62
256
 10
413.493016000000010
 20
-129.174153999999990
 40
1.500000000000000
 50
270.000000000000000
 51
348.162995999999680
  0
ARC
  8
0
  6
CONTINUOUS
 62
256
 10
419.571581999999980
 20
-118.645769000000000
 40
1.499999999999989
 50
311.837003999999810
 51
30.000000000000544
  0
ARC
  8
0
  6
CONTINUOUS
 62
256
 10
410.436760999999990
 20
-129.174153999999990
 40
1.500000000000012
 50
169.759651999999760
 51
270.000000000000000
  0
ARC
  8
0
  6
CONTINUOUS
 62
256
 10
422.929591000000020
 20
-124.462011000000000
 40
1.499999999999975
 50
30.000000000000544
 51
137.920212999999820
  0
LINE
  8
0
  6
CONTINUOUS
 62
256
 10
420.870619999999970
 20
-117.895769000000000
 11
419.342492999999990
 21
-115.248974000000000
  0
ARC
  8
0
  6
CONTINUOUS
 62
256
 10
432.578351000000000
 20
-133.174153999999990
 40
14.500000000000012
 50
137.920213000000070
 51
162.079787000000070
  0
LINE
  8
0
  6
CONTINUOUS
 62
256
 10
420.209033999999970
 20
-130.674153999999990
 11
423.413200000000020
 21
-130.674153999999990
  0
LINE
  8
0
  6
CONTINUOUS
 62
256
 10
410.436760999999990
 20
-130.674153999999990
 11
413.493016000000010
 21
-130.674153999999990
  0
LINE
  8
0
  6
CONTINUOUS
 62
256
 10
425.830712000000010
 20
-126.486900000000010
 11
424.228629000000010
 21
-123.712011000000000
  0
ARC
  8
0
  6
CONTINUOUS
 62
256
 10
432.578351000000000
 20
-133.174153999999990
 40
24.000000000000004
 50
130.240347999999980
 51
169.759652000000020
  0
ARC
  8
0
  6
CONTINUOUS
 62
256
 10
432.578351000000000
 20
-133.174153999999990
 40
8.499999999999989
 50
143.578177999999950
 51
156.421821999999930
  0
ARC
  8
0
  6
CONTINUOUS
 62
256
 10
435.298907999999980
 20
-120.462011000000000
 40
1.499999999999975
 50
329.999999999999490
 51
77.920213000000885
  0
LINE
  8
0
  6
CONTINUOUS
 62
256
 10
436.597945999999980
 20
-121.212011000000000
 11
434.995862999999990
 21
-123.986900000000010
  0
ARC
  8
0
  6
CONTINUOUS
 62
256
 10
433.696824999999990
 20
-123.236900000000010
 40
1.500000000000001
 50
263.578178000000780
 51
329.999999999999490
  0
ARC
  8
0
  6
CONTINUOUS
 62
256
 10
432.578351000000000
 20
-133.174153999999990
 40
8.500000000000007
 50
83.578177999999994
 51
96.421822000000020
  0
ARC
  8
0
  6
CONTINUOUS
 62
256
 10
431.459877000000010
 20
-123.236900000000010
 40
1.499999999999975
 50
210.000000000000510
 51
276.421821999999220
  0
LINE
  8
0
  6
CONTINUOUS
 62
256
 10
430.160839000000010
 20
-123.986900000000010
 11
428.558756000000020
 21
-121.212011000000000
  0
ARC
  8
0
  6
CONTINUOUS
 62
256
 10
429.857794000000010
 20
-120.462011000000000
 40
1.500000000000002
 50
102.079786999999110
 51
210.000000000000510
  0
ARC
  8
0
  6
CONTINUOUS
 62
256
 10
432.578351000000000
 20
-133.174153999999990
 40
14.500000000000002
 50
77.920213000000032
 51
102.079786999999980
  0
ARC
  8
0
  6
CONTINUOUS
 62
256
 10
440.185044000000000
 20
-111.998974000000000
 40
1.499999999999975
 50
329.999999999999490
 51
70.240347999999329
  0
LINE
  8
0
  6
CONTINUOUS
 62
256
 10
441.484083000000000
 20
-112.748974000000000
 11
439.955955000000020
 21
-115.395769000000000
  0
ARC
  8
0
  6
CONTINUOUS
 62
256
 10
438.656917000000020
 20
-114.645769000000000
 40
1.500000000000007
 50
251.837003999999720
 51
329.999999999999490
  0
ARC
  8
0
  6
CONTINUOUS
 62
256
 10
432.578351000000000
 20
-133.174153999999990
 40
17.999999999999996
 50
71.837004000000007
 51
108.162996000000010
  0
ARC
  8
0
  6
CONTINUOUS
 62
256
 10
426.499784999999970
 20
-114.645769000000000
 40
1.499999999999975
 50
210.000000000000510
 51
288.162996000000310
  0
LINE
  8
0
  6
CONTINUOUS
 62
256
 10
425.200746999999980
 20
-115.395769000000000
 11
423.672619999999990
 21
-112.748974000000000
  0
ARC
  8
0
  6
CONTINUOUS
 62
256
 10
424.971657999999990
 20
-111.998974000000000
 40
1.500000000000012
 50
109.759652000000680
 51
210.000000000000510
  0
ARC
  8
0
  6
CONTINUOUS
 62
256
 10
432.578351000000000
 20
-133.174153999999990
 40
23.999999999999993
 50
70.240348000000012
 51
109.759651999999990
  0
ARC
  8
0
  6
CONTINUOUS
 62
256
 10
435.298907999999980
 20
-145.886295999999990
 40
1.499999999999989
 50
282.079786999999270
 51
29.999999999999456
  0
LINE
  8
0
  6
CONTINUOUS
 62
256
 10
436.597945999999980
 20
-145.136295999999990
 11
434.995862999999990
 21
-142.361408000000010
  0
ARC
  8
0
  6
CONTINUOUS
 62
256
 10
433.696824999999990
 20
-143.111408000000010
 40
1.500000000000025
 50
29.999999999999456
 51
96.421821999999253
  0
ARC
  8
0
  6
CONTINUOUS
 62
256
 10
432.578351000000000
 20
-133.174153999999990
 40
8.500000000000007
 50
263.578177999999980
 51
276.421822000000020
  0
ARC
  8
0
  6
CONTINUOUS
 62
256
 10
431.459877000000010
 20
-143.111408000000010
 40
1.500000000000001
 50
83.578178000000747
 51
150.000000000000540
  0
LINE
  8
0
  6
CONTINUOUS
 62
256
 10
430.160839000000010
 20
-142.361408000000010
 11
428.558756000000020
 21
-145.136295999999990
  0
ARC
  8
0
  6
CONTINUOUS
 62
256
 10
429.857794000000010
 20
-145.886295999999990
 40
1.500000000000025
 50
150.000000000000540
 51
257.920213000000730
  0
ARC
  8
0
  6
CONTINUOUS
 62
256
 10
432.578351000000000
 20
-133.174153999999990
 40
14.499999999999986
 50
257.920212999999990
 51
282.079786999999950
  0
ARC
  8
0
  6
CONTINUOUS
 62
256
 10
440.185044000000000
 20
-154.349333000000000
 40
1.500000000000012
 50
289.759652000000640
 51
30.000000000000544
  0
LINE
  8
0
  6
CONTINUOUS
 62
256
 10
441.484083000000000
 20
-153.599333000000000
 11
439.955955000000020
 21
-150.952538000000000
  0
ARC
  8
0
  6
CONTINUOUS
 62
256
 10
438.656917000000020
 20
-151.702538000000000
 40
1.500000000000025
 50
29.999999999999456
 51
108.162996000000290
  0
ARC
  8
0
  6
CONTINUOUS
 62
256
 10
432.578351000000000
 20
-133.174153999999990
 40
17.999999999999996
 50
251.837003999999980
 51
288.162995999999960
  0
ARC
  8
0
  6
CONTINUOUS
 62
256
 10
426.499784999999970
 20
-151.702538000000000
 40
1.500000000000007
 50
71.837003999999709
 51
150.000000000000540
  0
LINE
  8
0
  6
CONTINUOUS
 62
256
 10
425.200746999999980
 20
-150.952538000000000
 11
423.672619999999990
 21
-153.599333000000000
  0
ARC
  8
0
  6
CONTINUOUS
 62
256
 10
424.971657999999990
 20
-154.349333000000000
 40
1.499999999999975
 50
149.999999999999460
 51
250.240347999999300
  0
ARC
  8
0
  6
CONTINUOUS
 62
256
 10
432.578351000000000
 20
-133.174153999999990
 40
23.999999999999993
 50
250.240348000000010
 51
289.759652000000020
  0
ARC
  8
0
  6
CONTINUOUS
 62
256
 10
442.227110999999980
 20
-141.886295999999990
 40
1.499999999999975
 50
210.000000000000510
 51
317.920212999999420
  0
LINE
  8
0
  6
CONTINUOUS
 62
256
 10
440.928072999999980
 20
-142.636295999999990
 11
439.325989999999990
 21
-139.861408000000010
  0
ARC
  8
0
  6
CONTINUOUS
 62
256
 10
440.625027999999990
 20
-139.111408000000010
 40
1.500000000000009
 50
143.578177999999610
 51
210.000000000000510
  0
ARC
  8
0
  6
CONTINUOUS
 62
256
 10
432.578351000000000
 20
-133.174153999999990
 40
8.499999999999989
 50
323.578177999999920
 51
336.421821999999910
  0
ARC
  8
0
  6
CONTINUOUS
 62
256
 10
441.743502999999980
 20
-137.174153999999990
 40
1.500000000000000
 50
90.000000000000000
 51
156.421822000000110
  0
LINE
  8
0
  6
CONTINUOUS
 62
256
 10
441.743502999999980
 20
-135.674153999999990
 11
444.947668000000020
 21
-135.674153999999990
  0
ARC
  8
0
  6
CONTINUOUS
 62
256
 10
444.947668000000020
 20
-137.174153999999990
 40
1.500000000000028
 50
342.079787000000070
 51
90.000000000000000
  0
ARC
  8
0
  6
CONTINUOUS
 62
256
 10
432.578351000000000
 20
-133.174153999999990
 40
14.500000000000012
 50
317.920213000000050
 51
342.079786999999950
  0
ARC
  8
0
  6
CONTINUOUS
 62
256
 10
447.113248000000000
 20
-150.349333000000000
 40
1.499999999999975
 50
210.000000000000510
 51
310.240347999999810
  0
LINE
  8
0
  6
CONTINUOUS
 62
256
 10
445.814210000000000
 20
-151.099333000000000
 11
444.286082000000020
 21
-148.452538000000000
  0
ARC
  8
0
  6
CONTINUOUS
 62
256
 10
445.585120000000020
 20
-147.702538000000000
 40
1.499999999999989
 50
131.837003999999810
 51
210.000000000000510
  0
ARC
  8
0
  6
CONTINUOUS
 62
256
 10
432.578351000000000
 20
-133.174153999999990
 40
17.999999999999989
 50
311.837003999999920
 51
348.162996000000020
  0
ARC
  8
0
  6
CONTINUOUS
 62
256
 10
451.663685999999980
 20
-137.174153999999990
 40
1.500000000000000
 50
90.000000000000000
 51
168.162995999999680
  0
LINE
  8
0
  6
CONTINUOUS
 62
256
 10
451.663685999999980
 20
-135.674153999999990
 11
454.719941000000010
 21
-135.674153999999990
  0
ARC
  8
0
  6
CONTINUOUS
 62
256
 10
454.719941000000010
 20
-137.174153999999990
 40
1.500000000000012
 50
349.759651999999790
 51
90.000000000000000
  0
ARC
  8
0
  6
CONTINUOUS
 62
256
 10
432.578351000000000
 20
-133.174153999999990
 40
24.000000000000004
 50
310.240347999999980
 51
349.759652000000020
  0
ARC
  8
0
  6
CONTINUOUS
 62
256
 10
442.227110999999980
 20
-124.462011000000000
 40
1.499999999999994
 50
42.079787000000181
 51
149.999999999999460
  0
LINE
  8
0
  6
CONTINUOUS
 62
256
 10
440.928072999999980
 20
-123.712011000000000
 11
439.325989999999990
 21
-126.486900000000010
  0
ARC
  8
0
  6
CONTINUOUS
 62
256
 10
440.625027999999990
 20
-127.236900000000010
 40
1.499999999999975
 50
149.999999999999460
 51
216.421821999999960
  0
ARC
  8
0
  6
CONTINUOUS
 62
256
 10
432.578351000000000
 20
-133.174153999999990
 40
8.499999999999991
 50
23.578178000000058
 51
36.421822000000063
  0
ARC
  8
0
  6
CONTINUOUS
 62
256
 10
441.743502999999980
 20
-129.174153999999990
 40
1.499999999999979
 50
203.578177999999890
 51
270.000000000000000
  0
LINE
  8
0
  6
CONTINUOUS
 62
256
 10
441.743502999999980
 20
-130.674153999999990
 11
444.947668000000020
 21
-130.674153999999990
  0
ARC
  8
0
  6
CONTINUOUS
 62
256
 10
444.947668000000020
 20
-129.174153999999990
 40
1.500000000000000
 50
270.000000000000000
 51
17.920212999999968
  0
ARC
  8
0
  6
CONTINUOUS
 62
256
 10
432.578351000000000
 20
-133.174153999999990
 40
14.500000000000011
 50
17.920212999999947
 51
42.079786999999946
  0
ARC
  8
0
  6
CONTINUOUS
 62
256
 10
447.113248000000000
 20
-115.998974000000000
 40
1.499999999999991
 50
49.759652000000230
 51
150.000000000000540
  0
LINE
  8
0
  6
CONTINUOUS
 62
256
 10
445.814210000000000
 20
-115.248974000000000
 11
444.286082000000020
 21
-117.895769000000000
  0
ARC
  8
0
  6
CONTINUOUS
 62
256
 10
445.585120000000020
 20
-118.645769000000000
 40
1.499999999999975
 50
149.999999999999460
 51
228.162996000000190
  0
ARC
  8
0
  6
CONTINUOUS
 62
256
 10
432.578351000000000
 20
-133.174153999999990
 40
17.999999999999972
 50
11.837003999999983
 51
48.162996000000071
  0
ARC
  8
0
  6
CONTINUOUS
 62
256
 10
451.663685999999980
 20
-129.174153999999990
 40
1.500000000000000
 50
191.837004000000320
 51
270.000000000000000
  0
LINE
  8
0
  6
CONTINUOUS
 62
256
 10
451.663685999999980
 20
-130.674153999999990
 11
454.719941000000010
 21
-130.674153999999990
  0
ARC
  8
0
  6
CONTINUOUS
 62
256
 10
454.719941000000010
 20
-129.174153999999990
 40
1.500000000000000
 50
270.000000000000000
 51
10.240348000000250
  0
ARC
  8
0
  6
CONTINUOUS
 62
256
 10
432.578351000000000
 20
-133.174153999999990
 40
23.999999999999993
 50
10.240347999999988
 51
49.759652000000010
  0
ARC
  8
0
  6
CONTINUOUS
 62
256
 10
420.209033999999970
 20
-137.174153999999990
 40
1.500000000000000
 50
90.000000000000000
 51
197.920212999999960
  0
LINE
  8
0
  6
CONTINUOUS
 62
256
 10
420.209033999999970
 20
-135.674153999999990
 11
423.413200000000020
 21
-135.674153999999990
  0
ARC
  8
0
  6
CONTINUOUS
 62
256
 10
423.413200000000020
 20
-137.174153999999990
 40
1.499999999999979
 50
23.578177999999905
 51
90.000000000000000
  0
ARC
  8
0
  6
CONTINUOUS
 62
256
 10
432.578351000000000
 20
-133.174153999999990
 40
8.499999999999991
 50
203.578178000000070
 51
216.421822000000050
  0
ARC
  8
0
  6
CONTINUOUS
 62
256
 10
424.531674000000010
 20
-139.111408000000010
 40
1.499999999999975
 50
329.999999999999490
 51
36.421822000000404
  0
LINE
  8
0
  6
CONTINUOUS
 62
256
 10
425.830712000000010
 20
-139.861408000000010
 11
424.228629000000010
 21
-142.636295999999990
  0
ARC
  8
0
  6
CONTINUOUS
 62
256
 10
422.929591000000020
 20
-141.886295999999990
 40
1.500000000000003
 50
222.079787000000580
 51
329.999999999999490
  0
ARC
  8
0
  6
CONTINUOUS
 62
256
 10
432.578351000000000
 20
-133.174153999999990
 40
14.500000000000011
 50
197.920212999999930
 51
222.079786999999930
  0
ARC
  8
0
  6
CONTINUOUS
 62
256
 10
410.436760999999990
 20
-137.174153999999990
 40
1.500000000000000
 50
90.000000000000000
 51
190.240348000000240
  0
LINE
  8
0
  6
CONTINUOUS
 62
256
 10
410.436760999999990
 20
-135.674153999999990
 11
413.493016000000010
 21
-135.674153999999990
  0
ARC
  8
0
  6
CONTINUOUS
 62
256
 10
413.493016000000010
 20
-137.174153999999990
 40
1.500000000000000
 50
11.837004000000336
 51
90.000000000000000
  0
ARC
  8
0
  6
CONTINUOUS
 62
256
 10
432.578351000000000
 20
-133.174153999999990
 40
17.999999999999972
 50
191.837003999999980
 51
228.162996000000080
  0
ARC
  8
0
  6
CONTINUOUS
 62
256
 10
419.571581999999980
 20
-147.702538000000000
 40
1.499999999999975
 50
329.999999999999490
 51
48.162996000000220
  0
LINE
  8
0
  6
CONTINUOUS
 62
256
 10
420.870619999999970
 20
-148.452538000000000
 11
419.342492999999990
 21
-151.099333000000000
  0
ARC
  8
0
  6
CONTINUOUS
 62
256
 10
418.043454999999990
 20
-150.349333000000000
 40
1.499999999999991
 50
229.759652000000220
 51
329.999999999999490
  0
ARC
  8
0
  6
CONTINUOUS
 62
256
 10
432.578351000000000
 20
-133.174153999999990
 40
23.999999999999996
 50
190.240348000000040
 51
229.759652000000020
  0
ARC
  8
0
  6
CONTINUOUS
 62
256
 10
400.829335000000010
 20
-137.174153999999990
 40
1.500000000000000
 50
90.000000000000000
 51
187.180755999999550
  0
LINE
  8
0
  6
CONTINUOUS
 62
256
 10
400.829335000000010
 20
-135.674153999999990
 11
403.855538000000020
 21
-135.674153999999990
  0
ARC
  8
0
  6
CONTINUOUS
 62
256
 10
394.286706999999980
 20
-137.174153999999990
 40
1.500000000000012
 50
5.963569999999792
 51
90.000000000000000
  0
LINE
  8
0
  6
CONTINUOUS
 62
256
 10
391.271571999999990
 20
-135.674153999999990
 11
394.286706999999980
 21
-135.674153999999990
  0
LINE
  8
0
  6
CONTINUOUS
 62
256
 10
455.396803999999970
 20
-98.651433999999995
 11
453.889236999999980
 21
-101.262617000000010
  0
ARC
  8
0
  6
CONTINUOUS
 62
256
 10
456.695842000000030
 20
-99.401433999999995
 40
1.499999999999989
 50
54.468928000000517
 51
149.999999999999460
  0
ARC
  8
0
  6
CONTINUOUS
 62
256
 10
448.260071999999980
 20
-98.012617000000006
 40
1.499999999999999
 50
245.963570000000350
 51
329.999999999999490
  0
LINE
  8
0
  6
CONTINUOUS
 62
256
 10
451.066677000000030
 20
-96.151433999999995
 11
449.559109999999980
 21
-98.762617000000006
  0
ARC
  8
0
  6
CONTINUOUS
 62
256
 10
449.767638999999970
 20
-95.401433999999995
 40
1.499999999999975
 50
329.999999999999490
 51
65.531072000000222
  0
ARC
  8
0
  6
CONTINUOUS
 62
256
 10
432.578351000000000
 20
-133.174153999999990
 40
43.000000000000007
 50
65.531071999999980
 51
114.468928000000030
  0
ARC
  8
0
  6
CONTINUOUS
 62
256
 10
432.578351000000000
 20
-133.174153999999990
 40
37.000000000000000
 50
65.963570000000033
 51
114.036429999999970
  0
ARC
  8
0
  6
CONTINUOUS
 62
256
 10
416.896631000000010
 20
-98.012617000000006
 40
1.499999999999975
 50
210.000000000000510
 51
294.036429999999600
  0
LINE
  8
0
  6
CONTINUOUS
 62
256
 10
415.597593000000020
 20
-98.762617000000006
 11
414.090025000000030
 21
-96.151433999999995
  0
ARC
  8
0
  6
CONTINUOUS
 62
256
 10
415.389063000000020
 20
-95.401433999999995
 40
1.500000000000002
 50
114.468927999999780
 51
210.000000000000510
  0
ARC
  8
0
  6
CONTINUOUS
 62
256
 10
432.578351000000000
 20
-133.174153999999990
 40
43.000000000000014
 50
125.531072000000020
 51
174.468928000000010
  0
ARC
  8
0
  6
CONTINUOUS
 62
256
 10
408.460860000000030
 20
-99.401433999999995
 40
1.500000000000025
 50
29.999999999999456
 51
125.531071999999480
  0
ARC
  8
0
  6
CONTINUOUS
 62
256
 10
394.286706999999980
 20
-129.174153999999990
 40
1.500000000000000
 50
270.000000000000000
 51
354.036430000000220
  0
ARC
  8
0
  6
CONTINUOUS
 62
256
 10
400.829335000000010
 20
-129.174153999999990
 40
1.500000000000026
 50
172.819244000000450
 51
270.000000000000000
  0
LINE
  8
0
  6
CONTINUOUS
 62
256
 10
400.829335000000010
 20
-130.674153999999990
 11
403.855538000000020
 21
-130.674153999999990
  0
LINE
  8
0
  6
CONTINUOUS
 62
256
 10
411.267466000000010
 20
-101.262617000000010
 11
409.759898000000020
 21
-98.651433999999995
  0
LINE
  8
0
  6
CONTINUOUS
 62
256
 10
391.271571999999990
 20
-130.674153999999990
 11
394.286706999999980
 21
-130.674153999999990
  0
ARC
  8
0
  6
CONTINUOUS
 62
256
 10
432.578351000000000
 20
-133.174153999999990
 40
27.499999999999986
 50
187.928142000000010
 51
232.071858000000050
  0
ARC
  8
0
  6
CONTINUOUS
 62
256
 10
432.578351000000000
 20
-133.174153999999990
 40
17.999999999999989
 50
131.837003999999920
 51
168.162995999999940
  0
ARC
  8
0
  6
CONTINUOUS
 62
256
 10
391.271571999999990
 20
-137.174153999999990
 40
1.500000000000000
 50
90.000000000000000
 51
185.531071999999710
  0
ARC
  8
0
  6
CONTINUOUS
 62
256
 10
391.271571999999990
 20
-129.174153999999990
 40
1.499999999999977
 50
174.468928000000290
 51
270.000000000000000
  0
ARC
  8
0
  6
CONTINUOUS
 62
256
 10
673.178351000000020
 20
-133.174153999999990
 40
300.600000000000020
 50
180.000000000000000
 51
188.597082000000000
  0
ARC
  8
0
  6
CONTINUOUS
 62
256
 10
191.978351000000000
 20
-133.174153999999990
 40
300.600000000000020
 50
0.000000000000000
 51
8.597081999999999
  0
ARC
  8
0
  6
CONTINUOUS
 62
256
 10
382.481737000000010
 20
-89.225566000000001
 40
6.600000000000017
 50
135.000000000000170
 51
171.402918000000080
  0
ARC
  8
0
  6
CONTINUOUS
 62
256
 10
673.178351000000020
 20
-133.174153999999990
 40
300.600000000000020
 50
171.402918000000000
 51
180.000000000000000
  0
ARC
  8
0
  6
CONTINUOUS
 62
256
 10
482.674965999999980
 20
-89.225566000000001
 40
6.600000000000019
 50
8.597081999999919
 51
44.999999999999829
  0
ARC
  8
0
  6
CONTINUOUS
 62
256
 10
191.978351000000000
 20
-133.174153999999990
 40
300.600000000000020
 50
351.402918000000000
 51
0.000000000000000
  0
ARC
  8
0
  6
CONTINUOUS
 62
256
 10
482.674965999999980
 20
-177.122740999999990
 40
6.600000000000017
 50
315.000000000000170
 51
351.402917999999940
  0
LINE
  8
0
  6
CONTINUOUS
 62
256
 10
377.814832000000020
 20
-84.558661999999998
 11
384.881281000000000
 21
-77.492211999999995
  0
ARC
  8
0
  6
CONTINUOUS
 62
256
 10
403.690320999999980
 20
-96.301253000000003
 40
26.599999999999994
 50
96.051984999999974
 51
135.000000000000060
  0
LINE
  8
0
  6
CONTINUOUS
 62
256
 10
377.814832000000020
 20
-181.789646000000000
 11
384.881281000000000
 21
-188.856095000000010
  0
ARC
  8
0
  6
CONTINUOUS
 62
256
 10
403.690320999999980
 20
-170.047055000000000
 40
26.600000000000016
 50
224.999999999999940
 51
263.948015000000050
  0
LINE
  8
0
  6
CONTINUOUS
 62
256
 10
487.341869999999970
 20
-181.789646000000000
 11
480.275420999999990
 21
-188.856095000000010
  0
ARC
  8
0
  6
CONTINUOUS
 62
256
 10
432.578351000000000
 20
102.425846000000010
 40
300.600000000000020
 50
263.948015000000000
 51
276.051985000000000
  0
ARC
  8
0
  6
CONTINUOUS
 62
256
 10
461.466381000000010
 20
-170.047055000000000
 40
26.600000000000009
 50
276.051984999999950
 51
315.000000000000060
  0
ARC
  8
0
  6
CONTINUOUS
 62
256
 10
432.578351000000000
 20
-368.774154000000010
 40
300.600000000000020
 50
83.948014999999998
 51
96.051985000000002
  0
LINE
  8
0
  6
CONTINUOUS
 62
256
 10
487.341869999999970
 20
-84.558661999999998
 11
480.275420999999990
 21
-77.492211999999995
  0
ARC
  8
0
  6
CONTINUOUS
 62
256
 10
461.466381000000010
 20
-96.301253000000003
 40
26.600000000000016
 50
44.999999999999957
 51
83.948015000000026
  0
ARC
  8
0
  6
CONTINUOUS
 62
256
 10
403.690320999999980
 20
-170.047055000000000
 40
15.397000000000016
 50
224.999999999999910
 51
263.948015000000110
  0
LINE
  8
0
  6
CONTINUOUS
 62
256
 10
388.226932999999970
 20
-176.358312000000010
 11
392.802998000000000
 21
-180.934378000000010
  0
ARC
  8
0
  6
CONTINUOUS
 62
256
 10
432.578351000000000
 20
102.425846000000010
 40
289.397000000000050
 50
263.948015000000000
 51
270.000000000000000
  0
ARC
  8
0
  6
CONTINUOUS
 62
256
 10
673.178351000000020
 20
-133.174153999999990
 40
289.396999999999990
 50
172.102011000000030
 51
180.000000000000000
  0
ARC
  8
0
  6
CONTINUOUS
 62
256
 10
392.469574000000020
 20
-94.232635999999999
 40
5.999999999999989
 50
134.999999999999830
 51
172.102011000000000
  0
LINE
  8
0
  6
CONTINUOUS
 62
256
 10
388.226932999999970
 20
-89.989994999999993
 11
392.802998000000000
 21
-85.413929999999993
  0
ARC
  8
0
  6
CONTINUOUS
 62
256
 10
403.690320999999980
 20
-96.301253000000003
 40
15.397000000000000
 50
96.051984999999931
 51
135.000000000000090
  0
ARC
  8
0
  6
CONTINUOUS
 62
256
 10
432.578351000000000
 20
-368.774154000000010
 40
289.396999999999990
 50
90.000000000000000
 51
96.051985000000002
  0
ARC
  8
0
  6
CONTINUOUS
 62
256
 10
191.978351000000000
 20
-133.174153999999990
 40
289.397000000000050
 50
0.000000000000000
 51
7.897989000000000
  0
ARC
  8
0
  6
CONTINUOUS
 62
256
 10
472.687129000000030
 20
-94.232635999999999
 40
5.999999999999990
 50
7.897989000000010
 51
45.000000000000192
  0
LINE
  8
0
  6
CONTINUOUS
 62
256
 10
476.929769000000020
 20
-89.989994999999993
 11
472.353703999999990
 21
-85.413929999999993
  0
ARC
  8
0
  6
CONTINUOUS
 62
256
 10
461.466381000000010
 20
-96.301253000000003
 40
15.397000000000016
 50
44.999999999999929
 51
83.948015000000069
  0
ARC
  8
0
  6
CONTINUOUS
 62
256
 10
432.578351000000000
 20
-368.774154000000010
 40
289.396999999999990
 50
83.948014999999998
 51
90.000000000000000
  0
ARC
  8
0
  6
CONTINUOUS
 62
256
 10
191.978351000000000
 20
-133.174153999999990
 40
289.396999999999990
 50
352.102011000000000
 51
360.000000000000000
  0
ARC
  8
0
  6
CONTINUOUS
 62
256
 10
472.687129000000030
 20
-172.115671999999990
 40
5.999999999999989
 50
314.999999999999770
 51
352.102010999999950
  0
LINE
  8
0
  6
CONTINUOUS
 62
256
 10
476.929769000000020
 20
-176.358312000000010
 11
472.353703999999990
 21
-180.934378000000010
  0
ARC
  8
0
  6
CONTINUOUS
 62
256
 10
461.466381000000010
 20
-170.047055000000000
 40
15.397000000000000
 50
276.051984999999890
 51
314.999999999999940
  0
ARC
  8
0
  6
CONTINUOUS
 62
256
 10
432.578351000000000
 20
102.425846000000010
 40
289.396999999999990
 50
270.000000000000000
 51
276.051985000000000
  0
LINE
  8
0
  6
CONTINUOUS
 62
256
 10
402.585851999999990
 20
-69.674154000000001
 11
396.578351000000000
 21
-69.674154000000001
  0
LINE
  8
0
  6
CONTINUOUS
 62
256
 10
462.570850000000010
 20
-69.674154000000001
 11
468.578351000000000
 21
-69.674154000000001
  0
ARC
  8
0
  6
CONTINUOUS
 62
256
 10
401.578351000000000
 20
-42.307488999999997
 40
5.000000000000002
 50
96.032049000000001
 51
180.000000000000000
  0
LINE
  8
0
  6
CONTINUOUS
 62
256
 10
396.578351000000000
 20
-70.867850000000004
 11
396.578351000000000
 21
-42.307488999999997
  0
LINE
  8
0
  6
CONTINUOUS
 62
256
 10
468.578351000000000
 20
-70.867850000000004
 11
468.578351000000000
 21
-42.307488999999997
  0
ARC
  8
0
  6
CONTINUOUS
 62
256
 10
463.578351000000000
 20
-42.307488999999997
 40
5.000000000000000
 50
0.000000000000000
 51
83.967950999999999
  0
LINE
  8
0
  6
CONTINUOUS
 62
256
 10
435.078351000000000
 20
-35.174154000000001
 11
430.078351000000000
 21
-35.174154000000001
  0
LINE
  8
0
  6
CONTINUOUS
 62
256
 10
430.078351000000000
 20
-35.674156000000004
 11
430.078351000000000
 21
-35.174154000000001
  0
LINE
  8
0
  6
CONTINUOUS
 62
256
 10
435.078351000000000
 20
-35.684570999999998
 11
435.078351000000000
 21
-35.174154000000001
  0
ARC
  8
0
  6
CONTINUOUS
 62
256
 10
432.578351000000000
 20
-335.674153999999990
 40
300.000000000000000
 50
83.967950999999999
 51
96.032049000000001
  0
LINE
  8
0
  6
DASHDOT
 62
256
 10
498.583635000000020
 20
-133.174153999999990
 11
367.749123999999990
 21
-133.174153999999990
  0
LINE
  8
0
  6
DASHDOT
 62
256
 10
432.578351000000000
 20
-199.951807000000000
 11
432.578351000000000
 21
-21.468641999999999
  0
LINE
  8
0
  6
CONTINUOUS
 62
256
 10
368.578351000000000
 20
-96.174154000000001
 11
368.578351000000000
 21
-93.174154000000001
  0
LINE
  8
0
  6
CONTINUOUS
 62
256
 10
332.578351000000000
 20
-110.174154000000000
 11
332.578351000000000
 21
-124.174154000000000
  0
LINE
  8
0
  6
CONTINUOUS
 62
256
 10
368.578351000000000
 20
-93.174154000000001
 11
332.578351000000000
 21
-93.174154000000001
  0
LINE
  8
0
  6
CONTINUOUS
 62
256
 10
332.578351000000000
 20
-110.174154000000000
 11
332.578351000000000
 21
-93.174154000000001
  0
LINE
  8
0
  6
DASHDOT
 62
256
 10
329.090128999999990
 20
-110.174154000000000
 11
496.322771999999990
 21
-110.174154000000000
  0
LINE
  8
0
  6
CONTINUOUS
 62
256
 10
374.864153999999980
 20
-96.174154000000001
 11
332.578351000000000
 21
-96.174154000000001
  0
LINE
  8
0
  6
CONTINUOUS
 62
256
 10
372.713112000000020
 20
-124.174154000000000
 11
332.578351000000000
 21
-124.174154000000000
  0
LINE
  8
0
  6
CONTINUOUS
 62
256
 10
393.578351000000000
 20
-50.509466000000003
 11
383.578351000000000
 21
-50.509466000000003
  0
LINE
  8
0
  6
CONTINUOUS
 62
256
 10
383.578351000000000
 20
-67.674154000000001
 11
379.578351000000000
 21
-67.674154000000001
  0
LINE
  8
0
  6
CONTINUOUS
 62
256
 10
379.578351000000000
 20
-82.795141999999998
 11
379.578351000000000
 21
-67.674154000000001
  0
LINE
  8
0
  6
CONTINUOUS
 62
256
 10
383.578351000000000
 20
-78.795141999999998
 11
383.578351000000000
 21
-50.509466000000003
  0
LINE
  8
0
  6
CONTINUOUS
 62
256
 10
396.578351000000000
 20
-50.456412000000000
 11
393.578351000000000
 21
-50.509466000000003
  0
LINE
  8
0
  6
CONTINUOUS
 62
256
 10
481.578351000000000
 20
-49.383614000000001
 11
469.578351000000000
 21
-49.174154000000001
  0
LINE
  8
0
  6
CONTINUOUS
 62
256
 10
485.578351000000000
 20
-67.674154000000001
 11
481.578351000000000
 21
-67.674154000000001
  0
LINE
  8
0
  6
CONTINUOUS
 62
256
 10
469.578351000000000
 20
-49.165425999999997
 11
469.578351000000000
 21
-70.968350000000001
  0
LINE
  8
0
  6
CONTINUOUS
 62
256
 10
481.578351000000000
 20
-78.795141999999998
 11
481.578351000000000
 21
-49.383614000000001
  0
LINE
  8
0
  6
CONTINUOUS
 62
256
 10
485.578351000000000
 20
-67.674154000000001
 11
485.578351000000000
 21
-82.795141999999998
  0
LINE
  8
0
  6
CONTINUOUS
 62
256
 10
469.578351000000000
 20
-49.165425999999997
 11
468.578351000000000
 21
-49.183110999999997
  0
LINE
  8
0
  6
CONTINUOUS
 62
256
 10
469.578351000000000
 20
-197.174153999999990
 11
481.578351000000000
 21
-196.964693000000010
  0
LINE
  8
0
  6
CONTINUOUS
 62
256
 10
481.578351000000000
 20
-196.964693000000010
 11
481.578351000000000
 21
-187.553165000000010
  0
LINE
  8
0
  6
CONTINUOUS
 62
256
 10
393.578351000000000
 20
-195.838841000000000
 11
383.578351000000000
 21
-195.838841000000000
  0
LINE
  8
0
  6
CONTINUOUS
 62
256
 10
383.578351000000000
 20
-195.838841000000000
 11
383.578351000000000
 21
-187.455921999999990
  0
LINE
  8
0
  6
CONTINUOUS
 62
256
 10
397.461635000000000
 20
-195.907515999999990
 11
393.578351000000000
 21
-195.838841000000000
  0
LINE
  8
0
  6
CONTINUOUS
 62
256
 10
469.578351000000000
 20
-195.379956999999990
 11
469.578351000000000
 21
-197.182881000000010
  0
LINE
  8
0
  6
CONTINUOUS
 62
256
 10
469.578351000000000
 20
-197.182881000000010
 11
459.140476999999980
 21
-196.998290000000000
  0
TEXT
  8
0
  6
CONTINUOUS
 62
256
 10
556.763793945312500
 20
-236.958648681640620
 40
3.299999952316284
  1
1/1
 50
0.000002504478167
 41
0.850909097352304
  7
STANDARD1
  0
TEXT
  8
0
  6
CONTINUOUS
 62
256
 10
554.345825195312500
 20
-236.958648681640620
 40
3.299999952316284
  1
 
 50
0.000002504478167
 41
1.733333298293026
  7
STANDARD1
  0
TEXT
  8
0
  6
CONTINUOUS
 62
256
 10
541.295166015625000
 20
-236.958648681640620
 40
3.299999952316284
  1
SCALE
 50
0.000002504478167
 41
0.821052645401140
  7
STANDARD1
  0
TEXT
  8
0
  6
CONTINUOUS
 62
256
 10
538.043823242187500
 20
-236.958648681640620
 40
3.299999952316284
  1
 
 50
0.000002504478167
 41
1.733333298293026
  7
STANDARD1
  0
TEXT
  8
0
  6
CONTINUOUS
 62
256
 10
552.907043457031250
 20
-231.658645629882810
 40
3.299999952316284
  1
1/60
 50
0.000002504478167
 41
0.832000075658163
  7
STANDARD1
  0
TEXT
  8
0
  6
CONTINUOUS
 62
256
 10
549.115966796875000
 20
-231.658645629882810
 40
3.299999952316284
  1
ü`
 50
0.000002504478167
 41
1.176000019651471
  7
STANDARD1
  0
TEXT
  8
0
  6
CONTINUOUS
 62
256
 10
541.319824218750000
 20
-231.658645629882810
 40
3.299999952316284
  1
1/5
 50
0.000002504478167
 41
0.850909097352304
  7
STANDARD1
  0
TEXT
  8
0
  6
CONTINUOUS
 62
256
 10
538.043823242187500
 20
-231.658645629882810
 40
3.299999952316284
  1
 
 50
0.000002504478167
 41
1.733333298293026
  7
STANDARD1
  0
TEXT
  8
0
  6
CONTINUOUS
 62
256
 10
538.043823242187500
 20
-226.358642578125000
 40
3.299999952316284
  1
GM-SHYMB-RL
 50
0.000002504478167
 41
0.798139564113939
  7
STANDARD1
  0
TEXT
  8
0
  6
CONTINUOUS
 62
256
 10
543.869201660156250
 20
-221.058654785156250
 40
3.299999952316284
  1
0.4kW
 50
0.000002504478167
 41
0.821052645401140
  7
STANDARD1
  0
TEXT
  8
0
  6
CONTINUOUS
 62
256
 10
538.043823242187500
 20
-221.058654785156250
 40
3.299999952316284
  1
  
 50
0.000002504478167
 41
1.485714400175845
  7
STANDARD1
  0
TEXT
  8
0
  6
CONTINUOUS
 62
256
 10
543.863281250000000
 20
-215.758651733398440
 40
3.299999952316284
  1
SHY074
 50
0.000002504478167
 41
0.813913121261144
  7
STANDARD1
  0
TEXT
  8
0
  6
CONTINUOUS
 62
256
 10
538.043823242187500
 20
-215.758651733398440
 40
3.299999952316284
  1
  
 50
0.000002504478167
 41
1.485714400175845
  7
STANDARD1
  0
LINE
  8
0
  6
CONTINUOUS
 62
256
 10
56.156086000000002
 20
73.803652000000000
 11
41.055683000000002
 21
73.803652000000000
  0
LINE
  8
0
  6
CONTINUOUS
 62
256
 10
56.156086000000002
 20
145.232726000000010
 11
41.055683000000002
 21
145.232726000000010
  0
LINE
  8
0
  6
CONTINUOUS
 62
256
 10
55.855682999999999
 20
141.268981000000000
 11
41.055683000000002
 21
141.268981000000000
  0
LINE
  8
0
  6
CONTINUOUS
 62
256
 10
56.855682999999999
 20
73.518189000000007
 11
144.855683000000000
 21
73.518189000000007
  0
LINE
  8
0
  6
CONTINUOUS
 62
256
 10
56.855682999999999
 20
145.518189000000010
 11
144.855683000000000
 21
145.518189000000010
  0
LINE
  8
0
  6
CONTINUOUS
 62
256
 10
145.855683000000000
 20
144.518189000000010
 11
145.855683000000000
 21
74.518189000000007
  0
ARC
  8
0
  6
CONTINUOUS
 62
256
 10
144.855683000000000
 20
74.518189000000007
 40
1.000000000000000
 50
270.000000000000000
 51
0.000000000000000
  0
ARC
  8
0
  6
CONTINUOUS
 62
256
 10
144.855683000000000
 20
144.518189000000010
 40
1.000000000000000
 50
0.000000000000000
 51
90.000000000000000
  0
LINE
  8
0
  6
CONTINUOUS
 62
256
 10
55.855682999999999
 20
144.518189000000010
 11
55.855682999999999
 21
74.518189000000007
  0
ARC
  8
0
  6
CONTINUOUS
 62
256
 10
56.855682999999999
 20
144.518189000000010
 40
1.000000000000000
 50
90.000000000000000
 51
180.000000000000000
  0
ARC
  8
0
  6
CONTINUOUS
 62
256
 10
56.855682999999999
 20
74.518189000000007
 40
1.000000000000000
 50
180.000000000000000
 51
270.000000000000000
  0
LINE
  8
0
  6
CONTINUOUS
 62
256
 10
41.055683000000002
 20
51.018189000000000
 11
41.055683000000002
 21
109.518189000000010
  0
LINE
  8
0
  6
CONTINUOUS
 62
256
 10
41.055683000000002
 20
51.018189000000000
 11
138.055682999999990
 21
51.018189000000000
  0
LINE
  8
0
  6
DASHDOT
 62
256
 10
-163.448675000000010
 20
109.518189000000010
 11
250.984895999999990
 21
109.518189000000010
  0
LINE
  8
0
  6
CONTINUOUS
 62
256
 10
149.055682999999990
 20
163.258304000000010
 11
151.055682999999990
 21
161.605662000000000
  0
LINE
  8
0
  6
CONTINUOUS
 62
256
 10
147.055682999999990
 20
164.434090000000000
 11
149.055682999999990
 21
163.258304000000010
  0
LINE
  8
0
  6
CONTINUOUS
 62
256
 10
149.055682999999990
 20
163.258304000000010
 11
147.055682999999990
 21
161.605662000000000
  0
LINE
  8
0
  6
CONTINUOUS
 62
256
 10
151.055682999999990
 20
164.434090000000000
 11
149.055682999999990
 21
163.258304000000010
  0
POLYLINE
  8
0
  6
CONTINUOUS
 62
256
 66
1
 70
1
  0
VERTEX
  8
0
  6
CONTINUOUS
 62
256
 10
153.755682999999980
 20
161.441713999999990
  0
VERTEX
  8
0
  6
CONTINUOUS
 62
256
 10
153.665373817895160
 20
162.144670510558170
  0
VERTEX
  8
0
  6
CONTINUOUS
 62
256
 10
153.397916802803020
 20
162.820612796638130
  0
VERTEX
  8
0
  6
CONTINUOUS
 62
256
 10
152.963590177821940
 20
163.443564775258660
  0
VERTEX
  8
0
  6
CONTINUOUS
 62
256
 10
152.379084871576770
 20
163.989586751236830
  0
VERTEX
  8
0
  6
CONTINUOUS
 62
256
 10
151.666863095192100
 20
164.437695406248480
  0
VERTEX
  8
0
  6
CONTINUOUS
 62
256
 10
150.854295132115910
 20
164.770670175983720
  0
VERTEX
  8
0
  6
CONTINUOUS
 62
256
 10
149.972607513475790
 20
164.975715026776070
  0
VERTEX
  8
0
  6
CONTINUOUS
 62
256
 10
149.055682999999990
 20
165.044950199999990
  0
VERTEX
  8
0
  6
CONTINUOUS
 62
256
 10
148.138758486524180
 20
164.975715026776070
  0
VERTEX
  8
0
  6
CONTINUOUS
 62
256
 10
147.257070867884070
 20
164.770670175983720
  0
VERTEX
  8
0
  6
CONTINUOUS
 62
256
 10
146.444502904807880
 20
164.437695406248480
  0
VERTEX
  8
0
  6
CONTINUOUS
 62
256
 10
145.732281128423210
 20
163.989586751236830
  0
VERTEX
  8
0
  6
CONTINUOUS
 62
256
 10
145.147775822178030
 20
163.443564775258660
  0
VERTEX
  8
0
  6
CONTINUOUS
 62
256
 10
144.713449197196950
 20
162.820612796638130
  0
VERTEX
  8
0
  6
CONTINUOUS
 62
256
 10
144.445992182104820
 20
162.144670510558170
  0
VERTEX
  8
0
  6
CONTINUOUS
 62
256
 10
144.355683000000000
 20
161.441713999999990
  0
VERTEX
  8
0
  6
CONTINUOUS
 62
256
 10
144.445992182104820
 20
160.738757489441810
  0
VERTEX
  8
0
  6
CONTINUOUS
 62
256
 10
144.713449197196950
 20
160.062815203361850
  0
VERTEX
  8
0
  6
CONTINUOUS
 62
256
 10
145.147775822178030
 20
159.439863224741320
  0
VERTEX
  8
0
  6
CONTINUOUS
 62
256
 10
145.732281128423210
 20
158.893841248763150
  0
VERTEX
  8
0
  6
CONTINUOUS
 62
256
 10
146.444502904807880
 20
158.445732593751500
  0
VERTEX
  8
0
  6
CONTINUOUS
 62
256
 10
147.257070867884070
 20
158.112757824016260
  0
VERTEX
  8
0
  6
CONTINUOUS
 62
256
 10
148.138758486524180
 20
157.907712973223940
  0
VERTEX
  8
0
  6
CONTINUOUS
 62
256
 10
149.055682999999990
 20
157.838477799999990
  0
VERTEX
  8
0
  6
CONTINUOUS
 62
256
 10
149.972607513475790
 20
157.907712973223940
  0
VERTEX
  8
0
  6
CONTINUOUS
 62
256
 10
150.854295132115910
 20
158.112757824016260
  0
VERTEX
  8
0
  6
CONTINUOUS
 62
256
 10
151.666863095192100
 20
158.445732593751500
  0
VERTEX
  8
0
  6
CONTINUOUS
 62
256
 10
152.379084871576740
 20
158.893841248763150
  0
VERTEX
  8
0
  6
CONTINUOUS
 62
256
 10
152.963590177821940
 20
159.439863224741320
  0
VERTEX
  8
0
  6
CONTINUOUS
 62
256
 10
153.397916802803020
 20
160.062815203361850
  0
VERTEX
  8
0
  6
CONTINUOUS
 62
256
 10
153.665373817895160
 20
160.738757489441810
  0
SEQEND
  8
0
  6
CONTINUOUS
 62
256
  0
LINE
  8
0
  6
CONTINUOUS
 62
256
 10
138.055682999999990
 20
54.518189000000000
 11
41.055683000000002
 21
54.518189000000000
  0
LINE
  8
0
  6
CONTINUOUS
 62
256
 10
138.055682999999990
 20
53.518189000000000
 11
41.055683000000002
 21
53.518189000000000
  0
LINE
  8
0
  6
CONTINUOUS
 62
256
 10
138.055682999999990
 20
52.518189000000000
 11
41.055683000000002
 21
52.518189000000000
  0
LINE
  8
0
  6
CONTINUOUS
 62
256
 10
138.055682999999990
 20
52.018189000000000
 11
41.055683000000002
 21
52.018189000000000
  0
ARC
  8
0
  6
CONTINUOUS
 62
256
 10
238.455682999999990
 20
156.961394000000010
 40
2.599999999999994
 50
0.000000000000000
 51
54.999999999999801
  0
LINE
  8
0
  6
CONTINUOUS
 62
256
 10
230.221236000000000
 20
165.901230000000000
 11
239.946981999999990
 21
159.091189000000010
  0
ARC
  8
0
  6
CONTINUOUS
 62
256
 10
218.749707000000000
 20
149.518189000000010
 40
20.000000000000004
 50
55.000000000000050
 51
90.000000000000000
  0
LINE
  8
0
  6
CONTINUOUS
 62
256
 10
241.055682999999990
 20
109.518189000000010
 11
241.055682999999990
 21
156.961394000000010
  0
LINE
  8
0
  6
CONTINUOUS
 62
256
 10
138.055682999999990
 20
169.518189000000010
 11
218.749707000000000
 21
169.518189000000010
  0
LINE
  8
0
  6
CONTINUOUS
 62
256
 10
41.055683000000002
 20
168.018189000000010
 11
41.055683000000002
 21
109.518189000000010
  0
LINE
  8
0
  6
CONTINUOUS
 62
256
 10
41.055683000000002
 20
168.018189000000010
 11
138.055682999999990
 21
168.018189000000010
  0
LINE
  8
0
  6
CONTINUOUS
 62
256
 10
148.055682999999990
 20
144.518189000000010
 11
148.055682999999990
 21
109.518189000000010
  0
ARC
  8
0
  6
CONTINUOUS
 62
256
 10
141.055682999999990
 20
150.518189000000010
 40
3.000000000000000
 50
180.000000000000000
 51
270.000000000000000
  0
LINE
  8
0
  6
CONTINUOUS
 62
256
 10
141.055682999999990
 20
147.518189000000010
 11
145.055682999999990
 21
147.518189000000010
  0
ARC
  8
0
  6
CONTINUOUS
 62
256
 10
145.055682999999990
 20
144.518189000000010
 40
3.000000000000000
 50
0.000000000000000
 51
90.000000000000000
  0
LINE
  8
0
  6
CONTINUOUS
 62
256
 10
138.055682999999990
 20
150.518189000000010
 11
138.055682999999990
 21
169.518189000000010
  0
LINE
  8
0
  6
CONTINUOUS
 62
256
 10
148.055682999999990
 20
141.268981000000000
 11
145.855683000000000
 21
141.268981000000000
  0
LINE
  8
0
  6
CONTINUOUS
 62
256
 10
147.969347000000000
 20
145.232726000000010
 11
145.555281000000010
 21
145.232726000000010
  0
LINE
  8
0
  6
CONTINUOUS
 62
256
 10
146.958676000000000
 20
146.837374000000010
 11
41.055683000000002
 21
146.837374000000010
  0
LINE
  8
0
  6
CONTINUOUS
 62
256
 10
138.055682999999990
 20
154.883975999999990
 11
41.055683000000002
 21
154.883975999999990
  0
LINE
  8
0
  6
CONTINUOUS
 62
256
 10
138.055682999999990
 20
159.833722999999990
 11
41.055683000000002
 21
159.833722999999990
  0
LINE
  8
0
  6
CONTINUOUS
 62
256
 10
138.055682999999990
 20
164.518189000000010
 11
41.055683000000002
 21
164.518189000000010
  0
LINE
  8
0
  6
CONTINUOUS
 62
256
 10
138.055682999999990
 20
165.518189000000010
 11
41.055683000000002
 21
165.518189000000010
  0
LINE
  8
0
  6
CONTINUOUS
 62
256
 10
138.055682999999990
 20
167.018189000000010
 11
41.055683000000002
 21
167.018189000000010
  0
LINE
  8
0
  6
CONTINUOUS
 62
256
 10
138.055682999999990
 20
166.518189000000010
 11
41.055683000000002
 21
166.518189000000010
  0
LINE
  8
0
  6
CONTINUOUS
 62
256
 10
148.055682999999990
 20
129.518189000000010
 11
145.855683000000000
 21
129.518189000000010
  0
LINE
  8
0
  6
CONTINUOUS
 62
256
 10
55.855682999999999
 20
129.518189000000010
 11
41.055683000000002
 21
129.518189000000010
  0
LINE
  8
0
  6
CONTINUOUS
 62
256
 10
148.055682999999990
 20
135.710123000000010
 11
145.855683000000000
 21
135.710123000000010
  0
LINE
  8
0
  6
CONTINUOUS
 62
256
 10
55.855682999999999
 20
135.710123000000010
 11
41.055683000000002
 21
135.710123000000010
  0
LINE
  8
0
  6
CONTINUOUS
 62
256
 10
55.855682999999999
 20
83.326255000000003
 11
41.055683000000002
 21
83.326255000000003
  0
LINE
  8
0
  6
CONTINUOUS
 62
256
 10
148.055682999999990
 20
134.348242000000000
 11
145.855683000000000
 21
134.348242000000000
  0
LINE
  8
0
  6
CONTINUOUS
 62
256
 10
55.855682999999999
 20
89.518189000000007
 11
41.055683000000002
 21
89.518189000000007
  0
LINE
  8
0
  6
CONTINUOUS
 62
256
 10
55.855682999999999
 20
134.348242000000000
 11
41.055683000000002
 21
134.348242000000000
  0
LINE
  8
0
  6
CONTINUOUS
 62
256
 10
55.855682999999999
 20
79.235754999999997
 11
41.055683000000002
 21
79.235754999999997
  0
LINE
  8
0
  6
CONTINUOUS
 62
256
 10
148.055682999999990
 20
139.800623000000000
 11
145.855683000000000
 21
139.800623000000000
  0
LINE
  8
0
  6
CONTINUOUS
 62
256
 10
55.855682999999999
 20
84.688136000000000
 11
41.055683000000002
 21
84.688136000000000
  0
LINE
  8
0
  6
CONTINUOUS
 62
256
 10
55.855682999999999
 20
139.800623000000000
 11
41.055683000000002
 21
139.800623000000000
  0
LINE
  8
0
  6
CONTINUOUS
 62
256
 10
148.055682999999990
 20
89.518189000000007
 11
145.855683000000000
 21
89.518189000000007
  0
LINE
  8
0
  6
CONTINUOUS
 62
256
 10
148.055682999999990
 20
84.688136000000000
 11
145.855683000000000
 21
84.688136000000000
  0
LINE
  8
0
  6
CONTINUOUS
 62
256
 10
148.055682999999990
 20
83.326255000000003
 11
145.855683000000000
 21
83.326255000000003
  0
LINE
  8
0
  6
CONTINUOUS
 62
256
 10
148.055682999999990
 20
79.235754999999997
 11
145.855683000000000
 21
79.235754999999997
  0
LINE
  8
0
  6
CONTINUOUS
 62
256
 10
55.855682999999999
 20
77.767397000000003
 11
41.055683000000002
 21
77.767397000000003
  0
LINE
  8
0
  6
CONTINUOUS
 62
256
 10
147.969347000000000
 20
73.803652000000000
 11
145.555281000000010
 21
73.803652000000000
  0
LINE
  8
0
  6
CONTINUOUS
 62
256
 10
146.958676000000000
 20
72.199004000000002
 11
41.055683000000002
 21
72.199004000000002
  0
LINE
  8
0
  6
CONTINUOUS
 62
256
 10
138.055682999999990
 20
64.152401999999995
 11
41.055683000000002
 21
64.152401999999995
  0
LINE
  8
0
  6
CONTINUOUS
 62
256
 10
138.055682999999990
 20
59.202655000000000
 11
41.055683000000002
 21
59.202655000000000
  0
LINE
  8
0
  6
CONTINUOUS
 62
256
 10
148.055682999999990
 20
74.518189000000007
 11
148.055682999999990
 21
109.518189000000010
  0
ARC
  8
0
  6
CONTINUOUS
 62
256
 10
141.055682999999990
 20
68.518189000000007
 40
3.000000000000000
 50
90.000000000000000
 51
180.000000000000000
  0
LINE
  8
0
  6
CONTINUOUS
 62
256
 10
141.055682999999990
 20
71.518189000000007
 11
145.055682999999990
 21
71.518189000000007
  0
ARC
  8
0
  6
CONTINUOUS
 62
256
 10
145.055682999999990
 20
74.518189000000007
 40
3.000000000000000
 50
270.000000000000000
 51
0.000000000000000
  0
LINE
  8
0
  6
CONTINUOUS
 62
256
 10
138.055682999999990
 20
68.518189000000007
 11
138.055682999999990
 21
49.518189000000000
  0
ARC
  8
0
  6
CONTINUOUS
 62
256
 10
238.455682999999990
 20
62.074984000000001
 40
2.600000000000001
 50
305.000000000000110
 51
0.000000000000000
  0
LINE
  8
0
  6
CONTINUOUS
 62
256
 10
230.221236000000000
 20
53.135148000000001
 11
239.946981999999990
 21
59.945188999999999
  0
ARC
  8
0
  6
CONTINUOUS
 62
256
 10
218.749707000000000
 20
69.518189000000007
 40
20.000000000000000
 50
270.000000000000000
 51
304.999999999999940
  0
LINE
  8
0
  6
CONTINUOUS
 62
256
 10
241.055682999999990
 20
109.518189000000010
 11
241.055682999999990
 21
62.074984000000001
  0
LINE
  8
0
  6
CONTINUOUS
 62
256
 10
138.055682999999990
 20
49.518189000000000
 11
218.749707000000000
 21
49.518189000000000
  0
LINE
  8
0
  6
CONTINUOUS
 62
256
 10
149.055682999999990
 20
55.778073999999997
 11
151.055682999999990
 21
57.430715999999997
  0
LINE
  8
0
  6
CONTINUOUS
 62
256
 10
147.055682999999990
 20
54.602288000000001
 11
149.055682999999990
 21
55.778073999999997
  0
LINE
  8
0
  6
CONTINUOUS
 62
256
 10
149.055682999999990
 20
55.778073999999997
 11
147.055682999999990
 21
57.430715999999997
  0
LINE
  8
0
  6
CONTINUOUS
 62
256
 10
151.055682999999990
 20
54.602288000000001
 11
149.055682999999990
 21
55.778073999999997
  0
POLYLINE
  8
0
  6
CONTINUOUS
 62
256
 66
1
 70
1
  0
VERTEX
  8
0
  6
CONTINUOUS
 62
256
 10
153.755682999999980
 20
57.594664000000002
  0
VERTEX
  8
0
  6
CONTINUOUS
 62
256
 10
153.665373817895160
 20
58.297620510558168
  0
VERTEX
  8
0
  6
CONTINUOUS
 62
256
 10
153.397916802803020
 20
58.973562796638141
  0
VERTEX
  8
0
  6
CONTINUOUS
 62
256
 10
152.963590177821940
 20
59.596514775258662
  0
VERTEX
  8
0
  6
CONTINUOUS
 62
256
 10
152.379084871576770
 20
60.142536751236840
  0
VERTEX
  8
0
  6
CONTINUOUS
 62
256
 10
151.666863095192100
 20
60.590645406248491
  0
VERTEX
  8
0
  6
CONTINUOUS
 62
256
 10
150.854295132115910
 20
60.923620175983736
  0
VERTEX
  8
0
  6
CONTINUOUS
 62
256
 10
149.972607513475790
 20
61.128665026776062
  0
VERTEX
  8
0
  6
CONTINUOUS
 62
256
 10
149.055682999999990
 20
61.197900199999992
  0
VERTEX
  8
0
  6
CONTINUOUS
 62
256
 10
148.138758486524180
 20
61.128665026776062
  0
VERTEX
  8
0
  6
CONTINUOUS
 62
256
 10
147.257070867884070
 20
60.923620175983736
  0
VERTEX
  8
0
  6
CONTINUOUS
 62
256
 10
146.444502904807880
 20
60.590645406248491
  0
VERTEX
  8
0
  6
CONTINUOUS
 62
256
 10
145.732281128423210
 20
60.142536751236840
  0
VERTEX
  8
0
  6
CONTINUOUS
 62
256
 10
145.147775822178030
 20
59.596514775258662
  0
VERTEX
  8
0
  6
CONTINUOUS
 62
256
 10
144.713449197196950
 20
58.973562796638141
  0
VERTEX
  8
0
  6
CONTINUOUS
 62
256
 10
144.445992182104820
 20
58.297620510558168
  0
VERTEX
  8
0
  6
CONTINUOUS
 62
256
 10
144.355683000000000
 20
57.594664000000002
  0
VERTEX
  8
0
  6
CONTINUOUS
 62
256
 10
144.445992182104820
 20
56.891707489441835
  0
VERTEX
  8
0
  6
CONTINUOUS
 62
256
 10
144.713449197196950
 20
56.215765203361862
  0
VERTEX
  8
0
  6
CONTINUOUS
 62
256
 10
145.147775822178030
 20
55.592813224741342
  0
VERTEX
  8
0
  6
CONTINUOUS
 62
256
 10
145.732281128423210
 20
55.046791248763164
  0
VERTEX
  8
0
  6
CONTINUOUS
 62
256
 10
146.444502904807880
 20
54.598682593751512
  0
VERTEX
  8
0
  6
CONTINUOUS
 62
256
 10
147.257070867884070
 20
54.265707824016268
  0
VERTEX
  8
0
  6
CONTINUOUS
 62
256
 10
148.138758486524180
 20
54.060662973223941
  0
VERTEX
  8
0
  6
CONTINUOUS
 62
256
 10
149.055682999999990
 20
53.991427800000011
  0
VERTEX
  8
0
  6
CONTINUOUS
 62
256
 10
149.972607513475790
 20
54.060662973223941
  0
VERTEX
  8
0
  6
CONTINUOUS
 62
256
 10
150.854295132115910
 20
54.265707824016268
  0
VERTEX
  8
0
  6
CONTINUOUS
 62
256
 10
151.666863095192100
 20
54.598682593751512
  0
VERTEX
  8
0
  6
CONTINUOUS
 62
256
 10
152.379084871576740
 20
55.046791248763164
  0
VERTEX
  8
0
  6
CONTINUOUS
 62
256
 10
152.963590177821940
 20
55.592813224741342
  0
VERTEX
  8
0
  6
CONTINUOUS
 62
256
 10
153.397916802803020
 20
56.215765203361862
  0
VERTEX
  8
0
  6
CONTINUOUS
 62
256
 10
153.665373817895160
 20
56.891707489441835
  0
SEQEND
  8
0
  6
CONTINUOUS
 62
256
  0
ARC
  8
0
  6
CONTINUOUS
 62
256
 10
-90.944316999999998
 20
45.518189000000000
 40
4.000000000000000
 50
0.000000000000000
 51
180.000000000000000
  0
LINE
  8
0
  6
CONTINUOUS
 62
256
 10
-86.944316999999998
 20
45.518189000000000
 11
-86.944316999999998
 21
9.518189000000000
  0
LINE
  8
0
  6
CONTINUOUS
 62
256
 10
-94.944316999999998
 20
45.518189000000000
 11
-94.944316999999998
 21
9.518189000000000
  0
LINE
  8
0
  6
CONTINUOUS
 62
256
 10
-76.444316999999998
 20
54.518189000000000
 11
-76.444316999999998
 21
56.518189000000000
  0
LINE
  8
0
  6
CONTINUOUS
 62
256
 10
-90.944316999999998
 20
54.518189000000000
 11
-76.444316999999998
 21
54.518189000000000
  0
LINE
  8
0
  6
CONTINUOUS
 62
256
 10
-90.944316999999998
 20
54.518189000000000
 11
-76.444316999999998
 21
54.518189000000000
  0
LINE
  8
0
  6
CONTINUOUS
 62
256
 10
-76.944316999999998
 20
54.518189000000000
 11
-76.944316999999998
 21
9.518189000000000
  0
LINE
  8
0
  6
CONTINUOUS
 62
256
 10
-105.444317000000000
 20
54.518189000000000
 11
-105.444317000000000
 21
56.518189000000000
  0
LINE
  8
0
  6
CONTINUOUS
 62
256
 10
-90.944316999999998
 20
54.518189000000000
 11
-105.444317000000000
 21
54.518189000000000
  0
LINE
  8
0
  6
CONTINUOUS
 62
256
 10
-90.944316999999998
 20
54.518189000000000
 11
-105.444317000000000
 21
54.518189000000000
  0
LINE
  8
0
  6
CONTINUOUS
 62
256
 10
-104.944317000000000
 20
54.518189000000000
 11
-104.944317000000000
 21
9.518189000000000
  0
LINE
  8
0
  6
CONTINUOUS
 62
256
 10
-94.944316999999998
 20
45.518189000000000
 11
-86.944316999999998
 21
45.518189000000000
  0
LINE
  8
0
  6
CONTINUOUS
 62
256
 10
-76.944316999999998
 20
9.518189000000000
 11
-104.944317000000000
 21
9.518189000000000
  0
ARC
  8
0
  6
CONTINUOUS
 62
256
 10
26.055682999999998
 20
149.702920000000010
 40
5.000000000000000
 50
90.000000000000000
 51
180.000000000000000
  0
ARC
  8
0
  6
CONTINUOUS
 62
256
 10
26.055682999999998
 20
156.614496000000000
 40
5.000000000000000
 50
90.000000000000000
 51
180.000000000000000
  0
ARC
  8
0
  6
CONTINUOUS
 62
256
 10
16.055682999999998
 20
150.066976000000010
 40
5.000000000000004
 50
287.457603000000010
 51
0.000000000000000
  0
ARC
  8
0
  6
CONTINUOUS
 62
256
 10
16.055682999999998
 20
156.614496000000000
 40
5.000000000000004
 50
287.457603000000010
 51
0.000000000000000
  0
LINE
  8
0
  6
CONTINUOUS
 62
256
 10
31.055682999999998
 20
154.702920000000010
 11
26.055682999999998
 21
154.702920000000010
  0
LINE
  8
0
  6
CONTINUOUS
 62
256
 10
31.055682999999998
 20
161.614496000000000
 11
26.055682999999998
 21
161.614496000000000
  0
LINE
  8
0
  6
CONTINUOUS
 62
256
 10
34.055683000000002
 20
151.702920000000010
 11
34.055683000000002
 21
109.518189000000010
  0
LINE
  8
0
  6
CONTINUOUS
 62
256
 10
31.055682999999998
 20
148.519455999999990
 11
26.055682999999998
 21
148.519455999999990
  0
LINE
  8
0
  6
CONTINUOUS
 62
256
 10
34.055683000000002
 20
165.018189000000010
 11
34.055683000000002
 21
164.614496000000000
  0
LINE
  8
0
  6
CONTINUOUS
 62
256
 10
34.055683000000002
 20
165.018189000000010
 11
34.055683000000002
 21
164.614496000000000
  0
LINE
  8
0
  6
CONTINUOUS
 62
256
 10
34.055683000000002
 20
165.018189000000010
 11
34.055683000000002
 21
166.018189000000010
  0
ARC
  8
0
  6
CONTINUOUS
 62
256
 10
31.055682999999998
 20
145.519455999999990
 40
3.000000000000004
 50
0.000000000000000
 51
90.000000000000000
  0
ARC
  8
0
  6
CONTINUOUS
 62
256
 10
31.055682999999998
 20
164.614496000000000
 40
3.000000000000000
 50
270.000000000000000
 51
0.000000000000000
  0
ARC
  8
0
  6
CONTINUOUS
 62
256
 10
31.055682999999998
 20
151.702920000000010
 40
3.000000000000004
 50
0.000000000000000
 51
90.000000000000000
  0
ARC
  8
0
  6
CONTINUOUS
 62
256
 10
37.055683000000002
 20
166.018189000000010
 40
3.000000000000000
 50
90.000000000000000
 51
180.000000000000000
  0
ARC
  8
0
  6
CONTINUOUS
 62
256
 10
26.055682999999998
 20
62.421881999999997
 40
5.000000000000000
 50
180.000000000000000
 51
270.000000000000000
  0
ARC
  8
0
  6
CONTINUOUS
 62
256
 10
26.055682999999998
 20
69.333457999999993
 40
5.000000000000000
 50
180.000000000000000
 51
270.000000000000000
  0
ARC
  8
0
  6
CONTINUOUS
 62
256
 10
16.055682999999998
 20
62.421881999999997
 40
5.000000000000000
 50
0.000000000000000
 51
72.542397000000022
  0
ARC
  8
0
  6
CONTINUOUS
 62
256
 10
16.055682999999998
 20
68.969402000000002
 40
5.000000000000000
 50
0.000000000000000
 51
72.542397000000022
  0
LINE
  8
0
  6
CONTINUOUS
 62
256
 10
31.055682999999998
 20
64.333457999999993
 11
26.055682999999998
 21
64.333457999999993
  0
LINE
  8
0
  6
CONTINUOUS
 62
256
 10
31.055682999999998
 20
57.421881999999997
 11
26.055682999999998
 21
57.421881999999997
  0
LINE
  8
0
  6
CONTINUOUS
 62
256
 10
34.055683000000002
 20
54.018189000000000
 11
34.055683000000002
 21
54.421881999999997
  0
LINE
  8
0
  6
CONTINUOUS
 62
256
 10
34.055683000000002
 20
67.333457999999993
 11
34.055683000000002
 21
109.518189000000010
  0
LINE
  8
0
  6
CONTINUOUS
 62
256
 10
31.055682999999998
 20
70.516921999999994
 11
26.055682999999998
 21
70.516921999999994
  0
LINE
  8
0
  6
CONTINUOUS
 62
256
 10
34.055683000000002
 20
54.018189000000000
 11
34.055683000000002
 21
53.018189000000000
  0
ARC
  8
0
  6
CONTINUOUS
 62
256
 10
31.055682999999998
 20
73.516921999999994
 40
3.000000000000000
 50
270.000000000000000
 51
0.000000000000000
  0
ARC
  8
0
  6
CONTINUOUS
 62
256
 10
31.055682999999998
 20
67.333457999999993
 40
3.000000000000000
 50
270.000000000000000
 51
0.000000000000000
  0
ARC
  8
0
  6
CONTINUOUS
 62
256
 10
37.055683000000002
 20
53.018189000000000
 40
3.000000000000000
 50
180.000000000000000
 51
270.000000000000000
  0
LINE
  8
0
  6
CONTINUOUS
 62
256
 10
8.055683000000000
 20
158.518189000000010
 11
8.265143999999999
 21
146.518189000000010
  0
LINE
  8
0
  6
CONTINUOUS
 62
256
 10
-48.444316999999998
 20
162.518189000000010
 11
-48.444316999999998
 21
158.518189000000010
  0
LINE
  8
0
  6
CONTINUOUS
 62
256
 10
-151.944317000000010
 20
158.518189000000010
 11
-134.016929000000000
 21
158.518189000000010
  0
LINE
  8
0
  6
CONTINUOUS
 62
256
 10
-133.444317000000010
 20
162.518189000000010
 11
-133.444317000000010
 21
158.518189000000010
  0
LINE
  8
0
  6
CONTINUOUS
 62
256
 10
-48.444316999999998
 20
162.518189000000010
 11
-113.944317000000000
 21
162.518189000000010
  0
LINE
  8
0
  6
CONTINUOUS
 62
256
 10
-133.444317000000010
 20
162.518189000000010
 11
-113.944317000000000
 21
162.518189000000010
  0
LINE
  8
0
  6
CONTINUOUS
 62
256
 10
-113.944317000000000
 20
56.518189000000000
 11
-133.444317000000010
 21
56.518189000000000
  0
LINE
  8
0
  6
CONTINUOUS
 62
256
 10
-133.444317000000010
 20
60.518189000000000
 11
-133.444317000000010
 21
56.518189000000000
  0
LINE
  8
0
  6
CONTINUOUS
 62
256
 10
8.273871000000000
 20
146.518189000000010
 11
6.929831000000000
 21
70.518189000000007
  0
LINE
  8
0
  6
CONTINUOUS
 62
256
 10
6.929831000000000
 20
70.518189000000007
 11
6.929831000000000
 21
60.518189000000000
  0
LINE
  8
0
  6
CONTINUOUS
 62
256
 10
-48.444316999999998
 20
60.518189000000000
 11
-48.444316999999998
 21
56.518189000000000
  0
LINE
  8
0
  6
CONTINUOUS
 62
256
 10
-113.944317000000000
 20
56.518189000000000
 11
-48.444316999999998
 21
56.518189000000000
  0
LINE
  8
0
  6
CONTINUOUS
 62
256
 10
-152.153777999999990
 20
146.518189000000010
 11
-151.944317000000010
 21
158.518189000000010
  0
LINE
  8
0
  6
CONTINUOUS
 62
256
 10
-150.818465000000000
 20
60.518189000000000
 11
-134.016929000000000
 21
60.518189000000000
  0
LINE
  8
0
  6
CONTINUOUS
 62
256
 10
-150.818465000000000
 20
70.518189000000007
 11
-150.818465000000000
 21
60.518189000000000
  0
LINE
  8
0
  6
CONTINUOUS
 62
256
 10
-152.162505000000010
 20
146.518189000000010
 11
-150.818465000000000
 21
70.518189000000007
  0
LINE
  8
0
  6
CONTINUOUS
 62
256
 10
-134.016929000000000
 20
158.518189000000010
 11
8.055683000000000
 21
158.518189000000010
  0
LINE
  8
0
  6
CONTINUOUS
 62
256
 10
-134.016929000000000
 20
60.518189000000000
 11
6.929831000000000
 21
60.518189000000000
  0
LINE
  8
0
  6
CONTINUOUS
 62
256
 10
8.265143999999999
 20
146.518189000000010
 11
-88.153778000000003
 21
146.518189000000010
  0
LINE
  8
0
  6
CONTINUOUS
 62
256
 10
-88.153778000000003
 20
146.518189000000010
 11
-152.162505000000010
 21
146.518189000000010
  0
ARC
  8
0
  6
CONTINUOUS
 62
256
 10
8.929831000000000
 20
69.518189000000007
 40
2.000000000000000
 50
90.000000000000000
 51
180.000000000000000
  0
ARC
  8
0
  6
CONTINUOUS
 62
256
 10
11.055683000000000
 20
147.518189000000010
 40
2.999999999999997
 50
199.471220999999870
 51
270.000000000000000
  0
ARC
  8
0
  6
CONTINUOUS
 62
256
 10
14.555683000000000
 20
68.518189000000007
 40
3.000000000000002
 50
0.000000000000000
 51
90.000000000000000
  0
LINE
  8
0
  6
CONTINUOUS
 62
256
 10
8.929831000000000
 20
71.518189000000007
 11
14.555683000000000
 21
71.518189000000007
  0
ARC
  8
0
  6
CONTINUOUS
 62
256
 10
14.555683000000000
 20
147.518189000000010
 40
3.000000000000000
 50
270.000000000000000
 51
0.000000000000000
  0
LINE
  8
0
  6
CONTINUOUS
 62
256
 10
14.555683000000000
 20
144.518189000000010
 11
11.055683000000000
 21
144.518189000000010
  0
LINE
  8
0
  6
CONTINUOUS
 62
256
 10
17.555682999999998
 20
53.018189000000000
 11
17.555682999999998
 21
166.018189000000010
  0
LINE
  8
0
  6
DASHED
 62
256
 10
17.555682999999998
 20
90.057638999999995
 11
17.555682999999998
 21
109.518189000000010
  0
LINE
  8
0
  6
DASHED
 62
256
 10
17.555682999999998
 20
90.057638999999995
 11
17.555682999999998
 21
109.518189000000010
  0
LINE
  8
0
  6
CONTINUOUS
 62
256
 10
20.555682999999998
 20
169.018189000000010
 11
41.055683000000002
 21
169.018189000000010
  0
ARC
  8
0
  6
CONTINUOUS
 62
256
 10
20.555682999999998
 20
166.018189000000010
 40
3.000000000000000
 50
90.000000000000000
 51
180.000000000000000
  0
LINE
  8
0
  6
CONTINUOUS
 62
256
 10
34.055683000000002
 20
129.518189000000010
 11
41.055683000000002
 21
129.518189000000010
  0
ARC
  8
0
  6
CONTINUOUS
 62
256
 10
20.555682999999998
 20
53.018189000000000
 40
3.000000000000000
 50
180.000000000000000
 51
270.000000000000000
  0
LINE
  8
0
  6
CONTINUOUS
 62
256
 10
20.555682999999998
 20
50.018189000000000
 11
41.055683000000002
 21
50.018189000000000
  0
ARC
  8
0
  6
CONTINUOUS
 62
256
 10
31.055682999999998
 20
54.421881999999997
 40
3.000000000000004
 50
0.000000000000000
 51
90.000000000000000
  0
LINE
  8
0
  6
DASHDOT
 62
256
 10
-90.944316999999998
 20
6.375545000000000
 11
-90.944316999999998
 21
173.038496000000010
  0
LINE
  8
0
  6
CONTINUOUS
 62
256
 10
41.055683000000002
 20
109.518189000000010
 11
41.055683000000002
 21
169.018189000000010
  0
LINE
  8
0
  6
CONTINUOUS
 62
256
 10
41.055683000000002
 20
109.518189000000010
 11
41.055683000000002
 21
50.018189000000000
  0
ENDSEC
  0
EOF
