  0
SECTION
  2
HEADER
  9
$TEXTSIZE
 40
2.5
  9
$ACADVER
  1
AC1009
  9
$DIMASZ
 40
3.863703297614046
  9
$DIMEXE
 40
2.000000000000000
  9
$DIMEXO
 40
1.000000000000000
  9
$DIMLFAC
 40
1.000000000000000
  9
$DIMSCALE
 40
1.000000000000000
  9
$DIMTAD
 70
1
  9
$DIMTFAC
 40
0.625000000000000
  9
$DIMTXT
 40
3.200000047683716
  9
$LUPREC
 70
3
  9
$REGENMODE
 70
1
  9
$TEXTSTYLE
  7
STANDARD1
  0
ENDSEC
  0
SECTION
  2
TABLES
  0
TABLE
  2
LTYPE
 70
4
  0
LTYPE
  2
CONTINUOUS
 70
64
  3
Solid line
 72
65
 73
0
 40
0.0
  0
LTYPE
  2
DASHED
 70
64
  3
-- -- -- -- -- -- -- -- -- -- -- -- -- -- --
 72
65
 73
2
 40
0.75
 49
0.5
 49
-0.25
  0
LTYPE
  2
DASHDOT
 70
64
  3
__ . __ . __ . __ . __ . __ . __ . __ . __ . __
 72
65
 73
4
 40
1.0
 49
0.5
 49
-0.25
 49
0.0
 49
-0.25
  0
LTYPE
  2
DIVIDE
 70
64
  3
__ . . __ . . __ . . __ . . __ . . __ . . __
 72
65
 73
6
 40
1.25
 49
0.5
 49
-0.25
 49
0.0
 49
-0.25
 49
0.0
 49
-0.25
  0
ENDTAB
  0
TABLE
  2
LAYER
 70
3
  0
LAYER
  2
0
 70
64
 62
53
  6
CONTINUOUS
  0
LAYER
  2
1
 70
64
 62
102
  6
CONTINUOUS
  0
LAYER
  2
2
 70
64
 62
102
  6
CONTINUOUS
  0
ENDTAB
  0
TABLE
  2
STYLE
 70
4
  0
STYLE
  2
STANDARD1
 70
64
 40
0.0
 41
1.0
 50
0.0
 71
0
 42
3.200000047683716
  3
MONOTXT
  4
BIGFONT
  0
STYLE
  2
STANDARD2
 70
68
 40
0.0
 41
1.0
 50
0.0
 71
0
 42
3.200000047683716
  3
MONOTXT
  4
BIGFONT
  0
STYLE
  2
STANDARD3
 70
64
 40
0.0
 41
1.0
 50
0.0
 71
0
 42
3.200000047683716
  3
MONOTXT
  4

  0
STYLE
  2
STANDARD4
 70
68
 40
0.0
 41
1.0
 50
0.0
 71
0
 42
3.200000047683716
  3
MONOTXT
  4

  0
ENDTAB
  0
TABLE
  2
VIEW
 70
0
  0
ENDTAB
  0
ENDSEC
  0
SECTION
  2
BLOCKS
  0
ENDSEC
  0
SECTION
  2
ENTITIES
  0
TEXT
  8
0
  6
CONTINUOUS
 62
256
 10
-70.375488281250000
 20
-13.156250000000000
 40
2.799999952316284
  1
ü@
 50
0.000002504478167
 41
0.996000017370497
  7
STANDARD1
  0
TEXT
  8
0
  6
CONTINUOUS
 62
256
 10
1.624511957168579
 20
-253.406250000000000
 40
2.799999952316284
  1
ü@
 50
0.000002504478167
 41
0.996000017370497
  7
STANDARD1
  0
LINE
  8
0
  6
DASHDOT
 62
256
 10
-386.203191000000000
 20
-193.687305000000010
 11
-507.503555000000010
 21
-193.687305000000010
  0
LINE
  8
0
  6
DASHDOT
 62
256
 10
-386.203191000000000
 20
-47.687305000000002
 11
-507.503555000000010
 21
-47.687305000000002
  0
LINE
  8
0
  6
CONTINUOUS
 62
256
 10
-383.746790999999970
 20
-87.187304999999995
 11
-382.146928000000000
 21
-87.187304999999995
  0
ARC
  8
0
  6
CONTINUOUS
 62
256
 10
-382.146928000000000
 20
-87.587305000000001
 40
0.399999999999977
 50
0.000000000000000
 51
90.000000000000000
  0
ARC
  8
0
  6
CONTINUOUS
 62
256
 10
-381.346927999999990
 20
-88.287305000000003
 40
0.399999999999977
 50
180.000000000000000
 51
270.000000000000000
  0
LINE
  8
0
  6
CONTINUOUS
 62
256
 10
-383.746790999999970
 20
-122.187304999999990
 11
-382.146928000000000
 21
-122.187304999999990
  0
ARC
  8
0
  6
CONTINUOUS
 62
256
 10
-382.146928000000000
 20
-121.787305000000000
 40
0.400000000000006
 50
270.000000000000000
 51
0.000000000000000
  0
ARC
  8
0
  6
CONTINUOUS
 62
256
 10
-381.346927999999990
 20
-121.087305000000000
 40
0.400000000000006
 50
90.000000000000000
 51
180.000000000000000
  0
LINE
  8
0
  6
CONTINUOUS
 62
256
 10
-381.746928000000030
 20
-87.587305000000001
 11
-381.746928000000030
 21
-121.787305000000000
  0
LINE
  8
0
  6
CONTINUOUS
 62
256
 10
-366.746996000000020
 20
-85.687304999999995
 11
-366.746996000000020
 21
-88.687304999999995
  0
LINE
  8
0
  6
CONTINUOUS
 62
256
 10
-366.746996000000020
 20
-85.687304999999995
 11
-326.746996000000020
 21
-85.687304999999995
  0
LINE
  8
0
  6
CONTINUOUS
 62
256
 10
-381.346927999999990
 20
-88.687304999999995
 11
-327.546995999999980
 21
-88.687304999999995
  0
LINE
  8
0
  6
CONTINUOUS
 62
256
 10
-381.346927999999990
 20
-120.687304999999990
 11
-327.546995999999980
 21
-120.687304999999990
  0
ARC
  8
0
  6
CONTINUOUS
 62
256
 10
-327.546995999999980
 20
-89.487305000000006
 40
0.800000000000011
 50
0.000000000000000
 51
90.000000000000000
  0
ARC
  8
0
  6
CONTINUOUS
 62
256
 10
-327.546995999999980
 20
-119.887305000000000
 40
0.799999999999997
 50
270.000000000000000
 51
0.000000000000000
  0
LINE
  8
0
  6
CONTINUOUS
 62
256
 10
-326.746996000000020
 20
-85.687304999999995
 11
-326.746996000000020
 21
-119.887305000000000
  0
LINE
  8
0
  6
DASHDOT
 62
256
 10
-319.008465000000000
 20
-104.687304999999990
 11
-517.364028999999960
 21
-104.687304999999990
  0
ARC
  8
0
  6
CONTINUOUS
 62
256
 10
-446.746790999999970
 20
-322.958475000000020
 40
300.000000000000000
 50
83.967950999999999
 51
96.032049000000001
  0
LINE
  8
0
  6
CONTINUOUS
 62
256
 10
-444.246790999999970
 20
-22.968892000000000
 11
-444.246790999999970
 21
-22.458475000000000
  0
LINE
  8
0
  6
CONTINUOUS
 62
256
 10
-449.246790999999970
 20
-22.958476999999998
 11
-449.246790999999970
 21
-22.458475000000000
  0
LINE
  8
0
  6
CONTINUOUS
 62
256
 10
-444.246790999999970
 20
-22.458475000000000
 11
-449.246790999999970
 21
-22.458475000000000
  0
ARC
  8
0
  6
CONTINUOUS
 62
256
 10
-415.746790999999970
 20
-29.591809999999999
 40
5.000000000000000
 50
0.000000000000000
 51
83.967950999999999
  0
LINE
  8
0
  6
CONTINUOUS
 62
256
 10
-410.746790999999970
 20
-33.898674000000000
 11
-410.746790999999970
 21
-29.591809999999999
  0
LINE
  8
0
  6
CONTINUOUS
 62
256
 10
-482.746790999999970
 20
-32.641910000000003
 11
-482.746790999999970
 21
-29.591809999999999
  0
ARC
  8
0
  6
CONTINUOUS
 62
256
 10
-477.746790999999970
 20
-29.591809999999999
 40
4.999999999999998
 50
96.032049000000015
 51
180.000000000000000
  0
LINE
  8
0
  6
CONTINUOUS
 62
256
 10
164.155183999999990
 20
-70.371613999999994
 11
67.155184000000006
 21
-70.371613999999994
  0
LINE
  8
0
  6
CONTINUOUS
 62
256
 10
174.155183999999990
 20
-55.687148000000001
 11
174.155183999999990
 21
-56.067926999999997
  0
LINE
  8
0
  6
CONTINUOUS
 62
256
 10
164.155183999999990
 20
-180.187148000000010
 11
67.155184000000006
 21
-180.187148000000010
  0
LINE
  8
0
  6
CONTINUOUS
 62
256
 10
256.320737000000010
 20
-59.304107000000002
 11
266.046483000000020
 21
-66.114148000000000
  0
ARC
  8
0
  6
CONTINUOUS
 62
256
 10
264.555184000000000
 20
-68.243943000000002
 40
2.600000000000023
 50
0.000000000000000
 51
54.999999999999979
  0
LINE
  8
0
  6
DASHDOT
 62
256
 10
59.179186999999999
 20
-120.687147999999990
 11
277.084396000000030
 21
-120.687147999999990
  0
LINE
  8
0
  6
CONTINUOUS
 62
256
 10
174.155183999999990
 20
-55.687148000000001
 11
244.849208000000000
 21
-55.687148000000001
  0
POLYLINE
  8
0
  6
CONTINUOUS
 62
256
 66
1
 70
1
  0
VERTEX
  8
0
  6
CONTINUOUS
 62
256
 10
179.855183999999980
 20
-68.763622999999995
  0
VERTEX
  8
0
  6
CONTINUOUS
 62
256
 10
179.764874817895160
 20
-68.060666489441829
  0
VERTEX
  8
0
  6
CONTINUOUS
 62
256
 10
179.497417802803030
 20
-67.384724203361856
  0
VERTEX
  8
0
  6
CONTINUOUS
 62
256
 10
179.063091177821950
 20
-66.761772224741335
  0
VERTEX
  8
0
  6
CONTINUOUS
 62
256
 10
178.478585871576770
 20
-66.215750248763158
  0
VERTEX
  8
0
  6
CONTINUOUS
 62
256
 10
177.766364095192100
 20
-65.767641593751506
  0
VERTEX
  8
0
  6
CONTINUOUS
 62
256
 10
176.953796132115910
 20
-65.434666824016247
  0
VERTEX
  8
0
  6
CONTINUOUS
 62
256
 10
176.072108513475800
 20
-65.229621973223928
  0
VERTEX
  8
0
  6
CONTINUOUS
 62
256
 10
175.155183999999990
 20
-65.160386799999998
  0
VERTEX
  8
0
  6
CONTINUOUS
 62
256
 10
174.238259486524190
 20
-65.229621973223928
  0
VERTEX
  8
0
  6
CONTINUOUS
 62
256
 10
173.356571867884070
 20
-65.434666824016247
  0
VERTEX
  8
0
  6
CONTINUOUS
 62
256
 10
172.544003904807880
 20
-65.767641593751506
  0
VERTEX
  8
0
  6
CONTINUOUS
 62
256
 10
171.831782128423210
 20
-66.215750248763158
  0
VERTEX
  8
0
  6
CONTINUOUS
 62
256
 10
171.247276822178040
 20
-66.761772224741335
  0
VERTEX
  8
0
  6
CONTINUOUS
 62
256
 10
170.812950197196950
 20
-67.384724203361856
  0
VERTEX
  8
0
  6
CONTINUOUS
 62
256
 10
170.545493182104820
 20
-68.060666489441829
  0
VERTEX
  8
0
  6
CONTINUOUS
 62
256
 10
170.455184000000000
 20
-68.763622999999995
  0
VERTEX
  8
0
  6
CONTINUOUS
 62
256
 10
170.545493182104820
 20
-69.466579510558162
  0
VERTEX
  8
0
  6
CONTINUOUS
 62
256
 10
170.812950197196950
 20
-70.142521796638135
  0
VERTEX
  8
0
  6
CONTINUOUS
 62
256
 10
171.247276822178040
 20
-70.765473775258656
  0
VERTEX
  8
0
  6
CONTINUOUS
 62
256
 10
171.831782128423210
 20
-71.311495751236833
  0
VERTEX
  8
0
  6
CONTINUOUS
 62
256
 10
172.544003904807880
 20
-71.759604406248485
  0
VERTEX
  8
0
  6
CONTINUOUS
 62
256
 10
173.356571867884070
 20
-72.092579175983730
  0
VERTEX
  8
0
  6
CONTINUOUS
 62
256
 10
174.238259486524190
 20
-72.297624026776063
  0
VERTEX
  8
0
  6
CONTINUOUS
 62
256
 10
175.155183999999990
 20
-72.366859199999993
  0
VERTEX
  8
0
  6
CONTINUOUS
 62
256
 10
176.072108513475800
 20
-72.297624026776063
  0
VERTEX
  8
0
  6
CONTINUOUS
 62
256
 10
176.953796132115910
 20
-72.092579175983744
  0
VERTEX
  8
0
  6
CONTINUOUS
 62
256
 10
177.766364095192100
 20
-71.759604406248485
  0
VERTEX
  8
0
  6
CONTINUOUS
 62
256
 10
178.478585871576740
 20
-71.311495751236833
  0
VERTEX
  8
0
  6
CONTINUOUS
 62
256
 10
179.063091177821950
 20
-70.765473775258656
  0
VERTEX
  8
0
  6
CONTINUOUS
 62
256
 10
179.497417802803030
 20
-70.142521796638135
  0
VERTEX
  8
0
  6
CONTINUOUS
 62
256
 10
179.764874817895160
 20
-69.466579510558162
  0
SEQEND
  8
0
  6
CONTINUOUS
 62
256
  0
LINE
  8
0
  6
CONTINUOUS
 62
256
 10
177.155183999999990
 20
-65.771247000000002
 11
175.155183999999990
 21
-66.947033000000005
  0
LINE
  8
0
  6
CONTINUOUS
 62
256
 10
175.155183999999990
 20
-66.947033000000005
 11
173.155183999999990
 21
-68.599675000000005
  0
ARC
  8
0
  6
CONTINUOUS
 62
256
 10
244.849208000000000
 20
-75.687147999999993
 40
19.999999999999993
 50
55.000000000000028
 51
90.000000000000000
  0
LINE
  8
0
  6
CONTINUOUS
 62
256
 10
81.955184000000003
 20
-61.187148000000001
 11
67.155184000000006
 21
-61.187148000000001
  0
LINE
  8
0
  6
CONTINUOUS
 62
256
 10
173.155183999999990
 20
-65.771247000000002
 11
175.155183999999990
 21
-66.947033000000005
  0
LINE
  8
0
  6
CONTINUOUS
 62
256
 10
175.155183999999990
 20
-66.947033000000005
 11
177.155183999999990
 21
-68.599675000000005
  0
POLYLINE
  8
0
  6
CONTINUOUS
 62
256
 66
1
 70
1
  0
VERTEX
  8
0
  6
CONTINUOUS
 62
256
 10
179.855183999999980
 20
-172.610672999999990
  0
VERTEX
  8
0
  6
CONTINUOUS
 62
256
 10
179.764874817895160
 20
-171.907716489441810
  0
VERTEX
  8
0
  6
CONTINUOUS
 62
256
 10
179.497417802803030
 20
-171.231774203361850
  0
VERTEX
  8
0
  6
CONTINUOUS
 62
256
 10
179.063091177821950
 20
-170.608822224741320
  0
VERTEX
  8
0
  6
CONTINUOUS
 62
256
 10
178.478585871576770
 20
-170.062800248763150
  0
VERTEX
  8
0
  6
CONTINUOUS
 62
256
 10
177.766364095192100
 20
-169.614691593751500
  0
VERTEX
  8
0
  6
CONTINUOUS
 62
256
 10
176.953796132115910
 20
-169.281716824016260
  0
VERTEX
  8
0
  6
CONTINUOUS
 62
256
 10
176.072108513475800
 20
-169.076671973223910
  0
VERTEX
  8
0
  6
CONTINUOUS
 62
256
 10
175.155183999999990
 20
-169.007436799999990
  0
VERTEX
  8
0
  6
CONTINUOUS
 62
256
 10
174.238259486524190
 20
-169.076671973223910
  0
VERTEX
  8
0
  6
CONTINUOUS
 62
256
 10
173.356571867884070
 20
-169.281716824016260
  0
VERTEX
  8
0
  6
CONTINUOUS
 62
256
 10
172.544003904807880
 20
-169.614691593751500
  0
VERTEX
  8
0
  6
CONTINUOUS
 62
256
 10
171.831782128423210
 20
-170.062800248763150
  0
VERTEX
  8
0
  6
CONTINUOUS
 62
256
 10
171.247276822178040
 20
-170.608822224741320
  0
VERTEX
  8
0
  6
CONTINUOUS
 62
256
 10
170.812950197196950
 20
-171.231774203361850
  0
VERTEX
  8
0
  6
CONTINUOUS
 62
256
 10
170.545493182104820
 20
-171.907716489441810
  0
VERTEX
  8
0
  6
CONTINUOUS
 62
256
 10
170.455184000000000
 20
-172.610672999999990
  0
VERTEX
  8
0
  6
CONTINUOUS
 62
256
 10
170.545493182104820
 20
-173.313629510558170
  0
VERTEX
  8
0
  6
CONTINUOUS
 62
256
 10
170.812950197196950
 20
-173.989571796638130
  0
VERTEX
  8
0
  6
CONTINUOUS
 62
256
 10
171.247276822178040
 20
-174.612523775258670
  0
VERTEX
  8
0
  6
CONTINUOUS
 62
256
 10
171.831782128423210
 20
-175.158545751236830
  0
VERTEX
  8
0
  6
CONTINUOUS
 62
256
 10
172.544003904807880
 20
-175.606654406248480
  0
VERTEX
  8
0
  6
CONTINUOUS
 62
256
 10
173.356571867884070
 20
-175.939629175983730
  0
VERTEX
  8
0
  6
CONTINUOUS
 62
256
 10
174.238259486524190
 20
-176.144674026776040
  0
VERTEX
  8
0
  6
CONTINUOUS
 62
256
 10
175.155183999999990
 20
-176.213909199999990
  0
VERTEX
  8
0
  6
CONTINUOUS
 62
256
 10
176.072108513475800
 20
-176.144674026776040
  0
VERTEX
  8
0
  6
CONTINUOUS
 62
256
 10
176.953796132115910
 20
-175.939629175983730
  0
VERTEX
  8
0
  6
CONTINUOUS
 62
256
 10
177.766364095192100
 20
-175.606654406248480
  0
VERTEX
  8
0
  6
CONTINUOUS
 62
256
 10
178.478585871576740
 20
-175.158545751236830
  0
VERTEX
  8
0
  6
CONTINUOUS
 62
256
 10
179.063091177821950
 20
-174.612523775258670
  0
VERTEX
  8
0
  6
CONTINUOUS
 62
256
 10
179.497417802803030
 20
-173.989571796638130
  0
VERTEX
  8
0
  6
CONTINUOUS
 62
256
 10
179.764874817895160
 20
-173.313629510558170
  0
SEQEND
  8
0
  6
CONTINUOUS
 62
256
  0
LINE
  8
0
  6
CONTINUOUS
 62
256
 10
177.155183999999990
 20
-175.603049000000000
 11
175.155183999999990
 21
-174.427263000000010
  0
LINE
  8
0
  6
CONTINUOUS
 62
256
 10
175.155183999999990
 20
-174.427263000000010
 11
173.155183999999990
 21
-172.774621999999990
  0
LINE
  8
0
  6
CONTINUOUS
 62
256
 10
173.155183999999990
 20
-175.603049000000000
 11
175.155183999999990
 21
-174.427263000000010
  0
LINE
  8
0
  6
CONTINUOUS
 62
256
 10
175.155183999999990
 20
-174.427263000000010
 11
177.155183999999990
 21
-172.774621999999990
  0
LINE
  8
0
  6
CONTINUOUS
 62
256
 10
164.155183999999990
 20
-63.687148000000001
 11
67.155184000000006
 21
-63.687148000000001
  0
LINE
  8
0
  6
CONTINUOUS
 62
256
 10
164.155183999999990
 20
-64.687147999999993
 11
67.155184000000006
 21
-64.687147999999993
  0
LINE
  8
0
  6
CONTINUOUS
 62
256
 10
164.155183999999990
 20
-65.687147999999993
 11
67.155184000000006
 21
-65.687147999999993
  0
LINE
  8
0
  6
CONTINUOUS
 62
256
 10
164.155183999999990
 20
-75.321360999999996
 11
67.155184000000006
 21
-75.321360999999996
  0
LINE
  8
0
  6
CONTINUOUS
 62
256
 10
164.155183999999990
 20
-83.367963000000003
 11
67.155184000000006
 21
-83.367963000000003
  0
LINE
  8
0
  6
CONTINUOUS
 62
256
 10
164.155183999999990
 20
-84.972611000000001
 11
67.155184000000006
 21
-84.972611000000001
  0
LINE
  8
0
  6
CONTINUOUS
 62
256
 10
164.155183999999990
 20
-88.936356000000004
 11
67.155184000000006
 21
-88.936356000000004
  0
LINE
  8
0
  6
CONTINUOUS
 62
256
 10
164.155183999999990
 20
-90.404713999999998
 11
67.155184000000006
 21
-90.404713999999998
  0
LINE
  8
0
  6
CONTINUOUS
 62
256
 10
164.155183999999990
 20
-94.495214000000004
 11
67.155184000000006
 21
-94.495214000000004
  0
LINE
  8
0
  6
CONTINUOUS
 62
256
 10
164.155183999999990
 20
-95.857095000000001
 11
67.155184000000006
 21
-95.857095000000001
  0
LINE
  8
0
  6
CONTINUOUS
 62
256
 10
164.155183999999990
 20
-100.047648000000000
 11
67.155184000000006
 21
-100.047648000000000
  0
LINE
  8
0
  6
CONTINUOUS
 62
256
 10
164.155183999999990
 20
-101.313886000000000
 11
67.155184000000006
 21
-101.313886000000000
  0
LINE
  8
0
  6
CONTINUOUS
 62
256
 10
164.155183999999990
 20
-105.687147999999990
 11
67.155184000000006
 21
-105.687147999999990
  0
LINE
  8
0
  6
CONTINUOUS
 62
256
 10
164.155183999999990
 20
-158.006333000000010
 11
67.155184000000006
 21
-158.006333000000010
  0
LINE
  8
0
  6
CONTINUOUS
 62
256
 10
164.155183999999990
 20
-156.401684999999990
 11
67.155184000000006
 21
-156.401684999999990
  0
LINE
  8
0
  6
CONTINUOUS
 62
256
 10
164.155183999999990
 20
-152.437940000000000
 11
67.155184000000006
 21
-152.437940000000000
  0
LINE
  8
0
  6
CONTINUOUS
 62
256
 10
164.155183999999990
 20
-150.969582000000000
 11
67.155184000000006
 21
-150.969582000000000
  0
LINE
  8
0
  6
CONTINUOUS
 62
256
 10
164.155183999999990
 20
-146.879082000000010
 11
67.155184000000006
 21
-146.879082000000010
  0
LINE
  8
0
  6
CONTINUOUS
 62
256
 10
164.155183999999990
 20
-145.517202000000000
 11
67.155184000000006
 21
-145.517202000000000
  0
LINE
  8
0
  6
CONTINUOUS
 62
256
 10
164.155183999999990
 20
-141.326648000000010
 11
67.155184000000006
 21
-141.326648000000010
  0
LINE
  8
0
  6
CONTINUOUS
 62
256
 10
164.155183999999990
 20
-140.060409999999990
 11
67.155184000000006
 21
-140.060409999999990
  0
LINE
  8
0
  6
CONTINUOUS
 62
256
 10
164.155183999999990
 20
-135.687148000000010
 11
67.155184000000006
 21
-135.687148000000010
  0
LINE
  8
0
  6
CONTINUOUS
 62
256
 10
164.155183999999990
 20
-166.052934999999990
 11
67.155184000000006
 21
-166.052934999999990
  0
LINE
  8
0
  6
CONTINUOUS
 62
256
 10
164.155183999999990
 20
-171.002681999999990
 11
67.155184000000006
 21
-171.002681999999990
  0
LINE
  8
0
  6
CONTINUOUS
 62
256
 10
164.155183999999990
 20
-120.687147999999990
 11
164.155183999999990
 21
-185.687148000000010
  0
LINE
  8
0
  6
CONTINUOUS
 62
256
 10
164.155183999999990
 20
-175.687148000000010
 11
67.155184000000006
 21
-175.687148000000010
  0
LINE
  8
0
  6
CONTINUOUS
 62
256
 10
164.155183999999990
 20
-176.687148000000010
 11
67.155184000000006
 21
-176.687148000000010
  0
LINE
  8
0
  6
CONTINUOUS
 62
256
 10
164.155183999999990
 20
-177.687148000000010
 11
67.155184000000006
 21
-177.687148000000010
  0
LINE
  8
0
  6
CONTINUOUS
 62
256
 10
97.155184000000006
 20
-180.187148000000010
 11
67.155184000000006
 21
-180.187148000000010
  0
LINE
  8
0
  6
CONTINUOUS
 62
256
 10
67.155184000000006
 20
-180.187148000000010
 11
67.155184000000006
 21
-120.687147999999990
  0
LINE
  8
0
  6
CONTINUOUS
 62
256
 10
164.155183999999990
 20
-185.687148000000010
 11
244.849208000000000
 21
-185.687148000000010
  0
LINE
  8
0
  6
CONTINUOUS
 62
256
 10
267.155184000000020
 20
-120.687147999999990
 11
267.155184000000020
 21
-173.130353000000010
  0
ARC
  8
0
  6
CONTINUOUS
 62
256
 10
244.849208000000000
 20
-165.687148000000010
 40
20.000000000000000
 50
270.000000000000000
 51
305.000000000000000
  0
LINE
  8
0
  6
CONTINUOUS
 62
256
 10
256.320737000000010
 20
-182.070189000000000
 11
266.046483000000020
 21
-175.260147999999990
  0
ARC
  8
0
  6
CONTINUOUS
 62
256
 10
264.555184000000000
 20
-173.130353000000010
 40
2.599999999999996
 50
305.000000000000230
 51
0.000000000000000
  0
ARC
  8
0
  6
CONTINUOUS
 62
256
 10
167.155183999999990
 20
-62.067926999999997
 40
3.000000000000000
 50
90.000000000000000
 51
180.000000000000000
  0
ARC
  8
0
  6
CONTINUOUS
 62
256
 10
171.155183999999990
 20
-56.067926999999997
 40
3.000000000000000
 50
270.000000000000000
 51
0.000000000000000
  0
LINE
  8
0
  6
CONTINUOUS
 62
256
 10
164.155183999999990
 20
-120.687147999999990
 11
164.155183999999990
 21
-62.067926999999997
  0
LINE
  8
0
  6
CONTINUOUS
 62
256
 10
67.155184000000006
 20
-61.187148000000001
 11
67.155184000000006
 21
-120.687147999999990
  0
LINE
  8
0
  6
CONTINUOUS
 62
256
 10
267.155184000000020
 20
-120.687147999999990
 11
267.155184000000020
 21
-68.243943000000002
  0
LINE
  8
0
  6
CONTINUOUS
 62
256
 10
171.155183999999990
 20
-59.067926999999997
 11
167.155183999999990
 21
-59.067926999999997
  0
LINE
  8
0
  6
CONTINUOUS
 62
256
 10
91.455184000000003
 20
-23.187148000000001
 11
91.455184000000003
 21
-22.687148000000001
  0
LINE
  8
0
  6
CONTINUOUS
 62
256
 10
162.455184000000000
 20
-23.187148000000001
 11
162.455184000000000
 21
-22.687148000000001
  0
LINE
  8
0
  6
CONTINUOUS
 62
256
 10
164.955184000000000
 20
-23.187148000000001
 11
164.955184000000000
 21
-22.687148000000001
  0
LINE
  8
0
  6
CONTINUOUS
 62
256
 10
156.955184000000000
 20
-23.187148000000001
 11
156.955184000000000
 21
-22.687148000000001
  0
LINE
  8
0
  6
CONTINUOUS
 62
256
 10
96.955184000000003
 20
-23.187148000000001
 11
96.955184000000003
 21
-22.687148000000001
  0
LINE
  8
0
  6
CONTINUOUS
 62
256
 10
88.955184000000003
 20
-23.187148000000001
 11
88.955184000000003
 21
-22.687148000000001
  0
LINE
  8
0
  6
CONTINUOUS
 62
256
 10
164.955184000000000
 20
-22.687148000000001
 11
156.955184000000000
 21
-22.687148000000001
  0
LINE
  8
0
  6
CONTINUOUS
 62
256
 10
96.955184000000003
 20
-22.687148000000001
 11
88.955184000000003
 21
-22.687148000000001
  0
ARC
  8
0
  6
CONTINUOUS
 62
256
 10
82.955184000000003
 20
-24.187148000000001
 40
1.000000000000000
 50
90.000000000000000
 51
180.000000000000000
  0
LINE
  8
0
  6
CONTINUOUS
 62
256
 10
81.955184000000003
 20
-57.187148000000001
 11
81.955184000000003
 21
-24.187148000000001
  0
LINE
  8
0
  6
CONTINUOUS
 62
256
 10
171.955184000000000
 20
-57.187148000000001
 11
81.955184000000003
 21
-57.187148000000001
  0
ARC
  8
0
  6
CONTINUOUS
 62
256
 10
170.955184000000000
 20
-24.187148000000001
 40
1.000000000000000
 50
0.000000000000000
 51
90.000000000000000
  0
LINE
  8
0
  6
CONTINUOUS
 62
256
 10
171.955184000000000
 20
-57.187148000000001
 11
171.955184000000000
 21
-24.187148000000001
  0
LINE
  8
0
  6
CONTINUOUS
 62
256
 10
170.955184000000000
 20
-23.187148000000001
 11
82.955184000000003
 21
-23.187148000000001
  0
LINE
  8
0
  6
CONTINUOUS
 62
256
 10
81.955184000000003
 20
-62.187148000000001
 11
164.155183999999990
 21
-62.187148000000001
  0
LINE
  8
0
  6
CONTINUOUS
 62
256
 10
81.955184000000003
 20
-57.187148000000001
 11
81.955184000000003
 21
-62.187148000000001
  0
LINE
  8
0
  6
CONTINUOUS
 62
256
 10
81.955184000000003
 20
-57.187148000000001
 11
171.955184000000000
 21
-57.187148000000001
  0
LINE
  8
0
  6
CONTINUOUS
 62
256
 10
171.955184000000000
 20
-57.187148000000001
 11
171.955184000000000
 21
-58.959294000000000
  0
LINE
  8
0
  6
CONTINUOUS
 62
256
 10
60.155183999999998
 20
-140.687148000000010
 11
67.155184000000006
 21
-140.687148000000010
  0
LINE
  8
0
  6
CONTINUOUS
 62
256
 10
60.155183999999998
 20
-100.687147999999990
 11
67.155184000000006
 21
-100.687147999999990
  0
ARC
  8
0
  6
CONTINUOUS
 62
256
 10
52.155183999999998
 20
-78.502416999999994
 40
3.000000000000000
 50
90.000000000000000
 51
180.000000000000000
  0
ARC
  8
0
  6
CONTINUOUS
 62
256
 10
52.155183999999998
 20
-71.590840999999998
 40
3.000000000000000
 50
90.000000000000000
 51
180.000000000000000
  0
ARC
  8
0
  6
CONTINUOUS
 62
256
 10
52.155183999999998
 20
-162.871879000000010
 40
3.000000000000000
 50
180.000000000000000
 51
270.000000000000000
  0
ARC
  8
0
  6
CONTINUOUS
 62
256
 10
52.155183999999998
 20
-169.783456000000000
 40
3.000000000000000
 50
180.000000000000000
 51
270.000000000000000
  0
ARC
  8
0
  6
CONTINUOUS
 62
256
 10
52.155183999999998
 20
-177.426149000000010
 40
3.000000000000000
 50
180.000000000000000
 51
270.981172999999960
  0
ARC
  8
0
  6
CONTINUOUS
 62
256
 10
52.155183999999998
 20
-63.948146999999999
 40
2.999999999999999
 50
89.018827000000030
 51
180.000000000000000
  0
LINE
  8
0
  6
CONTINUOUS
 62
256
 10
49.155183999999998
 20
-177.426149000000010
 11
49.155183999999998
 21
-63.948146999999999
  0
ARC
  8
0
  6
CONTINUOUS
 62
256
 10
-138.345048999999990
 20
-44.687305000000002
 40
10.199999999999996
 50
90.000000000000000
 51
180.000000000000000
  0
ARC
  8
0
  6
CONTINUOUS
 62
256
 10
-138.345048999999990
 20
-196.687305000000010
 40
10.199999999999989
 50
180.000000000000000
 51
265.604537000000050
  0
ARC
  8
0
  6
CONTINUOUS
 62
256
 10
26.654951000000001
 20
-196.687305000000010
 40
10.200000000000006
 50
274.395463000000010
 51
0.000000000000000
  0
ARC
  8
0
  6
CONTINUOUS
 62
256
 10
26.654951000000001
 20
-44.687305000000002
 40
10.199999999999999
 50
0.000000000000000
 51
90.000000000000000
  0
ARC
  8
0
  6
CONTINUOUS
 62
256
 10
-138.345048999999990
 20
-44.687305000000002
 40
12.000000000000000
 50
90.000000000000000
 51
180.000000000000000
  0
ARC
  8
0
  6
CONTINUOUS
 62
256
 10
-138.345048999999990
 20
-196.687305000000010
 40
12.000000000000000
 50
180.000000000000000
 51
270.000000000000000
  0
ARC
  8
0
  6
CONTINUOUS
 62
256
 10
26.654951000000001
 20
-196.687305000000010
 40
12.000000000000000
 50
270.000000000000000
 51
0.000000000000000
  0
ARC
  8
0
  6
CONTINUOUS
 62
256
 10
26.654951000000001
 20
-44.687305000000002
 40
11.999999999999996
 50
0.000000000000000
 51
90.000000000000000
  0
ARC
  8
0
  6
CONTINUOUS
 62
256
 10
41.654950999999997
 20
-183.623986000000000
 40
3.000000000000011
 50
91.000000000000014
 51
180.000000000000000
  0
ARC
  8
0
  6
CONTINUOUS
 62
256
 10
41.654950999999997
 20
-57.750309999999999
 40
3.000000000000000
 50
180.000000000000000
 51
268.999999999999940
  0
CIRCLE
  8
0
  6
CONTINUOUS
 62
256
 10
-78.345049000000003
 20
-104.687304999999990
 40
52.500000000000000
  0
CIRCLE
  8
0
  6
CONTINUOUS
 62
256
 10
-78.345049000000003
 20
-104.687304999999990
 40
48.000000000000000
  0
CIRCLE
  8
0
  6
CONTINUOUS
 62
256
 10
-78.345049000000003
 20
-104.687304999999990
 40
30.500000000000000
  0
CIRCLE
  8
0
  6
CONTINUOUS
 62
256
 10
-78.345049000000003
 20
-104.687304999999990
 40
55.000000000000000
  0
ARC
  8
0
  6
CONTINUOUS
 62
256
 10
23.654951000000001
 20
-47.687305000000002
 40
15.000000000000002
 50
189.206895999999970
 51
260.793104000000030
  0
ARC
  8
0
  6
CONTINUOUS
 62
256
 10
23.654951000000001
 20
-193.687305000000010
 40
14.999999999999998
 50
99.206896000000000
 51
170.793103999999970
  0
ARC
  8
0
  6
CONTINUOUS
 62
256
 10
-135.345048999999990
 20
-193.687305000000010
 40
15.000000000000000
 50
9.206896000000024
 51
80.793103999999985
  0
ARC
  8
0
  6
CONTINUOUS
 62
256
 10
-135.345048999999990
 20
-47.687305000000002
 40
14.999999999999996
 50
279.206895999999920
 51
350.793104000000030
  0
ARC
  8
0
  6
CONTINUOUS
 62
256
 10
-1.022975000000000
 20
-51.687305000000002
 40
10.000000000000000
 50
9.206895999999997
 51
90.000000000000000
  0
ARC
  8
0
  6
CONTINUOUS
 62
256
 10
19.654951000000001
 20
-72.365229999999997
 40
10.000000000000000
 50
0.000000000000000
 51
80.793104000000014
  0
ARC
  8
0
  6
CONTINUOUS
 62
256
 10
19.654951000000001
 20
-169.009379000000000
 40
10.000000000000007
 50
279.206895999999970
 51
0.000000000000000
  0
ARC
  8
0
  6
CONTINUOUS
 62
256
 10
-1.022975000000000
 20
-189.687305000000010
 40
10.000000000000000
 50
270.000000000000000
 51
350.793104000000080
  0
ARC
  8
0
  6
CONTINUOUS
 62
256
 10
-110.667124000000000
 20
-189.687305000000010
 40
9.999999999999993
 50
189.206895999999920
 51
270.000000000000000
  0
ARC
  8
0
  6
CONTINUOUS
 62
256
 10
-131.345048999999990
 20
-169.009379000000000
 40
10.000000000000000
 50
180.000000000000000
 51
260.793104000000080
  0
ARC
  8
0
  6
CONTINUOUS
 62
256
 10
-131.345048999999990
 20
-72.365229999999997
 40
10.000000000000004
 50
99.206896000000086
 51
180.000000000000000
  0
ARC
  8
0
  6
CONTINUOUS
 62
256
 10
-110.667124000000000
 20
-51.687305000000002
 40
10.000000000000000
 50
90.000000000000000
 51
170.793104000000000
  0
ARC
  8
0
  6
CONTINUOUS
 62
256
 10
19.654951000000001
 20
-72.365229999999997
 40
7.500000000000000
 50
0.000000000000000
 51
80.793104000000014
  0
ARC
  8
0
  6
CONTINUOUS
 62
256
 10
23.654951000000001
 20
-47.687305000000002
 40
17.500000000000000
 50
189.206895999999970
 51
260.793104000000030
  0
ARC
  8
0
  6
CONTINUOUS
 62
256
 10
-1.022975000000000
 20
-51.687305000000002
 40
7.500000000000000
 50
9.206896000000024
 51
90.000000000000000
  0
ARC
  8
0
  6
CONTINUOUS
 62
256
 10
-110.667124000000000
 20
-51.687305000000002
 40
7.500000000000000
 50
90.000000000000000
 51
170.793103999999970
  0
ARC
  8
0
  6
CONTINUOUS
 62
256
 10
19.654951000000001
 20
-169.009379000000000
 40
7.500000000000013
 50
279.206895999999920
 51
0.000000000000000
  0
ARC
  8
0
  6
CONTINUOUS
 62
256
 10
23.654951000000001
 20
-193.687305000000010
 40
17.499999999999996
 50
99.206896000000000
 51
170.793103999999940
  0
ARC
  8
0
  6
CONTINUOUS
 62
256
 10
-1.022975000000000
 20
-189.687305000000010
 40
7.500000000000000
 50
270.000000000000000
 51
350.793103999999970
  0
ARC
  8
0
  6
CONTINUOUS
 62
256
 10
-110.667124000000000
 20
-189.687305000000010
 40
7.500000000000000
 50
189.206896000000030
 51
270.000000000000000
  0
ARC
  8
0
  6
CONTINUOUS
 62
256
 10
-135.345048999999990
 20
-193.687305000000010
 40
17.499999999999993
 50
9.206895999999965
 51
80.793104000000028
  0
ARC
  8
0
  6
CONTINUOUS
 62
256
 10
-131.345048999999990
 20
-169.009379000000000
 40
7.500000000000000
 50
180.000000000000000
 51
260.793103999999970
  0
ARC
  8
0
  6
CONTINUOUS
 62
256
 10
-131.345048999999990
 20
-72.365229999999997
 40
7.500000000000000
 50
99.206896000000029
 51
180.000000000000000
  0
ARC
  8
0
  6
CONTINUOUS
 62
256
 10
-135.345048999999990
 20
-47.687305000000002
 40
17.500000000000000
 50
279.206895999999920
 51
350.793104000000030
  0
ARC
  8
0
  6
CONTINUOUS
 62
256
 10
57.155183999999998
 20
-156.688414999999990
 40
3.000000000000000
 50
270.000000000000000
 51
0.000000000000000
  0
ARC
  8
0
  6
CONTINUOUS
 62
256
 10
57.155183999999998
 20
-175.783456000000000
 40
3.000000000000000
 50
0.000000000000000
 51
90.000000000000000
  0
ARC
  8
0
  6
CONTINUOUS
 62
256
 10
57.155183999999998
 20
-162.871879000000010
 40
3.000000000000000
 50
270.000000000000000
 51
0.000000000000000
  0
ARC
  8
0
  6
CONTINUOUS
 62
256
 10
63.155184000000006
 20
-177.187148000000010
 40
3.000000000000000
 50
180.000000000000000
 51
270.000000000000000
  0
ARC
  8
0
  6
CONTINUOUS
 62
256
 10
63.155184000000006
 20
-64.187147999999993
 40
3.000000000000000
 50
90.000000000000000
 51
180.000000000000000
  0
ARC
  8
0
  6
CONTINUOUS
 62
256
 10
57.155183999999998
 20
-84.685880999999995
 40
3.000000000000000
 50
0.000000000000000
 51
90.000000000000000
  0
ARC
  8
0
  6
CONTINUOUS
 62
256
 10
57.155183999999998
 20
-78.502416999999994
 40
3.000000000000000
 50
0.000000000000000
 51
90.000000000000000
  0
ARC
  8
0
  6
CONTINUOUS
 62
256
 10
57.155183999999998
 20
-65.590840999999998
 40
3.000000000000000
 50
270.000000000000000
 51
0.000000000000000
  0
LINE
  8
0
  6
CONTINUOUS
 62
256
 10
38.654950999999997
 20
-120.687147999999990
 11
38.654950999999997
 21
-196.687305000000010
  0
LINE
  8
0
  6
DASHDOT
 62
256
 10
-152.330815000000000
 20
-104.687304999999990
 11
-13.314049000000001
 21
-104.687304999999990
  0
LINE
  8
0
  6
DASHDOT
 62
256
 10
-78.345049000000003
 20
-28.479298000000000
 11
-78.345049000000003
 21
-211.112202999999990
  0
LINE
  8
0
  6
DASHDOT
 62
256
 10
11.654951000000001
 20
-47.687305000000002
 11
35.654950999999997
 21
-47.687305000000002
  0
LINE
  8
0
  6
DASHDOT
 62
256
 10
23.654951000000001
 20
-35.687305000000002
 11
23.654951000000001
 21
-59.687305000000002
  0
LINE
  8
0
  6
DASHDOT
 62
256
 10
11.654951000000001
 20
-193.687305000000010
 11
35.654950999999997
 21
-193.687305000000010
  0
LINE
  8
0
  6
DASHDOT
 62
256
 10
23.654951000000001
 20
-181.687305000000010
 11
23.654951000000001
 21
-205.687305000000010
  0
LINE
  8
0
  6
DASHDOT
 62
256
 10
-147.345048999999990
 20
-193.687305000000010
 11
-123.345049000000000
 21
-193.687305000000010
  0
LINE
  8
0
  6
DASHDOT
 62
256
 10
-135.345048999999990
 20
-181.687305000000010
 11
-135.345048999999990
 21
-205.687305000000010
  0
LINE
  8
0
  6
DASHDOT
 62
256
 10
-147.345048999999990
 20
-47.687305000000002
 11
-123.345049000000000
 21
-47.687305000000002
  0
LINE
  8
0
  6
DASHDOT
 62
256
 10
-135.345048999999990
 20
-35.687305000000002
 11
-135.345048999999990
 21
-59.687305000000002
  0
LINE
  8
0
  6
CONTINUOUS
 62
256
 10
26.654951000000001
 20
-208.687305000000010
 11
-138.345048999999990
 21
-208.687305000000010
  0
LINE
  8
0
  6
CONTINUOUS
 62
256
 10
-150.345048999999990
 20
-196.687305000000010
 11
-150.345048999999990
 21
-44.687305000000002
  0
LINE
  8
0
  6
CONTINUOUS
 62
256
 10
-138.345048999999990
 20
-32.687305000000002
 11
26.654951000000001
 21
-32.687305000000002
  0
LINE
  8
0
  6
CONTINUOUS
 62
256
 10
38.654950999999997
 20
-44.687305000000002
 11
38.654950999999997
 21
-120.687147999999990
  0
LINE
  8
0
  6
DASHDOT
 62
256
 10
16.608687000000000
 20
-120.687147999999990
 11
75.097142000000005
 21
-120.687147999999990
  0
LINE
  8
0
  6
CONTINUOUS
 62
256
 10
36.824950999999999
 20
-43.905576000000003
 11
36.824950999999999
 21
-120.687147999999990
  0
LINE
  8
0
  6
CONTINUOUS
 62
256
 10
-139.126778000000000
 20
-34.517305000000000
 11
27.436679000000002
 21
-34.517305000000000
  0
LINE
  8
0
  6
CONTINUOUS
 62
256
 10
-148.515049000000000
 20
-197.469033000000000
 11
-148.515049000000000
 21
-43.905576000000003
  0
LINE
  8
0
  6
CONTINUOUS
 62
256
 10
27.436679000000002
 20
-206.857305000000000
 11
-139.126778000000000
 21
-206.857305000000000
  0
LINE
  8
0
  6
CONTINUOUS
 62
256
 10
36.824950999999999
 20
-120.687147999999990
 11
36.824950999999999
 21
-197.469033000000000
  0
LINE
  8
0
  6
CONTINUOUS
 62
256
 10
-110.667124000000000
 20
-199.687305000000010
 11
-1.022975000000000
 21
-199.687305000000010
  0
LINE
  8
0
  6
CONTINUOUS
 62
256
 10
-110.667124000000000
 20
-41.687305000000002
 11
-1.022975000000000
 21
-41.687305000000002
  0
LINE
  8
0
  6
CONTINUOUS
 62
256
 10
29.654951000000001
 20
-72.365229999999997
 11
29.654951000000001
 21
-169.009379000000000
  0
LINE
  8
0
  6
CONTINUOUS
 62
256
 10
-141.345048999999990
 20
-72.365229999999997
 11
-141.345048999999990
 21
-169.009379000000000
  0
LINE
  8
0
  6
CONTINUOUS
 62
256
 10
-110.667124000000000
 20
-44.187305000000002
 11
-1.022975000000000
 21
-44.187305000000002
  0
LINE
  8
0
  6
CONTINUOUS
 62
256
 10
27.154951000000001
 20
-72.365229999999997
 11
27.154951000000001
 21
-169.009379000000000
  0
LINE
  8
0
  6
CONTINUOUS
 62
256
 10
-110.667124000000000
 20
-197.187305000000010
 11
-1.022975000000000
 21
-197.187305000000010
  0
LINE
  8
0
  6
CONTINUOUS
 62
256
 10
-138.845048999999990
 20
-72.365229999999997
 11
-138.845048999999990
 21
-169.009379000000000
  0
LINE
  8
0
  6
CONTINUOUS
 62
256
 10
67.155184000000006
 20
-180.169693000000000
 11
41.602592999999999
 21
-180.624443000000010
  0
LINE
  8
0
  6
CONTINUOUS
 62
256
 10
67.155184000000006
 20
-61.204602999999999
 11
41.602592999999999
 21
-60.749853000000002
  0
LINE
  8
0
  6
CONTINUOUS
 62
256
 10
60.155183999999998
 20
-162.871879000000010
 11
60.155183999999998
 21
-120.687147999999990
  0
LINE
  8
0
  6
CONTINUOUS
 62
256
 10
57.155183999999998
 20
-159.688414999999990
 11
52.155183999999998
 21
-159.688414999999990
  0
LINE
  8
0
  6
CONTINUOUS
 62
256
 10
60.155183999999998
 20
-176.187148000000010
 11
60.155183999999998
 21
-175.783456000000000
  0
LINE
  8
0
  6
CONTINUOUS
 62
256
 10
60.155183999999998
 20
-176.187148000000010
 11
60.155183999999998
 21
-175.783456000000000
  0
LINE
  8
0
  6
CONTINUOUS
 62
256
 10
60.155183999999998
 20
-176.187148000000010
 11
60.155183999999998
 21
-177.187148000000010
  0
LINE
  8
0
  6
CONTINUOUS
 62
256
 10
60.155183999999998
 20
-65.187147999999993
 11
60.155183999999998
 21
-65.590840999999998
  0
LINE
  8
0
  6
CONTINUOUS
 62
256
 10
60.155183999999998
 20
-78.502416999999994
 11
60.155183999999998
 21
-120.687147999999990
  0
LINE
  8
0
  6
CONTINUOUS
 62
256
 10
57.155183999999998
 20
-81.685880999999995
 11
52.155183999999998
 21
-81.685880999999995
  0
LINE
  8
0
  6
CONTINUOUS
 62
256
 10
60.155183999999998
 20
-65.187147999999993
 11
60.155183999999998
 21
-64.187147999999993
  0
LINE
  8
0
  6
CONTINUOUS
 62
256
 10
57.155183999999998
 20
-68.590840999999998
 11
52.155183999999998
 21
-68.590840999999998
  0
LINE
  8
0
  6
CONTINUOUS
 62
256
 10
57.155183999999998
 20
-75.502416999999994
 11
52.155183999999998
 21
-75.502416999999994
  0
LINE
  8
0
  6
CONTINUOUS
 62
256
 10
57.155183999999998
 20
-165.871879000000010
 11
52.155183999999998
 21
-165.871879000000010
  0
LINE
  8
0
  6
CONTINUOUS
 62
256
 10
57.155183999999998
 20
-172.783456000000000
 11
52.155183999999998
 21
-172.783456000000000
  0
POINT
  8
0
  6
CONTINUOUS
 62
256
 10
-78.345049000000003
 20
-104.687304999999990
  0
ARC
  8
0
  6
CONTINUOUS
 62
256
 10
-78.345049000000003
 20
-104.687304999999990
 40
16.000000000000007
 50
108.209957000000000
 51
71.790042999999997
  0
CIRCLE
  8
0
  6
CONTINUOUS
 62
256
 10
-78.345049000000003
 20
-104.687304999999990
 40
4.000000000000000
  0
CIRCLE
  8
0
  6
CONTINUOUS
 62
256
 10
-78.345049000000003
 20
-104.687304999999990
 40
3.500000000000000
  0
LINE
  8
0
  6
CONTINUOUS
 62
256
 10
-73.345049000000003
 20
-85.687304999999995
 11
-83.345049000000003
 21
-85.687304999999995
  0
LINE
  8
0
  6
CONTINUOUS
 62
256
 10
-83.345049000000003
 20
-85.687304999999995
 11
-83.345049000000003
 21
-93.687304999999995
  0
LINE
  8
0
  6
CONTINUOUS
 62
256
 10
-83.345049000000003
 20
-93.687304999999995
 11
-73.345049000000003
 21
-93.687304999999995
  0
LINE
  8
0
  6
CONTINUOUS
 62
256
 10
-73.345049000000003
 20
-85.687304999999995
 11
-73.345049000000003
 21
-93.687304999999995
  0
LINE
  8
0
  6
CONTINUOUS
 62
256
 10
67.155184000000006
 20
-61.187148000000001
 11
67.155184000000006
 21
-120.687147999999990
  0
LINE
  8
0
  6
CONTINUOUS
 62
256
 10
67.155184000000006
 20
-180.187148000000010
 11
67.155184000000006
 21
-120.687147999999990
  0
LINE
  8
0
  6
CONTINUOUS
 62
256
 10
-504.247341000000010
 20
-208.249160999999990
 11
-492.746790999999970
 21
-208.449904000000000
  0
LINE
  8
0
  6
CONTINUOUS
 62
256
 10
-492.746790999999970
 20
-120.458475000000010
 11
-492.746790999999970
 21
-208.449904000000000
  0
LINE
  8
0
  6
CONTINUOUS
 62
256
 10
-398.246790999999970
 20
-206.800400000000000
 11
-388.746790999999970
 21
-206.800400000000000
  0
LINE
  8
0
  6
CONTINUOUS
 62
256
 10
-388.746790999999970
 20
-120.458475000000010
 11
-388.746790999999970
 21
-206.800400000000000
  0
LINE
  8
0
  6
CONTINUOUS
 62
256
 10
-398.246790999999970
 20
-34.116863000000002
 11
-388.746790999999970
 21
-34.116863000000002
  0
LINE
  8
0
  6
CONTINUOUS
 62
256
 10
-383.746790999999970
 20
-57.187305000000002
 11
-383.746790999999970
 21
-152.187305000000010
  0
LINE
  8
0
  6
CONTINUOUS
 62
256
 10
-388.746790999999970
 20
-34.116863000000002
 11
-388.746790999999970
 21
-120.458475000000010
  0
LINE
  8
0
  6
CONTINUOUS
 62
256
 10
-492.746790999999970
 20
-32.467359000000002
 11
-398.246790999999970
 21
-34.116863000000002
  0
LINE
  8
0
  6
CONTINUOUS
 62
256
 10
-492.746790999999970
 20
-32.467359000000002
 11
-492.746790999999970
 21
-120.458475000000010
  0
LINE
  8
0
  6
CONTINUOUS
 62
256
 10
-504.747188999999990
 20
-32.676827000000003
 11
-492.746790999999970
 21
-32.467359000000002
  0
LINE
  8
0
  6
CONTINUOUS
 62
256
 10
-504.747188999999990
 20
-207.740512999999990
 11
-504.247341000000010
 21
-208.249160999999990
  0
LINE
  8
0
  6
CONTINUOUS
 62
256
 10
-504.747188999999990
 20
-120.458475000000010
 11
-504.747188999999990
 21
-207.740512999999990
  0
LINE
  8
0
  6
CONTINUOUS
 62
256
 10
-509.747188999999990
 20
-104.458631999999990
 11
-509.747188999999990
 21
-152.187305000000010
  0
LINE
  8
0
  6
CONTINUOUS
 62
256
 10
-509.747188999999990
 20
-104.458631999999990
 11
-509.747188999999990
 21
-57.187305000000002
  0
LINE
  8
0
  6
CONTINUOUS
 62
256
 10
-504.747188999999990
 20
-120.458475000000010
 11
-504.747188999999990
 21
-32.676827000000003
  0
LINE
  8
0
  6
DASHDOT
 62
256
 10
-457.988017000000010
 20
-120.687304999999990
 11
-435.748824000000010
 21
-120.687304999999990
  0
LINE
  8
0
  6
DASHED
 62
256
 10
-466.746790999999970
 20
-61.687305000000002
 11
-466.746790999999970
 21
-63.212305000000001
  0
LINE
  8
0
  6
DASHED
 62
256
 10
-446.746790999999970
 20
-61.187305000000002
 11
-466.246790999999970
 21
-61.187305000000002
  0
LINE
  8
0
  6
DASHED
 62
256
 10
-505.746790999999970
 20
-100.687304999999990
 11
-504.221791000000000
 21
-100.687304999999990
  0
LINE
  8
0
  6
DASHED
 62
256
 10
-506.246790999999970
 20
-120.687304999999990
 11
-506.246790999999970
 21
-101.187304999999990
  0
LINE
  8
0
  6
DASHED
 62
256
 10
-505.746790999999970
 20
-140.687305000000010
 11
-504.221791000000000
 21
-140.687305000000010
  0
LINE
  8
0
  6
DASHED
 62
256
 10
-506.246790999999970
 20
-120.687304999999990
 11
-506.246790999999970
 21
-140.187305000000010
  0
LINE
  8
0
  6
DASHED
 62
256
 10
-466.746790999999970
 20
-179.687305000000010
 11
-466.746790999999970
 21
-178.162304000000010
  0
LINE
  8
0
  6
DASHED
 62
256
 10
-446.746790999999970
 20
-180.187305000000010
 11
-466.246790999999970
 21
-180.187305000000010
  0
LINE
  8
0
  6
DASHED
 62
256
 10
-466.746790999999970
 20
-179.687305000000010
 11
-466.746790999999970
 21
-178.162304000000010
  0
LINE
  8
0
  6
DASHED
 62
256
 10
-446.746790999999970
 20
-180.187305000000010
 11
-466.246790999999970
 21
-180.187305000000010
  0
LINE
  8
0
  6
DASHED
 62
256
 10
-426.746790999999970
 20
-179.687305000000010
 11
-426.746790999999970
 21
-178.162304000000010
  0
LINE
  8
0
  6
DASHED
 62
256
 10
-446.746790999999970
 20
-180.187305000000010
 11
-427.246790999999970
 21
-180.187305000000010
  0
LINE
  8
0
  6
DASHED
 62
256
 10
-387.746790999999970
 20
-140.687305000000010
 11
-389.271792000000000
 21
-140.687305000000010
  0
LINE
  8
0
  6
DASHED
 62
256
 10
-387.246790999999970
 20
-120.687304999999990
 11
-387.246790999999970
 21
-140.187305000000010
  0
LINE
  8
0
  6
DASHED
 62
256
 10
-387.246790999999970
 20
-120.687304999999990
 11
-387.246790999999970
 21
-101.187304999999990
  0
LINE
  8
0
  6
DASHED
 62
256
 10
-387.746790999999970
 20
-100.687304999999990
 11
-389.271792000000000
 21
-100.687304999999990
  0
LINE
  8
0
  6
DASHED
 62
256
 10
-426.746790999999970
 20
-61.687305000000002
 11
-426.746790999999970
 21
-63.212305000000001
  0
LINE
  8
0
  6
DASHED
 62
256
 10
-446.746790999999970
 20
-61.187305000000002
 11
-427.246790999999970
 21
-61.187305000000002
  0
LINE
  8
0
  6
DASHDOT
 62
256
 10
-446.746790999999970
 20
-16.860441999999999
 11
-446.746790999999970
 21
-211.317824000000000
  0
ARC
  8
0
  6
DASHED
 62
256
 10
-389.271792000000000
 20
-100.187304999999990
 40
0.500000000000028
 50
182.934025000000020
 51
270.000000000000000
  0
ARC
  8
0
  6
DASHED
 62
256
 10
-426.246790999999970
 20
-63.212305000000001
 40
0.500000000000000
 50
180.000000000000000
 51
267.065974999999810
  0
ARC
  8
0
  6
DASHED
 62
256
 10
-467.246790999999970
 20
-63.212305000000001
 40
0.499999999999999
 50
272.934025000000190
 51
0.000000000000000
  0
ARC
  8
0
  6
DASHED
 62
256
 10
-466.246790999999970
 20
-61.687305000000002
 40
0.500000000000000
 50
90.000000000000000
 51
180.000000000000000
  0
ARC
  8
0
  6
DASHED
 62
256
 10
-446.746790999999970
 20
-463.187304999999980
 40
400.000000000000000
 50
92.934025000000005
 51
94.114345000000000
  0
ARC
  8
0
  6
DASHED
 62
256
 10
-473.293246000000010
 20
-94.140850000000000
 40
30.000000000000004
 50
94.114344999999972
 51
175.885655000000010
  0
ARC
  8
0
  6
DASHED
 62
256
 10
-104.246791000000000
 20
-120.687304999999990
 40
400.000000000000060
 50
175.885655000000010
 51
177.065975000000010
  0
ARC
  8
0
  6
DASHED
 62
256
 10
-504.221791000000000
 20
-100.187304999999990
 40
0.500000000000000
 50
270.000000000000000
 51
357.065974999999980
  0
ARC
  8
0
  6
DASHED
 62
256
 10
-505.746790999999970
 20
-101.187304999999990
 40
0.500000000000000
 50
90.000000000000000
 51
180.000000000000000
  0
ARC
  8
0
  6
DASHED
 62
256
 10
-504.221791000000000
 20
-100.187304999999990
 40
0.500000000000000
 50
270.000000000000000
 51
357.065974999999980
  0
ARC
  8
0
  6
DASHED
 62
256
 10
-505.746790999999970
 20
-101.187304999999990
 40
0.500000000000000
 50
90.000000000000000
 51
180.000000000000000
  0
ARC
  8
0
  6
DASHED
 62
256
 10
-504.221791000000000
 20
-141.187305000000010
 40
0.500000000000028
 50
2.934025000000031
 51
90.000000000000000
  0
ARC
  8
0
  6
DASHED
 62
256
 10
-504.221791000000000
 20
-141.187305000000010
 40
0.500000000000028
 50
2.934025000000031
 51
90.000000000000000
  0
ARC
  8
0
  6
DASHED
 62
256
 10
-505.746790999999970
 20
-140.187305000000010
 40
0.500000000000000
 50
180.000000000000000
 51
270.000000000000000
  0
ARC
  8
0
  6
DASHED
 62
256
 10
-104.246791000000000
 20
-120.687304999999990
 40
399.999999999999940
 50
182.934024999999990
 51
184.114344999999960
  0
ARC
  8
0
  6
DASHED
 62
256
 10
-473.293246000000010
 20
-147.233758999999990
 40
30.000000000000018
 50
184.114344999999960
 51
265.885655000000040
  0
ARC
  8
0
  6
DASHED
 62
256
 10
-446.746790999999970
 20
221.812694999999990
 40
399.999999999999940
 50
265.885654999999990
 51
267.065974999999980
  0
ARC
  8
0
  6
DASHED
 62
256
 10
-467.246790999999970
 20
-178.162304000000010
 40
0.500000000000000
 50
0.000000000000000
 51
87.065974999999796
  0
ARC
  8
0
  6
DASHED
 62
256
 10
-466.246790999999970
 20
-179.687305000000010
 40
0.500000000000000
 50
180.000000000000000
 51
270.000000000000000
  0
ARC
  8
0
  6
DASHED
 62
256
 10
-467.246790999999970
 20
-178.162304000000010
 40
0.500000000000000
 50
0.000000000000000
 51
87.065974999999796
  0
ARC
  8
0
  6
DASHED
 62
256
 10
-466.246790999999970
 20
-179.687305000000010
 40
0.500000000000000
 50
180.000000000000000
 51
270.000000000000000
  0
ARC
  8
0
  6
DASHED
 62
256
 10
-426.246790999999970
 20
-178.162304000000010
 40
0.499999999999999
 50
92.934025000000204
 51
180.000000000000000
  0
ARC
  8
0
  6
DASHED
 62
256
 10
-427.246790999999970
 20
-179.687305000000010
 40
0.500000000000000
 50
270.000000000000000
 51
0.000000000000000
  0
ARC
  8
0
  6
DASHED
 62
256
 10
-446.746790999999970
 20
221.812694999999990
 40
400.000000000000000
 50
272.934025000000020
 51
274.114345000000010
  0
ARC
  8
0
  6
DASHED
 62
256
 10
-420.200336999999990
 20
-147.233758999999990
 40
29.999999999999989
 50
274.114344999999960
 51
355.885654999999990
  0
ARC
  8
0
  6
DASHED
 62
256
 10
-789.246791000000030
 20
-120.687304999999990
 40
400.000000000000000
 50
2.934025000000001
 51
4.114344999999999
  0
ARC
  8
0
  6
DASHED
 62
256
 10
-389.271792000000000
 20
-141.187305000000010
 40
0.500000000000000
 50
90.000000000000000
 51
177.065974999999950
  0
ARC
  8
0
  6
DASHED
 62
256
 10
-789.246791000000030
 20
-120.687304999999990
 40
399.999999999999940
 50
355.885654999999990
 51
357.065974999999980
  0
ARC
  8
0
  6
DASHED
 62
256
 10
-387.746790999999970
 20
-140.187305000000010
 40
0.500000000000000
 50
270.000000000000000
 51
0.000000000000000
  0
ARC
  8
0
  6
DASHED
 62
256
 10
-387.746790999999970
 20
-101.187304999999990
 40
0.500000000000000
 50
0.000000000000000
 51
90.000000000000000
  0
ARC
  8
0
  6
DASHED
 62
256
 10
-420.200336999999990
 20
-94.140850000000000
 40
30.000000000000018
 50
4.114344999999991
 51
85.885655000000028
  0
ARC
  8
0
  6
DASHED
 62
256
 10
-446.746790999999970
 20
-463.187304999999980
 40
400.000000000000060
 50
85.885655000000000
 51
87.065974999999995
  0
ARC
  8
0
  6
DASHED
 62
256
 10
-427.246790999999970
 20
-61.687305000000002
 40
0.500000000000000
 50
0.000000000000000
 51
90.000000000000000
  0
LINE
  8
0
  6
CONTINUOUS
 62
256
 10
-492.746790999999970
 20
-208.449591000000000
 11
-398.246790999999970
 21
-206.800086999999990
  0
LINE
  8
0
  6
CONTINUOUS
 62
256
 10
-383.746790999999970
 20
-57.187305000000002
 11
-388.746790999999970
 21
-57.187305000000002
  0
LINE
  8
0
  6
CONTINUOUS
 62
256
 10
-383.746790999999970
 20
-152.187305000000010
 11
-388.746790999999970
 21
-152.187305000000010
  0
LINE
  8
0
  6
CONTINUOUS
 62
256
 10
-509.747188999999990
 20
-152.187305000000010
 11
-504.746790999999970
 21
-152.187305000000010
  0
LINE
  8
0
  6
CONTINUOUS
 62
256
 10
-509.747188999999990
 20
-57.187305000000002
 11
-504.746790999999970
 21
-57.187305000000002
  0
POINT
  8
0
  6
CONTINUOUS
 62
256
 10
-232.464618000000000
 20
-88.687304999999995
  0
LINE
  8
0
  6
DASHDOT
 62
256
 10
-211.244799000000000
 20
-104.687304999999990
 11
-252.341573000000010
 21
-104.687304999999990
  0
LINE
  8
0
  6
DASHDOT
 62
256
 10
-232.464618000000000
 20
-81.189291999999995
 11
-232.464618000000000
 21
-125.710797000000000
  0
LINE
  8
0
  6
CONTINUOUS
 62
256
 10
-227.464618000000000
 20
-85.687304999999995
 11
-227.464618000000000
 21
-93.687304999999995
  0
LINE
  8
0
  6
CONTINUOUS
 62
256
 10
-227.464618000000000
 20
-85.687304999999995
 11
-237.464618000000000
 21
-85.687304999999995
  0
LINE
  8
0
  6
CONTINUOUS
 62
256
 10
-237.464618000000000
 20
-85.687304999999995
 11
-237.464618000000000
 21
-93.687304999999995
  0
LINE
  8
0
  6
CONTINUOUS
 62
256
 10
-237.464618000000000
 20
-93.687304999999995
 11
-227.464618000000000
 21
-93.687304999999995
  0
ARC
  8
0
  6
CONTINUOUS
 62
256
 10
-232.464618000000000
 20
-104.687304999999990
 40
16.000000000000004
 50
108.209956999999970
 51
71.790043000000040
  0
CIRCLE
  8
0
  6
CONTINUOUS
 62
256
 10
-232.464618000000000
 20
-104.687304999999990
 40
4.000000000000000
  0
CIRCLE
  8
0
  6
CONTINUOUS
 62
256
 10
-232.464618000000000
 20
-104.687304999999990
 40
3.500000000000000
  0
ARC
  8
0
  6
CONTINUOUS
 62
256
 10
700.623378000000000
 20
-120.687147999999990
 40
289.396999999999990
 50
180.000000000000000
 51
187.897988999999970
  0
ARC
  8
0
  6
CONTINUOUS
 62
256
 10
419.914601000000000
 20
-159.628666000000010
 40
5.999999999999990
 50
187.897989000000000
 51
225.000000000000170
  0
ARC
  8
0
  6
CONTINUOUS
 62
256
 10
409.926763999999990
 20
-164.635735000000010
 40
6.600000000000022
 50
188.597082000000030
 51
224.999999999999830
  0
ARC
  8
0
  6
CONTINUOUS
 62
256
 10
431.300565000000010
 20
-124.687147999999990
 40
1.500000000000004
 50
7.928142000000149
 51
90.000000000000000
  0
ARC
  8
0
  6
CONTINUOUS
 62
256
 10
460.023377999999980
 20
-120.687147999999990
 40
33.500000000000007
 50
187.180756000000000
 51
232.819243999999940
  0
ARC
  8
0
  6
CONTINUOUS
 62
256
 10
460.023377999999980
 20
-120.687147999999990
 40
42.999999999999979
 50
185.531071999999990
 51
234.468927999999950
  0
ARC
  8
0
  6
CONTINUOUS
 62
256
 10
460.023377999999980
 20
-120.687147999999990
 40
36.999999999999979
 50
185.963570000000000
 51
234.036429999999970
  0
ARC
  8
0
  6
CONTINUOUS
 62
256
 10
442.197870000000020
 20
-143.561834000000000
 40
1.499999999999975
 50
329.999999999999490
 51
52.071857999999288
  0
ARC
  8
0
  6
CONTINUOUS
 62
256
 10
440.684769000000020
 20
-146.182602000000000
 40
1.499999999999994
 50
232.819243999999940
 51
329.999999999999490
  0
ARC
  8
0
  6
CONTINUOUS
 62
256
 10
437.413455000000000
 20
-151.848684999999990
 40
1.499999999999975
 50
329.999999999999490
 51
54.036429999999186
  0
LINE
  8
0
  6
CONTINUOUS
 62
256
 10
443.496908000000020
 20
-144.311834000000000
 11
441.983807000000010
 21
-146.932602000000000
  0
LINE
  8
0
  6
CONTINUOUS
 62
256
 10
438.712492999999990
 20
-152.598684999999990
 11
437.204925000000000
 21
-155.209868000000000
  0
ARC
  8
0
  6
CONTINUOUS
 62
256
 10
435.905887000000010
 20
-154.459868000000000
 40
1.499999999999989
 50
234.468928000000520
 51
329.999999999999490
  0
ARC
  8
0
  6
CONTINUOUS
 62
256
 10
472.433785000000000
 20
-150.182602000000000
 40
1.499999999999976
 50
292.819243999999230
 51
30.000000000000544
  0
LINE
  8
0
  6
CONTINUOUS
 62
256
 10
473.732823000000000
 20
-149.432602000000000
 11
472.219721999999990
 21
-146.811834000000000
  0
ARC
  8
0
  6
CONTINUOUS
 62
256
 10
475.705099000000020
 20
-155.848684999999990
 40
1.500000000000025
 50
29.999999999999456
 51
114.036429999999850
  0
LINE
  8
0
  6
CONTINUOUS
 62
256
 10
478.511705000000010
 20
-157.709868000000000
 11
477.004137000000010
 21
-155.098684999999990
  0
ARC
  8
0
  6
CONTINUOUS
 62
256
 10
477.212666000000010
 20
-158.459868000000000
 40
1.499999999999989
 50
294.468928000000010
 51
29.999999999999456
  0
ARC
  8
0
  6
CONTINUOUS
 62
256
 10
470.920683000000000
 20
-147.561834000000000
 40
1.499999999999975
 50
30.000000000000544
 51
112.071857999999120
  0
ARC
  8
0
  6
CONTINUOUS
 62
256
 10
460.023377999999980
 20
-120.687147999999990
 40
33.500000000000000
 50
247.180756000000030
 51
292.819243999999970
  0
ARC
  8
0
  6
CONTINUOUS
 62
256
 10
460.023377999999980
 20
-120.687147999999990
 40
43.000000000000007
 50
245.531071999999970
 51
294.468927999999950
  0
ARC
  8
0
  6
CONTINUOUS
 62
256
 10
460.023377999999980
 20
-120.687147999999990
 40
37.000000000000014
 50
245.963569999999950
 51
294.036429999999940
  0
ARC
  8
0
  6
CONTINUOUS
 62
256
 10
460.023377999999980
 20
-120.687147999999990
 40
27.500000000000004
 50
247.928142000000040
 51
292.071857999999960
  0
ARC
  8
0
  6
CONTINUOUS
 62
256
 10
449.126073000000020
 20
-147.561834000000000
 40
1.499999999999998
 50
67.928142000000889
 51
150.000000000000540
  0
ARC
  8
0
  6
CONTINUOUS
 62
256
 10
447.612972000000010
 20
-150.182602000000000
 40
1.500000000000025
 50
150.000000000000540
 51
247.180756000001140
  0
ARC
  8
0
  6
CONTINUOUS
 62
256
 10
444.341658000000000
 20
-155.848684999999990
 40
1.499999999999986
 50
65.963570000000146
 51
149.999999999999460
  0
LINE
  8
0
  6
CONTINUOUS
 62
256
 10
447.827035000000020
 20
-146.811834000000000
 11
446.313934000000020
 21
-149.432602000000000
  0
LINE
  8
0
  6
CONTINUOUS
 62
256
 10
443.042620000000000
 20
-155.098684999999990
 11
441.535052000000010
 21
-157.709868000000000
  0
ARC
  8
0
  6
CONTINUOUS
 62
256
 10
442.834091000000000
 20
-158.459868000000000
 40
1.499999999999975
 50
149.999999999999460
 51
245.531072000000020
  0
ARC
  8
0
  6
CONTINUOUS
 62
256
 10
479.361988000000000
 20
-146.182602000000000
 40
1.499999999999975
 50
210.000000000000510
 51
307.180756000000090
  0
LINE
  8
0
  6
CONTINUOUS
 62
256
 10
478.062950000000000
 20
-146.932602000000000
 11
476.549848999999990
 21
-144.311834000000000
  0
ARC
  8
0
  6
CONTINUOUS
 62
256
 10
482.633302000000010
 20
-151.848684999999990
 40
1.500000000000007
 50
125.963570000000810
 51
210.000000000000510
  0
LINE
  8
0
  6
CONTINUOUS
 62
256
 10
482.841832000000010
 20
-155.209868000000000
 11
481.334264000000020
 21
-152.598684999999990
  0
ARC
  8
0
  6
CONTINUOUS
 62
256
 10
484.140870000000010
 20
-154.459868000000000
 40
1.499999999999975
 50
210.000000000000510
 51
305.531071999999480
  0
ARC
  8
0
  6
CONTINUOUS
 62
256
 10
477.848886999999990
 20
-143.561834000000000
 40
1.500000000000018
 50
127.928142000000730
 51
210.000000000000510
  0
ARC
  8
0
  6
CONTINUOUS
 62
256
 10
460.023377999999980
 20
-120.687147999999990
 40
33.499999999999986
 50
307.180755999999920
 51
352.819244000000030
  0
ARC
  8
0
  6
CONTINUOUS
 62
256
 10
460.023377999999980
 20
-120.687147999999990
 40
43.000000000000014
 50
305.531071999999990
 51
354.468928000000010
  0
ARC
  8
0
  6
CONTINUOUS
 62
256
 10
460.023377999999980
 20
-120.687147999999990
 40
37.000000000000000
 50
305.963569999999950
 51
354.036430000000000
  0
ARC
  8
0
  6
CONTINUOUS
 62
256
 10
460.023377999999980
 20
-120.687147999999990
 40
27.500000000000004
 50
307.928141999999980
 51
352.071858000000020
  0
ARC
  8
0
  6
CONTINUOUS
 62
256
 10
488.746192000000010
 20
-124.687147999999990
 40
1.500000000000000
 50
90.000000000000000
 51
172.071857999999850
  0
ARC
  8
0
  6
CONTINUOUS
 62
256
 10
491.772394000000020
 20
-124.687147999999990
 40
1.500000000000028
 50
352.819243999999910
 51
90.000000000000000
  0
ARC
  8
0
  6
CONTINUOUS
 62
256
 10
498.315022000000000
 20
-124.687147999999990
 40
1.500000000000000
 50
90.000000000000000
 51
174.036430000000220
  0
LINE
  8
0
  6
CONTINUOUS
 62
256
 10
488.746192000000010
 20
-123.187147999999990
 11
491.772394000000020
 21
-123.187147999999990
  0
LINE
  8
0
  6
CONTINUOUS
 62
256
 10
498.315022000000000
 20
-123.187147999999990
 11
501.330157999999980
 21
-123.187147999999990
  0
ARC
  8
0
  6
CONTINUOUS
 62
256
 10
501.330157999999980
 20
-124.687147999999990
 40
1.499999999999979
 50
354.468927999999720
 51
90.000000000000000
  0
ARC
  8
0
  6
CONTINUOUS
 62
256
 10
479.361988000000000
 20
-95.191693999999998
 40
1.499999999999994
 50
52.819243999999927
 51
150.000000000000540
  0
LINE
  8
0
  6
CONTINUOUS
 62
256
 10
478.062950000000000
 20
-94.441693999999998
 11
476.549848999999990
 21
-97.062461999999996
  0
ARC
  8
0
  6
CONTINUOUS
 62
256
 10
482.633302000000010
 20
-89.525611999999995
 40
1.499999999999975
 50
149.999999999999460
 51
234.036429999999170
  0
ARC
  8
0
  6
CONTINUOUS
 62
256
 10
477.848886999999990
 20
-97.812461999999996
 40
1.500000000000025
 50
150.000000000000540
 51
232.071857999999280
  0
ARC
  8
0
  6
CONTINUOUS
 62
256
 10
460.023377999999980
 20
-120.687147999999990
 40
33.500000000000007
 50
7.180755999999994
 51
52.819243999999983
  0
ARC
  8
0
  6
CONTINUOUS
 62
256
 10
460.023377999999980
 20
-120.687147999999990
 40
42.999999999999979
 50
5.531071999999997
 51
54.468927999999984
  0
ARC
  8
0
  6
CONTINUOUS
 62
256
 10
460.023377999999980
 20
-120.687147999999990
 40
36.999999999999979
 50
5.963570000000011
 51
54.036430000000010
  0
ARC
  8
0
  6
CONTINUOUS
 62
256
 10
460.023377999999980
 20
-120.687147999999990
 40
27.499999999999986
 50
7.928141999999994
 51
52.071858000000006
  0
ARC
  8
0
  6
CONTINUOUS
 62
256
 10
488.746192000000010
 20
-116.687147999999990
 40
1.500000000000004
 50
187.928142000000150
 51
270.000000000000000
  0
ARC
  8
0
  6
CONTINUOUS
 62
256
 10
491.772394000000020
 20
-116.687147999999990
 40
1.500000000000000
 50
270.000000000000000
 51
7.180756000000089
  0
ARC
  8
0
  6
CONTINUOUS
 62
256
 10
498.315022000000000
 20
-116.687147999999990
 40
1.500000000000012
 50
185.963569999999780
 51
270.000000000000000
  0
LINE
  8
0
  6
CONTINUOUS
 62
256
 10
488.746192000000010
 20
-118.187147999999990
 11
491.772394000000020
 21
-118.187147999999990
  0
LINE
  8
0
  6
CONTINUOUS
 62
256
 10
498.315022000000000
 20
-118.187147999999990
 11
501.330157999999980
 21
-118.187147999999990
  0
ARC
  8
0
  6
CONTINUOUS
 62
256
 10
501.330157999999980
 20
-116.687147999999990
 40
1.500000000000000
 50
270.000000000000000
 51
5.531072000000276
  0
ARC
  8
0
  6
CONTINUOUS
 62
256
 10
472.433785000000000
 20
-91.191693999999998
 40
1.499999999999975
 50
329.999999999999490
 51
67.180756000000954
  0
LINE
  8
0
  6
CONTINUOUS
 62
256
 10
473.732823000000000
 20
-91.941693999999998
 11
472.219721999999990
 21
-94.562461999999996
  0
ARC
  8
0
  6
CONTINUOUS
 62
256
 10
470.920683000000000
 20
-93.812461999999996
 40
1.499999999999998
 50
247.928142000000830
 51
329.999999999999490
  0
ARC
  8
0
  6
CONTINUOUS
 62
256
 10
460.023377999999980
 20
-120.687147999999990
 40
33.500000000000000
 50
67.180756000000002
 51
112.819244000000000
  0
ARC
  8
0
  6
CONTINUOUS
 62
256
 10
460.023377999999980
 20
-120.687147999999990
 40
27.500000000000004
 50
67.928142000000022
 51
112.071857999999980
  0
ARC
  8
0
  6
CONTINUOUS
 62
256
 10
449.126073000000020
 20
-93.812461999999996
 40
1.499999999999975
 50
210.000000000000510
 51
292.071857999999110
  0
ARC
  8
0
  6
CONTINUOUS
 62
256
 10
447.612972000000010
 20
-91.191693999999998
 40
1.499999999999989
 50
112.819243999999050
 51
210.000000000000510
  0
LINE
  8
0
  6
CONTINUOUS
 62
256
 10
447.827035000000020
 20
-94.562461999999996
 11
446.313934000000020
 21
-91.941693999999998
  0
ARC
  8
0
  6
CONTINUOUS
 62
256
 10
460.023377999999980
 20
-120.687147999999990
 40
33.500000000000000
 50
127.180756000000040
 51
172.819244000000000
  0
ARC
  8
0
  6
CONTINUOUS
 62
256
 10
460.023377999999980
 20
-120.687147999999990
 40
37.000000000000000
 50
125.963569999999990
 51
174.036430000000000
  0
ARC
  8
0
  6
CONTINUOUS
 62
256
 10
437.413455000000000
 20
-89.525611999999995
 40
1.500000000000007
 50
305.963570000000860
 51
29.999999999999456
  0
ARC
  8
0
  6
CONTINUOUS
 62
256
 10
440.684769000000020
 20
-95.191693999999998
 40
1.499999999999975
 50
30.000000000000544
 51
127.180756000000090
  0
ARC
  8
0
  6
CONTINUOUS
 62
256
 10
460.023377999999980
 20
-120.687147999999990
 40
27.500000000000004
 50
127.928141999999990
 51
172.071857999999960
  0
ARC
  8
0
  6
CONTINUOUS
 62
256
 10
431.300565000000010
 20
-116.687147999999990
 40
1.500000000000000
 50
270.000000000000000
 51
352.071857999999850
  0
LINE
  8
0
  6
CONTINUOUS
 62
256
 10
443.496908000000020
 20
-97.062461999999996
 11
441.983807000000010
 21
-94.441693999999998
  0
ARC
  8
0
  6
CONTINUOUS
 62
256
 10
442.197870000000020
 20
-97.812461999999996
 40
1.500000000000018
 50
307.928142000000720
 51
30.000000000000544
  0
CIRCLE
  8
0
  6
CONTINUOUS
 62
256
 10
460.023377999999980
 20
-120.687147999999990
 40
5.000000000000000
  0
ARC
  8
0
  6
CONTINUOUS
 62
256
 10
451.976700999999990
 20
-114.749894000000000
 40
1.500000000000000
 50
323.578178000000040
 51
30.000000000000544
  0
ARC
  8
0
  6
CONTINUOUS
 62
256
 10
450.858227000000000
 20
-116.687147999999990
 40
1.500000000000000
 50
270.000000000000000
 51
336.421821999999620
  0
ARC
  8
0
  6
CONTINUOUS
 62
256
 10
445.488481999999980
 20
-103.511968999999990
 40
1.500000000000025
 50
29.999999999999456
 51
130.240347999999780
  0
ARC
  8
0
  6
CONTINUOUS
 62
256
 10
447.654062000000010
 20
-116.687147999999990
 40
1.500000000000024
 50
162.079787000000550
 51
270.000000000000000
  0
ARC
  8
0
  6
CONTINUOUS
 62
256
 10
440.938043999999990
 20
-116.687147999999990
 40
1.500000000000000
 50
270.000000000000000
 51
348.162996000000190
  0
ARC
  8
0
  6
CONTINUOUS
 62
256
 10
447.016610000000010
 20
-106.158762999999990
 40
1.499999999999989
 50
311.837003999999810
 51
29.999999999999456
  0
ARC
  8
0
  6
CONTINUOUS
 62
256
 10
437.881789000000030
 20
-116.687147999999990
 40
1.500000000000009
 50
169.759652000000300
 51
270.000000000000000
  0
ARC
  8
0
  6
CONTINUOUS
 62
256
 10
450.374618000000000
 20
-111.975005000000000
 40
1.499999999999975
 50
30.000000000000544
 51
137.920212999999820
  0
LINE
  8
0
  6
CONTINUOUS
 62
256
 10
448.315648000000010
 20
-105.408762999999990
 11
446.787519999999970
 21
-102.761968999999990
  0
ARC
  8
0
  6
CONTINUOUS
 62
256
 10
460.023377999999980
 20
-120.687147999999990
 40
14.500000000000012
 50
137.920213000000070
 51
162.079787000000010
  0
LINE
  8
0
  6
CONTINUOUS
 62
256
 10
447.654062000000010
 20
-118.187147999999990
 11
450.858227000000000
 21
-118.187147999999990
  0
LINE
  8
0
  6
CONTINUOUS
 62
256
 10
437.881789000000030
 20
-118.187147999999990
 11
440.938043999999990
 21
-118.187147999999990
  0
LINE
  8
0
  6
CONTINUOUS
 62
256
 10
453.275738999999990
 20
-113.999894000000000
 11
451.673656999999990
 21
-111.225005000000000
  0
ARC
  8
0
  6
CONTINUOUS
 62
256
 10
460.023377999999980
 20
-120.687147999999990
 40
23.999999999999989
 50
130.240348000000010
 51
169.759651999999960
  0
ARC
  8
0
  6
CONTINUOUS
 62
256
 10
460.023377999999980
 20
-120.687147999999990
 40
8.499999999999989
 50
143.578177999999950
 51
156.421821999999930
  0
ARC
  8
0
  6
CONTINUOUS
 62
256
 10
462.743935000000020
 20
-107.975005000000000
 40
1.499999999999975
 50
329.999999999999490
 51
77.920213000000885
  0
LINE
  8
0
  6
CONTINUOUS
 62
256
 10
464.042973000000020
 20
-108.725005000000000
 11
462.440891000000020
 21
-111.499894000000000
  0
ARC
  8
0
  6
CONTINUOUS
 62
256
 10
461.141853000000030
 20
-110.749894000000000
 40
1.500000000000001
 50
263.578178000000780
 51
329.999999999999490
  0
ARC
  8
0
  6
CONTINUOUS
 62
256
 10
460.023377999999980
 20
-120.687147999999990
 40
8.499999999999993
 50
83.578177999999980
 51
96.421822000000034
  0
ARC
  8
0
  6
CONTINUOUS
 62
256
 10
458.904903999999990
 20
-110.749894000000000
 40
1.499999999999975
 50
210.000000000000510
 51
276.421821999999220
  0
LINE
  8
0
  6
CONTINUOUS
 62
256
 10
457.605865999999990
 20
-111.499894000000000
 11
456.003784000000000
 21
-108.725005000000000
  0
ARC
  8
0
  6
CONTINUOUS
 62
256
 10
457.302821999999990
 20
-107.975005000000000
 40
1.500000000000002
 50
102.079786999999110
 51
210.000000000000510
  0
ARC
  8
0
  6
CONTINUOUS
 62
256
 10
460.023377999999980
 20
-120.687147999999990
 40
14.500000000000002
 50
77.920213000000032
 51
102.079786999999980
  0
ARC
  8
0
  6
CONTINUOUS
 62
256
 10
467.630071999999980
 20
-99.511968999999993
 40
1.499999999999975
 50
329.999999999999490
 51
70.240347999999329
  0
LINE
  8
0
  6
CONTINUOUS
 62
256
 10
468.929109999999980
 20
-100.261968999999990
 11
467.400982000000000
 21
-102.908762999999990
  0
ARC
  8
0
  6
CONTINUOUS
 62
256
 10
466.101944000000000
 20
-102.158762999999990
 40
1.500000000000007
 50
251.837003999999720
 51
329.999999999999490
  0
ARC
  8
0
  6
CONTINUOUS
 62
256
 10
460.023377999999980
 20
-120.687147999999990
 40
17.999999999999996
 50
71.837004000000007
 51
108.162996000000010
  0
ARC
  8
0
  6
CONTINUOUS
 62
256
 10
453.944813000000010
 20
-102.158762999999990
 40
1.499999999999975
 50
210.000000000000510
 51
288.162996000000310
  0
LINE
  8
0
  6
CONTINUOUS
 62
256
 10
452.645775000000010
 20
-102.908762999999990
 11
451.117646999999980
 21
-100.261968999999990
  0
ARC
  8
0
  6
CONTINUOUS
 62
256
 10
452.416684999999970
 20
-99.511968999999993
 40
1.500000000000012
 50
109.759652000000680
 51
210.000000000000510
  0
ARC
  8
0
  6
CONTINUOUS
 62
256
 10
460.023377999999980
 20
-120.687147999999990
 40
23.999999999999993
 50
70.240348000000012
 51
109.759651999999990
  0
ARC
  8
0
  6
CONTINUOUS
 62
256
 10
462.743935000000020
 20
-133.399291000000010
 40
1.499999999999989
 50
282.079786999999270
 51
30.000000000000544
  0
LINE
  8
0
  6
CONTINUOUS
 62
256
 10
464.042973000000020
 20
-132.649291000000010
 11
462.440891000000020
 21
-129.874402000000000
  0
ARC
  8
0
  6
CONTINUOUS
 62
256
 10
461.141853000000030
 20
-130.624402000000000
 40
1.499999999999975
 50
30.000000000000544
 51
96.421821999999253
  0
ARC
  8
0
  6
CONTINUOUS
 62
256
 10
460.023377999999980
 20
-120.687147999999990
 40
8.499999999999993
 50
263.578177999999980
 51
276.421822000000020
  0
ARC
  8
0
  6
CONTINUOUS
 62
256
 10
458.904903999999990
 20
-130.624402000000000
 40
1.500000000000001
 50
83.578178000000747
 51
150.000000000000540
  0
LINE
  8
0
  6
CONTINUOUS
 62
256
 10
457.605865999999990
 20
-129.874402000000000
 11
456.003784000000000
 21
-132.649291000000010
  0
ARC
  8
0
  6
CONTINUOUS
 62
256
 10
457.302821999999990
 20
-133.399291000000010
 40
1.500000000000025
 50
150.000000000000540
 51
257.920213000000730
  0
ARC
  8
0
  6
CONTINUOUS
 62
256
 10
460.023377999999980
 20
-120.687147999999990
 40
14.500000000000002
 50
257.920213000000050
 51
282.079786999999950
  0
ARC
  8
0
  6
CONTINUOUS
 62
256
 10
467.630071999999980
 20
-141.862326999999990
 40
1.500000000000012
 50
289.759652000000640
 51
30.000000000000544
  0
LINE
  8
0
  6
CONTINUOUS
 62
256
 10
468.929109999999980
 20
-141.112326999999990
 11
467.400982000000000
 21
-138.465532999999990
  0
ARC
  8
0
  6
CONTINUOUS
 62
256
 10
466.101944000000000
 20
-139.215532999999990
 40
1.500000000000025
 50
29.999999999999456
 51
108.162996000000290
  0
ARC
  8
0
  6
CONTINUOUS
 62
256
 10
460.023377999999980
 20
-120.687147999999990
 40
18.000000000000011
 50
251.837004000000010
 51
288.162996000000020
  0
ARC
  8
0
  6
CONTINUOUS
 62
256
 10
453.944813000000010
 20
-139.215532999999990
 40
1.500000000000007
 50
71.837003999999709
 51
149.999999999999460
  0
LINE
  8
0
  6
CONTINUOUS
 62
256
 10
452.645775000000010
 20
-138.465532999999990
 11
451.117646999999980
 21
-141.112326999999990
  0
ARC
  8
0
  6
CONTINUOUS
 62
256
 10
452.416684999999970
 20
-141.862326999999990
 40
1.499999999999975
 50
149.999999999999460
 51
250.240347999999300
  0
ARC
  8
0
  6
CONTINUOUS
 62
256
 10
460.023377999999980
 20
-120.687147999999990
 40
24.000000000000007
 50
250.240348000000010
 51
289.759652000000020
  0
ARC
  8
0
  6
CONTINUOUS
 62
256
 10
469.672139000000020
 20
-129.399291000000010
 40
1.499999999999975
 50
210.000000000000510
 51
317.920212999999420
  0
LINE
  8
0
  6
CONTINUOUS
 62
256
 10
468.373100000000020
 20
-130.149291000000010
 11
466.771018000000030
 21
-127.374402000000000
  0
ARC
  8
0
  6
CONTINUOUS
 62
256
 10
468.070056000000020
 20
-126.624402000000000
 40
1.500000000000000
 50
143.578178000000040
 51
210.000000000000510
  0
ARC
  8
0
  6
CONTINUOUS
 62
256
 10
460.023377999999980
 20
-120.687147999999990
 40
8.499999999999989
 50
323.578177999999920
 51
336.421821999999910
  0
ARC
  8
0
  6
CONTINUOUS
 62
256
 10
469.188530000000010
 20
-124.687147999999990
 40
1.500000000000000
 50
90.000000000000000
 51
156.421821999999620
  0
LINE
  8
0
  6
CONTINUOUS
 62
256
 10
469.188530000000010
 20
-123.187147999999990
 11
472.392695000000000
 21
-123.187147999999990
  0
ARC
  8
0
  6
CONTINUOUS
 62
256
 10
472.392695000000000
 20
-124.687147999999990
 40
1.500000000000024
 50
342.079787000000580
 51
90.000000000000000
  0
ARC
  8
0
  6
CONTINUOUS
 62
256
 10
460.023377999999980
 20
-120.687147999999990
 40
14.500000000000021
 50
317.920213000000050
 51
342.079787000000010
  0
ARC
  8
0
  6
CONTINUOUS
 62
256
 10
474.558274999999980
 20
-137.862326999999990
 40
1.499999999999975
 50
210.000000000000510
 51
310.240347999999810
  0
LINE
  8
0
  6
CONTINUOUS
 62
256
 10
473.259236999999980
 20
-138.612326999999990
 11
471.731109000000000
 21
-135.965532999999990
  0
ARC
  8
0
  6
CONTINUOUS
 62
256
 10
473.030147000000000
 20
-135.215532999999990
 40
1.499999999999989
 50
131.837003999999810
 51
210.000000000000510
  0
ARC
  8
0
  6
CONTINUOUS
 62
256
 10
460.023377999999980
 20
-120.687147999999990
 40
17.999999999999982
 50
311.837003999999980
 51
348.162995999999960
  0
ARC
  8
0
  6
CONTINUOUS
 62
256
 10
479.108713000000020
 20
-124.687147999999990
 40
1.500000000000000
 50
90.000000000000000
 51
168.162996000000190
  0
LINE
  8
0
  6
CONTINUOUS
 62
256
 10
479.108713000000020
 20
-123.187147999999990
 11
482.164967999999990
 21
-123.187147999999990
  0
ARC
  8
0
  6
CONTINUOUS
 62
256
 10
482.164967999999990
 20
-124.687147999999990
 40
1.500000000000009
 50
349.759652000000300
 51
90.000000000000000
  0
ARC
  8
0
  6
CONTINUOUS
 62
256
 10
460.023377999999980
 20
-120.687147999999990
 40
24.000000000000011
 50
310.240347999999980
 51
349.759652000000020
  0
ARC
  8
0
  6
CONTINUOUS
 62
256
 10
469.672139000000020
 20
-111.975005000000000
 40
1.499999999999994
 50
42.079787000000181
 51
150.000000000000540
  0
LINE
  8
0
  6
CONTINUOUS
 62
256
 10
468.373100000000020
 20
-111.225005000000000
 11
466.771018000000030
 21
-113.999894000000000
  0
ARC
  8
0
  6
CONTINUOUS
 62
256
 10
468.070056000000020
 20
-114.749894000000000
 40
1.500000000000025
 50
150.000000000000540
 51
216.421821999999960
  0
ARC
  8
0
  6
CONTINUOUS
 62
256
 10
460.023377999999980
 20
-120.687147999999990
 40
8.499999999999991
 50
23.578178000000058
 51
36.421822000000063
  0
ARC
  8
0
  6
CONTINUOUS
 62
256
 10
469.188530000000010
 20
-116.687147999999990
 40
1.499999999999984
 50
203.578178000000380
 51
270.000000000000000
  0
LINE
  8
0
  6
CONTINUOUS
 62
256
 10
469.188530000000010
 20
-118.187147999999990
 11
472.392695000000000
 21
-118.187147999999990
  0
ARC
  8
0
  6
CONTINUOUS
 62
256
 10
472.392695000000000
 20
-116.687147999999990
 40
1.500000000000000
 50
270.000000000000000
 51
17.920212999999450
  0
ARC
  8
0
  6
CONTINUOUS
 62
256
 10
460.023377999999980
 20
-120.687147999999990
 40
14.500000000000014
 50
17.920213000000000
 51
42.079786999999946
  0
ARC
  8
0
  6
CONTINUOUS
 62
256
 10
474.558274999999980
 20
-103.511968999999990
 40
1.499999999999991
 50
49.759652000000230
 51
150.000000000000540
  0
LINE
  8
0
  6
CONTINUOUS
 62
256
 10
473.259236999999980
 20
-102.761968999999990
 11
471.731109000000000
 21
-105.408762999999990
  0
ARC
  8
0
  6
CONTINUOUS
 62
256
 10
473.030147000000000
 20
-106.158762999999990
 40
1.499999999999975
 50
149.999999999999460
 51
228.162996000000190
  0
ARC
  8
0
  6
CONTINUOUS
 62
256
 10
460.023377999999980
 20
-120.687147999999990
 40
17.999999999999975
 50
11.837004000000027
 51
48.162996000000042
  0
ARC
  8
0
  6
CONTINUOUS
 62
256
 10
479.108713000000020
 20
-116.687147999999990
 40
1.499999999999997
 50
191.837003999999810
 51
270.000000000000000
  0
LINE
  8
0
  6
CONTINUOUS
 62
256
 10
479.108713000000020
 20
-118.187147999999990
 11
482.164967999999990
 21
-118.187147999999990
  0
ARC
  8
0
  6
CONTINUOUS
 62
256
 10
482.164967999999990
 20
-116.687147999999990
 40
1.500000000000000
 50
270.000000000000000
 51
10.240347999999715
  0
ARC
  8
0
  6
CONTINUOUS
 62
256
 10
460.023377999999980
 20
-120.687147999999990
 40
23.999999999999993
 50
10.240347999999988
 51
49.759652000000010
  0
ARC
  8
0
  6
CONTINUOUS
 62
256
 10
447.654062000000010
 20
-124.687147999999990
 40
1.500000000000000
 50
90.000000000000000
 51
197.920212999999450
  0
LINE
  8
0
  6
CONTINUOUS
 62
256
 10
447.654062000000010
 20
-123.187147999999990
 11
450.858227000000000
 21
-123.187147999999990
  0
ARC
  8
0
  6
CONTINUOUS
 62
256
 10
450.858227000000000
 20
-124.687147999999990
 40
1.499999999999984
 50
23.578178000000403
 51
90.000000000000000
  0
ARC
  8
0
  6
CONTINUOUS
 62
256
 10
460.023377999999980
 20
-120.687147999999990
 40
8.499999999999991
 50
203.578178000000070
 51
216.421822000000050
  0
ARC
  8
0
  6
CONTINUOUS
 62
256
 10
451.976700999999990
 20
-126.624402000000000
 40
1.499999999999975
 50
329.999999999999490
 51
36.421821999999963
  0
LINE
  8
0
  6
CONTINUOUS
 62
256
 10
453.275738999999990
 20
-127.374402000000000
 11
451.673656999999990
 21
-130.149291000000010
  0
ARC
  8
0
  6
CONTINUOUS
 62
256
 10
450.374618000000000
 20
-129.399291000000010
 40
1.500000000000003
 50
222.079787000000580
 51
329.999999999999490
  0
ARC
  8
0
  6
CONTINUOUS
 62
256
 10
460.023377999999980
 20
-120.687147999999990
 40
14.500000000000011
 50
197.920212999999930
 51
222.079786999999980
  0
ARC
  8
0
  6
CONTINUOUS
 62
256
 10
437.881789000000030
 20
-124.687147999999990
 40
1.500000000000000
 50
90.000000000000000
 51
190.240347999999700
  0
LINE
  8
0
  6
CONTINUOUS
 62
256
 10
437.881789000000030
 20
-123.187147999999990
 11
440.938043999999990
 21
-123.187147999999990
  0
ARC
  8
0
  6
CONTINUOUS
 62
256
 10
440.938043999999990
 20
-124.687147999999990
 40
1.499999999999997
 50
11.837003999999803
 51
90.000000000000000
  0
ARC
  8
0
  6
CONTINUOUS
 62
256
 10
460.023377999999980
 20
-120.687147999999990
 40
17.999999999999975
 50
191.837004000000010
 51
228.162996000000020
  0
ARC
  8
0
  6
CONTINUOUS
 62
256
 10
447.016610000000010
 20
-135.215532999999990
 40
1.499999999999975
 50
329.999999999999490
 51
48.162996000000220
  0
LINE
  8
0
  6
CONTINUOUS
 62
256
 10
448.315648000000010
 20
-135.965532999999990
 11
446.787519999999970
 21
-138.612326999999990
  0
ARC
  8
0
  6
CONTINUOUS
 62
256
 10
445.488481999999980
 20
-137.862326999999990
 40
1.499999999999991
 50
229.759652000000220
 51
329.999999999999490
  0
ARC
  8
0
  6
CONTINUOUS
 62
256
 10
460.023377999999980
 20
-120.687147999999990
 40
23.999999999999996
 50
190.240348000000040
 51
229.759652000000020
  0
ARC
  8
0
  6
CONTINUOUS
 62
256
 10
428.274362999999990
 20
-124.687147999999990
 40
1.500000000000000
 50
90.000000000000000
 51
187.180756000000090
  0
LINE
  8
0
  6
CONTINUOUS
 62
256
 10
428.274362999999990
 20
-123.187147999999990
 11
431.300565000000010
 21
-123.187147999999990
  0
ARC
  8
0
  6
CONTINUOUS
 62
256
 10
421.731734000000020
 20
-124.687147999999990
 40
1.500000000000012
 50
5.963569999999792
 51
90.000000000000000
  0
LINE
  8
0
  6
CONTINUOUS
 62
256
 10
418.716598999999970
 20
-123.187147999999990
 11
421.731734000000020
 21
-123.187147999999990
  0
LINE
  8
0
  6
CONTINUOUS
 62
256
 10
482.841832000000010
 20
-86.164428000000001
 11
481.334264000000020
 21
-88.775611999999995
  0
ARC
  8
0
  6
CONTINUOUS
 62
256
 10
484.140870000000010
 20
-86.914428000000001
 40
1.499999999999989
 50
54.468928000000517
 51
149.999999999999460
  0
ARC
  8
0
  6
CONTINUOUS
 62
256
 10
475.705099000000020
 20
-85.525611999999995
 40
1.499999999999999
 50
245.963570000000350
 51
329.999999999999490
  0
LINE
  8
0
  6
CONTINUOUS
 62
256
 10
478.511705000000010
 20
-83.664428000000001
 11
477.004137000000010
 21
-86.275611999999995
  0
ARC
  8
0
  6
CONTINUOUS
 62
256
 10
477.212666000000010
 20
-82.914428000000001
 40
1.499999999999975
 50
329.999999999999490
 51
65.531072000000222
  0
ARC
  8
0
  6
CONTINUOUS
 62
256
 10
460.023377999999980
 20
-120.687147999999990
 40
43.000000000000007
 50
65.531071999999980
 51
114.468928000000030
  0
ARC
  8
0
  6
CONTINUOUS
 62
256
 10
460.023377999999980
 20
-120.687147999999990
 40
36.999999999999986
 50
65.963570000000033
 51
114.036429999999980
  0
ARC
  8
0
  6
CONTINUOUS
 62
256
 10
444.341658000000000
 20
-85.525611999999995
 40
1.499999999999975
 50
210.000000000000510
 51
294.036429999999600
  0
LINE
  8
0
  6
CONTINUOUS
 62
256
 10
443.042620000000000
 20
-86.275611999999995
 11
441.535052000000010
 21
-83.664428000000001
  0
ARC
  8
0
  6
CONTINUOUS
 62
256
 10
442.834091000000000
 20
-82.914428000000001
 40
1.500000000000002
 50
114.468927999999780
 51
210.000000000000510
  0
ARC
  8
0
  6
CONTINUOUS
 62
256
 10
460.023377999999980
 20
-120.687147999999990
 40
43.000000000000014
 50
125.531072000000020
 51
174.468928000000010
  0
ARC
  8
0
  6
CONTINUOUS
 62
256
 10
435.905887000000010
 20
-86.914428000000001
 40
1.500000000000025
 50
29.999999999999456
 51
125.531071999999480
  0
ARC
  8
0
  6
CONTINUOUS
 62
256
 10
421.731734000000020
 20
-116.687147999999990
 40
1.500000000000000
 50
270.000000000000000
 51
354.036430000000220
  0
ARC
  8
0
  6
CONTINUOUS
 62
256
 10
428.274362999999990
 20
-116.687147999999990
 40
1.500000000000028
 50
172.819243999999910
 51
270.000000000000000
  0
LINE
  8
0
  6
CONTINUOUS
 62
256
 10
428.274362999999990
 20
-118.187147999999990
 11
431.300565000000010
 21
-118.187147999999990
  0
LINE
  8
0
  6
CONTINUOUS
 62
256
 10
438.712492999999990
 20
-88.775611999999995
 11
437.204925000000000
 21
-86.164428000000001
  0
LINE
  8
0
  6
CONTINUOUS
 62
256
 10
418.716598999999970
 20
-118.187147999999990
 11
421.731734000000020
 21
-118.187147999999990
  0
ARC
  8
0
  6
CONTINUOUS
 62
256
 10
460.023377999999980
 20
-120.687147999999990
 40
27.499999999999989
 50
187.928142000000010
 51
232.071857999999990
  0
ARC
  8
0
  6
CONTINUOUS
 62
256
 10
460.023377999999980
 20
-120.687147999999990
 40
17.999999999999982
 50
131.837003999999980
 51
168.162995999999990
  0
ARC
  8
0
  6
CONTINUOUS
 62
256
 10
418.716598999999970
 20
-124.687147999999990
 40
1.500000000000000
 50
90.000000000000000
 51
185.531072000000280
  0
ARC
  8
0
  6
CONTINUOUS
 62
256
 10
418.716598999999970
 20
-116.687147999999990
 40
1.499999999999979
 50
174.468927999999720
 51
270.000000000000000
  0
ARC
  8
0
  6
CONTINUOUS
 62
256
 10
700.623378000000000
 20
-120.687147999999990
 40
300.600000000000020
 50
180.000000000000000
 51
188.597082000000000
  0
ARC
  8
0
  6
CONTINUOUS
 62
256
 10
219.423378000000010
 20
-120.687147999999990
 40
300.600000000000080
 50
0.000000000000000
 51
8.597082000000000
  0
ARC
  8
0
  6
CONTINUOUS
 62
256
 10
409.926763999999990
 20
-76.738561000000004
 40
6.600000000000017
 50
135.000000000000170
 51
171.402918000000080
  0
ARC
  8
0
  6
CONTINUOUS
 62
256
 10
700.623378000000000
 20
-120.687147999999990
 40
300.600000000000020
 50
171.402918000000000
 51
180.000000000000000
  0
ARC
  8
0
  6
CONTINUOUS
 62
256
 10
510.119993000000020
 20
-76.738561000000004
 40
6.600000000000019
 50
8.597081999999919
 51
45.000000000000178
  0
ARC
  8
0
  6
CONTINUOUS
 62
256
 10
219.423378000000010
 20
-120.687147999999990
 40
300.600000000000080
 50
351.402918000000000
 51
0.000000000000000
  0
ARC
  8
0
  6
CONTINUOUS
 62
256
 10
510.119993000000020
 20
-164.635735000000010
 40
6.599999999999977
 50
314.999999999999830
 51
351.402917999999940
  0
LINE
  8
0
  6
CONTINUOUS
 62
256
 10
405.259859000000010
 20
-72.071656000000004
 11
412.326307999999980
 21
-65.005206999999999
  0
ARC
  8
0
  6
CONTINUOUS
 62
256
 10
431.135349000000020
 20
-83.814246999999995
 40
26.599999999999994
 50
96.051984999999974
 51
134.999999999999970
  0
LINE
  8
0
  6
CONTINUOUS
 62
256
 10
405.259859000000010
 20
-169.302640000000000
 11
412.326307999999980
 21
-176.369089000000000
  0
ARC
  8
0
  6
CONTINUOUS
 62
256
 10
431.135349000000020
 20
-157.560048999999990
 40
26.600000000000016
 50
224.999999999999940
 51
263.948015000000050
  0
LINE
  8
0
  6
CONTINUOUS
 62
256
 10
514.786897999999950
 20
-169.302640000000000
 11
507.720448999999970
 21
-176.369089000000000
  0
ARC
  8
0
  6
CONTINUOUS
 62
256
 10
460.023377999999980
 20
114.912852000000000
 40
300.600000000000020
 50
263.948015000000000
 51
276.051985000000000
  0
ARC
  8
0
  6
CONTINUOUS
 62
256
 10
488.911407999999990
 20
-157.560048999999990
 40
26.600000000000009
 50
276.051984999999950
 51
315.000000000000060
  0
ARC
  8
0
  6
CONTINUOUS
 62
256
 10
460.023377999999980
 20
-356.287148000000000
 40
300.600000000000020
 50
83.948014999999998
 51
96.051985000000002
  0
LINE
  8
0
  6
CONTINUOUS
 62
256
 10
514.786897999999950
 20
-72.071656000000004
 11
507.720448999999970
 21
-65.005206999999999
  0
ARC
  8
0
  6
CONTINUOUS
 62
256
 10
488.911407999999990
 20
-83.814246999999995
 40
26.600000000000016
 50
44.999999999999957
 51
83.948015000000026
  0
ARC
  8
0
  6
CONTINUOUS
 62
256
 10
431.135349000000020
 20
-157.560048999999990
 40
15.397000000000016
 50
224.999999999999910
 51
263.948015000000110
  0
LINE
  8
0
  6
CONTINUOUS
 62
256
 10
415.671960000000010
 20
-163.871307000000000
 11
420.248025999999980
 21
-168.447372000000000
  0
ARC
  8
0
  6
CONTINUOUS
 62
256
 10
460.023377999999980
 20
114.912852000000000
 40
289.397000000000050
 50
263.948015000000000
 51
270.000000000000000
  0
ARC
  8
0
  6
CONTINUOUS
 62
256
 10
700.623378000000000
 20
-120.687147999999990
 40
289.396999999999990
 50
172.102011000000030
 51
180.000000000000000
  0
ARC
  8
0
  6
CONTINUOUS
 62
256
 10
419.914601000000000
 20
-81.745630000000006
 40
5.999999999999989
 50
134.999999999999830
 51
172.102011000000000
  0
LINE
  8
0
  6
CONTINUOUS
 62
256
 10
415.671960000000010
 20
-77.502988999999999
 11
420.248025999999980
 21
-72.926924000000000
  0
ARC
  8
0
  6
CONTINUOUS
 62
256
 10
431.135349000000020
 20
-83.814246999999995
 40
15.397000000000000
 50
96.051984999999931
 51
135.000000000000090
  0
ARC
  8
0
  6
CONTINUOUS
 62
256
 10
460.023377999999980
 20
-356.287148000000000
 40
289.396999999999990
 50
90.000000000000000
 51
96.051985000000002
  0
ARC
  8
0
  6
CONTINUOUS
 62
256
 10
219.423378000000010
 20
-120.687147999999990
 40
289.396999999999990
 50
0.000000000000000
 51
7.897989000000000
  0
ARC
  8
0
  6
CONTINUOUS
 62
256
 10
500.132156000000010
 20
-81.745630000000006
 40
5.999999999999990
 50
7.897989000000010
 51
45.000000000000192
  0
LINE
  8
0
  6
CONTINUOUS
 62
256
 10
504.374797000000000
 20
-77.502988999999999
 11
499.798730999999980
 21
-72.926924000000000
  0
ARC
  8
0
  6
CONTINUOUS
 62
256
 10
488.911407999999990
 20
-83.814246999999995
 40
15.397000000000016
 50
44.999999999999929
 51
83.948015000000069
  0
ARC
  8
0
  6
CONTINUOUS
 62
256
 10
460.023377999999980
 20
-356.287148000000000
 40
289.396999999999990
 50
83.948014999999998
 51
90.000000000000000
  0
ARC
  8
0
  6
CONTINUOUS
 62
256
 10
219.423378000000010
 20
-120.687147999999990
 40
289.396999999999990
 50
352.102011000000000
 51
360.000000000000000
  0
ARC
  8
0
  6
CONTINUOUS
 62
256
 10
500.132156000000010
 20
-159.628666000000010
 40
5.999999999999989
 50
314.999999999999770
 51
352.102010999999950
  0
LINE
  8
0
  6
CONTINUOUS
 62
256
 10
504.374797000000000
 20
-163.871307000000000
 11
499.798730999999980
 21
-168.447372000000000
  0
ARC
  8
0
  6
CONTINUOUS
 62
256
 10
488.911407999999990
 20
-157.560048999999990
 40
15.397000000000000
 50
276.051984999999890
 51
314.999999999999940
  0
ARC
  8
0
  6
CONTINUOUS
 62
256
 10
460.023377999999980
 20
114.912852000000000
 40
289.396999999999990
 50
270.000000000000000
 51
276.051985000000000
  0
LINE
  8
0
  6
CONTINUOUS
 62
256
 10
430.030879000000030
 20
-57.187148000000001
 11
424.023377999999980
 21
-57.187148000000001
  0
LINE
  8
0
  6
CONTINUOUS
 62
256
 10
490.015877999999990
 20
-57.187148000000001
 11
496.023377999999980
 21
-57.187148000000001
  0
ARC
  8
0
  6
CONTINUOUS
 62
256
 10
429.023377999999980
 20
-29.820482999999999
 40
4.999999999999998
 50
96.032049000000015
 51
180.000000000000000
  0
LINE
  8
0
  6
CONTINUOUS
 62
256
 10
424.023377999999980
 20
-58.380845000000001
 11
424.023377999999980
 21
-29.820482999999999
  0
LINE
  8
0
  6
CONTINUOUS
 62
256
 10
496.023377999999980
 20
-58.380845000000001
 11
496.023377999999980
 21
-29.820482999999999
  0
ARC
  8
0
  6
CONTINUOUS
 62
256
 10
491.023377999999980
 20
-29.820482999999999
 40
5.000000000000000
 50
0.000000000000000
 51
83.967950999999999
  0
LINE
  8
0
  6
CONTINUOUS
 62
256
 10
462.523377999999980
 20
-22.687148000000001
 11
457.523377999999980
 21
-22.687148000000001
  0
LINE
  8
0
  6
CONTINUOUS
 62
256
 10
457.523377999999980
 20
-23.187149999999999
 11
457.523377999999980
 21
-22.687148000000001
  0
LINE
  8
0
  6
CONTINUOUS
 62
256
 10
462.523377999999980
 20
-23.197565000000001
 11
462.523377999999980
 21
-22.687148000000001
  0
ARC
  8
0
  6
CONTINUOUS
 62
256
 10
460.023377999999980
 20
-323.187147999999980
 40
300.000000000000000
 50
83.967950999999999
 51
96.032049000000001
  0
LINE
  8
0
  6
DASHDOT
 62
256
 10
526.028662000000050
 20
-120.687147999999990
 11
395.194150999999980
 21
-120.687147999999990
  0
LINE
  8
0
  6
DASHDOT
 62
256
 10
460.023377999999980
 20
-187.464800999999990
 11
460.023377999999980
 21
-8.981636000000000
  0
LINE
  8
0
  6
CONTINUOUS
 62
256
 10
402.023377999999980
 20
-34.116706000000001
 11
402.023377999999980
 21
-86.069233999999994
  0
LINE
  8
0
  6
CONTINUOUS
 62
256
 10
411.523377999999980
 20
-34.116706000000001
 11
402.023377999999980
 21
-34.116706000000001
  0
LINE
  8
0
  6
CONTINUOUS
 62
256
 10
397.023377999999980
 20
-56.958475000000000
 11
397.023377999999980
 21
-151.958474999999990
  0
LINE
  8
0
  6
CONTINUOUS
 62
256
 10
397.023377999999980
 20
-56.958475000000000
 11
402.023377999999980
 21
-56.958475000000000
  0
LINE
  8
0
  6
CONTINUOUS
 62
256
 10
424.023377999999980
 20
-33.898518000000003
 11
411.523377999999980
 21
-34.116706000000001
  0
LINE
  8
0
  6
CONTINUOUS
 62
256
 10
397.023377999999980
 20
-151.958474999999990
 11
401.654377000000010
 21
-151.958474999999990
  0
LINE
  8
0
  6
CONTINUOUS
 62
256
 10
397.023377999999980
 20
-87.187147999999993
 11
395.423515000000010
 21
-87.187147999999993
  0
ARC
  8
0
  6
CONTINUOUS
 62
256
 10
395.423515000000010
 20
-87.587147999999999
 40
0.400000000000006
 50
90.000000000000000
 51
180.000000000000000
  0
ARC
  8
0
  6
CONTINUOUS
 62
256
 10
394.623515000000000
 20
-88.287148000000002
 40
0.400000000000006
 50
270.000000000000000
 51
0.000000000000000
  0
LINE
  8
0
  6
CONTINUOUS
 62
256
 10
397.023377999999980
 20
-122.187147999999990
 11
395.423515000000010
 21
-122.187147999999990
  0
ARC
  8
0
  6
CONTINUOUS
 62
256
 10
395.423515000000010
 20
-121.787148000000000
 40
0.399999999999977
 50
180.000000000000000
 51
270.000000000000000
  0
ARC
  8
0
  6
CONTINUOUS
 62
256
 10
394.623515000000000
 20
-121.087148000000000
 40
0.399999999999977
 50
0.000000000000000
 51
90.000000000000000
  0
LINE
  8
0
  6
CONTINUOUS
 62
256
 10
395.023514999999970
 20
-87.587147999999999
 11
395.023514999999970
 21
-121.787148000000000
  0
LINE
  8
0
  6
CONTINUOUS
 62
256
 10
380.023584000000030
 20
-85.687147999999993
 11
380.023584000000030
 21
-88.687147999999993
  0
LINE
  8
0
  6
CONTINUOUS
 62
256
 10
380.023584000000030
 20
-85.687147999999993
 11
340.023584000000030
 21
-85.687147999999993
  0
LINE
  8
0
  6
CONTINUOUS
 62
256
 10
394.623515000000000
 20
-88.687147999999993
 11
340.823583999999980
 21
-88.687147999999993
  0
LINE
  8
0
  6
CONTINUOUS
 62
256
 10
394.623515000000000
 20
-120.687147999999990
 11
340.823583999999980
 21
-120.687147999999990
  0
LINE
  8
0
  6
DASHDOT
 62
256
 10
336.969990999999990
 20
-104.687147999999990
 11
531.392792999999980
 21
-104.687147999999990
  0
ARC
  8
0
  6
CONTINUOUS
 62
256
 10
340.823583999999980
 20
-89.487148000000005
 40
0.799999999999997
 50
90.000000000000000
 51
180.000000000000000
  0
ARC
  8
0
  6
CONTINUOUS
 62
256
 10
340.823583999999980
 20
-119.887148000000000
 40
0.800000000000011
 50
180.000000000000000
 51
270.000000000000000
  0
LINE
  8
0
  6
CONTINUOUS
 62
256
 10
340.023584000000030
 20
-85.687147999999993
 11
340.023584000000030
 21
-119.887148000000000
  0
LINE
  8
0
  6
CONTINUOUS
 62
256
 10
402.023377999999980
 20
-155.305061999999990
 11
402.023377999999980
 21
-206.800243999999990
  0
LINE
  8
0
  6
CONTINUOUS
 62
256
 10
411.523377999999980
 20
-206.800243999999990
 11
402.023377999999980
 21
-206.800243999999990
  0
LINE
  8
0
  6
CONTINUOUS
 62
256
 10
506.023377999999980
 20
-208.449748000000000
 11
411.523377999999980
 21
-206.800243999999990
  0
LINE
  8
0
  6
CONTINUOUS
 62
256
 10
506.023377999999980
 20
-177.925227000000010
 11
506.023377999999980
 21
-208.449748000000000
  0
LINE
  8
0
  6
CONTINUOUS
 62
256
 10
518.023776000000000
 20
-155.301632000000010
 11
518.023776000000000
 21
-207.740355999999990
  0
LINE
  8
0
  6
CONTINUOUS
 62
256
 10
517.523927999999960
 20
-208.249005000000010
 11
506.023377999999980
 21
-208.449748000000000
  0
LINE
  8
0
  6
CONTINUOUS
 62
256
 10
518.023776000000000
 20
-207.740355999999990
 11
517.523927999999960
 21
-208.249005000000010
  0
LINE
  8
0
  6
CONTINUOUS
 62
256
 10
518.392380000000000
 20
-151.958474999999990
 11
523.023776000000000
 21
-151.958474999999990
  0
LINE
  8
0
  6
CONTINUOUS
 62
256
 10
523.023776000000000
 20
-104.458475000000010
 11
523.023776000000000
 21
-151.958474999999990
  0
LINE
  8
0
  6
CONTINUOUS
 62
256
 10
518.023776000000000
 20
-86.072664000000003
 11
518.023776000000000
 21
-32.676670000000001
  0
LINE
  8
0
  6
CONTINUOUS
 62
256
 10
523.023776000000000
 20
-104.458475000000010
 11
523.023776000000000
 21
-56.958475000000000
  0
LINE
  8
0
  6
CONTINUOUS
 62
256
 10
518.023776000000000
 20
-56.958475000000000
 11
523.023776000000000
 21
-56.958475000000000
  0
LINE
  8
0
  6
CONTINUOUS
 62
256
 10
506.023377999999980
 20
-32.467202999999998
 11
506.023377999999980
 21
-63.449069000000001
  0
LINE
  8
0
  6
CONTINUOUS
 62
256
 10
518.023776000000000
 20
-32.676670000000001
 11
506.023377999999980
 21
-32.467202999999998
  0
LINE
  8
0
  6
CONTINUOUS
 62
256
 10
506.023377999999980
 20
-32.467202999999998
 11
496.023377999999980
 21
-32.641753000000001
  0
TEXT
  8
0
  6
CONTINUOUS
 62
256
 10
573.958374023437500
 20
-259.713043212890620
 40
3.299999952316284
  1
1/1
 50
0.000002504478167
 41
0.850909097352304
  7
STANDARD1
  0
TEXT
  8
0
  6
CONTINUOUS
 62
256
 10
571.540405273437500
 20
-259.713043212890620
 40
3.299999952316284
  1
 
 50
0.000002504478167
 41
1.733333298293026
  7
STANDARD1
  0
TEXT
  8
0
  6
CONTINUOUS
 62
256
 10
558.489746093750000
 20
-259.713043212890620
 40
3.299999952316284
  1
SCALE
 50
0.000002504478167
 41
0.821052645401140
  7
STANDARD1
  0
TEXT
  8
0
  6
CONTINUOUS
 62
256
 10
555.238403320312500
 20
-259.713043212890620
 40
3.299999952316284
  1
 
 50
0.000002504478167
 41
1.733333298293026
  7
STANDARD1
  0
TEXT
  8
0
  6
CONTINUOUS
 62
256
 10
570.092590332031250
 20
-254.413040161132810
 40
3.299999952316284
  1
1/240
 50
0.000002504478167
 41
0.821052645401140
  7
STANDARD1
  0
TEXT
  8
0
  6
CONTINUOUS
 62
256
 10
566.310546875000000
 20
-254.413040161132810
 40
3.299999952316284
  1
ü`
 50
0.000002504478167
 41
1.176000019651471
  7
STANDARD1
  0
TEXT
  8
0
  6
CONTINUOUS
 62
256
 10
555.238403320312500
 20
-254.413040161132810
 40
3.299999952316284
  1
1/80
 50
0.000002504478167
 41
0.832000075658163
  7
STANDARD1
  0
TEXT
  8
0
  6
CONTINUOUS
 62
256
 10
555.238403320312500
 20
-249.113037109375000
 40
3.299999952316284
  1
GM-SHYMB-RL
 50
0.000002504478167
 41
0.798139564113939
  7
STANDARD1
  0
TEXT
  8
0
  6
CONTINUOUS
 62
256
 10
561.063781738281250
 20
-243.813049316406250
 40
3.299999952316284
  1
0.4kW
 50
0.000002504478167
 41
0.821052645401140
  7
STANDARD1
  0
TEXT
  8
0
  6
CONTINUOUS
 62
256
 10
555.238403320312500
 20
-243.813049316406250
 40
3.299999952316284
  1
  
 50
0.000002504478167
 41
1.485714400175845
  7
STANDARD1
  0
TEXT
  8
0
  6
CONTINUOUS
 62
256
 10
561.057861328125000
 20
-238.513046264648440
 40
3.299999952316284
  1
SHY075
 50
0.000002504478167
 41
0.813913121261144
  7
STANDARD1
  0
TEXT
  8
0
  6
CONTINUOUS
 62
256
 10
555.238403320312500
 20
-238.513046264648440
 40
3.299999952316284
  1
  
 50
0.000002504478167
 41
1.485714400175845
  7
STANDARD1
  0
LINE
  8
0
  6
CONTINUOUS
 62
256
 10
82.255585999999994
 20
118.873161000000000
 11
67.155184000000006
 21
118.873161000000000
  0
LINE
  8
0
  6
CONTINUOUS
 62
256
 10
82.255585999999994
 20
190.302235999999990
 11
67.155184000000006
 21
190.302235999999990
  0
LINE
  8
0
  6
CONTINUOUS
 62
256
 10
81.955184000000003
 20
186.338490000000010
 11
67.155184000000006
 21
186.338490000000010
  0
LINE
  8
0
  6
CONTINUOUS
 62
256
 10
82.955184000000003
 20
118.587698000000000
 11
170.955184000000000
 21
118.587698000000000
  0
LINE
  8
0
  6
CONTINUOUS
 62
256
 10
82.955184000000003
 20
190.587697999999990
 11
170.955184000000000
 21
190.587697999999990
  0
LINE
  8
0
  6
CONTINUOUS
 62
256
 10
171.955184000000000
 20
189.587697999999990
 11
171.955184000000000
 21
119.587698000000000
  0
ARC
  8
0
  6
CONTINUOUS
 62
256
 10
170.955184000000000
 20
119.587698000000000
 40
1.000000000000000
 50
270.000000000000000
 51
0.000000000000000
  0
ARC
  8
0
  6
CONTINUOUS
 62
256
 10
170.955184000000000
 20
189.587697999999990
 40
1.000000000000000
 50
0.000000000000000
 51
90.000000000000000
  0
LINE
  8
0
  6
CONTINUOUS
 62
256
 10
81.955184000000003
 20
189.587697999999990
 11
81.955184000000003
 21
119.587698000000000
  0
ARC
  8
0
  6
CONTINUOUS
 62
256
 10
82.955184000000003
 20
189.587697999999990
 40
1.000000000000000
 50
90.000000000000000
 51
180.000000000000000
  0
ARC
  8
0
  6
CONTINUOUS
 62
256
 10
82.955184000000003
 20
119.587698000000000
 40
1.000000000000000
 50
180.000000000000000
 51
270.000000000000000
  0
LINE
  8
0
  6
CONTINUOUS
 62
256
 10
67.155184000000006
 20
96.087698000000003
 11
67.155184000000006
 21
154.587697999999990
  0
LINE
  8
0
  6
CONTINUOUS
 62
256
 10
67.155184000000006
 20
96.087698000000003
 11
164.155183999999990
 21
96.087698000000003
  0
LINE
  8
0
  6
DASHDOT
 62
256
 10
-159.330879000000010
 20
154.587697999999990
 11
277.084396000000030
 21
154.587697999999990
  0
LINE
  8
0
  6
CONTINUOUS
 62
256
 10
175.155183999999990
 20
208.327813999999990
 11
177.155183999999990
 21
206.675172000000000
  0
LINE
  8
0
  6
CONTINUOUS
 62
256
 10
173.155183999999990
 20
209.503599000000010
 11
175.155183999999990
 21
208.327813999999990
  0
LINE
  8
0
  6
CONTINUOUS
 62
256
 10
175.155183999999990
 20
208.327813999999990
 11
173.155183999999990
 21
206.675172000000000
  0
LINE
  8
0
  6
CONTINUOUS
 62
256
 10
177.155183999999990
 20
209.503599000000010
 11
175.155183999999990
 21
208.327813999999990
  0
POLYLINE
  8
0
  6
CONTINUOUS
 62
256
 66
1
 70
1
  0
VERTEX
  8
0
  6
CONTINUOUS
 62
256
 10
179.855183999999980
 20
206.511224000000000
  0
VERTEX
  8
0
  6
CONTINUOUS
 62
256
 10
179.764874817895160
 20
207.214180510558180
  0
VERTEX
  8
0
  6
CONTINUOUS
 62
256
 10
179.497417802803030
 20
207.890122796638140
  0
VERTEX
  8
0
  6
CONTINUOUS
 62
256
 10
179.063091177821950
 20
208.513074775258670
  0
VERTEX
  8
0
  6
CONTINUOUS
 62
256
 10
178.478585871576770
 20
209.059096751236840
  0
VERTEX
  8
0
  6
CONTINUOUS
 62
256
 10
177.766364095192100
 20
209.507205406248490
  0
VERTEX
  8
0
  6
CONTINUOUS
 62
256
 10
176.953796132115910
 20
209.840180175983730
  0
VERTEX
  8
0
  6
CONTINUOUS
 62
256
 10
176.072108513475800
 20
210.045225026776080
  0
VERTEX
  8
0
  6
CONTINUOUS
 62
256
 10
175.155183999999990
 20
210.114460200000000
  0
VERTEX
  8
0
  6
CONTINUOUS
 62
256
 10
174.238259486524190
 20
210.045225026776080
  0
VERTEX
  8
0
  6
CONTINUOUS
 62
256
 10
173.356571867884070
 20
209.840180175983730
  0
VERTEX
  8
0
  6
CONTINUOUS
 62
256
 10
172.544003904807880
 20
209.507205406248490
  0
VERTEX
  8
0
  6
CONTINUOUS
 62
256
 10
171.831782128423210
 20
209.059096751236840
  0
VERTEX
  8
0
  6
CONTINUOUS
 62
256
 10
171.247276822178040
 20
208.513074775258670
  0
VERTEX
  8
0
  6
CONTINUOUS
 62
256
 10
170.812950197196950
 20
207.890122796638140
  0
VERTEX
  8
0
  6
CONTINUOUS
 62
256
 10
170.545493182104820
 20
207.214180510558180
  0
VERTEX
  8
0
  6
CONTINUOUS
 62
256
 10
170.455184000000000
 20
206.511224000000000
  0
VERTEX
  8
0
  6
CONTINUOUS
 62
256
 10
170.545493182104820
 20
205.808267489441820
  0
VERTEX
  8
0
  6
CONTINUOUS
 62
256
 10
170.812950197196950
 20
205.132325203361860
  0
VERTEX
  8
0
  6
CONTINUOUS
 62
256
 10
171.247276822178040
 20
204.509373224741320
  0
VERTEX
  8
0
  6
CONTINUOUS
 62
256
 10
171.831782128423210
 20
203.963351248763160
  0
VERTEX
  8
0
  6
CONTINUOUS
 62
256
 10
172.544003904807880
 20
203.515242593751510
  0
VERTEX
  8
0
  6
CONTINUOUS
 62
256
 10
173.356571867884070
 20
203.182267824016260
  0
VERTEX
  8
0
  6
CONTINUOUS
 62
256
 10
174.238259486524190
 20
202.977222973223950
  0
VERTEX
  8
0
  6
CONTINUOUS
 62
256
 10
175.155183999999990
 20
202.907987800000000
  0
VERTEX
  8
0
  6
CONTINUOUS
 62
256
 10
176.072108513475800
 20
202.977222973223950
  0
VERTEX
  8
0
  6
CONTINUOUS
 62
256
 10
176.953796132115910
 20
203.182267824016260
  0
VERTEX
  8
0
  6
CONTINUOUS
 62
256
 10
177.766364095192100
 20
203.515242593751510
  0
VERTEX
  8
0
  6
CONTINUOUS
 62
256
 10
178.478585871576740
 20
203.963351248763160
  0
VERTEX
  8
0
  6
CONTINUOUS
 62
256
 10
179.063091177821950
 20
204.509373224741320
  0
VERTEX
  8
0
  6
CONTINUOUS
 62
256
 10
179.497417802803030
 20
205.132325203361860
  0
VERTEX
  8
0
  6
CONTINUOUS
 62
256
 10
179.764874817895160
 20
205.808267489441820
  0
SEQEND
  8
0
  6
CONTINUOUS
 62
256
  0
LINE
  8
0
  6
CONTINUOUS
 62
256
 10
164.155183999999990
 20
99.587698000000003
 11
67.155184000000006
 21
99.587698000000003
  0
LINE
  8
0
  6
CONTINUOUS
 62
256
 10
164.155183999999990
 20
98.587698000000003
 11
67.155184000000006
 21
98.587698000000003
  0
LINE
  8
0
  6
CONTINUOUS
 62
256
 10
164.155183999999990
 20
97.587698000000003
 11
67.155184000000006
 21
97.587698000000003
  0
LINE
  8
0
  6
CONTINUOUS
 62
256
 10
164.155183999999990
 20
97.087698000000003
 11
67.155184000000006
 21
97.087698000000003
  0
ARC
  8
0
  6
CONTINUOUS
 62
256
 10
264.555184000000000
 20
202.030903999999990
 40
2.600000000000023
 50
0.000000000000000
 51
54.999999999999801
  0
LINE
  8
0
  6
CONTINUOUS
 62
256
 10
256.320737000000010
 20
210.970739000000010
 11
266.046483000000020
 21
204.160698999999990
  0
ARC
  8
0
  6
CONTINUOUS
 62
256
 10
244.849208000000000
 20
194.587697999999990
 40
20.000000000000004
 50
55.000000000000050
 51
90.000000000000000
  0
LINE
  8
0
  6
CONTINUOUS
 62
256
 10
267.155184000000020
 20
154.587697999999990
 11
267.155184000000020
 21
202.030903999999990
  0
LINE
  8
0
  6
CONTINUOUS
 62
256
 10
164.155183999999990
 20
214.587697999999990
 11
244.849208000000000
 21
214.587697999999990
  0
LINE
  8
0
  6
CONTINUOUS
 62
256
 10
67.155184000000006
 20
213.087697999999990
 11
67.155184000000006
 21
154.587697999999990
  0
LINE
  8
0
  6
CONTINUOUS
 62
256
 10
67.155184000000006
 20
213.087697999999990
 11
164.155183999999990
 21
213.087697999999990
  0
LINE
  8
0
  6
CONTINUOUS
 62
256
 10
174.155183999999990
 20
189.587697999999990
 11
174.155183999999990
 21
154.587697999999990
  0
ARC
  8
0
  6
CONTINUOUS
 62
256
 10
167.155183999999990
 20
195.587697999999990
 40
3.000000000000000
 50
180.000000000000000
 51
270.000000000000000
  0
LINE
  8
0
  6
CONTINUOUS
 62
256
 10
167.155183999999990
 20
192.587697999999990
 11
171.155183999999990
 21
192.587697999999990
  0
ARC
  8
0
  6
CONTINUOUS
 62
256
 10
171.155183999999990
 20
189.587697999999990
 40
3.000000000000000
 50
0.000000000000000
 51
90.000000000000000
  0
LINE
  8
0
  6
CONTINUOUS
 62
256
 10
164.155183999999990
 20
195.587697999999990
 11
164.155183999999990
 21
214.587697999999990
  0
LINE
  8
0
  6
CONTINUOUS
 62
256
 10
174.155183999999990
 20
186.338490000000010
 11
171.955184000000000
 21
186.338490000000010
  0
LINE
  8
0
  6
CONTINUOUS
 62
256
 10
174.068848000000000
 20
190.302235999999990
 11
171.654781000000010
 21
190.302235999999990
  0
LINE
  8
0
  6
CONTINUOUS
 62
256
 10
173.058177000000000
 20
191.906883999999990
 11
67.155184000000006
 21
191.906883999999990
  0
LINE
  8
0
  6
CONTINUOUS
 62
256
 10
164.155183999999990
 20
199.953485000000000
 11
67.155184000000006
 21
199.953485000000000
  0
LINE
  8
0
  6
CONTINUOUS
 62
256
 10
164.155183999999990
 20
204.903233000000000
 11
67.155184000000006
 21
204.903233000000000
  0
LINE
  8
0
  6
CONTINUOUS
 62
256
 10
164.155183999999990
 20
209.587697999999990
 11
67.155184000000006
 21
209.587697999999990
  0
LINE
  8
0
  6
CONTINUOUS
 62
256
 10
164.155183999999990
 20
210.587697999999990
 11
67.155184000000006
 21
210.587697999999990
  0
LINE
  8
0
  6
CONTINUOUS
 62
256
 10
164.155183999999990
 20
212.087697999999990
 11
67.155184000000006
 21
212.087697999999990
  0
LINE
  8
0
  6
CONTINUOUS
 62
256
 10
164.155183999999990
 20
211.587697999999990
 11
67.155184000000006
 21
211.587697999999990
  0
LINE
  8
0
  6
CONTINUOUS
 62
256
 10
174.155183999999990
 20
174.587697999999990
 11
171.955184000000000
 21
174.587697999999990
  0
LINE
  8
0
  6
CONTINUOUS
 62
256
 10
81.955184000000003
 20
174.587697999999990
 11
67.155184000000006
 21
174.587697999999990
  0
LINE
  8
0
  6
CONTINUOUS
 62
256
 10
174.155183999999990
 20
180.779631999999990
 11
171.955184000000000
 21
180.779631999999990
  0
LINE
  8
0
  6
CONTINUOUS
 62
256
 10
81.955184000000003
 20
180.779631999999990
 11
67.155184000000006
 21
180.779631999999990
  0
LINE
  8
0
  6
CONTINUOUS
 62
256
 10
81.955184000000003
 20
128.395765000000010
 11
67.155184000000006
 21
128.395765000000010
  0
LINE
  8
0
  6
CONTINUOUS
 62
256
 10
174.155183999999990
 20
179.417752000000010
 11
171.955184000000000
 21
179.417752000000010
  0
LINE
  8
0
  6
CONTINUOUS
 62
256
 10
81.955184000000003
 20
134.587697999999990
 11
67.155184000000006
 21
134.587697999999990
  0
LINE
  8
0
  6
CONTINUOUS
 62
256
 10
81.955184000000003
 20
179.417752000000010
 11
67.155184000000006
 21
179.417752000000010
  0
LINE
  8
0
  6
CONTINUOUS
 62
256
 10
81.955184000000003
 20
124.305263999999990
 11
67.155184000000006
 21
124.305263999999990
  0
LINE
  8
0
  6
CONTINUOUS
 62
256
 10
174.155183999999990
 20
184.870133000000010
 11
171.955184000000000
 21
184.870133000000010
  0
LINE
  8
0
  6
CONTINUOUS
 62
256
 10
81.955184000000003
 20
129.757645000000000
 11
67.155184000000006
 21
129.757645000000000
  0
LINE
  8
0
  6
CONTINUOUS
 62
256
 10
81.955184000000003
 20
184.870133000000010
 11
67.155184000000006
 21
184.870133000000010
  0
LINE
  8
0
  6
CONTINUOUS
 62
256
 10
174.155183999999990
 20
134.587697999999990
 11
171.955184000000000
 21
134.587697999999990
  0
LINE
  8
0
  6
CONTINUOUS
 62
256
 10
174.155183999999990
 20
129.757645000000000
 11
171.955184000000000
 21
129.757645000000000
  0
LINE
  8
0
  6
CONTINUOUS
 62
256
 10
174.155183999999990
 20
128.395765000000010
 11
171.955184000000000
 21
128.395765000000010
  0
LINE
  8
0
  6
CONTINUOUS
 62
256
 10
174.155183999999990
 20
124.305263999999990
 11
171.955184000000000
 21
124.305263999999990
  0
LINE
  8
0
  6
CONTINUOUS
 62
256
 10
81.955184000000003
 20
122.836907000000000
 11
67.155184000000006
 21
122.836907000000000
  0
LINE
  8
0
  6
CONTINUOUS
 62
256
 10
174.068848000000000
 20
118.873161000000000
 11
171.654781000000010
 21
118.873161000000000
  0
LINE
  8
0
  6
CONTINUOUS
 62
256
 10
173.058177000000000
 20
117.268513000000000
 11
67.155184000000006
 21
117.268513000000000
  0
LINE
  8
0
  6
CONTINUOUS
 62
256
 10
164.155183999999990
 20
109.221912000000000
 11
67.155184000000006
 21
109.221912000000000
  0
LINE
  8
0
  6
CONTINUOUS
 62
256
 10
164.155183999999990
 20
104.272164000000000
 11
67.155184000000006
 21
104.272164000000000
  0
LINE
  8
0
  6
CONTINUOUS
 62
256
 10
174.155183999999990
 20
119.587698000000000
 11
174.155183999999990
 21
154.587697999999990
  0
ARC
  8
0
  6
CONTINUOUS
 62
256
 10
167.155183999999990
 20
113.587698000000000
 40
3.000000000000000
 50
90.000000000000000
 51
180.000000000000000
  0
LINE
  8
0
  6
CONTINUOUS
 62
256
 10
167.155183999999990
 20
116.587698000000000
 11
171.155183999999990
 21
116.587698000000000
  0
ARC
  8
0
  6
CONTINUOUS
 62
256
 10
171.155183999999990
 20
119.587698000000000
 40
3.000000000000000
 50
270.000000000000000
 51
0.000000000000000
  0
LINE
  8
0
  6
CONTINUOUS
 62
256
 10
164.155183999999990
 20
113.587698000000000
 11
164.155183999999990
 21
94.587698000000003
  0
ARC
  8
0
  6
CONTINUOUS
 62
256
 10
264.555184000000000
 20
107.144493000000000
 40
2.600000000000007
 50
305.000000000000000
 51
0.000000000000000
  0
LINE
  8
0
  6
CONTINUOUS
 62
256
 10
256.320737000000010
 20
98.204657999999995
 11
266.046483000000020
 21
105.014698000000000
  0
ARC
  8
0
  6
CONTINUOUS
 62
256
 10
244.849208000000000
 20
114.587698000000000
 40
20.000000000000000
 50
270.000000000000000
 51
304.999999999999940
  0
LINE
  8
0
  6
CONTINUOUS
 62
256
 10
267.155184000000020
 20
154.587697999999990
 11
267.155184000000020
 21
107.144493000000000
  0
LINE
  8
0
  6
CONTINUOUS
 62
256
 10
164.155183999999990
 20
94.587698000000003
 11
244.849208000000000
 21
94.587698000000003
  0
LINE
  8
0
  6
CONTINUOUS
 62
256
 10
175.155183999999990
 20
100.847583000000000
 11
177.155183999999990
 21
102.500225000000000
  0
LINE
  8
0
  6
CONTINUOUS
 62
256
 10
173.155183999999990
 20
99.671797999999995
 11
175.155183999999990
 21
100.847583000000000
  0
LINE
  8
0
  6
CONTINUOUS
 62
256
 10
175.155183999999990
 20
100.847583000000000
 11
173.155183999999990
 21
102.500225000000000
  0
LINE
  8
0
  6
CONTINUOUS
 62
256
 10
177.155183999999990
 20
99.671797999999995
 11
175.155183999999990
 21
100.847583000000000
  0
POLYLINE
  8
0
  6
CONTINUOUS
 62
256
 66
1
 70
1
  0
VERTEX
  8
0
  6
CONTINUOUS
 62
256
 10
179.855183999999980
 20
102.664173000000010
  0
VERTEX
  8
0
  6
CONTINUOUS
 62
256
 10
179.764874817895160
 20
103.367129510558170
  0
VERTEX
  8
0
  6
CONTINUOUS
 62
256
 10
179.497417802803030
 20
104.043071796638150
  0
VERTEX
  8
0
  6
CONTINUOUS
 62
256
 10
179.063091177821950
 20
104.666023775258670
  0
VERTEX
  8
0
  6
CONTINUOUS
 62
256
 10
178.478585871576770
 20
105.212045751236840
  0
VERTEX
  8
0
  6
CONTINUOUS
 62
256
 10
177.766364095192100
 20
105.660154406248490
  0
VERTEX
  8
0
  6
CONTINUOUS
 62
256
 10
176.953796132115910
 20
105.993129175983750
  0
VERTEX
  8
0
  6
CONTINUOUS
 62
256
 10
176.072108513475800
 20
106.198174026776070
  0
VERTEX
  8
0
  6
CONTINUOUS
 62
256
 10
175.155183999999990
 20
106.267409200000000
  0
VERTEX
  8
0
  6
CONTINUOUS
 62
256
 10
174.238259486524190
 20
106.198174026776070
  0
VERTEX
  8
0
  6
CONTINUOUS
 62
256
 10
173.356571867884070
 20
105.993129175983750
  0
VERTEX
  8
0
  6
CONTINUOUS
 62
256
 10
172.544003904807880
 20
105.660154406248490
  0
VERTEX
  8
0
  6
CONTINUOUS
 62
256
 10
171.831782128423210
 20
105.212045751236840
  0
VERTEX
  8
0
  6
CONTINUOUS
 62
256
 10
171.247276822178040
 20
104.666023775258670
  0
VERTEX
  8
0
  6
CONTINUOUS
 62
256
 10
170.812950197196950
 20
104.043071796638150
  0
VERTEX
  8
0
  6
CONTINUOUS
 62
256
 10
170.545493182104820
 20
103.367129510558170
  0
VERTEX
  8
0
  6
CONTINUOUS
 62
256
 10
170.455184000000000
 20
102.664173000000010
  0
VERTEX
  8
0
  6
CONTINUOUS
 62
256
 10
170.545493182104820
 20
101.961216489441840
  0
VERTEX
  8
0
  6
CONTINUOUS
 62
256
 10
170.812950197196950
 20
101.285274203361870
  0
VERTEX
  8
0
  6
CONTINUOUS
 62
256
 10
171.247276822178040
 20
100.662322224741350
  0
VERTEX
  8
0
  6
CONTINUOUS
 62
256
 10
171.831782128423210
 20
100.116300248763170
  0
VERTEX
  8
0
  6
CONTINUOUS
 62
256
 10
172.544003904807880
 20
99.668191593751516
  0
VERTEX
  8
0
  6
CONTINUOUS
 62
256
 10
173.356571867884070
 20
99.335216824016271
  0
VERTEX
  8
0
  6
CONTINUOUS
 62
256
 10
174.238259486524190
 20
99.130171973223938
  0
VERTEX
  8
0
  6
CONTINUOUS
 62
256
 10
175.155183999999990
 20
99.060936800000007
  0
VERTEX
  8
0
  6
CONTINUOUS
 62
256
 10
176.072108513475800
 20
99.130171973223938
  0
VERTEX
  8
0
  6
CONTINUOUS
 62
256
 10
176.953796132115910
 20
99.335216824016257
  0
VERTEX
  8
0
  6
CONTINUOUS
 62
256
 10
177.766364095192100
 20
99.668191593751516
  0
VERTEX
  8
0
  6
CONTINUOUS
 62
256
 10
178.478585871576740
 20
100.116300248763170
  0
VERTEX
  8
0
  6
CONTINUOUS
 62
256
 10
179.063091177821950
 20
100.662322224741350
  0
VERTEX
  8
0
  6
CONTINUOUS
 62
256
 10
179.497417802803030
 20
101.285274203361870
  0
VERTEX
  8
0
  6
CONTINUOUS
 62
256
 10
179.764874817895160
 20
101.961216489441840
  0
SEQEND
  8
0
  6
CONTINUOUS
 62
256
  0
ARC
  8
0
  6
CONTINUOUS
 62
256
 10
-78.344815999999994
 20
74.587506000000005
 40
5.000000000000000
 50
0.000000000000000
 51
180.000000000000000
  0
LINE
  8
0
  6
CONTINUOUS
 62
256
 10
-73.344815999999994
 20
34.587505999999998
 11
-73.344815999999994
 21
74.587506000000005
  0
LINE
  8
0
  6
CONTINUOUS
 62
256
 10
-73.344815999999994
 20
74.587506000000005
 11
-83.344815999999994
 21
74.587506000000005
  0
LINE
  8
0
  6
CONTINUOUS
 62
256
 10
-83.344815999999994
 20
34.587505999999998
 11
-83.344815999999994
 21
74.587506000000005
  0
ARC
  8
0
  6
CONTINUOUS
 62
256
 10
-93.544417999999993
 20
35.387506000000002
 40
0.799999999999997
 50
180.000000000000000
 51
270.000000000000000
  0
LINE
  8
0
  6
CONTINUOUS
 62
256
 10
-94.344418000000005
 20
89.187437000000003
 11
-94.344418000000005
 21
35.387506000000002
  0
ARC
  8
0
  6
CONTINUOUS
 62
256
 10
-94.744417999999996
 20
89.187437000000003
 40
0.400000000000006
 50
0.000000000000000
 51
90.000000000000000
  0
ARC
  8
0
  6
CONTINUOUS
 62
256
 10
-95.444417999999999
 20
89.987437000000000
 40
0.400000000000006
 50
180.000000000000000
 51
270.000000000000000
  0
LINE
  8
0
  6
CONTINUOUS
 62
256
 10
-62.344417999999997
 20
34.587505999999998
 11
-93.544417999999993
 21
34.587505999999998
  0
ARC
  8
0
  6
CONTINUOUS
 62
256
 10
-63.144418000000002
 20
35.387506000000002
 40
0.799999999999997
 50
270.000000000000000
 51
0.000000000000000
  0
LINE
  8
0
  6
CONTINUOUS
 62
256
 10
-61.244418000000003
 20
89.587436999999994
 11
-95.444417999999999
 21
89.587436999999994
  0
LINE
  8
0
  6
CONTINUOUS
 62
256
 10
-62.344417999999997
 20
89.187437000000003
 11
-62.344417999999997
 21
35.387506000000002
  0
ARC
  8
0
  6
CONTINUOUS
 62
256
 10
-61.944417999999999
 20
89.187437000000003
 40
0.400000000000006
 50
90.000000000000000
 51
180.000000000000000
  0
ARC
  8
0
  6
CONTINUOUS
 62
256
 10
-61.244418000000003
 20
89.987437000000000
 40
0.400000000000006
 50
270.000000000000000
 51
0.000000000000000
  0
LINE
  8
0
  6
CONTINUOUS
 62
256
 10
-95.844418000000005
 20
91.587300999999997
 11
-95.844418000000005
 21
89.987437000000000
  0
LINE
  8
0
  6
CONTINUOUS
 62
256
 10
-60.844417999999997
 20
91.587300999999997
 11
-60.844417999999997
 21
89.987437000000000
  0
LINE
  8
0
  6
CONTINUOUS
 62
256
 10
-30.844816000000002
 20
217.587697999999990
 11
-30.844816000000002
 21
212.587697999999990
  0
LINE
  8
0
  6
CONTINUOUS
 62
256
 10
-125.844815999999990
 20
217.587697999999990
 11
-125.844815999999990
 21
212.587697999999990
  0
LINE
  8
0
  6
CONTINUOUS
 62
256
 10
-125.844815999999990
 20
217.587697999999990
 11
-30.844816000000002
 21
217.587697999999990
  0
LINE
  8
0
  6
CONTINUOUS
 62
256
 10
-78.573488999999995
 20
91.587300999999997
 11
-30.844816000000002
 21
91.587300999999997
  0
LINE
  8
0
  6
CONTINUOUS
 62
256
 10
-30.844816000000002
 20
91.587300999999997
 11
-30.844816000000002
 21
96.587698000000003
  0
LINE
  8
0
  6
CONTINUOUS
 62
256
 10
-78.573488999999995
 20
91.587300999999997
 11
-125.844815999999990
 21
91.587300999999997
  0
LINE
  8
0
  6
CONTINUOUS
 62
256
 10
-125.844815999999990
 20
91.587300999999997
 11
-125.844815999999990
 21
96.587698000000003
  0
LINE
  8
0
  6
CONTINUOUS
 62
256
 10
46.155183999999998
 20
198.587301000000000
 11
40.864949000000003
 21
198.587301000000000
  0
LINE
  8
0
  6
CONTINUOUS
 62
256
 10
67.155184000000006
 20
214.070243000000000
 11
52.206555999999999
 21
214.326258999999990
  0
LINE
  8
0
  6
CONTINUOUS
 62
256
 10
67.155184000000006
 20
95.105153999999999
 11
52.206555999999999
 21
94.849137999999996
  0
ARC
  8
0
  6
CONTINUOUS
 62
256
 10
39.259090000000000
 20
108.587698000000000
 40
2.000000000000000
 50
90.000000000000000
 51
178.999999999999860
  0
ARC
  8
0
  6
CONTINUOUS
 62
256
 10
40.864949000000003
 20
200.587301000000000
 40
1.999999999999998
 50
178.999999999999860
 51
270.000000000000000
  0
LINE
  8
0
  6
DASHDOT
 62
256
 10
-78.344815999999994
 20
231.303441999999990
 11
-78.344815999999994
 21
29.946836000000001
  0
LINE
  8
0
  6
CONTINUOUS
 62
256
 10
67.155184000000006
 20
174.587697999999990
 11
60.155183999999998
 21
174.587697999999990
  0
LINE
  8
0
  6
CONTINUOUS
 62
256
 10
67.155184000000006
 20
134.587697999999990
 11
60.155183999999998
 21
134.587697999999990
  0
LINE
  8
0
  6
CONTINUOUS
 62
256
 10
57.155183999999998
 20
206.684006000000010
 11
52.155183999999998
 21
206.684006000000010
  0
LINE
  8
0
  6
CONTINUOUS
 62
256
 10
57.155183999999998
 20
199.772430000000010
 11
52.155183999999998
 21
199.772430000000010
  0
LINE
  8
0
  6
CONTINUOUS
 62
256
 10
57.155183999999998
 20
109.402967000000000
 11
52.155183999999998
 21
109.402967000000000
  0
LINE
  8
0
  6
CONTINUOUS
 62
256
 10
57.155183999999998
 20
102.491390999999990
 11
52.155183999999998
 21
102.491390999999990
  0
LINE
  8
0
  6
CONTINUOUS
 62
256
 10
60.155183999999998
 20
99.087698000000003
 11
60.155183999999998
 21
98.087698000000003
  0
LINE
  8
0
  6
CONTINUOUS
 62
256
 10
57.155183999999998
 20
115.586432000000000
 11
52.155183999999998
 21
115.586432000000000
  0
LINE
  8
0
  6
CONTINUOUS
 62
256
 10
60.155183999999998
 20
112.402967000000000
 11
60.155183999999998
 21
154.587697999999990
  0
LINE
  8
0
  6
CONTINUOUS
 62
256
 10
60.155183999999998
 20
99.087698000000003
 11
60.155183999999998
 21
99.491390999999993
  0
LINE
  8
0
  6
CONTINUOUS
 62
256
 10
60.155183999999998
 20
210.087697999999990
 11
60.155183999999998
 21
211.087697999999990
  0
LINE
  8
0
  6
CONTINUOUS
 62
256
 10
60.155183999999998
 20
210.087697999999990
 11
60.155183999999998
 21
209.684006000000010
  0
LINE
  8
0
  6
CONTINUOUS
 62
256
 10
60.155183999999998
 20
210.087697999999990
 11
60.155183999999998
 21
209.684006000000010
  0
LINE
  8
0
  6
CONTINUOUS
 62
256
 10
57.155183999999998
 20
193.588965000000000
 11
52.155183999999998
 21
193.588965000000000
  0
LINE
  8
0
  6
CONTINUOUS
 62
256
 10
60.155183999999998
 20
196.772430000000010
 11
60.155183999999998
 21
154.587697999999990
  0
ARC
  8
0
  6
CONTINUOUS
 62
256
 10
57.155183999999998
 20
99.491390999999993
 40
3.000000000000000
 50
0.000000000000000
 51
90.000000000000000
  0
ARC
  8
0
  6
CONTINUOUS
 62
256
 10
57.155183999999998
 20
112.402967000000000
 40
3.000000000000000
 50
270.000000000000000
 51
0.000000000000000
  0
ARC
  8
0
  6
CONTINUOUS
 62
256
 10
57.155183999999998
 20
118.586432000000000
 40
3.000000000000000
 50
270.000000000000000
 51
0.000000000000000
  0
ARC
  8
0
  6
CONTINUOUS
 62
256
 10
63.155184000000006
 20
98.087698000000003
 40
3.000000000000000
 50
180.000000000000000
 51
270.000000000000000
  0
ARC
  8
0
  6
CONTINUOUS
 62
256
 10
63.155184000000006
 20
211.087697999999990
 40
3.000000000000000
 50
90.000000000000000
 51
180.000000000000000
  0
ARC
  8
0
  6
CONTINUOUS
 62
256
 10
57.155183999999998
 20
196.772430000000010
 40
3.000000000000000
 50
0.000000000000000
 51
90.000000000000000
  0
ARC
  8
0
  6
CONTINUOUS
 62
256
 10
57.155183999999998
 20
209.684006000000010
 40
3.000000000000000
 50
270.000000000000000
 51
0.000000000000000
  0
ARC
  8
0
  6
CONTINUOUS
 62
256
 10
57.155183999999998
 20
190.588965000000000
 40
3.000000000000000
 50
0.000000000000000
 51
90.000000000000000
  0
ARC
  8
0
  6
CONTINUOUS
 62
256
 10
52.155183999999998
 20
97.848697999999999
 40
3.000000000000000
 50
180.000000000000000
 51
270.981172999999960
  0
ARC
  8
0
  6
CONTINUOUS
 62
256
 10
52.155183999999998
 20
211.326698999999990
 40
2.999999999999992
 50
89.018827000000030
 51
180.000000000000000
  0
ARC
  8
0
  6
CONTINUOUS
 62
256
 10
52.155183999999998
 20
203.684006000000010
 40
3.000000000000000
 50
90.000000000000000
 51
180.000000000000000
  0
ARC
  8
0
  6
CONTINUOUS
 62
256
 10
52.155183999999998
 20
196.772430000000010
 40
3.000000000000000
 50
90.000000000000000
 51
180.000000000000000
  0
ARC
  8
0
  6
CONTINUOUS
 62
256
 10
52.155183999999998
 20
105.491390999999990
 40
3.000000000000000
 50
180.000000000000000
 51
270.000000000000000
  0
ARC
  8
0
  6
CONTINUOUS
 62
256
 10
52.155183999999998
 20
112.402967000000000
 40
3.000000000000000
 50
180.000000000000000
 51
270.000000000000000
  0
ARC
  8
0
  6
CONTINUOUS
 62
256
 10
46.155183999999998
 20
201.587301000000000
 40
3.000000000000000
 50
270.000000000000000
 51
0.000000000000000
  0
LINE
  8
0
  6
CONTINUOUS
 62
256
 10
39.259090000000000
 20
110.587698000000000
 11
46.155183999999998
 21
110.587698000000000
  0
ARC
  8
0
  6
CONTINUOUS
 62
256
 10
46.155183999999998
 20
107.587698000000000
 40
3.000000000000000
 50
0.000000000000000
 51
90.000000000000000
  0
LINE
  8
0
  6
CONTINUOUS
 62
256
 10
49.155183999999998
 20
211.326698999999990
 11
49.155183999999998
 21
97.848697999999999
  0
LINE
  8
0
  6
CONTINUOUS
 62
256
 10
-62.143918999999997
 20
96.587698000000003
 11
-148.485845000000010
 21
96.587698000000003
  0
LINE
  8
0
  6
CONTINUOUS
 62
256
 10
-62.143918999999997
 20
200.587697999999990
 11
-150.135347999999990
 21
200.587697999999990
  0
LINE
  8
0
  6
CONTINUOUS
 62
256
 10
-62.143918999999997
 20
212.588096000000010
 11
-149.425957000000010
 21
212.588096000000010
  0
LINE
  8
0
  6
CONTINUOUS
 62
256
 10
-62.143918999999997
 20
212.588096000000010
 11
38.655183999999998
 21
212.588096000000010
  0
LINE
  8
0
  6
CONTINUOUS
 62
256
 10
38.864652000000000
 20
200.587697999999990
 11
-62.143918999999997
 21
200.587697999999990
  0
LINE
  8
0
  6
CONTINUOUS
 62
256
 10
37.215147999999999
 20
96.587698000000003
 11
-62.143918999999997
 21
96.587698000000003
  0
LINE
  8
0
  6
CONTINUOUS
 62
256
 10
-150.135347999999990
 20
200.587697999999990
 11
-148.485845000000010
 21
106.087698000000000
  0
LINE
  8
0
  6
CONTINUOUS
 62
256
 10
-148.485845000000010
 20
106.087698000000000
 11
-148.485845000000010
 21
96.587698000000003
  0
LINE
  8
0
  6
CONTINUOUS
 62
256
 10
-149.934605000000000
 20
212.088247999999990
 11
-150.135347999999990
 21
200.587697999999990
  0
LINE
  8
0
  6
CONTINUOUS
 62
256
 10
38.864652000000000
 20
200.587697999999990
 11
37.215147999999999
 21
106.087698000000000
  0
LINE
  8
0
  6
CONTINUOUS
 62
256
 10
37.215147999999999
 20
106.087698000000000
 11
37.215147999999999
 21
96.587698000000003
  0
LINE
  8
0
  6
CONTINUOUS
 62
256
 10
38.655183999999998
 20
212.588096000000010
 11
38.864652000000000
 21
200.587697999999990
  0
LINE
  8
0
  6
CONTINUOUS
 62
256
 10
-78.344815999999994
 20
217.588096000000010
 11
-30.844816000000002
 21
217.588096000000010
  0
LINE
  8
0
  6
CONTINUOUS
 62
256
 10
-149.425957000000010
 20
212.588096000000010
 11
-149.934605000000000
 21
212.088247999999990
  0
LINE
  8
0
  6
CONTINUOUS
 62
256
 10
67.155184000000006
 20
154.587697999999990
 11
67.155184000000006
 21
214.087697999999990
  0
LINE
  8
0
  6
CONTINUOUS
 62
256
 10
67.155184000000006
 20
154.587697999999990
 11
67.155184000000006
 21
95.087698000000003
  0
CIRCLE
  8
0
  6
CONTINUOUS
 62
256
 10
-135.345048999999990
 20
-47.687305000000002
 40
5.052999999999997
  0
CIRCLE
  8
0
  6
CONTINUOUS
 62
256
 10
-135.345048999999990
 20
-47.687305000000002
 40
6.000000000000000
  0
CIRCLE
  8
0
  6
CONTINUOUS
 62
256
 10
23.654951000000001
 20
-47.687305000000002
 40
6.000000000000000
  0
CIRCLE
  8
0
  6
CONTINUOUS
 62
256
 10
23.654951000000001
 20
-47.687305000000002
 40
5.053000000000001
  0
CIRCLE
  8
0
  6
CONTINUOUS
 62
256
 10
23.654951000000001
 20
-193.687305000000010
 40
6.000000000000000
  0
CIRCLE
  8
0
  6
CONTINUOUS
 62
256
 10
23.654951000000001
 20
-193.687305000000010
 40
5.053000000000001
  0
CIRCLE
  8
0
  6
CONTINUOUS
 62
256
 10
-135.345048999999990
 20
-193.687305000000010
 40
6.000000000000000
  0
CIRCLE
  8
0
  6
CONTINUOUS
 62
256
 10
-135.345048999999990
 20
-193.687305000000010
 40
5.052999999999997
  0
ENDSEC
  0
EOF
